  0
SECTION
  2
HEADER
  9
$ACADVER
  1
AC1009
  9
$INSBASE
 10
0.0
 20
0.0
 30
0.0
  9
$EXTMIN
 10
-1700.1098548994751
 20
-2544.9649194927611
 30
-0.0015258207003583
  9
$EXTMAX
 10
1900.10987166328
 20
2807.30232738021
 30
0.0000000349246037
  9
$LIMMIN
 10
0.0
 20
0.0
  9
$LIMMAX
 10
12.0
 20
9.0
  9
$ORTHOMODE
 70
     0
  9
$REGENMODE
 70
     1
  9
$FILLMODE
 70
     1
  9
$QTEXTMODE
 70
     0
  9
$MIRRTEXT
 70
     1
  9
$DRAGMODE
 70
     2
  9
$LTSCALE
 40
101.59999999999999
  9
$OSMODE
 70
   231
  9
$ATTMODE
 70
     1
  9
$TEXTSIZE
 40
0.2
  9
$TRACEWID
 40
1.0
  9
$TEXTSTYLE
  7
STANDARD
  9
$CLAYER
  8
DATA
  9
$CELTYPE
  6
BYLAYER
  9
$CECOLOR
 62
   256
  9
$DIMSCALE
 40
1.0
  9
$DIMASZ
 40
0.18
  9
$DIMEXO
 40
0.0625
  9
$DIMDLI
 40
0.38
  9
$DIMRND
 40
0.0
  9
$DIMDLE
 40
0.0
  9
$DIMEXE
 40
0.18
  9
$DIMTP
 40
0.0
  9
$DIMTM
 40
0.0
  9
$DIMTXT
 40
0.18
  9
$DIMCEN
 40
0.09
  9
$DIMTSZ
 40
0.0
  9
$DIMTOL
 70
     0
  9
$DIMLIM
 70
     0
  9
$DIMTIH
 70
     1
  9
$DIMTOH
 70
     1
  9
$DIMSE1
 70
     0
  9
$DIMSE2
 70
     0
  9
$DIMTAD
 70
     0
  9
$DIMZIN
 70
     0
  9
$DIMBLK
  1

  9
$DIMASO
 70
     1
  9
$DIMSHO
 70
     1
  9
$DIMPOST
  1

  9
$DIMAPOST
  1

  9
$DIMALT
 70
     0
  9
$DIMALTD
 70
     2
  9
$DIMALTF
 40
25.399999999999999
  9
$DIMLFAC
 40
1.0
  9
$DIMTOFL
 70
     0
  9
$DIMTVP
 40
0.0
  9
$DIMTIX
 70
     0
  9
$DIMSOXD
 70
     0
  9
$DIMSAH
 70
     0
  9
$DIMBLK1
  1

  9
$DIMBLK2
  1

  9
$DIMSTYLE
  2
STANDARD
  9
$DIMCLRD
 70
     0
  9
$DIMCLRE
 70
     0
  9
$DIMCLRT
 70
     0
  9
$DIMTFAC
 40
1.0
  9
$DIMGAP
 40
0.09
  9
$LUNITS
 70
     2
  9
$LUPREC
 70
     4
  9
$SKETCHINC
 40
0.1
  9
$FILLETRAD
 40
0.5
  9
$AUNITS
 70
     0
  9
$AUPREC
 70
     0
  9
$MENU
  1
.
  9
$ELEVATION
 40
0.0
  9
$PELEVATION
 40
0.0
  9
$THICKNESS
 40
0.0
  9
$LIMCHECK
 70
     0
  9
$BLIPMODE
 70
     0
  9
$CHAMFERA
 40
0.5
  9
$CHAMFERB
 40
0.5
  9
$SKPOLY
 70
     0
  9
$TDCREATE
 40
2455861.6116605671
  9
$TDUPDATE
 40
2455861.741106817
  9
$TDINDWG
 40
0.0002802778
  9
$TDUSRTIMER
 40
0.0002800926
  9
$USRTIMER
 70
     1
  9
$ANGBASE
 50
0.0
  9
$ANGDIR
 70
     0
  9
$PDMODE
 70
     1
  9
$PDSIZE
 40
-2.0
  9
$PLINEWID
 40
0.0
  9
$COORDS
 70
     2
  9
$SPLFRAME
 70
     0
  9
$SPLINETYPE
 70
     6
  9
$SPLINESEGS
 70
     8
  9
$ATTDIA
 70
     0
  9
$ATTREQ
 70
     1
  9
$HANDLING
 70
     1
  9
$HANDSEED
  5
740
  9
$SURFTAB1
 70
     6
  9
$SURFTAB2
 70
     6
  9
$SURFTYPE
 70
     6
  9
$SURFU
 70
     6
  9
$SURFV
 70
     6
  9
$UCSNAME
  2

  9
$UCSORG
 10
0.0
 20
0.0
 30
0.0
  9
$UCSXDIR
 10
1.0
 20
0.0
 30
0.0
  9
$UCSYDIR
 10
0.0
 20
1.0
 30
0.0
  9
$PUCSNAME
  2

  9
$PUCSORG
 10
0.0
 20
0.0
 30
0.0
  9
$PUCSXDIR
 10
1.0
 20
0.0
 30
0.0
  9
$PUCSYDIR
 10
0.0
 20
1.0
 30
0.0
  9
$USERI1
 70
     0
  9
$USERI2
 70
     0
  9
$USERI3
 70
     0
  9
$USERI4
 70
     0
  9
$USERI5
 70
     0
  9
$USERR1
 40
0.0
  9
$USERR2
 40
0.0
  9
$USERR3
 40
0.0
  9
$USERR4
 40
0.0
  9
$USERR5
 40
0.0
  9
$WORLDVIEW
 70
     1
  9
$SHADEDGE
 70
     3
  9
$SHADEDIF
 70
    70
  9
$TILEMODE
 70
     1
  9
$MAXACTVP
 70
    64
  9
$PLIMCHECK
 70
     0
  9
$PEXTMIN
 10
1.0000000000000000E+020
 20
1.0000000000000000E+020
 30
1.0000000000000000E+020
  9
$PEXTMAX
 10
-1.0000000000000000E+020
 20
-1.0000000000000000E+020
 30
-1.0000000000000000E+020
  9
$PLIMMIN
 10
-20.0
 20
-7.5
  9
$PLIMMAX
 10
277.0
 20
202.5
  9
$UNITMODE
 70
     0
  9
$VISRETAIN
 70
     1
  9
$PLINEGEN
 70
     0
  9
$PSLTSCALE
 70
     1
  0
ENDSEC
  0
SECTION
  2
TABLES
  0
TABLE
  2
VPORT
 70
     1
  0
VPORT
  2
*ACTIVE
 70
     0
 10
0.0
 20
0.0
 11
1.0
 21
1.0
 12
100.0000083819027
 22
131.16870394372469
 13
0.0
 23
0.0
 14
0.5
 24
0.5
 15
0.5
 25
0.5
 16
0.0
 26
0.0
 36
1.0
 17
0.0
 27
0.0
 37
0.0
 40
5394.1363518028766
 41
2.1540469973890342
 42
2000.0
 43
0.0
 44
0.0
 50
0.0
 51
0.0
 71
     0
 72
   100
 73
     1
 74
     3
 75
     0
 76
     0
 77
     0
 78
     0
  0
ENDTAB
  0
TABLE
  2
LTYPE
 70
    11
  0
LTYPE
  2
CONTINUOUS
 70
     0
  3
Solid line
 72
    65
 73
     0
 40
0.0
  0
ENDTAB
  0
TABLE
  2
LAYER
 70
     6
  0
LAYER
  2
0
 70
     0
 62
     7
  6
CONTINUOUS
  0
LAYER
  2
DATA
 70
     0
 62
     7
  6
CONTINUOUS
  0
LAYER
  2
HIBINO-BASE
 70
     0
 62
     7
  6
CONTINUOUS
  0
LAYER
  2
SPEC
 70
     0
 62
     7
  6
CONTINUOUS
  0
LAYER
  2
DIMNSIONS
 70
     0
 62
     7
  6
CONTINUOUS
  0
ENDTAB
  0
TABLE
  2
STYLE
 70
     3
  0
STYLE
  2
STANDARD
 70
     0
 40
0.0
 41
1.0
 50
0.0
 71
     0
 42
0.2
  3
txt
  4
BIGFONT.SHX
  0
ENDTAB
  0
TABLE
  2
VIEW
 70
     0
  0
ENDTAB
  0
TABLE
  2
UCS
 70
     0
  0
ENDTAB
  0
TABLE
  2
APPID
 70
     4
  0
APPID
  2
ACAD
 70
     0
  0
APPID
  2
ACADANNOTATIVE
 70
     0
  0
APPID
  2
ACAD_NAV_VCDISPLAY
 70
     0
  0
APPID
  2
ACAD_MLEADERVER
 70
     0
  0
ENDTAB
  0
TABLE
  2
DIMSTYLE
 70
     2
  0
DIMSTYLE
  2
STANDARD
 70
     0
  3

  4

  5

  6

  7

 40
1.0
 41
0.18
 42
0.0625
 43
0.38
 44
0.18
 45
0.0
 46
0.0
 47
0.0
 48
0.0
140
0.18
141
0.09
142
0.0
143
25.399999999999999
144
1.0
145
0.0
146
1.0
147
0.09
 71
     0
 72
     0
 73
     1
 74
     1
 75
     0
 76
     0
 77
     0
 78
     0
170
     0
171
     2
172
     0
173
     0
174
     0
175
     0
176
     0
177
     0
178
     0
  0
ENDTAB
  0
ENDSEC
  0
SECTION
  2
BLOCKS
  0
BLOCK
  8
0
  2
$MODEL_SPACE
 70
     0
 10
0.0
 20
0.0
 30
0.0
  3
$MODEL_SPACE
  1

  0
ENDBLK
  5
66F
  8
0
  0
BLOCK
 67
     1
  8
0
  2
$PAPER_SPACE
 70
     0
 10
0.0
 20
0.0
 30
0.0
  3
$PAPER_SPACE
  1

  0
ENDBLK
  5
66B
 67
     1
  8
0
  0
ENDSEC
  0
SECTION
  2
ENTITIES
  0
LINE
  5
50
  8
HIBINO-BASE
  6
CONTINUOUS
 62
     7
 10
-1700.0
 20
2807.1393100024511
 30
0.0
 11
1900.0
 21
2807.1393100024511
 31
0.0
  0
LINE
  5
51
  8
HIBINO-BASE
  6
CONTINUOUS
 62
     7
 10
1900.0
 20
-2392.860689997548
 30
0.0
 11
-1700.0
 21
-2392.860689997548
 31
0.0
  0
LINE
  5
52
  8
HIBINO-BASE
  6
CONTINUOUS
 62
     7
 10
-1700.0
 20
-2392.860689997548
 30
0.0
 11
-1700.0
 21
2807.1393100024511
 31
0.0
  0
LINE
  5
53
  8
HIBINO-BASE
  6
CONTINUOUS
 62
     7
 10
1900.0
 20
2807.1393100024511
 30
0.0
 11
1900.0
 21
-2392.860689997548
 31
0.0
  0
LINE
  5
54
  8
HIBINO-BASE
  6
CONTINUOUS
 62
     7
 10
100.0
 20
-1942.860689997548
 30
0.0
 11
1900.0
 21
-1942.860689997548
 31
0.0
  0
LINE
  5
55
  8
HIBINO-BASE
  6
CONTINUOUS
 62
     7
 10
100.0
 20
-2392.860689997548
 30
0.0
 11
100.0
 21
-1942.860689997548
 31
0.0
  0
TEXT
  5
56
  8
HIBINO-BASE
 62
     7
 10
118.0
 20
-1993.034556664215
 30
0.0
 40
32.576822916666657
  1
NOTE
 41
0.7
 11
118.0
 21
-1960.457733747548
 31
0.0
 73
     3
  0
LINE
  5
57
  8
HIBINO-BASE
  6
CONTINUOUS
 62
     7
 10
800.0
 20
-2392.860689997548
 30
0.0
 11
800.0
 21
-1942.860689997548
 31
0.0
  0
TEXT
  5
58
  8
HIBINO-BASE
 62
     7
 10
818.0
 20
-1993.034556664215
 30
0.0
 40
32.576822916666657
  1
TITLE
 41
0.7
 11
818.0
 21
-1960.457733747548
 31
0.0
 73
     3
  0
LINE
  5
59
  8
HIBINO-BASE
  6
CONTINUOUS
 62
     7
 10
100.0
 20
-2192.860689997548
 30
0.0
 11
1900.0
 21
-2192.860689997548
 31
0.0
  0
TEXT
  5
5A
  8
HIBINO-BASE
 62
     7
 10
1068.0
 20
-2241.9081566642139
 30
0.0
 40
32.576822916666657
  1
DRAWN
 41
0.7
 11
1068.0
 21
-2209.331333747547
 31
0.0
 73
     3
  0
TEXT
  5
5B
  8
HIBINO-BASE
 62
     7
 10
568.0
 20
-2241.9081566642139
 30
0.0
 40
32.576822916666657
  1
DATE
 41
0.7
 11
568.0
 21
-2209.331333747547
 31
0.0
 73
     3
  0
TEXT
  5
5C
  8
HIBINO-BASE
 62
     7
 10
368.0
 20
-2241.9081566642139
 30
0.0
 40
32.576822916666657
  1
SCALE
 41
0.7
 11
368.0
 21
-2209.331333747547
 31
0.0
 73
     3
  0
TEXT
  5
5D
  8
HIBINO-BASE
 62
     7
 10
818.0
 20
-2241.9081566642139
 30
0.0
 40
32.576822916666657
  1
DESIGN
 41
0.7
 11
818.0
 21
-2209.331333747547
 31
0.0
 73
     3
  0
TEXT
  5
5E
  8
HIBINO-BASE
 62
     7
 10
1568.0
 20
-2241.9081566642139
 30
0.0
 40
32.576822916666657
  1
DRAWING NO.
 41
0.7
 11
1568.0
 21
-2209.331333747547
 31
0.0
 73
     3
  0
TEXT
  5
5F
  8
HIBINO-BASE
 62
     7
 10
1318.0
 20
-2241.9081566642139
 30
0.0
 40
32.576822916666657
  1
CHECK
 41
0.7
 11
1318.0
 21
-2209.331333747547
 31
0.0
 73
     3
  0
LINE
  5
60
  8
HIBINO-BASE
  6
CONTINUOUS
 62
     7
 10
387.49999999999977
 20
-2367.860689997548
 30
0.0
 11
462.5
 21
-2292.860689997548
 31
0.0
  0
TEXT
  5
61
  8
HIBINO-BASE
 62
     7
 10
374.99999999999977
 20
-2315.0395566642151
 30
0.0
 40
32.576822916666657
  1
1
 41
0.7
 11
374.99999999999977
 21
-2282.4627337475481
 31
0.0
 73
     3
  0
LINE
  5
62
  8
HIBINO-BASE
  6
CONTINUOUS
 62
     7
 10
349.99999999999977
 20
-2392.860689997548
 30
0.0
 11
349.99999999999977
 21
-2192.860689997548
 31
0.0
  0
LINE
  5
63
  8
HIBINO-BASE
  6
CONTINUOUS
 62
     7
 10
549.99999999999989
 20
-2392.860689997548
 30
0.0
 11
549.99999999999989
 21
-2192.860689997548
 31
0.0
  0
LINE
  5
64
  8
HIBINO-BASE
  6
CONTINUOUS
 62
     7
 10
1050.0
 20
-2192.860689997548
 30
0.0
 11
1050.0
 21
-2392.860689997548
 31
0.0
  0
LINE
  5
65
  8
HIBINO-BASE
  6
CONTINUOUS
 62
     7
 10
1550.0
 20
-2192.860689997548
 30
0.0
 11
1550.0
 21
-2392.860689997548
 31
0.0
  0
LINE
  5
66
  8
HIBINO-BASE
  6
CONTINUOUS
 62
     7
 10
1300.0
 20
-2392.860689997548
 30
0.0
 11
1300.0
 21
-2192.860689997548
 31
0.0
  0
TEXT
  5
67
  8
HIBINO-BASE
 62
     7
 10
567.13079999999979
 20
-2335.5877566642139
 30
0.0
 40
32.576822916666657
  1
'11.05.
 41
0.7
 11
567.13079999999979
 21
-2303.0109337475478
 31
0.0
 73
     3
  0
TEXT
  5
68
  8
HIBINO-BASE
 62
     7
 10
450.0
 20
-2352.5395566642151
 30
0.0
 40
32.576822916666657
  1
20
 41
0.7
 11
450.0
 21
-2319.9627337475481
 31
0.0
 73
     3
  0
TEXT
  5
69
  8
HIBINO-BASE
 62
     7
 10
1080.116200220692
 20
-2335.5877566642139
 30
0.0
 40
32.576822916666657
  1
T.Ootake
 41
0.7
 11
1080.116200220692
 21
-2303.0109337475478
 31
0.0
 73
     3
  0
TEXT
  5
6A
  8
HIBINO-BASE
 62
     7
 10
177.666666666667
 20
-2353.3406899975489
 30
0.0
 40
65.153645833333329
  1
A4
 41
0.7
 11
177.666666666667
 21
-2288.187044164215
 31
0.0
 73
     3
  0
TEXT
  5
6B
  8
HIBINO-BASE
 62
     7
 10
119.1666666666666
 20
-2245.2497899975469
 30
0.0
 40
32.576822916666657
  1
PAPER SIZE
 41
0.7
 11
119.1666666666666
 21
-2212.6729670808809
 31
0.0
 73
     3
  0
TEXT
  5
6C
  8
HIBINO-BASE
 62
     7
 10
-1644.8072948621959
 20
-2521.3654946810739
 30
0.0
 40
70.583116319444443
  1
Hibino-Intersound Corporation
 41
0.7
 11
-1644.8072948621959
 21
-2450.7823783616291
 31
0.0
 73
     3
  0
TEXT
  5
6D
  8
HIBINO-BASE
 62
     7
 10
503.61219360427799
 20
-2514.3437296152838
 30
0.0
 40
70.583116319444443
  1
ヒビノインターサウンド株式会社
 41
0.7
 11
503.61219360427799
 21
-2443.7606132958399
 31
0.0
 73
     3
  0
LINE
  5
6E
  8
SPEC
  6
CONTINUOUS
 62
     7
 10
-1550.0
 20
2607.139310002452
 30
0.0
 11
1400.0
 21
2607.139310002452
 31
0.0
  0
LINE
  5
6F
  8
SPEC
  6
CONTINUOUS
 62
     7
 10
-1550.0
 20
2532.139310002452
 30
0.0
 11
1400.0
 21
2532.139310002452
 31
0.0
  0
LINE
  5
70
  8
SPEC
  6
CONTINUOUS
 62
     7
 10
-1550.0
 20
2382.139310002452
 30
0.0
 11
1400.0
 21
2382.139310002452
 31
0.0
  0
LINE
  5
71
  8
SPEC
  6
CONTINUOUS
 62
     7
 10
-1550.0
 20
2457.139310002452
 30
0.0
 11
1400.0
 21
2457.139310002452
 31
0.0
  0
LINE
  5
72
  8
SPEC
  6
CONTINUOUS
 62
     7
 10
-1550.0
 20
2607.139310002452
 30
0.0
 11
-1550.0
 21
1557.139310002452
 31
0.0
  0
TEXT
  5
73
  8
SPEC
 62
     7
 10
-1525.0
 20
2635.0047100024522
 30
0.0
 40
48.865234375000007
  1
仕様
 41
0.7
 11
-1525.0
 21
2683.8699443774522
 31
0.0
 73
     3
  0
LINE
  5
74
  8
SPEC
  6
CONTINUOUS
 62
     7
 10
-899.99999999999977
 20
2607.139310002452
 30
0.0
 11
-899.99999999999977
 21
1557.139310002452
 31
0.0
  0
LINE
  5
75
  8
SPEC
  6
CONTINUOUS
 62
     7
 10
1400.0
 20
2607.139310002452
 30
0.0
 11
1400.0
 21
1557.139310002452
 31
0.0
  0
LINE
  5
76
  8
SPEC
  6
CONTINUOUS
 62
     7
 10
-1550.0
 20
2307.139310002452
 30
0.0
 11
1400.0
 21
2307.139310002452
 31
0.0
  0
LINE
  5
77
  8
SPEC
  6
CONTINUOUS
 62
     7
 10
-1550.0
 20
2232.139310002452
 30
0.0
 11
1400.0
 21
2232.139310002452
 31
0.0
  0
LINE
  5
78
  8
SPEC
  6
CONTINUOUS
 62
     7
 10
-899.99999999999977
 20
2157.139310002452
 30
0.0
 11
1400.0
 21
2157.139310002452
 31
0.0
  0
LINE
  5
79
  8
SPEC
  6
CONTINUOUS
 62
     7
 10
-1550.0
 20
2082.139310002452
 30
0.0
 11
1400.0
 21
2082.139310002452
 31
0.0
  0
LINE
  5
7A
  8
SPEC
  6
CONTINUOUS
 62
     7
 10
-1550.0
 20
2007.139310002452
 30
0.0
 11
1400.0
 21
2007.139310002452
 31
0.0
  0
LINE
  5
7B
  8
SPEC
  6
CONTINUOUS
 62
     7
 10
-1550.0
 20
1932.139310002452
 30
0.0
 11
1400.0
 21
1932.139310002452
 31
0.0
  0
LINE
  5
7C
  8
SPEC
  6
CONTINUOUS
 62
     7
 10
-1550.0
 20
1857.139310002452
 30
0.0
 11
1400.0
 21
1857.139310002452
 31
0.0
  0
LINE
  5
7D
  8
SPEC
  6
CONTINUOUS
 62
     7
 10
-1550.0
 20
1782.139310002452
 30
0.0
 11
1400.0
 21
1782.139310002452
 31
0.0
  0
LINE
  5
7E
  8
SPEC
  6
CONTINUOUS
 62
     7
 10
-1550.0
 20
1707.139310002452
 30
0.0
 11
1400.0
 21
1707.139310002452
 31
0.0
  0
LINE
  5
7F
  8
SPEC
  6
CONTINUOUS
 62
     7
 10
-1550.0
 20
1632.139310002452
 30
0.0
 11
1400.0
 21
1632.139310002452
 31
0.0
  0
TEXT
  5
80
  8
SPEC
 62
     7
 10
-1534.6364688739459
 20
1798.5921170437571
 30
0.0
 40
38.006293402777793
  1
エンクロージャー
 41
0.7
 11
-1534.6364688739459
 21
1836.5984104465349
 31
0.0
 73
     3
  0
TEXT
  5
81
  8
SPEC
 62
     7
 10
-881.63750793252291
 20
1648.9524537080169
 30
0.0
 40
38.006293402777793
  1
592(W)\U+00D7500(H)\U+00D7700(D)mm(突起部含まず）
 41
0.7
 11
-881.63750793252291
 21
1686.958747110795
 31
0.0
 73
     3
  0
TEXT
  5
82
  8
SPEC
 62
     7
 10
-881.58130221750241
 20
1725.1837839026041
 30
0.0
 40
38.006293402777793
  1
黒
 41
0.7
 11
-881.58130221750241
 21
1763.1900773053819
 31
0.0
 73
     3
  0
TEXT
  5
83
  8
SPEC
 62
     7
 10
-1532.114895109027
 20
1726.1478206954821
 30
0.0
 40
38.006293402777793
  1
仕上げ
 41
0.7
 11
-1532.114895109027
 21
1764.1541140982599
 31
0.0
 73
     3
  0
TEXT
  5
84
  8
SPEC
 62
     7
 10
-1531.974898515565
 20
1950.9000968407761
 30
0.0
 40
38.006293402777793
  1
入力コネクター
 41
0.7
 11
-1531.974898515565
 21
1988.9063902435539
 31
0.0
 73
     3
  0
TEXT
  5
85
  8
SPEC
 62
     7
 10
-880.94543827478583
 20
1948.4578473987999
 30
0.0
 40
38.006293402777793
  1
2\U+00D7Neutrik NL4MP
 41
0.7
 11
-880.94543827478583
 21
1986.464140801578
 31
0.0
 73
     3
  0
TEXT
  5
86
  8
SPEC
 62
     7
 10
-1533.380416990032
 20
2024.4211029931939
 30
0.0
 40
38.006293402777793
  1
公称インピーダンス
 41
0.7
 11
-1533.380416990032
 21
2062.4273963959722
 31
0.0
 73
     3
  0
TEXT
  5
87
  8
SPEC
 62
     7
 10
-881.62570894679402
 20
2025.0499779577001
 30
0.0
 40
38.006293402777793
  1
8\U+03A9
 41
0.7
 11
-881.62570894679402
 21
2063.0562713604781
 31
0.0
 73
     3
  0
TEXT
  5
88
  8
SPEC
 62
     7
 10
-1533.4024568598679
 20
2549.2913751872102
 30
0.0
 40
38.006293402777793
  1
形式
 41
0.7
 11
-1533.4024568598679
 21
2587.297668589988
 31
0.0
 73
     3
  0
TEXT
  5
89
  8
SPEC
 62
     7
 10
-1532.267833238516
 20
2475.3332166661721
 30
0.0
 40
38.006293402777793
  1
周波数特性
 41
0.7
 11
-1532.267833238516
 21
2513.3395100689499
 31
0.0
 73
     3
  0
TEXT
  5
8A
  8
SPEC
 62
     7
 10
-1532.995656332409
 20
2400.8365810287951
 30
0.0
 40
38.006293402777793
  1
許容入力(AES/ピーク）
 41
0.7
 11
-1532.995656332409
 21
2438.8428744315729
 31
0.0
 73
     3
  0
TEXT
  5
8B
  8
SPEC
 62
     7
 10
-1532.709214668077
 20
2325.4147356905291
 30
0.0
 40
38.006293402777793
  1
感度(1W/1m)
 41
0.7
 11
-1532.709214668077
 21
2363.421029093307
 31
0.0
 73
     3
  0
TEXT
  5
8C
  8
SPEC
 62
     7
 10
-1531.496850276329
 20
2249.7924751316841
 30
0.0
 40
38.006293402777793
  1
最大音圧
 41
0.7
 11
-1531.496850276329
 21
2287.798768534461
 31
0.0
 73
     3
  0
TEXT
  5
8D
  8
SPEC
 62
     7
 10
-1547.4862922259231
 20
2175.340776983146
 30
0.0
 40
38.006293402777793
  1
ドライバー構成
 41
0.7
 11
-1547.4862922259231
 21
2213.3470703859239
 31
0.0
 73
     3
  0
TEXT
  5
8E
  8
SPEC
 62
     7
 10
-1533.6184090582769
 20
1651.9456988184791
 30
0.0
 40
38.006293402777793
  1
寸法
 41
0.7
 11
-1533.6184090582769
 21
1689.9519922212569
 31
0.0
 73
     3
  0
TEXT
  5
8F
  8
SPEC
 62
     7
 10
-882.54538963923164
 20
1577.370407330385
 30
0.0
 40
38.006293402777793
  1
約48kg
 41
0.7
 11
-882.54538963923164
 21
1615.376700733163
 31
0.0
 73
     3
  0
TEXT
  5
90
  8
SPEC
 62
     7
 10
-1533.513081242467
 20
1577.2230742214149
 30
0.0
 40
38.006293402777793
  1
重量
 41
0.7
 11
-1533.513081242467
 21
1615.2293676241929
 31
0.0
 73
     3
  0
TEXT
  5
91
  8
SPEC
 62
     7
 10
-881.60338857017109
 20
2473.3173098884909
 30
0.0
 40
38.006293402777793
  1
30Hz～120Hz
 41
0.7
 11
-881.60338857017109
 21
2511.3236032912691
 31
0.0
 73
     3
  0
TEXT
  5
92
  8
SPEC
 62
     7
 10
-884.66254915956608
 20
2399.7276956564492
 30
0.0
 40
38.006293402777793
  1
1200W
 41
0.7
 11
-884.66254915956608
 21
2437.733989059227
 31
0.0
 73
     3
  0
TEXT
  5
93
  8
SPEC
 62
     7
 10
-882.01629494784527
 20
2324.1199476304801
 30
0.0
 40
38.006293402777793
  1
97dB
 41
0.7
 11
-882.01629494784527
 21
2362.1262410332579
 31
0.0
 73
     3
  0
TEXT
  5
94
  8
SPEC
 62
     7
 10
-884.42918290790567
 20
2249.7123458990732
 30
0.0
 40
38.006293402777793
  1
128dB　134dB(ピーク）
 41
0.7
 11
-884.42918290790567
 21
2287.718639301851
 31
0.0
 73
     3
  0
TEXT
  5
95
  8
SPEC
 62
     7
 10
-884.08542713969121
 20
2176.4368468546309
 30
0.0
 40
38.006293402777793
  1
18インチネオジム磁石採用、超低歪率
 41
0.7
 11
-884.08542713969121
 21
2214.4431402574078
 31
0.0
 73
     3
  0
TEXT
  5
96
  8
SPEC
 62
     7
 10
-882.88024903940664
 20
1802.462180074624
 30
0.0
 40
38.006293402777793
  1
合板
 41
0.7
 11
-882.88024903940664
 21
1840.4684734774021
 31
0.0
 73
     3
  0
TEXT
  5
97
  8
SPEC
 62
     7
 10
-881.65123451033969
 20
2099.3182008281328
 30
0.0
 40
38.006293402777793
  1
4インチ(101.6mm）ボイスコイル
 41
0.7
 11
-881.65123451033969
 21
2137.3244942309102
 31
0.0
 73
     3
  0
TEXT
  5
98
  8
SPEC
 62
     7
 10
-886.25506579770217
 20
2547.5154932081859
 30
0.0
 40
38.006293402777793
  1
ラインアレイ・システム・サブウーファー
 41
0.7
 11
-886.25506579770217
 21
2585.5217866109629
 31
0.0
 73
     3
  0
TEXT
  5
99
  8
SPEC
 62
     7
 10
-1538.5702183103749
 20
1875.6600755118741
 30
0.0
 40
38.006293402777793
  1
フライング金具
 41
0.7
 11
-1538.5702183103749
 21
1913.6663689146519
 31
0.0
 73
     3
  0
TEXT
  5
9A
  8
SPEC
 62
     7
 10
-881.66748343746349
 20
1874.601113945834
 30
0.0
 40
38.006293402777793
  1
製品に含む
 41
0.7
 11
-881.66748343746349
 21
1912.607407348612
 31
0.0
 73
     3
  0
LINE
  5
9B
  8
SPEC
  6
CONTINUOUS
 62
     7
 10
-1550.0
 20
1557.139310002452
 30
0.0
 11
1400.0
 21
1557.139310002452
 31
0.0
  0
TEXT
  5
9C
  8
DIMNSIONS
 62
     7
 10
-300.0
 20
-2147.4708899975481
 30
0.0
 40
48.865234375000007
  1
(単位：mm)
 41
0.7
 11
-300.0
 21
-2098.6056556225481
 31
0.0
 73
     3
  0
LINE
  5
9D
  8
DIMNSIONS
  6
CONTINUOUS
 62
     7
 10
-605.9999999999992
 20
-395.25731352773778
 30
0.0
 11
-605.9999999999992
 21
-990.0
 31
0.0
  0
LINE
  5
9E
  8
DIMNSIONS
  6
CONTINUOUS
 62
     7
 10
-13.999955758654391
 20
-395.25731352773778
 30
0.0
 11
-13.999955758654391
 21
-990.0
 31
0.0
  0
LINE
  5
9F
  8
DIMNSIONS
  6
CONTINUOUS
 62
     7
 10
-605.9999999999992
 20
-950.0
 30
0.0
 11
-13.999955758654391
 21
-950.0
 31
0.0
  0
POLYLINE
  5
A0
  8
DIMNSIONS
  6
CONTINUOUS
 62
     7
 66
     1
 10
0.0
 20
0.0
 30
0.0
 70
   128
  0
VERTEX
  5
69A
  8
DIMNSIONS
  6
CONTINUOUS
 62
     7
 10
-555.9875488281242
 20
-963.40079590300479
 30
0.0
  0
VERTEX
  5
69B
  8
DIMNSIONS
  6
CONTINUOUS
 62
     7
 10
-605.9999999999992
 20
-950.0
 30
0.0
  0
VERTEX
  5
69C
  8
DIMNSIONS
  6
CONTINUOUS
 62
     7
 10
-555.9875488281242
 20
-936.59920409699532
 30
0.0
  0
SEQEND
  5
69D
  8
DIMNSIONS
  6
CONTINUOUS
 62
     7
  0
POLYLINE
  5
A5
  8
DIMNSIONS
  6
CONTINUOUS
 62
     7
 66
     1
 10
0.0
 20
0.0
 30
0.0
 70
   128
  0
VERTEX
  5
69E
  8
DIMNSIONS
  6
CONTINUOUS
 62
     7
 10
-64.012406930529394
 20
-936.59920409699532
 30
0.0
  0
VERTEX
  5
69F
  8
DIMNSIONS
  6
CONTINUOUS
 62
     7
 10
-13.999955758654391
 20
-950.0
 30
0.0
  0
VERTEX
  5
6A0
  8
DIMNSIONS
  6
CONTINUOUS
 62
     7
 10
-64.012406930529394
 20
-963.40079590300479
 30
0.0
  0
SEQEND
  5
6A1
  8
DIMNSIONS
  6
CONTINUOUS
 62
     7
  0
TEXT
  5
AA
  8
DIMNSIONS
 62
     7
 10
-362.91664454599328
 20
-930.12222222222226
 30
0.0
 40
54.2947048611111
  1
592
 41
0.7
 11
-362.91664454599328
 21
-875.82751736111118
 31
0.0
 73
     3
  0
LINE
  5
AB
  8
DIMNSIONS
  6
CONTINUOUS
 62
     7
 10
-634.00000000099988
 20
-100.0
 30
0.0
 11
-840.00000000026625
 21
-100.0
 31
0.0
  0
LINE
  5
AC
  8
DIMNSIONS
  6
CONTINUOUS
 62
     7
 10
-634.00000000100317
 20
600.00000000000716
 30
0.0
 11
-840.00000000026625
 21
600.00000000000716
 31
0.0
  0
LINE
  5
AD
  8
DIMNSIONS
  6
CONTINUOUS
 62
     7
 10
-800.00000000026625
 20
-100.0
 30
0.0
 11
-800.00000000026625
 21
600.00000000000716
 31
0.0
  0
POLYLINE
  5
AE
  8
DIMNSIONS
  6
CONTINUOUS
 62
     7
 66
     1
 10
0.0
 20
0.0
 30
0.0
 70
   128
  0
VERTEX
  5
6A2
  8
DIMNSIONS
  6
CONTINUOUS
 62
     7
 10
-786.59920409726124
 20
-49.987548828125
 30
0.0
  0
VERTEX
  5
6A3
  8
DIMNSIONS
  6
CONTINUOUS
 62
     7
 10
-800.00000000026625
 20
-100.0
 30
0.0
  0
VERTEX
  5
6A4
  8
DIMNSIONS
  6
CONTINUOUS
 62
     7
 10
-813.40079590327105
 20
-49.987548828125
 30
0.0
  0
SEQEND
  5
6A5
  8
DIMNSIONS
  6
CONTINUOUS
 62
     7
  0
POLYLINE
  5
B3
  8
DIMNSIONS
  6
CONTINUOUS
 62
     7
 66
     1
 10
0.0
 20
0.0
 30
0.0
 70
   128
  0
VERTEX
  5
6A6
  8
DIMNSIONS
  6
CONTINUOUS
 62
     7
 10
-813.40079590327105
 20
549.98754882813228
 30
0.0
  0
VERTEX
  5
6A7
  8
DIMNSIONS
  6
CONTINUOUS
 62
     7
 10
-800.00000000026625
 20
600.00000000000716
 30
0.0
  0
VERTEX
  5
6A8
  8
DIMNSIONS
  6
CONTINUOUS
 62
     7
 10
-786.59920409726124
 20
549.98754882813228
 30
0.0
  0
SEQEND
  5
6A9
  8
DIMNSIONS
  6
CONTINUOUS
 62
     7
  0
TEXT
  5
B8
  8
DIMNSIONS
 62
     7
 10
-819.87777777804399
 20
197.08333333333701
 30
0.0
 40
54.2947048611111
  1
700
 50
90.0
 41
0.7
 11
-874.17248263915496
 21
197.08333333333701
 31
0.0
 73
     3
  0
LINE
  5
B9
  8
DIMNSIONS
  6
CONTINUOUS
 62
     7
 10
-640.0
 20
-800.0
 30
0.0
 11
-840.0
 21
-800.0
 31
0.0
  0
LINE
  5
BA
  8
DIMNSIONS
  6
CONTINUOUS
 62
     7
 10
-640.0
 20
-300.00000000001029
 30
0.0
 11
-840.0
 21
-300.00000000001029
 31
0.0
  0
LINE
  5
BB
  8
DIMNSIONS
  6
CONTINUOUS
 62
     7
 10
-800.0
 20
-800.0
 30
0.0
 11
-800.0
 21
-300.00000000001029
 31
0.0
  0
POLYLINE
  5
BC
  8
DIMNSIONS
  6
CONTINUOUS
 62
     7
 66
     1
 10
0.0
 20
0.0
 30
0.0
 70
   128
  0
VERTEX
  5
6AA
  8
DIMNSIONS
  6
CONTINUOUS
 62
     7
 10
-786.59920409699509
 20
-749.987548828125
 30
0.0
  0
VERTEX
  5
6AB
  8
DIMNSIONS
  6
CONTINUOUS
 62
     7
 10
-800.0
 20
-800.0
 30
0.0
  0
VERTEX
  5
6AC
  8
DIMNSIONS
  6
CONTINUOUS
 62
     7
 10
-813.40079590300479
 20
-749.987548828125
 30
0.0
  0
SEQEND
  5
6AD
  8
DIMNSIONS
  6
CONTINUOUS
 62
     7
  0
POLYLINE
  5
C1
  8
DIMNSIONS
  6
CONTINUOUS
 62
     7
 66
     1
 10
0.0
 20
0.0
 30
0.0
 70
   128
  0
VERTEX
  5
6AE
  8
DIMNSIONS
  6
CONTINUOUS
 62
     7
 10
-813.40079590300479
 20
-350.01245117188529
 30
0.0
  0
VERTEX
  5
6AF
  8
DIMNSIONS
  6
CONTINUOUS
 62
     7
 10
-800.0
 20
-300.00000000001029
 30
0.0
  0
VERTEX
  5
6B0
  8
DIMNSIONS
  6
CONTINUOUS
 62
     7
 10
-786.59920409699509
 20
-350.01245117188529
 30
0.0
  0
SEQEND
  5
6B1
  8
DIMNSIONS
  6
CONTINUOUS
 62
     7
  0
TEXT
  5
C6
  8
DIMNSIONS
 62
     7
 10
-819.87777777777762
 20
-602.91666666667197
 30
0.0
 40
54.2947048611111
  1
500
 50
90.0
 41
0.7
 11
-874.17248263888871
 21
-602.91666666667197
 31
0.0
 73
     3
  0
LINE
  5
C7
  8
DIMNSIONS
  6
CONTINUOUS
 62
     7
 10
-558.99995575865557
 20
-803.00000000000432
 30
0.0
 11
-840.0
 21
-803.00000000000432
 31
0.0
  0
LINE
  5
C8
  8
DIMNSIONS
  6
CONTINUOUS
 62
     7
 10
-640.0
 20
-800.0
 30
0.0
 11
-840.0
 21
-800.0
 31
0.0
  0
LINE
  5
C9
  8
DIMNSIONS
  6
CONTINUOUS
 62
     7
 10
-800.0
 20
-800.0
 30
0.0
 11
-800.0
 21
-803.00000000000432
 31
0.0
  0
LINE
  5
CA
  8
DIMNSIONS
  6
CONTINUOUS
 62
     7
 10
-800.0
 20
-803.00000000000432
 30
0.0
 11
-800.0
 21
-874.27777777913695
 31
0.0
  0
POLYLINE
  5
CB
  8
DIMNSIONS
  6
CONTINUOUS
 62
     7
 66
     1
 10
0.0
 20
0.0
 30
0.0
 70
   128
  0
VERTEX
  5
6B2
  8
DIMNSIONS
  6
CONTINUOUS
 62
     7
 10
-813.40079590300479
 20
-853.01245117187943
 30
0.0
  0
VERTEX
  5
6B3
  8
DIMNSIONS
  6
CONTINUOUS
 62
     7
 10
-800.0
 20
-803.00000000000432
 30
0.0
  0
VERTEX
  5
6B4
  8
DIMNSIONS
  6
CONTINUOUS
 62
     7
 10
-786.59920409699509
 20
-853.01245117187943
 30
0.0
  0
SEQEND
  5
6B5
  8
DIMNSIONS
  6
CONTINUOUS
 62
     7
  0
LINE
  5
D0
  8
DIMNSIONS
  6
CONTINUOUS
 62
     7
 10
-800.0
 20
-800.0
 30
0.0
 11
-800.0
 21
-700.0
 31
0.0
  0
POLYLINE
  5
D1
  8
DIMNSIONS
  6
CONTINUOUS
 62
     7
 66
     1
 10
0.0
 20
0.0
 30
0.0
 70
   128
  0
VERTEX
  5
6B6
  8
DIMNSIONS
  6
CONTINUOUS
 62
     7
 10
-786.59920409699509
 20
-749.987548828125
 30
0.0
  0
VERTEX
  5
6B7
  8
DIMNSIONS
  6
CONTINUOUS
 62
     7
 10
-800.0
 20
-800.0
 30
0.0
  0
VERTEX
  5
6B8
  8
DIMNSIONS
  6
CONTINUOUS
 62
     7
 10
-813.40079590300479
 20
-749.987548828125
 30
0.0
  0
SEQEND
  5
6B9
  8
DIMNSIONS
  6
CONTINUOUS
 62
     7
  0
TEXT
  5
D6
  8
DIMNSIONS
 62
     7
 10
-819.87777777777785
 20
-874.27777777913695
 30
0.0
 40
54.2947048611111
  1
3
 50
90.0
 41
0.7
 11
-874.17248263888905
 21
-874.27777777913695
 31
0.0
 73
     3
  0
TEXT
  5
D7
  8
DATA
 62
     7
 10
-1500.0
 20
-2308.1006899975469
 30
0.0
 40
32.576822916666657
  1
仕様および外観は予告なく変更されることがありますので、ご了承ください。
 41
0.7
 11
-1500.0
 21
-2275.5238670808808
 31
0.0
 73
     3
  0
LINE
  5
D8
  8
DATA
  6
CONTINUOUS
 62
     7
 10
-581.99995575931189
 20
-1135.0000000000009
 30
0.0
 11
-37.99995575931105
 21
-1135.000000000002
 31
0.0
  0
LINE
  5
D9
  8
DATA
  6
CONTINUOUS
 62
     7
 10
-37.999955759313778
 20
-1800.000000000003
 30
0.0
 11
-581.99995575931371
 21
-1800.0000000000009
 31
0.0
  0
POLYLINE
  5
DA
  8
DATA
  6
CONTINUOUS
 62
     7
 66
     1
 10
0.0
 20
0.0
 30
0.0
 70
   128
  0
VERTEX
  5
6BA
  8
DATA
  6
CONTINUOUS
 62
     7
 10
-169.99995381835609
 20
25.00000227492637
 30
0.0
  0
VERTEX
  5
6BB
  8
DATA
  6
CONTINUOUS
 62
     7
 10
-172.72328711015331
 20
24.81372117445699
 30
0.0
  0
VERTEX
  5
6BC
  8
DATA
  6
CONTINUOUS
 62
     7
 10
-175.39588985547019
 20
24.258347937493451
 30
0.0
  0
VERTEX
  5
6BD
  8
DATA
  6
CONTINUOUS
 62
     7
 10
-177.96797652191711
 20
23.344228116633531
 30
0.0
  0
VERTEX
  5
6BE
  8
DATA
  6
CONTINUOUS
 62
     7
 10
-180.39163400147621
 20
22.088390034559779
 30
0.0
  0
VERTEX
  5
6BF
  8
DATA
  6
CONTINUOUS
 62
     7
 10
-182.6217141410371
 20
20.514227578603819
 30
0.0
  0
VERTEX
  5
6C0
  8
DATA
  6
CONTINUOUS
 62
     7
 10
-184.61667476707311
 20
18.651064416888399
 30
0.0
  0
VERTEX
  5
6C1
  8
DATA
  6
CONTINUOUS
 62
     7
 10
-186.3393535377341
 20
16.533607753879551
 30
0.0
  0
VERTEX
  5
6C2
  8
DATA
  6
CONTINUOUS
 62
     7
 10
-187.7576602069544
 20
14.201301800824689
 30
0.0
  0
VERTEX
  5
6C3
  8
DATA
  6
CONTINUOUS
 62
     7
 10
-188.8451744050254
 20
11.697593004738341
 30
0.0
  0
VERTEX
  5
6C4
  8
DATA
  6
CONTINUOUS
 62
     7
 10
-189.5816378000932
 20
9.0691207232921442
 30
0.0
  0
VERTEX
  5
6C5
  8
DATA
  6
CONTINUOUS
 62
     7
 10
-189.95333147255141
 20
6.3648484218283574
 30
0.0
  0
VERTEX
  5
6C6
  8
DATA
  6
CONTINUOUS
 62
     7
 10
-189.95333147255141
 20
3.6351515766446032
 30
0.0
  0
VERTEX
  5
6C7
  8
DATA
  6
CONTINUOUS
 62
     7
 10
-189.5816378000932
 20
0.9308792751808139
 30
0.0
  0
VERTEX
  5
6C8
  8
DATA
  6
CONTINUOUS
 62
     7
 10
-188.8451744050254
 20
-1.697593006265379
 30
0.0
  0
VERTEX
  5
6C9
  8
DATA
  6
CONTINUOUS
 62
     7
 10
-187.7576602069544
 20
-4.2013018023517361
 30
0.0
  0
VERTEX
  5
6CA
  8
DATA
  6
CONTINUOUS
 62
     7
 10
-186.3393535377341
 20
-6.5336077554056811
 30
0.0
  0
VERTEX
  5
6CB
  8
DATA
  6
CONTINUOUS
 62
     7
 10
-184.61667476707311
 20
-8.6510644184163539
 30
0.0
  0
VERTEX
  5
6CC
  8
DATA
  6
CONTINUOUS
 62
     7
 10
-182.6217141410371
 20
-10.514227580129949
 30
0.0
  0
VERTEX
  5
6CD
  8
DATA
  6
CONTINUOUS
 62
     7
 10
-180.39163400147621
 20
-12.088390036086819
 30
0.0
  0
VERTEX
  5
6CE
  8
DATA
  6
CONTINUOUS
 62
     7
 10
-177.96797652191711
 20
-13.34422811816057
 30
0.0
  0
VERTEX
  5
6CF
  8
DATA
  6
CONTINUOUS
 62
     7
 10
-175.39588985546931
 20
-14.25834793901959
 30
0.0
  0
VERTEX
  5
6D0
  8
DATA
  6
CONTINUOUS
 62
     7
 10
-172.72328711015331
 20
-14.81372117598403
 30
0.0
  0
VERTEX
  5
6D1
  8
DATA
  6
CONTINUOUS
 62
     7
 10
-169.9999538183551
 20
-15.00000000076216
 30
0.0
  0
SEQEND
  5
6D2
  8
DATA
  6
CONTINUOUS
 62
     7
  0
LINE
  5
F4
  8
DATA
  6
CONTINUOUS
 62
     7
 10
-581.99995575865785
 20
600.00000000000671
 30
0.0
 11
-37.999955758658032
 21
600.00000000000921
 31
0.0
  0
LINE
  5
F5
  8
DATA
  6
CONTINUOUS
 62
     7
 10
-37.999955758655297
 20
-64.999999999998181
 30
0.0
 11
-581.99995575865523
 21
-64.999999999999091
 31
0.0
  0
LINE
  5
F6
  8
DATA
  6
CONTINUOUS
 62
     7
 10
-37.999955758654387
 20
-300.00000000000767
 30
0.0
 11
-582.00000000000023
 21
-300.00000000001
 31
0.0
  0
LINE
  5
F7
  8
DATA
  6
CONTINUOUS
 62
     7
 10
-37.999955758654387
 20
-318.00000000000728
 30
0.0
 11
-581.99995575865535
 21
-318.00000000000762
 31
0.0
  0
LINE
  5
F8
  8
DATA
  6
CONTINUOUS
 62
     7
 10
-582.00000000000023
 20
-800.00000000000227
 30
0.0
 11
-37.999955758654387
 21
-800.00000000000193
 31
0.0
  0
LINE
  5
F9
  8
DATA
  6
CONTINUOUS
 62
     7
 10
-37.999955758654387
 20
-782.00000000000477
 30
0.0
 11
-581.99995575865535
 21
-782.00000000000477
 31
0.0
  0
LINE
  5
FA
  8
DATA
  6
CONTINUOUS
 62
     7
 10
-581.99995575865535
 20
-662.00000000000523
 30
0.0
 11
-461.99995575865557
 21
-782.00000000000477
 31
0.0
  0
LINE
  5
FB
  8
DATA
  6
CONTINUOUS
 62
     7
 10
-580.50000000000023
 20
-679.82505873183209
 30
0.0
 11
-580.50000000000023
 21
-702.12761144988485
 31
0.0
  0
LINE
  5
FC
  8
DATA
  6
CONTINUOUS
 62
     7
 10
-570.00000000000352
 20
-673.99995575865773
 30
0.0
 11
-570.00000000000352
 21
-702.40768738961037
 31
0.0
  0
LINE
  5
FD
  8
DATA
  6
CONTINUOUS
 62
     7
 10
-600.0
 20
-310.00000000001262
 30
0.0
 11
-600.0
 21
-790.0
 31
0.0
  0
LINE
  5
FE
  8
DATA
  6
CONTINUOUS
 62
     7
 10
-582.00000000000023
 20
-310.00000000001262
 30
0.0
 11
-582.00000000000023
 21
-790.0
 31
0.0
  0
LINE
  5
FF
  8
DATA
  6
CONTINUOUS
 62
     7
 10
925.00000000001398
 20
-780.00000000100465
 30
0.0
 11
925.00000000001398
 21
-633.50476273914614
 31
0.0
  0
LINE
  5
100
  8
DATA
  6
CONTINUOUS
 62
     7
 10
914.12156422679186
 20
-626.04054091102216
 30
0.0
 11
626.12169106350393
 21
-737.10223718496832
 31
0.0
  0
LINE
  5
101
  8
DATA
  6
CONTINUOUS
 62
     7
 10
312.0
 20
-780.00000000100511
 30
0.0
 11
312.0
 21
-320.00000000100738
 31
0.0
  0
LINE
  5
102
  8
DATA
  6
CONTINUOUS
 62
     7
 10
371.9999999999992
 20
-684.60078032159879
 30
0.0
 11
371.9999999999992
 21
-780.00000000100499
 31
0.0
  0
LINE
  5
103
  8
DATA
  6
CONTINUOUS
 62
     7
 10
538.37856260994693
 20
-737.10223718496786
 30
0.0
 11
382.87843577322121
 21
-677.13655849347435
 31
0.0
  0
LINE
  5
104
  8
DATA
  6
CONTINUOUS
 62
     7
 10
973.00000000001398
 20
-320.00000000100721
 30
0.0
 11
973.00000000001398
 21
-780.00000000100465
 31
0.0
  0
LINE
  5
105
  8
DATA
  6
CONTINUOUS
 62
     7
 10
629.68359122638583
 20
-703.57527260487234
 30
0.0
 11
919.87843577323531
 21
-591.66712719033023
 31
0.0
  0
LINE
  5
106
  8
DATA
  6
CONTINUOUS
 62
     7
 10
377.12156422677799
 20
-642.76314477278231
 30
0.0
 11
534.81666244706503
 21
-703.57527260487234
 31
0.0
  0
LINE
  5
107
  8
DATA
  6
CONTINUOUS
 62
     7
 10
538.01875813829611
 20
-738.03526491348339
 30
0.0
 11
382.51863130157108
 21
-678.06958622199033
 31
0.0
  0
LINE
  5
108
  8
DATA
  6
CONTINUOUS
 62
     7
 10
373.0000000000008
 20
-684.60078032159879
 30
0.0
 11
373.0000000000008
 21
-780.00000000100511
 31
0.0
  0
LINE
  5
109
  8
DATA
  6
CONTINUOUS
 62
     7
 10
924.00000000001489
 20
-780.00000000100499
 30
0.0
 11
924.00000000001489
 21
-633.50476273914614
 31
0.0
  0
LINE
  5
10A
  8
DATA
  6
CONTINUOUS
 62
     7
 10
914.48136869844609
 20
-626.97356863953792
 30
0.0
 11
675.48356122396615
 21
-719.13854639569217
 31
0.0
  0
LINE
  5
10B
  8
DATA
  6
CONTINUOUS
 62
     7
 10
311.00000000000091
 20
-780.00000000100511
 30
0.0
 11
311.00000000000091
 21
-320.00000000100738
 31
0.0
  0
LINE
  5
10C
  8
DATA
  6
CONTINUOUS
 62
     7
 10
300.0
 20
-790.00000000100022
 30
0.0
 11
300.0
 21
-310.00000000101261
 31
0.0
  0
LINE
  5
10D
  8
DATA
  6
CONTINUOUS
 62
     7
 10
974.00000000001398
 20
-320.00000000100721
 30
0.0
 11
974.00000000001489
 21
-780.00000000100465
 31
0.0
  0
LINE
  5
10E
  8
DATA
  6
CONTINUOUS
 62
     7
 10
1000.0
 20
-300.00000000100749
 30
0.0
 11
1000.0
 21
-800.00000000100408
 31
0.0
  0
LINE
  5
10F
  8
DATA
  6
CONTINUOUS
 62
     7
 10
377.48136869843222
 20
-641.83011704426701
 30
0.0
 11
535.17646691871823
 21
-702.64224487635659
 31
0.0
  0
LINE
  5
110
  8
DATA
  6
CONTINUOUS
 62
     7
 10
629.3237867547349
 20
-702.64224487635693
 30
0.0
 11
919.51863130158279
 21
-590.73409946181494
 31
0.0
  0
LINE
  5
111
  8
DATA
  6
CONTINUOUS
 62
     7
 10
539.5001268367273
 20
-800.00000000100204
 30
0.0
 11
359.71586519138327
 21
-800.00000000100147
 31
0.0
  0
ARC
  5
112
  8
DATA
  6
CONTINUOUS
 62
     7
 10
320.0
 20
-780.00000000100511
 30
0.0
 40
8.0
 50
180.00000000000091
 51
270.0000000000033
  0
LINE
  5
113
  8
DATA
  6
CONTINUOUS
 62
     7
 10
322.28438848206719
 20
-800.00000000100113
 30
0.0
 11
310.0
 21
-800.00000000099999
 31
0.0
  0
ARC
  5
114
  8
DATA
  6
CONTINUOUS
 62
     7
 10
320.00000000000091
 20
-780.00000000100511
 30
0.0
 40
9.0
 50
180.00000000000071
 51
270.0000000000029
  0
ARC
  5
115
  8
DATA
  6
CONTINUOUS
 62
     7
 10
310.0
 20
-790.00000000100022
 30
0.0
 40
10.0
 50
180.0
 51
270.0
  0
CIRCLE
  5
116
  8
DATA
  6
CONTINUOUS
 62
     7
 10
319.50012683672412
 20
-752.0000000010042
 30
0.0
 40
3.0
  0
CIRCLE
  5
117
  8
DATA
  6
CONTINUOUS
 62
     7
 10
364.50012683672412
 20
-752.0000000010042
 30
0.0
 40
3.0
  0
LINE
  5
118
  8
DATA
  6
CONTINUOUS
 62
     7
 10
364.0
 20
-788.00000000100499
 30
0.0
 11
320.0
 21
-788.00000000100499
 31
0.0
  0
LINE
  5
119
  8
DATA
  6
CONTINUOUS
 62
     7
 10
359.71586519138327
 20
-800.00000000100147
 30
0.0
 11
322.28438848206719
 21
-800.00000000100113
 31
0.0
  0
CIRCLE
  5
11A
  8
DATA
  6
CONTINUOUS
 62
     7
 10
325.50012683672497
 20
-772.00000000100397
 30
0.0
 40
3.0
  0
CIRCLE
  5
11B
  8
DATA
  6
CONTINUOUS
 62
     7
 10
341.00012683672412
 20
-772.00000000100465
 30
0.0
 40
4.0
  0
LINE
  5
11C
  8
DATA
  6
CONTINUOUS
 62
     7
 10
326.14174720288293
 20
-789.00000000100499
 30
0.0
 11
326.24685143814798
 21
-788.00000000100499
 31
0.0
  0
ARC
  5
11D
  8
DATA
  6
CONTINUOUS
 62
     7
 10
322.28438848206719
 20
-797.0000000010001
 30
0.0
 40
3.000000000001136
 50
270.0
 51
353.99999999977979
  0
LINE
  5
11E
  8
DATA
  6
CONTINUOUS
 62
     7
 10
325.26795416817231
 20
-797.31358539080293
 30
0.0
 11
326.14174720288293
 21
-789.00000000100499
 31
0.0
  0
LINE
  5
11F
  8
DATA
  6
CONTINUOUS
 62
     7
 10
326.14174720288293
 20
-789.00000000100499
 30
0.0
 11
320.00000000000091
 21
-789.00000000100499
 31
0.0
  0
ARC
  5
120
  8
DATA
  6
CONTINUOUS
 62
     7
 10
364.0
 20
-780.00000000100499
 30
0.0
 40
7.9999999999998863
 50
270.0
 51
0.0
  0
CIRCLE
  5
121
  8
DATA
  6
CONTINUOUS
 62
     7
 10
356.50012683672583
 20
-772.00000000100397
 30
0.0
 40
3.0
  0
LINE
  5
122
  8
DATA
  6
CONTINUOUS
 62
     7
 10
355.75340223530111
 20
-788.00000000100499
 30
0.0
 11
355.85850647056708
 21
-789.00000000100499
 31
0.0
  0
ARC
  5
123
  8
DATA
  6
CONTINUOUS
 62
     7
 10
364.00000000000091
 20
-780.00000000100511
 30
0.0
 40
9.0000000000001137
 50
270.0000000000029
 51
0.0
  0
LINE
  5
124
  8
DATA
  6
CONTINUOUS
 62
     7
 10
364.00000000000091
 20
-789.00000000100499
 30
0.0
 11
355.85850647056708
 21
-789.00000000100499
 31
0.0
  0
LINE
  5
125
  8
DATA
  6
CONTINUOUS
 62
     7
 10
355.85850647056708
 20
-789.00000000100499
 30
0.0
 11
356.73229950527809
 21
-797.31358539080327
 31
0.0
  0
ARC
  5
126
  8
DATA
  6
CONTINUOUS
 62
     7
 10
359.71586519138327
 20
-797.00000000100022
 30
0.0
 40
3.000000000001144
 50
186.00000000024599
 51
270.0
  0
CIRCLE
  5
127
  8
DATA
  6
CONTINUOUS
 62
     7
 10
324.5
 20
-730.00000000100545
 30
0.0
 40
3.0
  0
LINE
  5
128
  8
DATA
  6
CONTINUOUS
 62
     7
 10
386.0
 20
-803.50000000100465
 30
0.0
 11
424.0
 21
-803.50000000100465
 31
0.0
  0
LINE
  5
129
  8
DATA
  6
CONTINUOUS
 62
     7
 10
386.0
 20
-800.00000000100408
 30
0.0
 11
386.0
 21
-803.50000000100465
 31
0.0
  0
LINE
  5
12A
  8
DATA
  6
CONTINUOUS
 62
     7
 10
424.0
 20
-803.50000000100465
 30
0.0
 11
424.0
 21
-800.00000000100408
 31
0.0
  0
CIRCLE
  5
12B
  8
DATA
  6
CONTINUOUS
 62
     7
 10
-309.99995575865631
 20
130.00000000000361
 30
0.0
 40
23.0
  0
ARC
  5
12C
  8
DATA
  6
CONTINUOUS
 62
     7
 10
-309.99995575865631
 20
130.00000000000361
 30
0.0
 40
57.000000000000099
 50
180.00000000000091
 51
0.0
  0
ARC
  5
12D
  8
DATA
  6
CONTINUOUS
 62
     7
 10
-309.99995575865631
 20
130.00000000000361
 30
0.0
 40
57.000000000000057
 50
0.0
 51
180.00000000000091
  0
LINE
  5
12E
  8
DATA
  6
CONTINUOUS
 62
     7
 10
-581.99995575865785
 20
600.00000000000671
 30
0.0
 11
-581.99995575865523
 21
-64.999999999999091
 31
0.0
  0
LINE
  5
12F
  8
DATA
  6
CONTINUOUS
 62
     7
 10
-600.0
 20
-43.999873163274962
 30
0.0
 11
-600.00000000000205
 21
533.99987316329589
 31
0.0
  0
LINE
  5
130
  8
DATA
  6
CONTINUOUS
 62
     7
 10
-582.00000000000205
 20
600.00000000000716
 30
0.0
 11
-582.0
 21
-90.0
 31
0.0
  0
LINE
  5
131
  8
DATA
  6
CONTINUOUS
 62
     7
 10
-449.99995769895418
 20
24.999999999234209
 30
0.0
 11
-459.99994859618232
 21
25.000003412770639
 31
0.0
  0
LINE
  5
132
  8
DATA
  6
CONTINUOUS
 62
     7
 10
-459.99995769857941
 20
-14.999995449383279
 30
0.0
 11
-449.99995769895418
 21
-15.000000000763981
 31
0.0
  0
LINE
  5
133
  8
DATA
  6
CONTINUOUS
 62
     7
 10
-582.0
 20
-90.0
 30
0.0
 11
-582.0
 21
-100.0
 31
0.0
  0
LINE
  5
134
  8
DATA
  6
CONTINUOUS
 62
     7
 10
-600.0
 20
-90.0
 30
0.0
 11
-600.0
 21
-100.0
 31
0.0
  0
LINE
  5
135
  8
DATA
  6
CONTINUOUS
 62
     7
 10
-582.0
 20
-100.0
 30
0.0
 11
-600.0
 21
-100.0
 31
0.0
  0
LINE
  5
136
  8
DATA
  6
CONTINUOUS
 62
     7
 10
-582.0
 20
-90.0
 30
0.0
 11
-600.0
 21
-90.0
 31
0.0
  0
LINE
  5
137
  8
DATA
  6
CONTINUOUS
 62
     7
 10
-589.50000000000125
 20
-47.460337372307549
 30
0.0
 11
-589.50000000000125
 21
-46.999873163274962
 31
0.0
  0
LINE
  5
138
  8
DATA
  6
CONTINUOUS
 62
     7
 10
-597.0
 20
-48.99987316327406
 30
0.0
 11
-597.0
 21
-46.999873163274962
 31
0.0
  0
LINE
  5
139
  8
DATA
  6
CONTINUOUS
 62
     7
 10
-600.0
 20
-70.99987316327497
 30
0.0
 11
-600.0
 21
-46.999873163274962
 31
0.0
  0
LINE
  5
13A
  8
DATA
  6
CONTINUOUS
 62
     7
 10
-589.0
 20
-43.999873163274962
 30
0.0
 11
-589.0
 21
-73.99987316327406
 31
0.0
  0
LINE
  5
13B
  8
DATA
  6
CONTINUOUS
 62
     7
 10
-589.50000000000125
 20
-70.539408954240557
 30
0.0
 11
-589.0
 21
-70.539408954240557
 31
0.0
  0
LINE
  5
13C
  8
DATA
  6
CONTINUOUS
 62
     7
 10
-589.50000000000125
 20
-47.460337372307549
 30
0.0
 11
-589.0
 21
-47.460337372307549
 31
0.0
  0
LINE
  5
13D
  8
DATA
  6
CONTINUOUS
 62
     7
 10
-589.50000000000125
 20
-67.128551402416633
 30
0.0
 11
-589.0
 21
-67.128551402416633
 31
0.0
  0
LINE
  5
13E
  8
DATA
  6
CONTINUOUS
 62
     7
 10
-589.50000000000125
 20
-50.87119492413148
 30
0.0
 11
-589.0
 21
-50.87119492413148
 31
0.0
  0
LINE
  5
13F
  8
DATA
  6
CONTINUOUS
 62
     7
 10
-604.0
 20
-49.99987316327406
 30
0.0
 11
-604.0
 21
-67.99987316327406
 31
0.0
  0
LINE
  5
140
  8
DATA
  6
CONTINUOUS
 62
     7
 10
-589.50000000000125
 20
-70.99987316327406
 30
0.0
 11
-589.50000000000125
 21
-70.539408954240557
 31
0.0
  0
LINE
  5
141
  8
DATA
  6
CONTINUOUS
 62
     7
 10
-589.50000000000125
 20
-70.539408954240557
 30
0.0
 11
-589.50000000000125
 21
-67.128551402416633
 31
0.0
  0
LINE
  5
142
  8
DATA
  6
CONTINUOUS
 62
     7
 10
-589.50000000000125
 20
-50.87119492413148
 30
0.0
 11
-589.50000000000125
 21
-47.460337372307549
 31
0.0
  0
LINE
  5
143
  8
DATA
  6
CONTINUOUS
 62
     7
 10
-589.50000000000125
 20
-67.128551402416633
 30
0.0
 11
-589.50000000000125
 21
-50.87119492413148
 31
0.0
  0
LINE
  5
144
  8
DATA
  6
CONTINUOUS
 62
     7
 10
-597.0
 20
-70.99987316327497
 30
0.0
 11
-597.0
 21
-68.999873163274955
 31
0.0
  0
LINE
  5
145
  8
DATA
  6
CONTINUOUS
 62
     7
 10
-591.0
 20
-68.99987316327406
 30
0.0
 11
-591.0
 21
-48.99987316327406
 31
0.0
  0
LINE
  5
146
  8
DATA
  6
CONTINUOUS
 62
     7
 10
-597.0
 20
-48.99987316327406
 30
0.0
 11
-591.0
 21
-48.99987316327406
 31
0.0
  0
LINE
  5
147
  8
DATA
  6
CONTINUOUS
 62
     7
 10
-597.0
 20
-68.999873163274955
 30
0.0
 11
-597.0
 21
-48.99987316327406
 31
0.0
  0
LINE
  5
148
  8
DATA
  6
CONTINUOUS
 62
     7
 10
-597.0
 20
-68.999873163274955
 30
0.0
 11
-591.0
 21
-68.99987316327406
 31
0.0
  0
LINE
  5
149
  8
DATA
  6
CONTINUOUS
 62
     7
 10
-605.9999999999992
 20
-51.99987316327406
 30
0.0
 11
-605.9999999999992
 21
-65.99987316327406
 31
0.0
  0
LINE
  5
14A
  8
DATA
  6
CONTINUOUS
 62
     7
 10
-600.0
 20
-73.99987316327406
 30
0.0
 11
-600.0
 21
-70.99987316327497
 31
0.0
  0
LINE
  5
14B
  8
DATA
  6
CONTINUOUS
 62
     7
 10
-589.0
 20
-70.99987316327406
 30
0.0
 11
-600.0
 21
-70.99987316327497
 31
0.0
  0
LINE
  5
14C
  8
DATA
  6
CONTINUOUS
 62
     7
 10
-589.0
 20
-73.99987316327406
 30
0.0
 11
-600.0
 21
-73.99987316327406
 31
0.0
  0
LINE
  5
14D
  8
DATA
  6
CONTINUOUS
 62
     7
 10
-600.0
 20
-73.99987316327406
 30
0.0
 11
-600.0
 21
-90.0
 31
0.0
  0
LINE
  5
14E
  8
DATA
  6
CONTINUOUS
 62
     7
 10
-591.0
 20
-64.99987316327406
 30
0.0
 11
-589.50000000000125
 21
-64.99987316327406
 31
0.0
  0
LINE
  5
14F
  8
DATA
  6
CONTINUOUS
 62
     7
 10
-589.50000000000125
 20
-52.99987316327406
 30
0.0
 11
-591.0
 21
-52.99987316327406
 31
0.0
  0
LINE
  5
150
  8
DATA
  6
CONTINUOUS
 62
     7
 10
-589.50000000000125
 20
-68.49987316327406
 30
0.0
 11
-591.0
 21
-68.49987316327406
 31
0.0
  0
LINE
  5
151
  8
DATA
  6
CONTINUOUS
 62
     7
 10
-591.0
 20
-62.999873163273143
 30
0.0
 11
-589.50000000000125
 21
-62.999873163273143
 31
0.0
  0
LINE
  5
152
  8
DATA
  6
CONTINUOUS
 62
     7
 10
-589.50000000000125
 20
-54.999873163273143
 30
0.0
 11
-591.0
 21
-54.999873163273143
 31
0.0
  0
LINE
  5
153
  8
DATA
  6
CONTINUOUS
 62
     7
 10
-604.0
 20
-67.99987316327406
 30
0.0
 11
-600.0
 21
-67.99987316327406
 31
0.0
  0
LINE
  5
154
  8
DATA
  6
CONTINUOUS
 62
     7
 10
-600.0
 20
-49.99987316327406
 30
0.0
 11
-604.0
 21
-49.99987316327406
 31
0.0
  0
ARC
  5
155
  8
DATA
  6
CONTINUOUS
 62
     7
 10
-604.0
 20
-51.99987316327406
 30
0.0
 40
2.0
 50
90.0
 51
180.0
  0
ARC
  5
156
  8
DATA
  6
CONTINUOUS
 62
     7
 10
-604.0
 20
-65.99987316327406
 30
0.0
 40
2.0
 50
180.0
 51
270.0
  0
LINE
  5
157
  8
DATA
  6
CONTINUOUS
 62
     7
 10
-591.0
 20
-49.49987316327406
 30
0.0
 11
-589.50000000000125
 21
-49.49987316327406
 31
0.0
  0
LINE
  5
158
  8
DATA
  6
CONTINUOUS
 62
     7
 10
-600.0
 20
-46.999873163274962
 30
0.0
 11
-600.0
 21
-43.999873163274962
 31
0.0
  0
LINE
  5
159
  8
DATA
  6
CONTINUOUS
 62
     7
 10
-600.0
 20
-46.999873163274962
 30
0.0
 11
-589.0
 21
-46.999873163274962
 31
0.0
  0
LINE
  5
15A
  8
DATA
  6
CONTINUOUS
 62
     7
 10
-600.0
 20
-43.999873163274962
 30
0.0
 11
-589.0
 21
-43.999873163274962
 31
0.0
  0
ARC
  5
15B
  8
DATA
  6
CONTINUOUS
 62
     7
 10
-499.99995883795327
 20
4.999998740823683
 30
0.0
 40
20.000000000000011
 50
39.715141547324251
 51
320.28485845267301
  0
LINE
  5
15C
  8
DATA
  6
CONTINUOUS
 62
     7
 10
-581.50000000000125
 20
-80.49987316327406
 30
0.0
 11
-581.50000000000125
 21
-68.49987316327406
 31
0.0
  0
LINE
  5
15D
  8
DATA
  6
CONTINUOUS
 62
     7
 10
-582.0
 20
-64.999873163273151
 30
0.0
 11
-581.99995575865614
 21
-64.99987316327406
 31
0.0
  0
LINE
  5
15E
  8
DATA
  6
CONTINUOUS
 62
     7
 10
-581.99995575865614
 20
-52.99987316327406
 30
0.0
 11
-582.0
 21
-52.999873163273143
 31
0.0
  0
LINE
  5
15F
  8
DATA
  6
CONTINUOUS
 62
     7
 10
-582.0
 20
-80.499873163273165
 30
0.0
 11
-581.50000000000125
 21
-80.49987316327406
 31
0.0
  0
LINE
  5
160
  8
DATA
  6
CONTINUOUS
 62
     7
 10
-581.50000000000125
 20
-68.49987316327406
 30
0.0
 11
-582.0
 21
-68.499873163273151
 31
0.0
  0
LINE
  5
161
  8
DATA
  6
CONTINUOUS
 62
     7
 10
-582.0
 20
-49.499873163272241
 30
0.0
 11
-581.99995575865614
 21
-49.49987316327406
 31
0.0
  0
LINE
  5
162
  8
DATA
  6
CONTINUOUS
 62
     7
 10
-581.99995575865614
 20
-27.0
 30
0.0
 11
-582.0
 21
-27.0
 31
0.0
  0
LINE
  5
163
  8
DATA
  6
CONTINUOUS
 62
     7
 10
-581.99995575865523
 20
-32.999999999999091
 30
0.0
 11
-582.0
 21
-32.999999999999091
 31
0.0
  0
LINE
  5
164
  8
DATA
  6
CONTINUOUS
 62
     7
 10
-581.99995575865614
 20
-37.499873163273151
 30
0.0
 11
-582.0
 21
-37.499873163272241
 31
0.0
  0
ARC
  5
165
  8
DATA
  6
CONTINUOUS
 62
     7
 10
-459.99994396103841
 20
5.000051863101362
 30
0.0
 40
20.000047312489269
 50
219.71522973828391
 51
269.9999606449399
  0
ARC
  5
166
  8
DATA
  6
CONTINUOUS
 62
     7
 10
-479.99996008925848
 20
-11.61325049140669
 30
0.0
 40
6.0000000000007141
 50
39.715131747378472
 51
140.284858452675
  0
ARC
  5
167
  8
DATA
  6
CONTINUOUS
 62
     7
 10
-479.999960089257
 20
21.613247973053149
 30
0.0
 40
6.0000000000001279
 50
219.7151415473277
 51
320.2848682526282
  0
POLYLINE
  5
168
  8
DATA
  6
CONTINUOUS
 62
     7
 66
     1
 10
0.0
 20
0.0
 30
0.0
 70
   128
  0
VERTEX
  5
6D3
  8
DATA
  6
CONTINUOUS
 62
     7
 10
-459.99994859618232
 20
25.000003412769729
 30
0.0
  0
VERTEX
  5
6D4
  8
DATA
  6
CONTINUOUS
 62
     7
 10
-462.18964287777249
 20
24.879774183254991
 30
0.0
  0
VERTEX
  5
6D5
  8
DATA
  6
CONTINUOUS
 62
     7
 10
-464.35301048979022
 20
24.520529573366741
 30
0.0
  0
VERTEX
  5
6D6
  8
DATA
  6
CONTINUOUS
 62
     7
 10
-466.46404115536518
 20
23.926588798995908
 30
0.0
  0
VERTEX
  5
6D7
  8
DATA
  6
CONTINUOUS
 62
     7
 10
-468.49735384735118
 20
23.10509283974352
 30
0.0
  0
VERTEX
  5
6D8
  8
DATA
  6
CONTINUOUS
 62
     7
 10
-470.42850194567859
 20
22.06591858256343
 30
0.0
  0
VERTEX
  5
6D9
  8
DATA
  6
CONTINUOUS
 62
     7
 10
-472.23426716029252
 20
20.821560071462049
 30
0.0
  0
VERTEX
  5
6DA
  8
DATA
  6
CONTINUOUS
 62
     7
 10
-473.89293868581228
 20
19.386978290979641
 30
0.0
  0
VERTEX
  5
6DB
  8
DATA
  6
CONTINUOUS
 62
     7
 10
-475.38457510689119
 20
17.77942201657606
 30
0.0
  0
SEQEND
  5
6DC
  8
DATA
  6
CONTINUOUS
 62
     7
  0
ARC
  5
173
  8
DATA
  6
CONTINUOUS
 62
     7
 10
-449.99995769895418
 20
4.9999999992351141
 30
0.0
 40
19.999999999999091
 50
270.00000000000131
 51
89.999999999999957
  0
CIRCLE
  5
174
  8
DATA
  6
CONTINUOUS
 62
     7
 10
-338.28422700611839
 20
101.7157287525405
 30
0.0
 40
4.0
  0
CIRCLE
  5
175
  8
DATA
  6
CONTINUOUS
 62
     7
 10
-281.71568451119413
 20
101.715728752541
 30
0.0
 40
4.0
  0
LINE
  5
176
  8
DATA
  6
CONTINUOUS
 62
     7
 10
933.99987316328918
 20
-800.00000000100385
 30
0.0
 11
728.22454241346531
 21
-800.00000000100295
 31
0.0
  0
CIRCLE
  5
177
  8
DATA
  6
CONTINUOUS
 62
     7
 10
653.72564260112813
 20
-710.13778810758333
 30
0.0
 40
3.0
  0
LINE
  5
178
  8
DATA
  6
CONTINUOUS
 62
     7
 10
728.22454241346531
 20
-800.00000000100295
 30
0.0
 11
553.00012683672719
 21
-800.00000000100204
 31
0.0
  0
LINE
  5
179
  8
DATA
  6
CONTINUOUS
 62
     7
 10
613.00012683672583
 20
-792.0000000010042
 30
0.0
 11
551.50012683672583
 21
-792.0000000010042
 31
0.0
  0
LINE
  5
17A
  8
DATA
  6
CONTINUOUS
 62
     7
 10
552.80688602969894
 20
-706.92388617909899
 30
0.0
 11
611.69336764375203
 21
-706.92388617909899
 31
0.0
  0
LINE
  5
17B
  8
DATA
  6
CONTINUOUS
 62
     7
 10
613.00012683672833
 20
-793.00000000100454
 30
0.0
 11
565.00012683672833
 21
-793.00000000100454
 31
0.0
  0
LINE
  5
17C
  8
DATA
  6
CONTINUOUS
 62
     7
 10
552.80688602970031
 20
-705.92388617909876
 30
0.0
 11
611.69336764375521
 21
-705.92388617909876
 31
0.0
  0
LINE
  5
17D
  8
DATA
  6
CONTINUOUS
 62
     7
 10
543.50012683672571
 20
-784.00000000100431
 30
0.0
 11
543.50012683672571
 21
-744.56645901309162
 31
0.0
  0
ARC
  5
17E
  8
DATA
  6
CONTINUOUS
 62
     7
 10
551.5001268367273
 20
-751.76535618425964
 30
0.0
 40
9.0000000000004547
 50
180.0
 51
207.26604445072181
  0
LINE
  5
17F
  8
DATA
  6
CONTINUOUS
 62
     7
 10
542.50012683672821
 20
-797.00000000100135
 30
0.0
 11
542.50012683672821
 21
-744.56645901309162
 31
0.0
  0
ARC
  5
180
  8
DATA
  6
CONTINUOUS
 62
     7
 10
551.50012683672583
 20
-784.00000000100431
 30
0.0
 40
8.0
 50
180.00000000000091
 51
270.0
  0
CIRCLE
  5
181
  8
DATA
  6
CONTINUOUS
 62
     7
 10
551.00012683672583
 20
-769.76535618425987
 30
0.0
 40
3.0
  0
LINE
  5
182
  8
DATA
  6
CONTINUOUS
 62
     7
 10
553.00012683672719
 20
-800.00000000100204
 30
0.0
 11
539.5001268367273
 21
-800.00000000100204
 31
0.0
  0
ARC
  5
183
  8
DATA
  6
CONTINUOUS
 62
     7
 10
539.5001268367273
 20
-797.00000000100135
 30
0.0
 40
3.0000000000006808
 50
270.0
 51
0.0
  0
CIRCLE
  5
184
  8
DATA
  6
CONTINUOUS
 62
     7
 10
575.00012683672708
 20
-759.1521973299208
 30
0.0
 40
4.0
  0
CIRCLE
  5
185
  8
DATA
  6
CONTINUOUS
 62
     7
 10
575.00012683672708
 20
-771.49451336223217
 30
0.0
 40
4.0
  0
ARC
  5
186
  8
DATA
  6
CONTINUOUS
 62
     7
 10
565.00012683672583
 20
-784.00000000100454
 30
0.0
 40
8.9999999999998863
 50
242.73395554927171
 51
270.00000000000858
  0
ARC
  5
187
  8
DATA
  6
CONTINUOUS
 62
     7
 10
553.00012683672719
 20
-797.00000000100135
 30
0.0
 40
3.0000000000006808
 50
270.0
 51
0.0
  0
LINE
  5
188
  8
DATA
  6
CONTINUOUS
 62
     7
 10
556.0001268367273
 20
-797.00000000100135
 30
0.0
 11
556.00012683672571
 21
-792.0000000010042
 31
0.0
  0
ARC
  5
189
  8
DATA
  6
CONTINUOUS
 62
     7
 10
552.80688602969894
 20
-656.92388617909933
 30
0.0
 40
49.999999999999659
 50
248.911811552458
 51
270.00000000000091
  0
CIRCLE
  5
18A
  8
DATA
  6
CONTINUOUS
 62
     7
 10
551.00012683672583
 20
-749.76535618425987
 30
0.0
 40
3.0
  0
ARC
  5
18B
  8
DATA
  6
CONTINUOUS
 62
     7
 10
552.80688602970031
 20
-656.92388617909978
 30
0.0
 40
48.999999999999382
 50
248.9118115524557
 51
270.00000000000051
  0
ARC
  5
18C
  8
DATA
  6
CONTINUOUS
 62
     7
 10
535.50012683672583
 20
-744.56645901309162
 30
0.0
 40
8.0
 50
0.0
 51
68.911811552456186
  0
CIRCLE
  5
18D
  8
DATA
  6
CONTINUOUS
 62
     7
 10
531.21861773053877
 20
-718.2644474309991
 30
0.0
 40
3.0
  0
LINE
  5
18E
  8
DATA
  6
CONTINUOUS
 62
     7
 10
542.50012683672821
 20
-744.56645901309162
 30
0.0
 11
542.50012683672821
 21
-740.69347566688668
 31
0.0
  0
ARC
  5
18F
  8
DATA
  6
CONTINUOUS
 62
     7
 10
535.5001268367281
 20
-744.56645901309093
 30
0.0
 40
6.9999999999990896
 50
0.0000000000009095
 51
68.911811552465508
  0
CIRCLE
  5
190
  8
DATA
  6
CONTINUOUS
 62
     7
 10
575.00012683672708
 20
-733.78172936171416
 30
0.0
 40
4.0
  0
CIRCLE
  5
191
  8
DATA
  6
CONTINUOUS
 62
     7
 10
575.00012683672708
 20
-746.60423863658605
 30
0.0
 40
4.0
  0
LINE
  5
192
  8
DATA
  6
CONTINUOUS
 62
     7
 10
621.00012683672583
 20
-744.56645901309173
 30
0.0
 11
621.00012683672583
 21
-784.00000000100431
 31
0.0
  0
CIRCLE
  5
193
  8
DATA
  6
CONTINUOUS
 62
     7
 10
603.00012683672708
 20
-751.00000000100556
 30
0.0
 40
4.0
  0
LINE
  5
194
  8
DATA
  6
CONTINUOUS
 62
     7
 10
622.00012683672583
 20
-740.69347566688373
 30
0.0
 11
622.00012683672719
 21
-784.00000000100431
 31
0.0
  0
ARC
  5
195
  8
DATA
  6
CONTINUOUS
 62
     7
 10
613.00012683672583
 20
-784.00000000100431
 30
0.0
 40
7.9999999999998863
 50
270.0
 51
0.0
  0
ARC
  5
196
  8
DATA
  6
CONTINUOUS
 62
     7
 10
613.00012683672833
 20
-784.00000000100431
 30
0.0
 40
8.9999999999998863
 50
270.0
 51
0.0
  0
CIRCLE
  5
197
  8
DATA
  6
CONTINUOUS
 62
     7
 10
603.00012683672708
 20
-764.69870895690428
 30
0.0
 40
4.0
  0
CIRCLE
  5
198
  8
DATA
  6
CONTINUOUS
 62
     7
 10
589.00012683672719
 20
-773.7155781908333
 30
0.0
 40
4.0
  0
CIRCLE
  5
199
  8
DATA
  6
CONTINUOUS
 62
     7
 10
589.00012683672719
 20
-760.70569918296712
 30
0.0
 40
4.0
  0
CIRCLE
  5
19A
  8
DATA
  6
CONTINUOUS
 62
     7
 10
603.00012683672708
 20
-778.41847752982517
 30
0.0
 40
4.0
  0
ARC
  5
19B
  8
DATA
  6
CONTINUOUS
 62
     7
 10
611.69336764375203
 20
-656.92388617909933
 30
0.0
 40
49.999999999999659
 50
270.00000000000091
 51
291.08818844754421
  0
ARC
  5
19C
  8
DATA
  6
CONTINUOUS
 62
     7
 10
609.82261202135896
 20
-823.18077235897715
 30
0.0
 40
117.0000000000033
 50
85.851619934200812
 51
96.461041066608004
  0
ARC
  5
19D
  8
DATA
  6
CONTINUOUS
 62
     7
 10
611.69336764375521
 20
-656.92388617910717
 30
0.0
 40
48.999999999991807
 50
269.99999999999949
 51
291.08818844754541
  0
CIRCLE
  5
19E
  8
DATA
  6
CONTINUOUS
 62
     7
 10
603.00012683672708
 20
-723.40768739061025
 30
0.0
 40
4.0
  0
CIRCLE
  5
19F
  8
DATA
  6
CONTINUOUS
 62
     7
 10
589.00012683672719
 20
-734.32837440501987
 30
0.0
 40
4.0
  0
CIRCLE
  5
1A0
  8
DATA
  6
CONTINUOUS
 62
     7
 10
603.00012683672708
 20
-737.25100932214036
 30
0.0
 40
4.0
  0
CIRCLE
  5
1A1
  8
DATA
  6
CONTINUOUS
 62
     7
 10
589.00012683672719
 20
-747.59883911543045
 30
0.0
 40
4.0
  0
ARC
  5
1A2
  8
DATA
  6
CONTINUOUS
 62
     7
 10
629.00012683672583
 20
-744.56645901309173
 30
0.0
 40
7.9999999999999369
 50
111.0881884475441
 51
180.0
  0
ARC
  5
1A3
  8
DATA
  6
CONTINUOUS
 62
     7
 10
609.82261202135805
 20
-823.18077235897329
 30
0.0
 40
118.2619064745279
 50
12.468491872564
 51
56.606780810695277
  0
ARC
  5
1A4
  8
DATA
  6
CONTINUOUS
 62
     7
 10
609.82261202135805
 20
-823.18077235897329
 30
0.0
 40
118.26190647452751
 50
56.606780810695277
 51
59.565169486027081
  0
ARC
  5
1A5
  8
DATA
  6
CONTINUOUS
 62
     7
 10
671.24880069720109
 20
-718.62804256870515
 30
0.0
 40
3.0000000000002052
 50
220.55940908203581
 51
239.5651694860224
  0
ARC
  5
1A6
  8
DATA
  6
CONTINUOUS
 62
     7
 10
676.56297463892395
 20
-721.93762958123853
 30
0.0
 40
2.9999999999999658
 50
111.0881884475384
 51
236.60678081069801
  0
ARC
  5
1A7
  8
DATA
  6
CONTINUOUS
 62
     7
 10
728.22454241346531
 20
-797.00000000100249
 30
0.0
 40
3.0000000000003428
 50
192.468488541005
 51
270.0
  0
ARC
  5
1A8
  8
DATA
  6
CONTINUOUS
 62
     7
 10
933.00000000001398
 20
-780.00000000100499
 30
0.0
 40
9.0
 50
180.0
 51
270.0000000000058
  0
LINE
  5
1A9
  8
DATA
  6
CONTINUOUS
 62
     7
 10
1000.0
 20
-800.00000000100408
 30
0.0
 11
963.99987316328816
 21
-800.00000000100385
 31
0.0
  0
CIRCLE
  5
1AA
  8
DATA
  6
CONTINUOUS
 62
     7
 10
965.49987316328827
 20
-752.00000000100385
 30
0.0
 40
3.0
  0
CIRCLE
  5
1AB
  8
DATA
  6
CONTINUOUS
 62
     7
 10
932.49987316329043
 20
-752.00000000100385
 30
0.0
 40
3.0
  0
LINE
  5
1AC
  8
DATA
  6
CONTINUOUS
 62
     7
 10
926.0
 20
-803.50000000100408
 30
0.0
 11
964.0
 21
-803.50000000100408
 31
0.0
  0
LINE
  5
1AD
  8
DATA
  6
CONTINUOUS
 62
     7
 10
965.00000000001398
 20
-788.00000000100465
 30
0.0
 11
933.00000000001398
 21
-788.00000000100465
 31
0.0
  0
LINE
  5
1AE
  8
DATA
  6
CONTINUOUS
 62
     7
 10
963.99987316328816
 20
-800.00000000100385
 30
0.0
 11
933.99987316328918
 21
-800.00000000100385
 31
0.0
  0
ARC
  5
1AF
  8
DATA
  6
CONTINUOUS
 62
     7
 10
933.00000000001398
 20
-780.00000000100465
 30
0.0
 40
8.0
 50
180.0
 51
270.0
  0
CIRCLE
  5
1B0
  8
DATA
  6
CONTINUOUS
 62
     7
 10
948.99987316328816
 20
-772.00000000100465
 30
0.0
 40
4.0
  0
CIRCLE
  5
1B1
  8
DATA
  6
CONTINUOUS
 62
     7
 10
933.49987316328816
 20
-772.00000000100351
 30
0.0
 40
3.0
  0
LINE
  5
1B2
  8
DATA
  6
CONTINUOUS
 62
     7
 10
936.99987316328907
 20
-789.00000000100465
 30
0.0
 11
936.99987316328907
 21
-788.00000000100465
 31
0.0
  0
ARC
  5
1B3
  8
DATA
  6
CONTINUOUS
 62
     7
 10
932.49987316328907
 20
-772.00000000100374
 30
0.0
 40
8.0000000000005418
 50
159.6332548953439
 51
200.36674510465761
  0
ARC
  5
1B4
  8
DATA
  6
CONTINUOUS
 62
     7
 10
933.99987316328918
 20
-797.00000000100385
 30
0.0
 40
3.0
 50
270.0
 51
0.0
  0
LINE
  5
1B5
  8
DATA
  6
CONTINUOUS
 62
     7
 10
936.99987316328907
 20
-797.00000000100385
 30
0.0
 11
936.99987316328907
 21
-789.00000000100465
 31
0.0
  0
LINE
  5
1B6
  8
DATA
  6
CONTINUOUS
 62
     7
 10
936.99987316328907
 20
-789.00000000100465
 30
0.0
 11
933.00000000001512
 21
-789.00000000100465
 31
0.0
  0
LINE
  5
1B7
  8
DATA
  6
CONTINUOUS
 62
     7
 10
926.0
 20
-800.00000000100408
 30
0.0
 11
926.0
 21
-803.50000000100408
 31
0.0
  0
ARC
  5
1B8
  8
DATA
  6
CONTINUOUS
 62
     7
 10
965.00000000001398
 20
-780.00000000100465
 30
0.0
 40
8.0
 50
270.0
 51
0.0
  0
CIRCLE
  5
1B9
  8
DATA
  6
CONTINUOUS
 62
     7
 10
964.49987316328827
 20
-772.00000000100351
 30
0.0
 40
3.0
  0
LINE
  5
1BA
  8
DATA
  6
CONTINUOUS
 62
     7
 10
960.99987316328827
 20
-788.00000000100465
 30
0.0
 11
960.99987316328827
 21
-789.00000000100465
 31
0.0
  0
ARC
  5
1BB
  8
DATA
  6
CONTINUOUS
 62
     7
 10
965.49987316328827
 20
-772.00000000100374
 30
0.0
 40
8.0000000000006786
 50
339.6384758124463
 51
20.361524187554782
  0
LINE
  5
1BC
  8
DATA
  6
CONTINUOUS
 62
     7
 10
965.00000000001489
 20
-789.00000000100465
 30
0.0
 11
960.99987316328827
 21
-789.00000000100465
 31
0.0
  0
LINE
  5
1BD
  8
DATA
  6
CONTINUOUS
 62
     7
 10
960.99987316328827
 20
-789.00000000100465
 30
0.0
 11
960.99987316328827
 21
-797.0000000010042
 31
0.0
  0
ARC
  5
1BE
  8
DATA
  6
CONTINUOUS
 62
     7
 10
965.00000000001489
 20
-780.00000000100465
 30
0.0
 40
9.0
 50
270.0
 51
0.0
  0
ARC
  5
1BF
  8
DATA
  6
CONTINUOUS
 62
     7
 10
963.99987316328816
 20
-797.0000000010042
 30
0.0
 40
3.0
 50
180.0
 51
270.0
  0
LINE
  5
1C0
  8
DATA
  6
CONTINUOUS
 62
     7
 10
964.0
 20
-803.50000000100408
 30
0.0
 11
963.99987316328816
 21
-800.00000000100385
 31
0.0
  0
LINE
  5
1C1
  8
DATA
  6
CONTINUOUS
 62
     7
 10
-581.99997787932887
 20
190.00000000000449
 30
0.0
 11
-581.99997787932887
 21
280.00000000000551
 31
0.0
  0
LINE
  5
1C2
  8
DATA
  6
CONTINUOUS
 62
     7
 10
-582.00000000000125
 20
280.00000000000551
 30
0.0
 11
-581.99997787932887
 21
280.00000000000551
 31
0.0
  0
LINE
  5
1C3
  8
DATA
  6
CONTINUOUS
 62
     7
 10
-581.99995575865785
 20
512.00000000000637
 30
0.0
 11
-582.00000000000205
 21
512.00000000000637
 31
0.0
  0
ARC
  5
1C4
  8
DATA
  6
CONTINUOUS
 62
     7
 10
-309.99997787932728
 20
90.000000000025409
 30
0.0
 40
124.99999999998241
 50
73.739795291685908
 51
106.260204708315
  0
ARC
  5
1C5
  8
DATA
  6
CONTINUOUS
 62
     7
 10
-309.99995575865711
 20
419.99999999997448
 30
0.0
 40
124.99999999996859
 50
253.73979529168531
 51
286.26020470831719
  0
ARC
  5
1C6
  8
DATA
  6
CONTINUOUS
 62
     7
 10
-344.99997787932921
 20
220.00000000000591
 30
0.0
 40
9.9999999999995435
 50
180.0000000000025
 51
270.00000000000261
  0
ARC
  5
1C7
  8
DATA
  6
CONTINUOUS
 62
     7
 10
-369.9999576989573
 20
189.99999999923691
 30
0.0
 40
20.0
 50
180.0
 51
0.0
  0
ARC
  5
1C8
  8
DATA
  6
CONTINUOUS
 62
     7
 10
-369.9999576989573
 20
189.99999999923691
 30
0.0
 40
20.00000000000006
 50
0.0
 51
180.0
  0
CIRCLE
  5
1C9
  8
DATA
  6
CONTINUOUS
 62
     7
 10
-338.28422700611839
 20
158.2842712474648
 30
0.0
 40
4.0
  0
ARC
  5
1CA
  8
DATA
  6
CONTINUOUS
 62
     7
 10
-474.99997787930812
 20
255.0000000000054
 30
0.0
 40
124.9999999999804
 50
343.73979529168679
 51
16.260204708315879
  0
ARC
  5
1CB
  8
DATA
  6
CONTINUOUS
 62
     7
 10
-344.99997787928231
 20
289.99999999998448
 30
0.0
 40
10.0000000000472
 50
89.999873258143779
 51
180.0
  0
ARC
  5
1CC
  8
DATA
  6
CONTINUOUS
 62
     7
 10
-274.99997787932728
 20
220.00000000000679
 30
0.0
 40
9.9999999999995595
 50
269.99999999999483
 51
0.0
  0
ARC
  5
1CD
  8
DATA
  6
CONTINUOUS
 62
     7
 10
-249.99995769895719
 20
189.99999999923821
 30
0.0
 40
20.00000000000006
 50
180.00000000000131
 51
0.0
  0
ARC
  5
1CE
  8
DATA
  6
CONTINUOUS
 62
     7
 10
-249.99995769895719
 20
189.99999999923821
 30
0.0
 40
20.0
 50
0.0
 51
180.00000000000131
  0
CIRCLE
  5
1CF
  8
DATA
  6
CONTINUOUS
 62
     7
 10
-281.71568451119413
 20
158.28427124746571
 30
0.0
 40
4.0
  0
ARC
  5
1D0
  8
DATA
  6
CONTINUOUS
 62
     7
 10
-144.99997787931039
 20
255.00000000000949
 30
0.0
 40
125.0000000000181
 50
163.73979529169091
 51
196.26020470831239
  0
ARC
  5
1D1
  8
DATA
  6
CONTINUOUS
 62
     7
 10
-274.99997787937741
 20
289.99999999998357
 30
0.0
 40
10.00000000004866
 50
0.0
 51
89.999873257601848
  0
ARC
  5
1D2
  8
DATA
  6
CONTINUOUS
 62
     7
 10
-409.99995575865722
 20
375.00000000000551
 30
0.0
 40
20.0
 50
180.0
 51
0.0
  0
ARC
  5
1D3
  8
DATA
  6
CONTINUOUS
 62
     7
 10
-409.99995575865722
 20
375.00000000000551
 30
0.0
 40
20.0
 50
0.0
 51
180.0
  0
ARC
  5
1D4
  8
DATA
  6
CONTINUOUS
 62
     7
 10
-209.99995575865711
 20
375.00000000000642
 30
0.0
 40
20.0
 50
180.0
 51
0.0
  0
ARC
  5
1D5
  8
DATA
  6
CONTINUOUS
 62
     7
 10
-209.99995575865711
 20
375.00000000000642
 30
0.0
 40
20.0
 50
0.0
 51
180.0
  0
LINE
  5
1D6
  8
DATA
  6
CONTINUOUS
 62
     7
 10
-582.00000000000205
 20
600.00000000000716
 30
0.0
 11
-600.00000000000318
 21
600.00000000000716
 31
0.0
  0
LINE
  5
1D7
  8
DATA
  6
CONTINUOUS
 62
     7
 10
-600.00000000000318
 20
600.00000000000716
 30
0.0
 11
-600.00000000000318
 21
563.99987316329498
 31
0.0
  0
LINE
  5
1D8
  8
DATA
  6
CONTINUOUS
 62
     7
 10
-589.5000000000033
 20
537.46033737232756
 30
0.0
 11
-589.00000000000205
 21
537.46033737232756
 31
0.0
  0
LINE
  5
1D9
  8
DATA
  6
CONTINUOUS
 62
     7
 10
-589.5000000000033
 20
540.87119492415195
 30
0.0
 11
-589.00000000000205
 21
540.87119492415229
 31
0.0
  0
LINE
  5
1DA
  8
DATA
  6
CONTINUOUS
 62
     7
 10
-589.5000000000033
 20
557.12855140243755
 30
0.0
 11
-589.00000000000205
 21
557.12855140243755
 31
0.0
  0
LINE
  5
1DB
  8
DATA
  6
CONTINUOUS
 62
     7
 10
-589.5000000000033
 20
560.53940895426285
 30
0.0
 11
-589.00000000000205
 21
560.5394089542624
 31
0.0
  0
LINE
  5
1DC
  8
DATA
  6
CONTINUOUS
 62
     7
 10
-604.00000000000125
 20
557.99987316329407
 30
0.0
 11
-604.00000000000125
 21
539.99987316329407
 31
0.0
  0
LINE
  5
1DD
  8
DATA
  6
CONTINUOUS
 62
     7
 10
-589.5000000000033
 20
560.53940895426285
 30
0.0
 11
-589.5000000000033
 21
560.9998731632968
 31
0.0
  0
LINE
  5
1DE
  8
DATA
  6
CONTINUOUS
 62
     7
 10
-589.5000000000033
 20
536.9998731632968
 30
0.0
 11
-589.5000000000033
 21
537.46033737232756
 31
0.0
  0
LINE
  5
1DF
  8
DATA
  6
CONTINUOUS
 62
     7
 10
-589.5000000000033
 20
537.46033737232756
 30
0.0
 11
-589.5000000000033
 21
540.87119492415195
 31
0.0
  0
LINE
  5
1E0
  8
DATA
  6
CONTINUOUS
 62
     7
 10
-589.5000000000033
 20
540.87119492415195
 30
0.0
 11
-589.5000000000033
 21
557.12855140243755
 31
0.0
  0
LINE
  5
1E1
  8
DATA
  6
CONTINUOUS
 62
     7
 10
-589.5000000000033
 20
557.12855140243755
 30
0.0
 11
-589.5000000000033
 21
560.53940895426285
 31
0.0
  0
LINE
  5
1E2
  8
DATA
  6
CONTINUOUS
 62
     7
 10
-597.0000000000033
 20
558.99987316329361
 30
0.0
 11
-597.00000000000205
 21
560.9998731632968
 31
0.0
  0
LINE
  5
1E3
  8
DATA
  6
CONTINUOUS
 62
     7
 10
-597.00000000000205
 20
536.9998731632968
 30
0.0
 11
-597.0000000000033
 21
538.99987316329305
 31
0.0
  0
LINE
  5
1E4
  8
DATA
  6
CONTINUOUS
 62
     7
 10
-600.00000000000205
 20
536.99987316329486
 30
0.0
 11
-600.00000000000318
 21
560.99987316329452
 31
0.0
  0
LINE
  5
1E5
  8
DATA
  6
CONTINUOUS
 62
     7
 10
-591.00000000000205
 20
538.99987316329305
 30
0.0
 11
-591.00000000000205
 21
558.99987316329418
 31
0.0
  0
LINE
  5
1E6
  8
DATA
  6
CONTINUOUS
 62
     7
 10
-597.0000000000033
 20
558.99987316329361
 30
0.0
 11
-591.00000000000205
 21
558.99987316329418
 31
0.0
  0
LINE
  5
1E7
  8
DATA
  6
CONTINUOUS
 62
     7
 10
-597.0000000000033
 20
538.99987316329305
 30
0.0
 11
-597.0000000000033
 21
558.99987316329361
 31
0.0
  0
LINE
  5
1E8
  8
DATA
  6
CONTINUOUS
 62
     7
 10
-597.0000000000033
 20
538.99987316329305
 30
0.0
 11
-591.00000000000205
 21
538.99987316329305
 31
0.0
  0
LINE
  5
1E9
  8
DATA
  6
CONTINUOUS
 62
     7
 10
-606.0000000000033
 20
555.99987316329418
 30
0.0
 11
-606.00000000000205
 21
541.99987316329418
 31
0.0
  0
LINE
  5
1EA
  8
DATA
  6
CONTINUOUS
 62
     7
 10
-600.00000000000205
 20
536.99987316329486
 30
0.0
 11
-600.00000000000205
 21
533.99987316329589
 31
0.0
  0
LINE
  5
1EB
  8
DATA
  6
CONTINUOUS
 62
     7
 10
-589.00000000000205
 20
536.99987316329532
 30
0.0
 11
-600.00000000000205
 21
536.99987316329486
 31
0.0
  0
LINE
  5
1EC
  8
DATA
  6
CONTINUOUS
 62
     7
 10
-600.00000000000318
 20
563.99987316329498
 30
0.0
 11
-600.00000000000318
 21
560.99987316329452
 31
0.0
  0
LINE
  5
1ED
  8
DATA
  6
CONTINUOUS
 62
     7
 10
-600.00000000000318
 20
560.99987316329452
 30
0.0
 11
-589.00000000000205
 21
560.99987316329486
 31
0.0
  0
LINE
  5
1EE
  8
DATA
  6
CONTINUOUS
 62
     7
 10
-600.00000000000318
 20
563.99987316329498
 30
0.0
 11
-589.00000000000205
 21
563.99987316329498
 31
0.0
  0
LINE
  5
1EF
  8
DATA
  6
CONTINUOUS
 62
     7
 10
-589.00000000000205
 20
563.99987316329498
 30
0.0
 11
-589.00000000000205
 21
533.99987316329589
 31
0.0
  0
LINE
  5
1F0
  8
DATA
  6
CONTINUOUS
 62
     7
 10
-589.00000000000205
 20
533.99987316329589
 30
0.0
 11
-600.00000000000205
 21
533.99987316329589
 31
0.0
  0
LINE
  5
1F1
  8
DATA
  6
CONTINUOUS
 62
     7
 10
-589.5000000000033
 20
554.99987316329668
 30
0.0
 11
-591.00000000000205
 21
554.99987316329668
 31
0.0
  0
LINE
  5
1F2
  8
DATA
  6
CONTINUOUS
 62
     7
 10
-591.00000000000205
 20
542.99987316329668
 30
0.0
 11
-589.5000000000033
 21
542.99987316329668
 31
0.0
  0
LINE
  5
1F3
  8
DATA
  6
CONTINUOUS
 62
     7
 10
-591.00000000000205
 20
544.99987316329407
 30
0.0
 11
-589.5000000000033
 21
544.99987316329407
 31
0.0
  0
LINE
  5
1F4
  8
DATA
  6
CONTINUOUS
 62
     7
 10
-589.5000000000033
 20
552.99987316329452
 30
0.0
 11
-591.00000000000205
 21
552.99987316329452
 31
0.0
  0
LINE
  5
1F5
  8
DATA
  6
CONTINUOUS
 62
     7
 10
-604.00000000000125
 20
539.99987316329407
 30
0.0
 11
-600.00000000000205
 21
539.99987316329407
 31
0.0
  0
LINE
  5
1F6
  8
DATA
  6
CONTINUOUS
 62
     7
 10
-600.00000000000205
 20
557.99987316329407
 30
0.0
 11
-604.00000000000125
 21
557.99987316329407
 31
0.0
  0
ARC
  5
1F7
  8
DATA
  6
CONTINUOUS
 62
     7
 10
-604.00000000000205
 20
555.99987316329418
 30
0.0
 40
2.0
 50
89.999999999986969
 51
180.0
  0
ARC
  5
1F8
  8
DATA
  6
CONTINUOUS
 62
     7
 10
-604.00000000000125
 20
541.99987316329418
 30
0.0
 40
2.0
 50
180.0
 51
270.0
  0
LINE
  5
1F9
  8
DATA
  6
CONTINUOUS
 62
     7
 10
-589.5000000000033
 20
539.49987316329486
 30
0.0
 11
-591.00000000000205
 21
539.49987316329486
 31
0.0
  0
LINE
  5
1FA
  8
DATA
  6
CONTINUOUS
 62
     7
 10
-591.00000000000205
 20
558.49987316329486
 30
0.0
 11
-589.5000000000033
 21
558.49987316329486
 31
0.0
  0
LINE
  5
1FB
  8
DATA
  6
CONTINUOUS
 62
     7
 10
-582.00000000000205
 20
588.00000000000591
 30
0.0
 11
-581.99995575865785
 21
588.00000000000591
 31
0.0
  0
ARC
  5
1FC
  8
DATA
  6
CONTINUOUS
 62
     7
 10
-499.99995575865711
 20
545.00000000000682
 30
0.0
 40
20.0
 50
180.0
 51
0.0
  0
ARC
  5
1FD
  8
DATA
  6
CONTINUOUS
 62
     7
 10
-499.99995575865711
 20
545.00000000000682
 30
0.0
 40
20.0
 50
0.0
 51
180.0
  0
LINE
  5
1FE
  8
DATA
  6
CONTINUOUS
 62
     7
 10
-582.00000000000023
 20
-800.00000000000227
 30
0.0
 11
-600.0
 21
-800.0
 31
0.0
  0
LINE
  5
1FF
  8
DATA
  6
CONTINUOUS
 62
     7
 10
-600.0
 20
-790.0
 30
0.0
 11
-582.00000000000023
 21
-790.0
 31
0.0
  0
LINE
  5
200
  8
DATA
  6
CONTINUOUS
 62
     7
 10
-589.0000000000033
 20
-800.00000000000387
 30
0.0
 11
-600.0
 21
-800.0
 31
0.0
  0
LINE
  5
201
  8
DATA
  6
CONTINUOUS
 62
     7
 10
-589.00000000000011
 20
-800.00000000000239
 30
0.0
 11
-600.0
 21
-800.0
 31
0.0
  0
LINE
  5
202
  8
DATA
  6
CONTINUOUS
 62
     7
 10
-588.99999999999818
 20
-800.00000000000034
 30
0.0
 11
-600.0
 21
-800.0
 31
0.0
  0
LINE
  5
203
  8
DATA
  6
CONTINUOUS
 62
     7
 10
-600.0
 20
-790.0
 30
0.0
 11
-600.0
 21
-800.0
 31
0.0
  0
LINE
  5
204
  8
DATA
  6
CONTINUOUS
 62
     7
 10
-570.00000000000352
 20
-762.40768738961231
 30
0.0
 11
-570.00000000000352
 21
-702.40768738961037
 31
0.0
  0
LINE
  5
205
  8
DATA
  6
CONTINUOUS
 62
     7
 10
-582.0000000000025
 20
-782.00000000000477
 30
0.0
 11
-581.99995575865535
 21
-782.00000000000523
 31
0.0
  0
LINE
  5
206
  8
DATA
  6
CONTINUOUS
 62
     7
 10
-581.99995575865535
 20
-788.000000000005
 30
0.0
 11
-582.00000000000023
 21
-788.000000000005
 31
0.0
  0
LINE
  5
207
  8
DATA
  6
CONTINUOUS
 62
     7
 10
-581.99995575865535
 20
-782.00000000000477
 30
0.0
 11
-582.00000000000023
 21
-800.00000000000227
 31
0.0
  0
LINE
  5
208
  8
DATA
  6
CONTINUOUS
 62
     7
 10
-581.50000000000159
 20
-778.00000000000375
 30
0.0
 11
-581.50000000000159
 21
-766.00000000000398
 31
0.0
  0
LINE
  5
209
  8
DATA
  6
CONTINUOUS
 62
     7
 10
-570.0000000000025
 20
-782.00000000000443
 30
0.0
 11
-570.00000000000352
 21
-762.40768738961231
 31
0.0
  0
LINE
  5
20A
  8
DATA
  6
CONTINUOUS
 62
     7
 10
-570.00000000000352
 20
-762.40768738961231
 30
0.0
 11
-582.00000000000023
 21
-762.40768738961231
 31
0.0
  0
LINE
  5
20B
  8
DATA
  6
CONTINUOUS
 62
     7
 10
-582.00000000000023
 20
-790.0
 30
0.0
 11
-582.00000000000023
 21
-800.00000000000227
 31
0.0
  0
LINE
  5
20C
  8
DATA
  6
CONTINUOUS
 62
     7
 10
-582.00000000000023
 20
-778.00000000000375
 30
0.0
 11
-581.50000000000159
 21
-778.00000000000375
 31
0.0
  0
LINE
  5
20D
  8
DATA
  6
CONTINUOUS
 62
     7
 10
-581.50000000000159
 20
-766.00000000000398
 30
0.0
 11
-582.00000000000023
 21
-766.00000000000398
 31
0.0
  0
LINE
  5
20E
  8
DATA
  6
CONTINUOUS
 62
     7
 10
-580.50000000000023
 20
-712.31488068362614
 30
0.0
 11
-580.50000000000023
 21
-712.66851553403171
 31
0.0
  0
LINE
  5
20F
  8
DATA
  6
CONTINUOUS
 62
     7
 10
-580.50000000000023
 20
-708.62094462752816
 30
0.0
 11
-580.50000000000023
 21
-712.31488068362614
 31
0.0
  0
LINE
  5
210
  8
DATA
  6
CONTINUOUS
 62
     7
 10
-580.50000000000023
 20
-712.31488068362614
 30
0.0
 11
-582.00000000000023
 21
-712.31488068362614
 31
0.0
  0
LINE
  5
211
  8
DATA
  6
CONTINUOUS
 62
     7
 10
-580.50000000000023
 20
-708.62094462752816
 30
0.0
 11
-582.00000000000023
 21
-708.62094462752816
 31
0.0
  0
LINE
  5
212
  8
DATA
  6
CONTINUOUS
 62
     7
 10
-580.50000000000023
 20
-702.12761144988485
 30
0.0
 11
-580.50000000000023
 21
-708.62094462752816
 31
0.0
  0
LINE
  5
213
  8
DATA
  6
CONTINUOUS
 62
     7
 10
-580.50000000000023
 20
-702.12761144988485
 30
0.0
 11
-582.00000000000023
 21
-702.12761144988485
 31
0.0
  0
LINE
  5
214
  8
DATA
  6
CONTINUOUS
 62
     7
 10
-580.5000000000025
 20
-744.62614908634373
 30
0.0
 11
-580.5000000000025
 21
-744.27251423593827
 31
0.0
  0
LINE
  5
215
  8
DATA
  6
CONTINUOUS
 62
     7
 10
-580.5000000000025
 20
-744.27251423593827
 30
0.0
 11
-580.5000000000025
 21
-740.57857817984075
 31
0.0
  0
LINE
  5
216
  8
DATA
  6
CONTINUOUS
 62
     7
 10
-580.5000000000025
 20
-744.27251423593827
 30
0.0
 11
-582.0000000000025
 21
-744.27251423593827
 31
0.0
  0
LINE
  5
217
  8
DATA
  6
CONTINUOUS
 62
     7
 10
-580.5000000000025
 20
-734.08524500219721
 30
0.0
 11
-580.50000000000023
 21
-712.66851553403171
 31
0.0
  0
LINE
  5
218
  8
DATA
  6
CONTINUOUS
 62
     7
 10
-580.5000000000025
 20
-740.57857817984075
 30
0.0
 11
-582.0000000000025
 21
-740.57857817984075
 31
0.0
  0
LINE
  5
219
  8
DATA
  6
CONTINUOUS
 62
     7
 10
-580.5000000000025
 20
-740.57857817984075
 30
0.0
 11
-580.5000000000025
 21
-734.08524500219721
 31
0.0
  0
LINE
  5
21A
  8
DATA
  6
CONTINUOUS
 62
     7
 10
-580.5000000000025
 20
-734.08524500219721
 30
0.0
 11
-582.0000000000025
 21
-734.08524500219721
 31
0.0
  0
LINE
  5
21B
  8
DATA
  6
CONTINUOUS
 62
     7
 10
-580.50000000000023
 20
-702.40768738961037
 30
0.0
 11
-570.00000000000352
 21
-702.40768738961037
 31
0.0
  0
LINE
  5
21C
  8
DATA
  6
CONTINUOUS
 62
     7
 10
-582.00000000000023
 20
-712.66851553403171
 30
0.0
 11
-580.50000000000023
 21
-712.66851553403171
 31
0.0
  0
LINE
  5
21D
  8
DATA
  6
CONTINUOUS
 62
     7
 10
-582.0000000000025
 20
-744.62614908634373
 30
0.0
 11
-580.5000000000025
 21
-744.62614908634373
 31
0.0
  0
LINE
  5
21E
  8
DATA
  6
CONTINUOUS
 62
     7
 10
-518.99995575865546
 20
-800.00000000000443
 30
0.0
 11
-518.99995575865546
 21
-803.00000000000432
 31
0.0
  0
LINE
  5
21F
  8
DATA
  6
CONTINUOUS
 62
     7
 10
-480.99995575865557
 20
-803.00000000000432
 30
0.0
 11
-480.99995575865557
 21
-800.00000000000443
 31
0.0
  0
LINE
  5
220
  8
DATA
  6
CONTINUOUS
 62
     7
 10
356.00012683672497
 20
-300.00000000100772
 30
0.0
 11
933.99987316328918
 21
-300.00000000100772
 31
0.0
  0
LINE
  5
221
  8
DATA
  6
CONTINUOUS
 62
     7
 10
331.00012683672497
 20
-271.00000000100749
 30
0.0
 11
331.00012683672497
 21
-312.00000000100761
 31
0.0
  0
LINE
  5
222
  8
DATA
  6
CONTINUOUS
 62
     7
 10
351.00012683672509
 20
-312.00000000100761
 30
0.0
 11
351.00012683672509
 21
-271.00000000100749
 31
0.0
  0
LINE
  5
223
  8
DATA
  6
CONTINUOUS
 62
     7
 10
371.9999999999992
 20
-320.00000000100738
 30
0.0
 11
371.9999999999992
 21
-635.29892294465867
 31
0.0
  0
LINE
  5
224
  8
DATA
  6
CONTINUOUS
 62
     7
 10
373.0000000000008
 20
-320.00000000100738
 30
0.0
 11
373.0000000000008
 21
-635.29892294465924
 31
0.0
  0
ARC
  5
225
  8
DATA
  6
CONTINUOUS
 62
     7
 10
380.0
 20
-684.60078032159879
 30
0.0
 40
8.000000000000524
 50
68.911811552453997
 51
180.0
  0
ARC
  5
226
  8
DATA
  6
CONTINUOUS
 62
     7
 10
380.00000000000091
 20
-684.60078032159913
 30
0.0
 40
7.0000000000006573
 50
68.911811552454637
 51
180.0
  0
CIRCLE
  5
227
  8
DATA
  6
CONTINUOUS
 62
     7
 10
341.00012683672412
 20
-673.00000000100545
 30
0.0
 40
3.0
  0
ARC
  5
228
  8
DATA
  6
CONTINUOUS
 62
     7
 10
380.0
 20
-635.29892294465867
 30
0.0
 40
8.0
 50
180.0
 51
248.91181155246011
  0
ARC
  5
229
  8
DATA
  6
CONTINUOUS
 62
     7
 10
380.0
 20
-635.29892294465958
 30
0.0
 40
6.9999999999990896
 50
180.0
 51
248.91181155246241
  0
CIRCLE
  5
22A
  8
DATA
  6
CONTINUOUS
 62
     7
 10
319.50012683672412
 20
-550.00000000100613
 30
0.0
 40
3.0
  0
CIRCLE
  5
22B
  8
DATA
  6
CONTINUOUS
 62
     7
 10
341.00012683672497
 20
-550.00000000100613
 30
0.0
 40
3.0
  0
CIRCLE
  5
22C
  8
DATA
  6
CONTINUOUS
 62
     7
 10
448.34761252850677
 20
-686.3068138786864
 30
0.0
 40
3.0
  0
LINE
  5
22D
  8
DATA
  6
CONTINUOUS
 62
     7
 10
336.80012683672612
 20
-406.00000000100749
 30
0.0
 11
336.80012683672612
 21
-356.95989949786082
 31
0.0
  0
LINE
  5
22E
  8
DATA
  6
CONTINUOUS
 62
     7
 10
345.2001268367253
 20
-356.9598994978611
 30
0.0
 11
345.2001268367253
 21
-406.00000000100709
 31
0.0
  0
ARC
  5
22F
  8
DATA
  6
CONTINUOUS
 62
     7
 10
341.00012683672588
 20
-406.00000000100709
 30
0.0
 40
4.1999999999998181
 50
180.0
 51
0.0
  0
CIRCLE
  5
230
  8
DATA
  6
CONTINUOUS
 62
     7
 10
341.00012683672412
 20
-427.0000000010067
 30
0.0
 40
3.0
  0
ARC
  5
231
  8
DATA
  6
CONTINUOUS
 62
     7
 10
320.0
 20
-320.00000000100738
 30
0.0
 40
7.9999999999998863
 50
90.0
 51
180.0
  0
LINE
  5
232
  8
DATA
  6
CONTINUOUS
 62
     7
 10
310.0
 20
-300.00000000100772
 30
0.0
 11
326.00012683672509
 21
-300.00000000100891
 31
0.0
  0
ARC
  5
233
  8
DATA
  6
CONTINUOUS
 62
     7
 10
320.00000000000091
 20
-320.00000000100738
 30
0.0
 40
9.0
 50
90.0
 51
180.0
  0
ARC
  5
234
  8
DATA
  6
CONTINUOUS
 62
     7
 10
310.0
 20
-310.00000000101261
 30
0.0
 40
10.00000000000477
 50
90.0
 51
180.0000000000006
  0
CIRCLE
  5
235
  8
DATA
  6
CONTINUOUS
 62
     7
 10
341.00012683672588
 20
-349.00000000100778
 30
0.0
 40
9.0
  0
CIRCLE
  5
236
  8
DATA
  6
CONTINUOUS
 62
     7
 10
341.00012683672412
 20
-349.00000000105081
 30
0.0
 40
7.0000000000018181
  0
CIRCLE
  5
237
  8
DATA
  6
CONTINUOUS
 62
     7
 10
324.5
 20
-370.00000000100732
 30
0.0
 40
3.0
  0
CIRCLE
  5
238
  8
DATA
  6
CONTINUOUS
 62
     7
 10
319.50012683672412
 20
-348.00000000100852
 30
0.0
 40
3.0
  0
ARC
  5
239
  8
DATA
  6
CONTINUOUS
 62
     7
 10
341.00012683672497
 20
-349.00000000100778
 30
0.0
 40
9.9999999999999538
 50
245.1654125103052
 51
294.83458748970588
  0
CIRCLE
  5
23A
  8
DATA
  6
CONTINUOUS
 62
     7
 10
364.50012683672321
 20
-348.00000000100852
 30
0.0
 40
3.0
  0
LINE
  5
23B
  8
DATA
  6
CONTINUOUS
 62
     7
 10
320.0
 20
-312.00000000100761
 30
0.0
 11
363.9999999999992
 21
-312.00000000100761
 31
0.0
  0
CIRCLE
  5
23C
  8
DATA
  6
CONTINUOUS
 62
     7
 10
325.50012683672497
 20
-328.00000000100857
 30
0.0
 40
3.0
  0
CIRCLE
  5
23D
  8
DATA
  6
CONTINUOUS
 62
     7
 10
341.00012683672412
 20
-328.00000000100749
 30
0.0
 40
4.0
  0
LINE
  5
23E
  8
DATA
  6
CONTINUOUS
 62
     7
 10
326.00012683672509
 20
-300.00000000100891
 30
0.0
 11
331.00012683672497
 21
-300.00000000100772
 31
0.0
  0
LINE
  5
23F
  8
DATA
  6
CONTINUOUS
 62
     7
 10
329.00012683672497
 20
-312.00000000100761
 30
0.0
 11
329.00012683672497
 21
-311.00000000100772
 31
0.0
  0
LINE
  5
240
  8
DATA
  6
CONTINUOUS
 62
     7
 10
329.00012683672497
 20
-311.00000000100772
 30
0.0
 11
329.00012683672497
 21
-303.00000000101238
 31
0.0
  0
LINE
  5
241
  8
DATA
  6
CONTINUOUS
 62
     7
 10
320.00000000000091
 20
-311.00000000100772
 30
0.0
 11
329.00012683672497
 21
-311.00000000100772
 31
0.0
  0
ARC
  5
242
  8
DATA
  6
CONTINUOUS
 62
     7
 10
326.00012683672509
 20
-303.00000000101238
 30
0.0
 40
3.000000000003638
 50
0.0
 51
90.0
  0
ARC
  5
243
  8
DATA
  6
CONTINUOUS
 62
     7
 10
363.9999999999992
 20
-320.00000000100738
 30
0.0
 40
8.0
 50
0.0
 51
90.0
  0
CIRCLE
  5
244
  8
DATA
  6
CONTINUOUS
 62
     7
 10
356.50012683672497
 20
-328.00000000100857
 30
0.0
 40
3.0
  0
LINE
  5
245
  8
DATA
  6
CONTINUOUS
 62
     7
 10
351.00012683672509
 20
-300.00000000100772
 30
0.0
 11
356.00012683672497
 21
-300.00000000100772
 31
0.0
  0
LINE
  5
246
  8
DATA
  6
CONTINUOUS
 62
     7
 10
353.00012683672412
 20
-311.00000000100772
 30
0.0
 11
353.00012683672412
 21
-312.00000000100761
 31
0.0
  0
ARC
  5
247
  8
DATA
  6
CONTINUOUS
 62
     7
 10
364.0
 20
-320.00000000100761
 30
0.0
 40
9.0000000000004547
 50
0.0
 51
90.0
  0
ARC
  5
248
  8
DATA
  6
CONTINUOUS
 62
     7
 10
356.00012683672497
 20
-303.00000000101221
 30
0.0
 40
3.0000000000044329
 50
90.0
 51
180.0
  0
LINE
  5
249
  8
DATA
  6
CONTINUOUS
 62
     7
 10
353.00012683672412
 20
-303.00000000101221
 30
0.0
 11
353.00012683672412
 21
-311.00000000100772
 31
0.0
  0
LINE
  5
24A
  8
DATA
  6
CONTINUOUS
 62
     7
 10
353.00012683672412
 20
-311.00000000100772
 30
0.0
 11
364.0
 21
-311.00000000100772
 31
0.0
  0
ARC
  5
24B
  8
DATA
  6
CONTINUOUS
 62
     7
 10
341.00012683672497
 20
-271.00000000100749
 30
0.0
 40
10.0
 50
0.0
 51
180.0000000000004
  0
CIRCLE
  5
24C
  8
DATA
  6
CONTINUOUS
 62
     7
 10
341.00012683672412
 20
-271.00000000100732
 30
0.0
 40
4.0
  0
LINE
  5
24D
  8
DATA
  6
CONTINUOUS
 62
     7
 10
-581.99995575931371
 20
-1800.0000000000009
 30
0.0
 11
-581.99995575931189
 21
-1135.0000000000009
 31
0.0
  0
LINE
  5
24E
  8
DATA
  6
CONTINUOUS
 62
     7
 10
-582.00000000065575
 20
-1110.0000000000009
 30
0.0
 11
-582.00000000065791
 21
-1800.000000000002
 31
0.0
  0
LINE
  5
24F
  8
DATA
  6
CONTINUOUS
 62
     7
 10
-600.00000000065711
 20
-1528.2245424134651
 30
0.0
 11
-600.00000000065802
 21
-1733.99987316329
 31
0.0
  0
LINE
  5
250
  8
DATA
  6
CONTINUOUS
 62
     7
 10
938.99987316328645
 20
-271.00000000100732
 30
0.0
 11
938.99987316328645
 21
-312.00000000100732
 31
0.0
  0
LINE
  5
251
  8
DATA
  6
CONTINUOUS
 62
     7
 10
958.99987316328725
 20
-312.00000000100732
 30
0.0
 11
958.99987316328725
 21
-271.00000000100732
 31
0.0
  0
ARC
  5
252
  8
DATA
  6
CONTINUOUS
 62
     7
 10
630.00000000000819
 20
-385.00000000098908
 30
0.0
 40
125.0000000000169
 50
253.73979529168949
 51
286.26020470830952
  0
ARC
  5
253
  8
DATA
  6
CONTINUOUS
 62
     7
 10
630.000000000005
 20
-715.00000000098555
 30
0.0
 40
124.9999999999806
 50
73.739795291690015
 51
106.26020470831411
  0
ARC
  5
254
  8
DATA
  6
CONTINUOUS
 62
     7
 10
595.00000000000489
 20
-515.00000000100465
 30
0.0
 40
9.9999999999992042
 50
90.000000000005244
 51
180.0
  0
ARC
  5
255
  8
DATA
  6
CONTINUOUS
 62
     7
 10
595.00000000000489
 20
-585.00000000100636
 30
0.0
 40
9.9999999999990905
 50
180.0000000000006
 51
270.00000000000261
  0
ARC
  5
256
  8
DATA
  6
CONTINUOUS
 62
     7
 10
465.00000000002001
 20
-550.00000000100545
 30
0.0
 40
124.99999999998769
 50
343.73979529168662
 51
16.260204708313889
  0
CIRCLE
  5
257
  8
DATA
  6
CONTINUOUS
 62
     7
 10
760.24195973791723
 20
-669.30460322937313
 30
0.0
 40
3.0
  0
ARC
  5
258
  8
DATA
  6
CONTINUOUS
 62
     7
 10
794.99999999996828
 20
-549.99997788033318
 30
0.0
 40
124.9999999999641
 50
163.73979529168341
 51
196.26020470831861
  0
ARC
  5
259
  8
DATA
  6
CONTINUOUS
 62
     7
 10
664.99999999998306
 20
-585.00000000095883
 30
0.0
 40
10.000000000047979
 50
270.00000000007299
 51
0.0
  0
ARC
  5
25A
  8
DATA
  6
CONTINUOUS
 62
     7
 10
664.99999999998215
 20
-515.00000000105558
 30
0.0
 40
10.0000000000482
 50
0.0
 51
89.999999999864556
  0
LINE
  5
25B
  8
DATA
  6
CONTINUOUS
 62
     7
 10
925.00000000001398
 20
-584.20290536220625
 30
0.0
 11
925.0000000000133
 21
-320.00000000100721
 31
0.0
  0
LINE
  5
25C
  8
DATA
  6
CONTINUOUS
 62
     7
 10
924.00000000001489
 20
-584.20290536220614
 30
0.0
 11
924.00000000001489
 21
-320.00000000100721
 31
0.0
  0
ARC
  5
25D
  8
DATA
  6
CONTINUOUS
 62
     7
 10
917.00000000001398
 20
-633.50476273914614
 30
0.0
 40
8.0000000000004547
 50
0.0
 51
111.0881884475408
  0
ARC
  5
25E
  8
DATA
  6
CONTINUOUS
 62
     7
 10
917.00000000001398
 20
-584.20290536220625
 30
0.0
 40
8.0000000000002061
 50
291.08818844754688
 51
0.0
  0
ARC
  5
25F
  8
DATA
  6
CONTINUOUS
 62
     7
 10
917.00000000001501
 20
-633.50476273914569
 30
0.0
 40
7.0
 50
0.0000000000009095
 51
111.0881884475404
  0
ARC
  5
260
  8
DATA
  6
CONTINUOUS
 62
     7
 10
917.00000000001398
 20
-584.2029053622058
 30
0.0
 40
7.0000000000010338
 50
291.08818844754819
 51
0.0000000000009095
  0
CIRCLE
  5
261
  8
DATA
  6
CONTINUOUS
 62
     7
 10
887.20228353292134
 20
-620.34475902774727
 30
0.0
 40
3.0
  0
CIRCLE
  5
262
  8
DATA
  6
CONTINUOUS
 62
     7
 10
948.99987316328816
 20
-673.00000000100511
 30
0.0
 40
3.0
  0
CIRCLE
  5
263
  8
DATA
  6
CONTINUOUS
 62
     7
 10
965.49987316328827
 20
-550.00000000100556
 30
0.0
 40
3.0
  0
CIRCLE
  5
264
  8
DATA
  6
CONTINUOUS
 62
     7
 10
932.49987316328907
 20
-550.00000000100613
 30
0.0
 40
3.0
  0
CIRCLE
  5
265
  8
DATA
  6
CONTINUOUS
 62
     7
 10
948.99987316328816
 20
-550.00000000100556
 30
0.0
 40
3.0
  0
LINE
  5
266
  8
DATA
  6
CONTINUOUS
 62
     7
 10
967.0
 20
-547.40199702299071
 30
0.0
 11
967.0
 21
-552.59800297902143
 31
0.0
  0
LINE
  5
267
  8
DATA
  6
CONTINUOUS
 62
     7
 10
944.79987316328732
 20
-406.0000000010067
 30
0.0
 11
944.79987316328732
 21
-356.95989949786008
 31
0.0
  0
LINE
  5
268
  8
DATA
  6
CONTINUOUS
 62
     7
 10
953.19987316328707
 20
-356.95989949786082
 30
0.0
 11
953.19987316328707
 21
-406.00000000100709
 31
0.0
  0
CIRCLE
  5
269
  8
DATA
  6
CONTINUOUS
 62
     7
 10
948.99987316328816
 20
-427.0000000010067
 30
0.0
 40
3.0
  0
ARC
  5
26A
  8
DATA
  6
CONTINUOUS
 62
     7
 10
948.99987316328725
 20
-406.00000000100709
 30
0.0
 40
4.200000000000272
 50
180.0
 51
0.0
  0
LINE
  5
26B
  8
DATA
  6
CONTINUOUS
 62
     7
 10
963.99987316328816
 20
-300.00000000100772
 30
0.0
 11
1000.0
 21
-300.00000000100749
 31
0.0
  0
CIRCLE
  5
26C
  8
DATA
  6
CONTINUOUS
 62
     7
 10
948.99987316328816
 20
-349.00000000100778
 30
0.0
 40
9.0
  0
CIRCLE
  5
26D
  8
DATA
  6
CONTINUOUS
 62
     7
 10
932.49987316328907
 20
-348.00000000100829
 30
0.0
 40
3.0
  0
ARC
  5
26E
  8
DATA
  6
CONTINUOUS
 62
     7
 10
948.99987316328725
 20
-349.00000000100761
 30
0.0
 40
10.00000000000002
 50
245.16541251029969
 51
294.83458748970332
  0
CIRCLE
  5
26F
  8
DATA
  6
CONTINUOUS
 62
     7
 10
948.99987316329145
 20
-349.00000000106161
 30
0.0
 40
6.9999999999968159
  0
CIRCLE
  5
270
  8
DATA
  6
CONTINUOUS
 62
     7
 10
965.49987316328827
 20
-348.00000000100829
 30
0.0
 40
3.0
  0
LINE
  5
271
  8
DATA
  6
CONTINUOUS
 62
     7
 10
933.00000000001398
 20
-312.00000000100732
 30
0.0
 11
965.00000000001398
 21
-312.00000000100732
 31
0.0
  0
CIRCLE
  5
272
  8
DATA
  6
CONTINUOUS
 62
     7
 10
948.99987316328918
 20
-328.00000000100749
 30
0.0
 40
4.0
  0
ARC
  5
273
  8
DATA
  6
CONTINUOUS
 62
     7
 10
933.00000000001398
 20
-320.00000000100721
 30
0.0
 40
8.0000000000001137
 50
90.0
 51
180.0000000000008
  0
CIRCLE
  5
274
  8
DATA
  6
CONTINUOUS
 62
     7
 10
933.49987316328816
 20
-328.00000000100829
 30
0.0
 40
3.0
  0
LINE
  5
275
  8
DATA
  6
CONTINUOUS
 62
     7
 10
933.99987316328918
 20
-300.00000000100772
 30
0.0
 11
938.99987316328645
 21
-300.00000000100772
 31
0.0
  0
LINE
  5
276
  8
DATA
  6
CONTINUOUS
 62
     7
 10
924.22504569627836
 20
-317.99995575966301
 30
0.0
 11
925.40612630486919
 21
-317.99995575966301
 31
0.0
  0
LINE
  5
277
  8
DATA
  6
CONTINUOUS
 62
     7
 10
936.99987316328907
 20
-312.00000000100732
 30
0.0
 11
936.99987316328907
 21
-311.00000000100738
 31
0.0
  0
LINE
  5
278
  8
DATA
  6
CONTINUOUS
 62
     7
 10
924.22503561262317
 20
-318.00000000100732
 30
0.0
 11
925.40611732128127
 21
-318.00000000100732
 31
0.0
  0
ARC
  5
279
  8
DATA
  6
CONTINUOUS
 62
     7
 10
932.49987316328907
 20
-328.00000000100789
 30
0.0
 40
8.0000000000006217
 50
159.63325489534239
 51
200.36674510465841
  0
ARC
  5
27A
  8
DATA
  6
CONTINUOUS
 62
     7
 10
933.00000000001398
 20
-320.00000000100681
 30
0.0
 40
8.9999999999994316
 50
90.0
 51
167.1601227208364
  0
ARC
  5
27B
  8
DATA
  6
CONTINUOUS
 62
     7
 10
933.00000000001398
 20
-320.00000000100681
 30
0.0
 40
8.9999999999991616
 50
167.16041159309469
 51
180.00000000000071
  0
LINE
  5
27C
  8
DATA
  6
CONTINUOUS
 62
     7
 10
933.00000000001398
 20
-311.00000000100738
 30
0.0
 11
936.99987316328907
 21
-311.00000000100738
 31
0.0
  0
LINE
  5
27D
  8
DATA
  6
CONTINUOUS
 62
     7
 10
936.99987316328907
 20
-311.00000000100738
 30
0.0
 11
936.99987316328907
 21
-303.00000000100778
 31
0.0
  0
ARC
  5
27E
  8
DATA
  6
CONTINUOUS
 62
     7
 10
933.99987316328918
 20
-303.00000000100778
 30
0.0
 40
3.0
 50
0.0
 51
90.0
  0
ARC
  5
27F
  8
DATA
  6
CONTINUOUS
 62
     7
 10
965.00000000001398
 20
-320.00000000100721
 30
0.0
 40
8.0
 50
0.0
 51
90.0
  0
CIRCLE
  5
280
  8
DATA
  6
CONTINUOUS
 62
     7
 10
964.49987316328827
 20
-328.00000000100829
 30
0.0
 40
3.0
  0
LINE
  5
281
  8
DATA
  6
CONTINUOUS
 62
     7
 10
958.99987316328725
 20
-300.00000000100772
 30
0.0
 11
963.99987316328816
 21
-300.00000000100772
 31
0.0
  0
LINE
  5
282
  8
DATA
  6
CONTINUOUS
 62
     7
 10
960.99987316328827
 20
-311.00000000100738
 30
0.0
 11
960.99987316328827
 21
-312.00000000100732
 31
0.0
  0
ARC
  5
283
  8
DATA
  6
CONTINUOUS
 62
     7
 10
965.49987316329043
 20
-328.00000000100789
 30
0.0
 40
7.9999999999992184
 50
339.6384758124276
 51
20.361524187573082
  0
LINE
  5
284
  8
DATA
  6
CONTINUOUS
 62
     7
 10
960.99987316328827
 20
-311.00000000100738
 30
0.0
 11
965.00000000001398
 21
-311.00000000100721
 31
0.0
  0
ARC
  5
285
  8
DATA
  6
CONTINUOUS
 62
     7
 10
965.00000000001398
 20
-320.00000000100721
 30
0.0
 40
9.0
 50
0.0
 51
90.0
  0
LINE
  5
286
  8
DATA
  6
CONTINUOUS
 62
     7
 10
960.99987316328827
 20
-303.00000000100761
 30
0.0
 11
960.99987316328827
 21
-311.00000000100738
 31
0.0
  0
ARC
  5
287
  8
DATA
  6
CONTINUOUS
 62
     7
 10
963.99987316328816
 20
-303.00000000100761
 30
0.0
 40
3.0000000000001128
 50
90.0
 51
180.0
  0
ARC
  5
288
  8
DATA
  6
CONTINUOUS
 62
     7
 10
948.99987316328725
 20
-271.00000000100732
 30
0.0
 40
10.0
 50
0.0
 51
180.0000000000004
  0
CIRCLE
  5
289
  8
DATA
  6
CONTINUOUS
 62
     7
 10
948.99987316328645
 20
-271.00000000100732
 30
0.0
 40
4.0
  0
LINE
  5
28A
  8
DATA
  6
CONTINUOUS
 62
     7
 10
-597.0
 20
-300.00000000000767
 30
0.0
 11
-597.0
 21
-271.00000000000762
 31
0.0
  0
LINE
  5
28B
  8
DATA
  6
CONTINUOUS
 62
     7
 10
-591.00000000000011
 20
-300.00000000000767
 30
0.0
 11
-591.00000000000011
 21
-271.00000000000728
 31
0.0
  0
LINE
  5
28C
  8
DATA
  6
CONTINUOUS
 62
     7
 10
-581.99995575865535
 20
-544.00000000000591
 30
0.0
 11
-581.99995575865535
 21
-438.00000000000671
 31
0.0
  0
LINE
  5
28D
  8
DATA
  6
CONTINUOUS
 62
     7
 10
-581.99995575865535
 20
-662.00000000000523
 30
0.0
 11
-581.99995575865535
 21
-556.00000000000591
 31
0.0
  0
LINE
  5
28E
  8
DATA
  6
CONTINUOUS
 62
     7
 10
-581.99995575865535
 20
-660.02345096097315
 30
0.0
 11
-582.00000000000341
 21
-660.02345096097315
 31
0.0
  0
LINE
  5
28F
  8
DATA
  6
CONTINUOUS
 62
     7
 10
-580.50000000000341
 20
-670.21072019471433
 30
0.0
 11
-581.50000000000159
 21
-670.21072019471433
 31
0.0
  0
LINE
  5
290
  8
DATA
  6
CONTINUOUS
 62
     7
 10
-582.00000000000023
 20
-652.00000000000523
 30
0.0
 11
-581.99995575865535
 21
-652.00000000000523
 31
0.0
  0
LINE
  5
291
  8
DATA
  6
CONTINUOUS
 62
     7
 10
-580.50000000000341
 20
-668.99995575866024
 30
0.0
 11
-575.00000000000023
 21
-668.99995575866024
 31
0.0
  0
LINE
  5
292
  8
DATA
  6
CONTINUOUS
 62
     7
 10
-581.50000000000159
 20
-679.00000000000546
 30
0.0
 11
-581.50000000000159
 21
-667.00000000000523
 31
0.0
  0
LINE
  5
293
  8
DATA
  6
CONTINUOUS
 62
     7
 10
-580.50000000000023
 20
-676.67202675988096
 30
0.0
 11
-580.50000000000023
 21
-679.82505873183209
 31
0.0
  0
LINE
  5
294
  8
DATA
  6
CONTINUOUS
 62
     7
 10
-580.50000000000023
 20
-679.82505873183209
 30
0.0
 11
-582.00000000000023
 21
-679.82505873183209
 31
0.0
  0
LINE
  5
295
  8
DATA
  6
CONTINUOUS
 62
     7
 10
-580.50000000000341
 20
-663.49995575865728
 30
0.0
 11
-580.50000000000341
 21
-663.71738701707102
 31
0.0
  0
LINE
  5
296
  8
DATA
  6
CONTINUOUS
 62
     7
 10
-580.50000000000341
 20
-670.21072019471433
 30
0.0
 11
-580.50000000000023
 21
-676.67202675988096
 31
0.0
  0
LINE
  5
297
  8
DATA
  6
CONTINUOUS
 62
     7
 10
-580.50000000000341
 20
-663.71738701707102
 30
0.0
 11
-580.50000000000341
 21
-670.21072019471433
 31
0.0
  0
LINE
  5
298
  8
DATA
  6
CONTINUOUS
 62
     7
 10
-582.00000000000341
 20
-663.71738701707102
 30
0.0
 11
-580.50000000000341
 21
-663.71738701707102
 31
0.0
  0
LINE
  5
299
  8
DATA
  6
CONTINUOUS
 62
     7
 10
-582.00000000000023
 20
-679.00000000000546
 30
0.0
 11
-581.50000000000159
 21
-679.00000000000546
 31
0.0
  0
LINE
  5
29A
  8
DATA
  6
CONTINUOUS
 62
     7
 10
-581.50000000000159
 20
-667.00000000000523
 30
0.0
 11
-582.00000000000341
 21
-667.00000000000523
 31
0.0
  0
LINE
  5
29B
  8
DATA
  6
CONTINUOUS
 62
     7
 10
-580.50000000000023
 20
-676.67202675988096
 30
0.0
 11
-581.50000000000159
 21
-676.67202675988096
 31
0.0
  0
LINE
  5
29C
  8
DATA
  6
CONTINUOUS
 62
     7
 10
-581.99995575865535
 20
-659.66981611056758
 30
0.0
 11
-582.00000000000341
 21
-659.66981611056758
 31
0.0
  0
LINE
  5
29D
  8
DATA
  6
CONTINUOUS
 62
     7
 10
-581.50000000000159
 20
-556.00000000000625
 30
0.0
 11
-581.50000000000159
 21
-544.00000000000614
 31
0.0
  0
LINE
  5
29E
  8
DATA
  6
CONTINUOUS
 62
     7
 10
-582.00000000000023
 20
-556.00000000000625
 30
0.0
 11
-581.50000000000159
 21
-556.00000000000625
 31
0.0
  0
LINE
  5
29F
  8
DATA
  6
CONTINUOUS
 62
     7
 10
-581.50000000000159
 20
-544.00000000000614
 30
0.0
 11
-582.00000000000023
 21
-544.00000000000614
 31
0.0
  0
LINE
  5
2A0
  8
DATA
  6
CONTINUOUS
 62
     7
 10
-582.00000000000023
 20
-300.00000000001
 30
0.0
 11
-600.0
 21
-300.00000000001029
 31
0.0
  0
LINE
  5
2A1
  8
DATA
  6
CONTINUOUS
 62
     7
 10
-582.00000000000023
 20
-310.00000000001262
 30
0.0
 11
-600.0
 21
-310.00000000001262
 31
0.0
  0
LINE
  5
2A2
  8
DATA
  6
CONTINUOUS
 62
     7
 10
-604.0
 20
-340.00000000000779
 30
0.0
 11
-604.0
 21
-358.00000000000779
 31
0.0
  0
ARC
  5
2A3
  8
DATA
  6
CONTINUOUS
 62
     7
 10
-604.0
 20
-342.00000000000801
 30
0.0
 40
2.0000000000001141
 50
90.0
 51
180.0
  0
LINE
  5
2A4
  8
DATA
  6
CONTINUOUS
 62
     7
 10
-605.9999999999992
 20
-342.00000000000801
 30
0.0
 11
-605.9999999999992
 21
-356.00000000000767
 31
0.0
  0
LINE
  5
2A5
  8
DATA
  6
CONTINUOUS
 62
     7
 10
-604.0
 20
-358.00000000000779
 30
0.0
 11
-600.0
 21
-358.00000000000779
 31
0.0
  0
ARC
  5
2A6
  8
DATA
  6
CONTINUOUS
 62
     7
 10
-604.0
 20
-356.00000000000767
 30
0.0
 40
2.0
 50
180.0
 51
270.0
  0
LINE
  5
2A7
  8
DATA
  6
CONTINUOUS
 62
     7
 10
-591.00000000000011
 20
-300.00000000000767
 30
0.0
 11
-589.00000000000227
 21
-300.00000000000767
 31
0.0
  0
LINE
  5
2A8
  8
DATA
  6
CONTINUOUS
 62
     7
 10
-600.0
 20
-300.00000000001029
 30
0.0
 11
-597.0
 21
-300.00000000000767
 31
0.0
  0
LINE
  5
2A9
  8
DATA
  6
CONTINUOUS
 62
     7
 10
-591.00000000000011
 20
-300.00000000000767
 30
0.0
 11
-589.00000000000011
 21
-300.00000000001
 31
0.0
  0
LINE
  5
2AA
  8
DATA
  6
CONTINUOUS
 62
     7
 10
-600.0
 20
-300.00000000001029
 30
0.0
 11
-597.0
 21
-300.00000000000767
 31
0.0
  0
LINE
  5
2AB
  8
DATA
  6
CONTINUOUS
 62
     7
 10
-600.0
 20
-300.00000000001029
 30
0.0
 11
-600.0
 21
-310.00000000001262
 31
0.0
  0
LINE
  5
2AC
  8
DATA
  6
CONTINUOUS
 62
     7
 10
-600.0
 20
-340.00000000000779
 30
0.0
 11
-604.0
 21
-340.00000000000779
 31
0.0
  0
LINE
  5
2AD
  8
DATA
  6
CONTINUOUS
 62
     7
 10
-461.99995575865557
 20
-318.00000000000762
 30
0.0
 11
-581.99995575865535
 21
-438.00000000000671
 31
0.0
  0
LINE
  5
2AE
  8
DATA
  6
CONTINUOUS
 62
     7
 10
-570.00000000000352
 20
-363.00000000000807
 30
0.0
 11
-570.00000000000352
 21
-426.0000442413542
 31
0.0
  0
LINE
  5
2AF
  8
DATA
  6
CONTINUOUS
 62
     7
 10
-581.99995575865535
 20
-448.00000000000671
 30
0.0
 11
-582.00000000000023
 21
-448.00000000000671
 31
0.0
  0
LINE
  5
2B0
  8
DATA
  6
CONTINUOUS
 62
     7
 10
-581.50000000000159
 20
-433.00000000000671
 30
0.0
 11
-581.50000000000159
 21
-421.00000000000699
 31
0.0
  0
LINE
  5
2B1
  8
DATA
  6
CONTINUOUS
 62
     7
 10
-582.00000000000023
 20
-433.00000000000671
 30
0.0
 11
-581.50000000000159
 21
-433.00000000000671
 31
0.0
  0
LINE
  5
2B2
  8
DATA
  6
CONTINUOUS
 62
     7
 10
-581.50000000000159
 20
-421.00000000000699
 30
0.0
 11
-582.00000000000023
 21
-421.00000000000699
 31
0.0
  0
LINE
  5
2B3
  8
DATA
  6
CONTINUOUS
 62
     7
 10
-570.00000000000352
 20
-363.00000000000807
 30
0.0
 11
-570.00000000000352
 21
-318.00000000000728
 31
0.0
  0
LINE
  5
2B4
  8
DATA
  6
CONTINUOUS
 62
     7
 10
-582.0000000000025
 20
-363.00000000000807
 30
0.0
 11
-570.00000000000352
 21
-363.00000000000807
 31
0.0
  0
LINE
  5
2B5
  8
DATA
  6
CONTINUOUS
 62
     7
 10
-581.99995575865535
 20
-318.00000000000762
 30
0.0
 11
-582.0000000000025
 21
-318.00000000000728
 31
0.0
  0
LINE
  5
2B6
  8
DATA
  6
CONTINUOUS
 62
     7
 10
-581.99995575865626
 20
-312.00000000000762
 30
0.0
 11
-582.00000000000023
 21
-312.00000000000762
 31
0.0
  0
LINE
  5
2B7
  8
DATA
  6
CONTINUOUS
 62
     7
 10
-582.00000000000023
 20
-300.00000000001
 30
0.0
 11
-581.99995575865535
 21
-318.00000000000762
 31
0.0
  0
LINE
  5
2B8
  8
DATA
  6
CONTINUOUS
 62
     7
 10
-581.50000000000159
 20
-334.00000000000841
 30
0.0
 11
-581.50000000000159
 21
-322.00000000000841
 31
0.0
  0
LINE
  5
2B9
  8
DATA
  6
CONTINUOUS
 62
     7
 10
-582.00000000000023
 20
-300.00000000001
 30
0.0
 11
-582.00000000000023
 21
-310.00000000001262
 31
0.0
  0
LINE
  5
2BA
  8
DATA
  6
CONTINUOUS
 62
     7
 10
-582.00000000000023
 20
-334.00000000000841
 30
0.0
 11
-581.50000000000159
 21
-334.00000000000841
 31
0.0
  0
LINE
  5
2BB
  8
DATA
  6
CONTINUOUS
 62
     7
 10
-581.50000000000159
 20
-322.00000000000841
 30
0.0
 11
-582.00000000000023
 21
-322.00000000000841
 31
0.0
  0
LINE
  5
2BC
  8
DATA
  6
CONTINUOUS
 62
     7
 10
-591.00000000000011
 20
-271.00000000000728
 30
0.0
 11
-591.00000000000011
 21
-261.00000000000779
 31
0.0
  0
LINE
  5
2BD
  8
DATA
  6
CONTINUOUS
 62
     7
 10
-597.0
 20
-271.00000000000762
 30
0.0
 11
-597.0
 21
-261.00000000000739
 31
0.0
  0
LINE
  5
2BE
  8
DATA
  6
CONTINUOUS
 62
     7
 10
-597.0
 20
-271.00000000000762
 30
0.0
 11
-591.00000000000011
 21
-271.00000000000728
 31
0.0
  0
LINE
  5
2BF
  8
DATA
  6
CONTINUOUS
 62
     7
 10
-591.00000000000011
 20
-261.00000000000779
 30
0.0
 11
-597.0
 21
-261.00000000000739
 31
0.0
  0
LINE
  5
2C0
  8
DATA
  6
CONTINUOUS
 62
     7
 10
-582.00000000065791
 20
-1800.000000000002
 30
0.0
 11
-600.00000000065893
 21
-1800.000000000002
 31
0.0
  0
LINE
  5
2C1
  8
DATA
  6
CONTINUOUS
 62
     7
 10
-604.00000000065711
 20
-1739.99987316329
 30
0.0
 11
-604.00000000065711
 21
-1757.99987316329
 31
0.0
  0
LINE
  5
2C2
  8
DATA
  6
CONTINUOUS
 62
     7
 10
-589.50000000065882
 20
-1757.1285514024321
 30
0.0
 11
-589.50000000065882
 21
-1740.8711949241469
 31
0.0
  0
LINE
  5
2C3
  8
DATA
  6
CONTINUOUS
 62
     7
 10
-597.00000000065802
 20
-1760.9998731632911
 30
0.0
 11
-597.00000000065802
 21
-1736.999873163292
 31
0.0
  0
LINE
  5
2C4
  8
DATA
  6
CONTINUOUS
 62
     7
 10
-600.00000000065802
 20
-1760.99987316329
 30
0.0
 11
-600.00000000065802
 21
-1736.99987316329
 31
0.0
  0
LINE
  5
2C5
  8
DATA
  6
CONTINUOUS
 62
     7
 10
-606.00000000065802
 20
-1741.99987316329
 30
0.0
 11
-606.00000000065893
 21
-1755.99987316329
 31
0.0
  0
LINE
  5
2C6
  8
DATA
  6
CONTINUOUS
 62
     7
 10
-589.00000000065802
 20
-1733.99987316329
 30
0.0
 11
-589.00000000065893
 21
-1763.9998731632891
 31
0.0
  0
LINE
  5
2C7
  8
DATA
  6
CONTINUOUS
 62
     7
 10
-589.50000000065882
 20
-1760.5394089542569
 30
0.0
 11
-589.00000000065893
 21
-1760.5394089542569
 31
0.0
  0
LINE
  5
2C8
  8
DATA
  6
CONTINUOUS
 62
     7
 10
-589.50000000065882
 20
-1757.1285514024321
 30
0.0
 11
-589.00000000065893
 21
-1757.1285514024321
 31
0.0
  0
LINE
  5
2C9
  8
DATA
  6
CONTINUOUS
 62
     7
 10
-589.50000000065882
 20
-1760.9998731632911
 30
0.0
 11
-589.50000000065882
 21
-1760.5394089542569
 31
0.0
  0
LINE
  5
2CA
  8
DATA
  6
CONTINUOUS
 62
     7
 10
-589.50000000065882
 20
-1760.5394089542569
 30
0.0
 11
-589.50000000065882
 21
-1757.1285514024321
 31
0.0
  0
LINE
  5
2CB
  8
DATA
  6
CONTINUOUS
 62
     7
 10
-591.00000000065802
 20
-1754.9998731632911
 30
0.0
 11
-591.00000000065802
 21
-1758.49987316329
 31
0.0
  0
LINE
  5
2CC
  8
DATA
  6
CONTINUOUS
 62
     7
 10
-600.00000000065893
 20
-1763.9998731632891
 30
0.0
 11
-600.00000000065802
 21
-1760.99987316329
 31
0.0
  0
LINE
  5
2CD
  8
DATA
  6
CONTINUOUS
 62
     7
 10
-589.00000000065893
 20
-1760.99987316329
 30
0.0
 11
-600.00000000065802
 21
-1760.99987316329
 31
0.0
  0
LINE
  5
2CE
  8
DATA
  6
CONTINUOUS
 62
     7
 10
-589.00000000065893
 20
-1763.9998731632891
 30
0.0
 11
-600.00000000065893
 21
-1763.9998731632891
 31
0.0
  0
LINE
  5
2CF
  8
DATA
  6
CONTINUOUS
 62
     7
 10
-600.00000000065893
 20
-1763.9998731632891
 30
0.0
 11
-600.00000000065893
 21
-1800.000000000002
 31
0.0
  0
LINE
  5
2D0
  8
DATA
  6
CONTINUOUS
 62
     7
 10
-589.50000000065882
 20
-1758.49987316329
 30
0.0
 11
-597.00000000065802
 21
-1758.49987316329
 31
0.0
  0
LINE
  5
2D1
  8
DATA
  6
CONTINUOUS
 62
     7
 10
-597.00000000065802
 20
-1754.9998731632911
 30
0.0
 11
-589.50000000065882
 21
-1754.9998731632911
 31
0.0
  0
LINE
  5
2D2
  8
DATA
  6
CONTINUOUS
 62
     7
 10
-604.00000000065711
 20
-1757.99987316329
 30
0.0
 11
-600.00000000065802
 21
-1757.99987316329
 31
0.0
  0
ARC
  5
2D3
  8
DATA
  6
CONTINUOUS
 62
     7
 10
-604.00000000065802
 20
-1755.99987316329
 30
0.0
 40
2.0
 50
180.0
 51
270.00000000001302
  0
LINE
  5
2D4
  8
DATA
  6
CONTINUOUS
 62
     7
 10
-589.50000000065882
 20
-1737.460337372323
 30
0.0
 11
-589.00000000065802
 21
-1737.4603373723221
 31
0.0
  0
LINE
  5
2D5
  8
DATA
  6
CONTINUOUS
 62
     7
 10
-589.50000000065882
 20
-1740.8711949241469
 30
0.0
 11
-589.00000000065802
 21
-1740.8711949241469
 31
0.0
  0
LINE
  5
2D6
  8
DATA
  6
CONTINUOUS
 62
     7
 10
-589.50000000065882
 20
-1737.460337372323
 30
0.0
 11
-589.50000000065882
 21
-1736.999873163292
 31
0.0
  0
LINE
  5
2D7
  8
DATA
  6
CONTINUOUS
 62
     7
 10
-589.50000000065882
 20
-1740.8711949241469
 30
0.0
 11
-589.50000000065882
 21
-1737.460337372323
 31
0.0
  0
LINE
  5
2D8
  8
DATA
  6
CONTINUOUS
 62
     7
 10
-591.00000000065802
 20
-1739.49987316329
 30
0.0
 11
-591.00000000065802
 21
-1742.9998731632911
 31
0.0
  0
LINE
  5
2D9
  8
DATA
  6
CONTINUOUS
 62
     7
 10
-600.00000000065802
 20
-1736.99987316329
 30
0.0
 11
-600.00000000065802
 21
-1733.99987316329
 31
0.0
  0
LINE
  5
2DA
  8
DATA
  6
CONTINUOUS
 62
     7
 10
-600.00000000065802
 20
-1736.99987316329
 30
0.0
 11
-589.00000000065802
 21
-1736.99987316329
 31
0.0
  0
LINE
  5
2DB
  8
DATA
  6
CONTINUOUS
 62
     7
 10
-600.00000000065802
 20
-1733.99987316329
 30
0.0
 11
-589.00000000065802
 21
-1733.99987316329
 31
0.0
  0
LINE
  5
2DC
  8
DATA
  6
CONTINUOUS
 62
     7
 10
-597.00000000065711
 20
-1739.49987316329
 30
0.0
 11
-589.50000000065882
 21
-1739.49987316329
 31
0.0
  0
LINE
  5
2DD
  8
DATA
  6
CONTINUOUS
 62
     7
 10
-589.50000000065882
 20
-1742.9998731632911
 30
0.0
 11
-597.00000000065802
 21
-1742.9998731632911
 31
0.0
  0
LINE
  5
2DE
  8
DATA
  6
CONTINUOUS
 62
     7
 10
-600.00000000065802
 20
-1739.99987316329
 30
0.0
 11
-604.00000000065711
 21
-1739.99987316329
 31
0.0
  0
ARC
  5
2DF
  8
DATA
  6
CONTINUOUS
 62
     7
 10
-604.00000000065711
 20
-1741.99987316329
 30
0.0
 40
2.000000000000226
 50
90.0
 51
180.0
  0
LINE
  5
2E0
  8
DATA
  6
CONTINUOUS
 62
     7
 10
-581.99995575931371
 20
-1788.000000000002
 30
0.0
 11
-582.00000000065791
 21
-1788.000000000002
 31
0.0
  0
LINE
  5
2E1
  8
DATA
  6
CONTINUOUS
 62
     7
 10
-582.00000000065791
 20
-1712.0000000000009
 30
0.0
 11
-581.9999557593128
 21
-1712.0
 31
0.0
  0
CIRCLE
  5
2E2
  8
DATA
  6
CONTINUOUS
 62
     7
 10
-499.99995575931359
 20
-1745.0000000000009
 30
0.0
 40
20.0
  0
LINE
  5
2E3
  8
DATA
  6
CONTINUOUS
 62
     7
 10
-600.00000000065575
 20
-1159.715865191383
 30
0.0
 11
-600.00000000065711
 21
-1339.5001268367271
 31
0.0
  0
LINE
  5
2E4
  8
DATA
  6
CONTINUOUS
 62
     7
 10
-581.9999778799837
 20
-1330.0000000000009
 30
0.0
 11
-581.99997787998461
 21
-1450.0000000000009
 31
0.0
  0
LINE
  5
2E5
  8
DATA
  6
CONTINUOUS
 62
     7
 10
-589.50000000065802
 20
-1413.0001268367259
 30
0.0
 11
-589.50000000065802
 21
-1365.0001268367259
 31
0.0
  0
LINE
  5
2E6
  8
DATA
  6
CONTINUOUS
 62
     7
 10
-597.00000000065711
 20
-1413.000126836725
 30
0.0
 11
-597.00000000065802
 21
-1356.0001268367259
 31
0.0
  0
LINE
  5
2E7
  8
DATA
  6
CONTINUOUS
 62
     7
 10
-600.00000000065711
 20
-1413.000126836725
 30
0.0
 11
-600.00000000065711
 21
-1351.5001268367259
 31
0.0
  0
LINE
  5
2E8
  8
DATA
  6
CONTINUOUS
 62
     7
 10
-589.00000000065575
 20
-1353.0001268367271
 30
0.0
 11
-589.00000000065575
 21
-1528.2245424134651
 31
0.0
  0
LINE
  5
2E9
  8
DATA
  6
CONTINUOUS
 62
     7
 10
-600.00000000065711
 20
-1525.2952977602729
 30
0.0
 11
-600.00000000065711
 21
-1474.9118290295969
 31
0.0
  0
LINE
  5
2EA
  8
DATA
  6
CONTINUOUS
 62
     7
 10
-600.00000000065711
 20
-1528.2245424134651
 30
0.0
 11
-600.00000000065711
 21
-1525.2952977602729
 31
0.0
  0
LINE
  5
2EB
  8
DATA
  6
CONTINUOUS
 62
     7
 10
-589.00000000065575
 20
-1525.295297723382
 30
0.0
 11
-600.00000000065711
 21
-1525.2952977602729
 31
0.0
  0
LINE
  5
2EC
  8
DATA
  6
CONTINUOUS
 62
     7
 10
-589.00000000065575
 20
-1528.2245424134651
 30
0.0
 11
-600.00000000065711
 21
-1528.2245424134651
 31
0.0
  0
LINE
  5
2ED
  8
DATA
  6
CONTINUOUS
 62
     7
 10
-589.50000000065802
 20
-1468.248800697201
 30
0.0
 11
-589.50000000065802
 21
-1426.1216910635039
 31
0.0
  0
LINE
  5
2EE
  8
DATA
  6
CONTINUOUS
 62
     7
 10
-597.00000000065711
 20
-1468.9696042333801
 30
0.0
 11
-597.00000000065711
 21
-1426.1216910635039
 31
0.0
  0
LINE
  5
2EF
  8
DATA
  6
CONTINUOUS
 62
     7
 10
-600.00000000065711
 20
-1473.5629746389241
 30
0.0
 11
-600.00000000065711
 21
-1426.1216910635039
 31
0.0
  0
LINE
  5
2F0
  8
DATA
  6
CONTINUOUS
 62
     7
 10
-597.00000000065711
 20
-1468.9696042333801
 30
0.0
 11
-597.00000000065711
 21
-1469.7291267007649
 31
0.0
  0
LINE
  5
2F1
  8
DATA
  6
CONTINUOUS
 62
     7
 10
-600.00000000065711
 20
-1474.9118290295969
 30
0.0
 11
-600.00000000065711
 21
-1473.5629746389241
 31
0.0
  0
LINE
  5
2F2
  8
DATA
  6
CONTINUOUS
 62
     7
 10
-597.00000000065711
 20
-1469.7291267007649
 30
0.0
 11
-589.00000000065575
 21
-1469.7291267007649
 31
0.0
  0
LINE
  5
2F3
  8
DATA
  6
CONTINUOUS
 62
     7
 10
-597.00000000065711
 20
-1474.9118288366369
 30
0.0
 11
-597.00000000065711
 21
-1469.7291267007649
 31
0.0
  0
LINE
  5
2F4
  8
DATA
  6
CONTINUOUS
 62
     7
 10
-600.00000000065711
 20
-1474.9118290295969
 30
0.0
 11
-597.00000000065711
 21
-1474.9118288366369
 31
0.0
  0
LINE
  5
2F5
  8
DATA
  6
CONTINUOUS
 62
     7
 10
-589.50000000065802
 20
-1447.725642601129
 30
0.0
 11
-597.00000000065711
 21
-1447.725642601129
 31
0.0
  0
LINE
  5
2F6
  8
DATA
  6
CONTINUOUS
 62
     7
 10
-597.00000000065711
 20
-1459.7256426011279
 30
0.0
 11
-589.50000000065802
 21
-1459.7256426011279
 31
0.0
  0
LINE
  5
2F7
  8
DATA
  6
CONTINUOUS
 62
     7
 10
-589.00000000065575
 20
-1468.248800697201
 30
0.0
 11
-597.00000000065711
 21
-1468.248800697201
 31
0.0
  0
LINE
  5
2F8
  8
DATA
  6
CONTINUOUS
 62
     7
 10
-597.00000000065711
 20
-1473.5629746389241
 30
0.0
 11
-600.00000000065711
 21
-1473.5629746389241
 31
0.0
  0
LINE
  5
2F9
  8
DATA
  6
CONTINUOUS
 62
     7
 10
-589.50000000065802
 20
-1426.1216910635039
 30
0.0
 11
-589.00000000065575
 21
-1426.1216910635039
 31
0.0
  0
LINE
  5
2FA
  8
DATA
  6
CONTINUOUS
 62
     7
 10
-589.50000000065802
 20
-1413.0001268367259
 30
0.0
 11
-589.00000000065575
 21
-1413.0001268367259
 31
0.0
  0
LINE
  5
2FB
  8
DATA
  6
CONTINUOUS
 62
     7
 10
-589.50000000065802
 20
-1426.1216910635039
 30
0.0
 11
-589.50000000065802
 21
-1421.0001268367259
 31
0.0
  0
LINE
  5
2FC
  8
DATA
  6
CONTINUOUS
 62
     7
 10
-589.50000000065802
 20
-1421.0001268367259
 30
0.0
 11
-589.50000000065802
 21
-1413.0001268367259
 31
0.0
  0
LINE
  5
2FD
  8
DATA
  6
CONTINUOUS
 62
     7
 10
-589.50000000065802
 20
-1421.0001268367259
 30
0.0
 11
-589.00000000065575
 21
-1421.0001268367259
 31
0.0
  0
LINE
  5
2FE
  8
DATA
  6
CONTINUOUS
 62
     7
 10
-597.00000000065711
 20
-1426.1216910635039
 30
0.0
 11
-597.00000000065711
 21
-1421.0001268367259
 31
0.0
  0
LINE
  5
2FF
  8
DATA
  6
CONTINUOUS
 62
     7
 10
-600.00000000065711
 20
-1426.1216910635039
 30
0.0
 11
-600.00000000065711
 21
-1421.0001268367259
 31
0.0
  0
LINE
  5
300
  8
DATA
  6
CONTINUOUS
 62
     7
 10
-600.00000000065711
 20
-1426.1216910635039
 30
0.0
 11
-597.00000000065711
 21
-1426.1216910635039
 31
0.0
  0
LINE
  5
301
  8
DATA
  6
CONTINUOUS
 62
     7
 10
-597.00000000065711
 20
-1421.000126836725
 30
0.0
 11
-597.00000000065711
 21
-1413.000126836725
 31
0.0
  0
LINE
  5
302
  8
DATA
  6
CONTINUOUS
 62
     7
 10
-600.00000000065711
 20
-1421.000126836725
 30
0.0
 11
-600.00000000065711
 21
-1413.000126836725
 31
0.0
  0
LINE
  5
303
  8
DATA
  6
CONTINUOUS
 62
     7
 10
-600.00000000065711
 20
-1421.000126836725
 30
0.0
 11
-597.00000000065711
 21
-1421.000126836725
 31
0.0
  0
LINE
  5
304
  8
DATA
  6
CONTINUOUS
 62
     7
 10
-600.00000000065711
 20
-1413.000126836725
 30
0.0
 11
-597.00000000065711
 21
-1413.000126836725
 31
0.0
  0
LINE
  5
305
  8
DATA
  6
CONTINUOUS
 62
     7
 10
-589.50000000065802
 20
-1429.6541448127409
 30
0.0
 11
-597.00000000065711
 21
-1429.6541448127409
 31
0.0
  0
LINE
  5
306
  8
DATA
  6
CONTINUOUS
 62
     7
 10
-589.00000000065575
 20
-1365.0001268367259
 30
0.0
 11
-589.50000000065802
 21
-1365.0001268367259
 31
0.0
  0
LINE
  5
307
  8
DATA
  6
CONTINUOUS
 62
     7
 10
-589.50000000065802
 20
-1357.0001268367259
 30
0.0
 11
-589.50000000065802
 21
-1356.0001268367259
 31
0.0
  0
LINE
  5
308
  8
DATA
  6
CONTINUOUS
 62
     7
 10
-589.50000000065802
 20
-1365.0001268367259
 30
0.0
 11
-589.50000000065802
 21
-1357.0001268367259
 31
0.0
  0
LINE
  5
309
  8
DATA
  6
CONTINUOUS
 62
     7
 10
-589.50000000065802
 20
-1357.0001268367259
 30
0.0
 11
-589.00000000065575
 21
-1357.0001268367259
 31
0.0
  0
LINE
  5
30A
  8
DATA
  6
CONTINUOUS
 62
     7
 10
-600.00000000065711
 20
-1343.5001268367259
 30
0.0
 11
-600.00000000065711
 21
-1342.5001268367271
 31
0.0
  0
LINE
  5
30B
  8
DATA
  6
CONTINUOUS
 62
     7
 10
-600.00000000065711
 20
-1351.5001268367259
 30
0.0
 11
-600.00000000065711
 21
-1343.5001268367259
 31
0.0
  0
LINE
  5
30C
  8
DATA
  6
CONTINUOUS
 62
     7
 10
-600.00000000065711
 20
-1343.5001268367259
 30
0.0
 11
-597.00000000065575
 21
-1343.5001268367259
 31
0.0
  0
LINE
  5
30D
  8
DATA
  6
CONTINUOUS
 62
     7
 10
-600.00000000065711
 20
-1351.5001268367259
 30
0.0
 11
-597.00000000065711
 21
-1351.5001268367259
 31
0.0
  0
LINE
  5
30E
  8
DATA
  6
CONTINUOUS
 62
     7
 10
-589.50000000065802
 20
-1375.6489359157961
 30
0.0
 11
-597.00000000065711
 21
-1375.6489359157961
 31
0.0
  0
LINE
  5
30F
  8
DATA
  6
CONTINUOUS
 62
     7
 10
-597.00000000065802
 20
-1353.0001268367259
 30
0.0
 11
-597.00000000065802
 21
-1356.0001268367259
 31
0.0
  0
LINE
  5
310
  8
DATA
  6
CONTINUOUS
 62
     7
 10
-597.00000000065802
 20
-1356.0001268367259
 30
0.0
 11
-589.00000000065575
 21
-1356.0001268367259
 31
0.0
  0
LINE
  5
311
  8
DATA
  6
CONTINUOUS
 62
     7
 10
-600.00000000065711
 20
-1339.5001268367271
 30
0.0
 11
-600.00000000065711
 21
-1342.5001268367271
 31
0.0
  0
LINE
  5
312
  8
DATA
  6
CONTINUOUS
 62
     7
 10
-600.00000000065711
 20
-1342.5001268367271
 30
0.0
 11
-597.00000000065802
 21
-1342.5001268367271
 31
0.0
  0
LINE
  5
313
  8
DATA
  6
CONTINUOUS
 62
     7
 10
-600.00000000065711
 20
-1339.5001268367271
 30
0.0
 11
-597.00000000065802
 21
-1339.5001268367271
 31
0.0
  0
LINE
  5
314
  8
DATA
  6
CONTINUOUS
 62
     7
 10
-597.00000000065802
 20
-1339.5001268367271
 30
0.0
 11
-597.00000000065802
 21
-1353.0001268367259
 31
0.0
  0
LINE
  5
315
  8
DATA
  6
CONTINUOUS
 62
     7
 10
-597.00000000065802
 20
-1353.0001268367259
 30
0.0
 11
-589.00000000065575
 21
-1353.0001268367271
 31
0.0
  0
LINE
  5
316
  8
DATA
  6
CONTINUOUS
 62
     7
 10
-582.00000000065791
 20
-1330.0000000000009
 30
0.0
 11
-581.9999778799837
 21
-1330.0000000000009
 31
0.0
  0
CIRCLE
  5
317
  8
DATA
  6
CONTINUOUS
 62
     7
 10
-499.99995575931098
 20
-1205.0
 30
0.0
 40
20.0
  0
ARC
  5
318
  8
DATA
  6
CONTINUOUS
 62
     7
 10
-309.9999557593128
 20
-1619.9999999999679
 30
0.0
 40
124.999999999967
 50
73.739795291682555
 51
106.26020470831661
  0
ARC
  5
319
  8
DATA
  6
CONTINUOUS
 62
     7
 10
-309.99997787998382
 20
-1290.0000000000221
 30
0.0
 40
124.9999999999814
 50
253.7397952916856
 51
286.26020470831492
  0
ARC
  5
31A
  8
DATA
  6
CONTINUOUS
 62
     7
 10
-344.9999778799388
 20
-1489.99999999998
 30
0.0
 40
10.00000000004729
 50
180.0
 51
270.0001267418458
  0
ARC
  5
31B
  8
DATA
  6
CONTINUOUS
 62
     7
 10
-474.9999778799646
 20
-1455.0
 30
0.0
 40
124.9999999999807
 50
343.7397952916848
 51
16.260204708313839
  0
ARC
  5
31C
  8
DATA
  6
CONTINUOUS
 62
     7
 10
-344.99997787998473
 20
-1420.000000000002
 30
0.0
 40
9.9999999999995435
 50
90.0
 51
180.0
  0
ARC
  5
31D
  8
DATA
  6
CONTINUOUS
 62
     7
 10
-274.99997788003378
 20
-1489.9999999999791
 30
0.0
 40
10.000000000048569
 50
270.00012674240861
 51
0.0
  0
ARC
  5
31E
  8
DATA
  6
CONTINUOUS
 62
     7
 10
-144.99997787996611
 20
-1455.000000000005
 30
0.0
 40
125.00000000001791
 50
163.73979529168821
 51
196.26020470830949
  0
ARC
  5
31F
  8
DATA
  6
CONTINUOUS
 62
     7
 10
-274.99997787998382
 20
-1420.000000000003
 30
0.0
 40
9.9999999999995435
 50
0.0
 51
90.000000000005159
  0
LINE
  5
320
  8
DATA
  6
CONTINUOUS
 62
     7
 10
-600.00000000065575
 20
-1100.0
 30
0.0
 11
-582.00000000065575
 21
-1100.0
 31
0.0
  0
LINE
  5
321
  8
DATA
  6
CONTINUOUS
 62
     7
 10
-582.00000000065575
 20
-1110.0000000000009
 30
0.0
 11
-600.00000000065575
 21
-1110.0
 31
0.0
  0
LINE
  5
322
  8
DATA
  6
CONTINUOUS
 62
     7
 10
-589.50000000065711
 20
-1132.8714485975829
 30
0.0
 11
-589.50000000065711
 21
-1129.4605910457581
 31
0.0
  0
LINE
  5
323
  8
DATA
  6
CONTINUOUS
 62
     7
 10
-597.00000000065575
 20
-1155.753402235302
 30
0.0
 11
-597.00000000065575
 21
-1126.246851438149
 31
0.0
  0
LINE
  5
324
  8
DATA
  6
CONTINUOUS
 62
     7
 10
-600.00000000065575
 20
-1155.8585064705669
 30
0.0
 11
-600.00000000065575
 21
-1126.1417472028829
 31
0.0
  0
LINE
  5
325
  8
DATA
  6
CONTINUOUS
 62
     7
 10
-589.00000000065381
 20
-1122.2843884820679
 30
0.0
 11
-589.00000000065381
 21
-1159.715865191383
 31
0.0
  0
LINE
  5
326
  8
DATA
  6
CONTINUOUS
 62
     7
 10
-589.50000000065711
 20
-1132.8714485975829
 30
0.0
 11
-589.00000000065381
 21
-1132.8714485975829
 31
0.0
  0
LINE
  5
327
  8
DATA
  6
CONTINUOUS
 62
     7
 10
-589.50000000065711
 20
-1152.5396626276929
 30
0.0
 11
-589.00000000065381
 21
-1152.5396626276929
 31
0.0
  0
LINE
  5
328
  8
DATA
  6
CONTINUOUS
 62
     7
 10
-589.50000000065711
 20
-1149.128805075869
 30
0.0
 11
-589.00000000065381
 21
-1149.128805075869
 31
0.0
  0
LINE
  5
329
  8
DATA
  6
CONTINUOUS
 62
     7
 10
-604.00000000065575
 20
-1132.000126836728
 30
0.0
 11
-604.00000000065575
 21
-1150.000126836728
 31
0.0
  0
LINE
  5
32A
  8
DATA
  6
CONTINUOUS
 62
     7
 10
-589.50000000065711
 20
-1155.2567070643629
 30
0.0
 11
-589.50000000065711
 21
-1152.5396626276929
 31
0.0
  0
LINE
  5
32B
  8
DATA
  6
CONTINUOUS
 62
     7
 10
-589.50000000065711
 20
-1149.128805075869
 30
0.0
 11
-589.50000000065711
 21
-1132.8714485975829
 31
0.0
  0
LINE
  5
32C
  8
DATA
  6
CONTINUOUS
 62
     7
 10
-589.50000000065711
 20
-1152.5396626276929
 30
0.0
 11
-589.50000000065711
 21
-1149.128805075869
 31
0.0
  0
LINE
  5
32D
  8
DATA
  6
CONTINUOUS
 62
     7
 10
-591.00000000065575
 20
-1147.0001268367259
 30
0.0
 11
-591.00000000065575
 21
-1150.5001268367271
 31
0.0
  0
LINE
  5
32E
  8
DATA
  6
CONTINUOUS
 62
     7
 10
-591.00000000065575
 20
-1131.5001268367259
 30
0.0
 11
-591.00000000065575
 21
-1135.0001268367271
 31
0.0
  0
LINE
  5
32F
  8
DATA
  6
CONTINUOUS
 62
     7
 10
-606.00000000065472
 20
-1134.0001268367271
 30
0.0
 11
-606.00000000065472
 21
-1148.000126836728
 31
0.0
  0
LINE
  5
330
  8
DATA
  6
CONTINUOUS
 62
     7
 10
-600.00000000065575
 20
-1156.7322995052789
 30
0.0
 11
-600.00000000065575
 21
-1155.8585064705669
 31
0.0
  0
LINE
  5
331
  8
DATA
  6
CONTINUOUS
 62
     7
 10
-597.00000000065575
 20
-1155.8585064705669
 30
0.0
 11
-600.00000000065575
 21
-1155.8585064705669
 31
0.0
  0
LINE
  5
332
  8
DATA
  6
CONTINUOUS
 62
     7
 10
-597.00000000065575
 20
-1155.2567070643629
 30
0.0
 11
-589.00000000065381
 21
-1155.2567070643629
 31
0.0
  0
LINE
  5
333
  8
DATA
  6
CONTINUOUS
 62
     7
 10
-597.00000000065575
 20
-1155.8585064705669
 30
0.0
 11
-597.00000000065575
 21
-1155.753402235302
 31
0.0
  0
LINE
  5
334
  8
DATA
  6
CONTINUOUS
 62
     7
 10
-600.00000000065575
 20
-1159.715865191383
 30
0.0
 11
-600.00000000065575
 21
-1156.7322995052789
 31
0.0
  0
LINE
  5
335
  8
DATA
  6
CONTINUOUS
 62
     7
 10
-589.00000000065381
 20
-1156.7322995052789
 30
0.0
 11
-600.00000000065575
 21
-1156.7322995052789
 31
0.0
  0
LINE
  5
336
  8
DATA
  6
CONTINUOUS
 62
     7
 10
-589.00000000065381
 20
-1159.715865191383
 30
0.0
 11
-600.00000000065575
 21
-1159.715865191383
 31
0.0
  0
LINE
  5
337
  8
DATA
  6
CONTINUOUS
 62
     7
 10
-597.00000000065711
 20
-1131.5001268367259
 30
0.0
 11
-589.50000000065711
 21
-1131.5001268367259
 31
0.0
  0
LINE
  5
338
  8
DATA
  6
CONTINUOUS
 62
     7
 10
-589.50000000065711
 20
-1150.5001268367271
 30
0.0
 11
-597.00000000065711
 21
-1150.5001268367271
 31
0.0
  0
LINE
  5
339
  8
DATA
  6
CONTINUOUS
 62
     7
 10
-597.00000000065711
 20
-1147.0001268367259
 30
0.0
 11
-589.50000000065711
 21
-1147.0001268367259
 31
0.0
  0
LINE
  5
33A
  8
DATA
  6
CONTINUOUS
 62
     7
 10
-589.50000000065711
 20
-1135.0001268367271
 30
0.0
 11
-597.00000000065711
 21
-1135.0001268367271
 31
0.0
  0
LINE
  5
33B
  8
DATA
  6
CONTINUOUS
 62
     7
 10
-604.00000000065575
 20
-1150.000126836728
 30
0.0
 11
-600.00000000065575
 21
-1150.000126836728
 31
0.0
  0
LINE
  5
33C
  8
DATA
  6
CONTINUOUS
 62
     7
 10
-600.00000000065575
 20
-1132.000126836728
 30
0.0
 11
-604.00000000065575
 21
-1132.000126836728
 31
0.0
  0
ARC
  5
33D
  8
DATA
  6
CONTINUOUS
 62
     7
 10
-604.00000000065575
 20
-1134.0001268367271
 30
0.0
 40
2.0000000000004552
 50
90.0
 51
180.0
  0
ARC
  5
33E
  8
DATA
  6
CONTINUOUS
 62
     7
 10
-604.00000000065575
 20
-1148.000126836728
 30
0.0
 40
2.0000000000004552
 50
180.0
 51
270.0
  0
LINE
  5
33F
  8
DATA
  6
CONTINUOUS
 62
     7
 10
-589.50000000065711
 20
-1129.4605910457581
 30
0.0
 11
-589.00000000065381
 21
-1129.4605910457581
 31
0.0
  0
LINE
  5
340
  8
DATA
  6
CONTINUOUS
 62
     7
 10
-589.50000000065711
 20
-1129.4605910457581
 30
0.0
 11
-589.50000000065711
 21
-1126.7435466090869
 31
0.0
  0
LINE
  5
341
  8
DATA
  6
CONTINUOUS
 62
     7
 10
-600.00000000065575
 20
-1126.1417472028829
 30
0.0
 11
-600.00000000065575
 21
-1125.267954168173
 31
0.0
  0
LINE
  5
342
  8
DATA
  6
CONTINUOUS
 62
     7
 10
-597.00000000065575
 20
-1126.1417472028829
 30
0.0
 11
-600.00000000065575
 21
-1126.1417472028829
 31
0.0
  0
LINE
  5
343
  8
DATA
  6
CONTINUOUS
 62
     7
 10
-597.00000000065575
 20
-1126.246851438149
 30
0.0
 11
-597.00000000065575
 21
-1126.1417472028829
 31
0.0
  0
LINE
  5
344
  8
DATA
  6
CONTINUOUS
 62
     7
 10
-589.00000000065381
 20
-1126.7435466090869
 30
0.0
 11
-597.00000000065575
 21
-1126.7435466090869
 31
0.0
  0
LINE
  5
345
  8
DATA
  6
CONTINUOUS
 62
     7
 10
-600.00000000065575
 20
-1125.267954168173
 30
0.0
 11
-600.00000000065575
 21
-1122.2843884820679
 31
0.0
  0
LINE
  5
346
  8
DATA
  6
CONTINUOUS
 62
     7
 10
-600.00000000065575
 20
-1125.267954168173
 30
0.0
 11
-589.00000000065381
 21
-1125.267954168173
 31
0.0
  0
LINE
  5
347
  8
DATA
  6
CONTINUOUS
 62
     7
 10
-600.00000000065575
 20
-1100.0
 30
0.0
 11
-600.00000000065575
 21
-1110.0
 31
0.0
  0
LINE
  5
348
  8
DATA
  6
CONTINUOUS
 62
     7
 10
-600.00000000065575
 20
-1110.0
 30
0.0
 11
-600.00000000065575
 21
-1122.2843884820679
 31
0.0
  0
LINE
  5
349
  8
DATA
  6
CONTINUOUS
 62
     7
 10
-600.00000000065575
 20
-1122.2843884820679
 30
0.0
 11
-589.00000000065381
 21
-1122.2843884820679
 31
0.0
  0
LINE
  5
34A
  8
DATA
  6
CONTINUOUS
 62
     7
 10
-581.50000000065711
 20
-1131.5001268367259
 30
0.0
 11
-581.50000000065711
 21
-1119.5001268367259
 31
0.0
  0
LINE
  5
34B
  8
DATA
  6
CONTINUOUS
 62
     7
 10
-581.99995575931086
 20
-1173.0000000000009
 30
0.0
 11
-582.00000000065575
 21
-1173.0000000000009
 31
0.0
  0
LINE
  5
34C
  8
DATA
  6
CONTINUOUS
 62
     7
 10
-582.00000000065575
 20
-1167.0000000000009
 30
0.0
 11
-581.99995575931086
 21
-1167.0000000000009
 31
0.0
  0
LINE
  5
34D
  8
DATA
  6
CONTINUOUS
 62
     7
 10
-582.00000000065575
 20
-1147.0001268367271
 30
0.0
 11
-581.99995575931189
 21
-1147.0001268367259
 31
0.0
  0
LINE
  5
34E
  8
DATA
  6
CONTINUOUS
 62
     7
 10
-581.99995575931189
 20
-1135.0001268367259
 30
0.0
 11
-582.00000000065575
 21
-1135.0001268367271
 31
0.0
  0
LINE
  5
34F
  8
DATA
  6
CONTINUOUS
 62
     7
 10
-582.00000000065575
 20
-1131.5001268367271
 30
0.0
 11
-581.50000000065711
 21
-1131.5001268367259
 31
0.0
  0
LINE
  5
350
  8
DATA
  6
CONTINUOUS
 62
     7
 10
-582.00000000065575
 20
-1162.5001268367271
 30
0.0
 11
-581.99995575931189
 21
-1162.5001268367259
 31
0.0
  0
LINE
  5
351
  8
DATA
  6
CONTINUOUS
 62
     7
 10
-581.99995575931189
 20
-1150.5001268367271
 30
0.0
 11
-582.00000000065575
 21
-1150.500126836728
 31
0.0
  0
LINE
  5
352
  8
DATA
  6
CONTINUOUS
 62
     7
 10
-582.00000000065575
 20
-1100.0
 30
0.0
 11
-582.00000000065575
 21
-1110.0000000000009
 31
0.0
  0
LINE
  5
353
  8
DATA
  6
CONTINUOUS
 62
     7
 10
-581.50000000065711
 20
-1119.5001268367259
 30
0.0
 11
-582.00000000065575
 21
-1119.5001268367271
 31
0.0
  0
LINE
  5
354
  8
DATA
  6
CONTINUOUS
 62
     7
 10
-157.99995575865461
 20
-782.00000000000477
 30
0.0
 11
-37.999955758654387
 21
-662.00000000000512
 31
0.0
  0
LINE
  5
355
  8
DATA
  6
CONTINUOUS
 62
     7
 10
-39.499955758654387
 20
-702.12761144988485
 30
0.0
 11
-39.499955758654387
 21
-679.82505873183209
 31
0.0
  0
LINE
  5
356
  8
DATA
  6
CONTINUOUS
 62
     7
 10
-49.999955758653478
 20
-702.40768738961037
 30
0.0
 11
-49.99995575865529
 21
-674.00000000000659
 31
0.0
  0
LINE
  5
357
  8
DATA
  6
CONTINUOUS
 62
     7
 10
-37.999955758654387
 20
-790.0
 30
0.0
 11
-37.999955758654387
 21
-310.00000000001262
 31
0.0
  0
LINE
  5
358
  8
DATA
  6
CONTINUOUS
 62
     7
 10
-19.999955758654391
 20
-790.0
 30
0.0
 11
-19.999955758654391
 21
-310.00000000001262
 31
0.0
  0
LINE
  5
359
  8
DATA
  6
CONTINUOUS
 62
     7
 10
-37.999955758655297
 20
-64.999999999998181
 30
0.0
 11
-37.999955758656213
 21
190.00000000000711
 31
0.0
  0
LINE
  5
35A
  8
DATA
  6
CONTINUOUS
 62
     7
 10
-19.9999557586553
 20
-43.999873163273143
 30
0.0
 11
-19.99995575865621
 21
533.99987316329759
 31
0.0
  0
LINE
  5
35B
  8
DATA
  6
CONTINUOUS
 62
     7
 10
-37.999955758655297
 20
-89.999999999998181
 30
0.0
 11
-37.999955758657123
 21
600.00000000000921
 31
0.0
  0
LINE
  5
35C
  8
DATA
  6
CONTINUOUS
 62
     7
 10
-37.999955758655297
 20
-99.999999999998181
 30
0.0
 11
-37.999955758655297
 21
-89.999999999998181
 31
0.0
  0
LINE
  5
35D
  8
DATA
  6
CONTINUOUS
 62
     7
 10
-19.9999557586553
 20
-99.999999999998181
 30
0.0
 11
-19.9999557586553
 21
-89.999999999998181
 31
0.0
  0
LINE
  5
35E
  8
DATA
  6
CONTINUOUS
 62
     7
 10
-37.999955758655297
 20
-99.999999999998181
 30
0.0
 11
-19.9999557586553
 21
-99.999999999998181
 31
0.0
  0
ARC
  5
35F
  8
DATA
  6
CONTINUOUS
 62
     7
 10
-119.99995267935731
 20
4.9999987408245943
 30
0.0
 40
20.000000000000242
 50
219.71514154732711
 51
140.28485845267579
  0
POLYLINE
  5
360
  8
DATA
  6
CONTINUOUS
 62
     7
 66
     1
 10
0.0
 20
0.0
 30
0.0
 70
   128
  0
VERTEX
  5
6DD
  8
DATA
  6
CONTINUOUS
 62
     7
 10
-159.99995381873131
 20
-14.999996587226629
 30
0.0
  0
VERTEX
  5
6DE
  8
DATA
  6
CONTINUOUS
 62
     7
 10
-157.8102616335423
 20
-14.87976518805954
 30
0.0
  0
VERTEX
  5
6DF
  8
DATA
  6
CONTINUOUS
 62
     7
 10
-155.64689619591911
 20
-14.520519535997661
 30
0.0
  0
VERTEX
  5
6E0
  8
DATA
  6
CONTINUOUS
 62
     7
 10
-153.53586756281999
 20
-13.92657882728599
 30
0.0
  0
VERTEX
  5
6E1
  8
DATA
  6
CONTINUOUS
 62
     7
 10
-151.5025565478764
 20
-13.105083987537
 30
0.0
  0
VERTEX
  5
6E2
  8
DATA
  6
CONTINUOUS
 62
     7
 10
-149.5714095688723
 20
-12.065911816665899
 30
0.0
  0
VERTEX
  5
6E3
  8
DATA
  6
CONTINUOUS
 62
     7
 10
-147.7656447294394
 20
-10.821556240518481
 30
0.0
  0
VERTEX
  5
6E4
  8
DATA
  6
CONTINUOUS
 62
     7
 10
-146.1069726687052
 20
-9.3869780968925625
 30
0.0
  0
VERTEX
  5
6E5
  8
DATA
  6
CONTINUOUS
 62
     7
 10
-144.61533641041709
 20
-7.779424534928693
 30
0.0
  0
SEQEND
  5
6E6
  8
DATA
  6
CONTINUOUS
 62
     7
  0
LINE
  5
36B
  8
DATA
  6
CONTINUOUS
 62
     7
 10
-169.9999538183551
 20
-15.00000000076216
 30
0.0
 11
-159.99995381873131
 21
-14.999996587226629
 31
0.0
  0
ARC
  5
36C
  8
DATA
  6
CONTINUOUS
 62
     7
 10
-139.99995142805119
 20
-11.61325049140487
 30
0.0
 40
6.0000000000001279
 50
39.715141547327747
 51
140.28486825263769
  0
ARC
  5
36D
  8
DATA
  6
CONTINUOUS
 62
     7
 10
-159.99995176261211
 20
5.0000114542053771
 30
0.0
 40
19.99999309641451
 50
39.715113568083318
 51
90.000031966805707
  0
LINE
  5
36E
  8
DATA
  6
CONTINUOUS
 62
     7
 10
-159.99996292112931
 20
25.000004550616719
 30
0.0
 11
-169.99995381835609
 21
25.00000227492637
 31
0.0
  0
ARC
  5
36F
  8
DATA
  6
CONTINUOUS
 62
     7
 10
-139.99995142805221
 20
21.613247973054062
 30
0.0
 40
5.9999999999995532
 50
219.71513174736509
 51
320.28485845267232
  0
LINE
  5
370
  8
DATA
  6
CONTINUOUS
 62
     7
 10
-19.9999557586553
 20
-70.999873163273151
 30
0.0
 11
-19.9999557586553
 21
-46.999873163273143
 31
0.0
  0
LINE
  5
371
  8
DATA
  6
CONTINUOUS
 62
     7
 10
-22.9999557586553
 20
-46.999873163273143
 30
0.0
 11
-22.9999557586553
 21
-48.999873163273143
 31
0.0
  0
LINE
  5
372
  8
DATA
  6
CONTINUOUS
 62
     7
 10
-30.49995575865303
 20
-46.999873163273143
 30
0.0
 11
-30.49995575865303
 21
-47.460337372304821
 31
0.0
  0
LINE
  5
373
  8
DATA
  6
CONTINUOUS
 62
     7
 10
-30.9999557586553
 20
-73.999873163272241
 30
0.0
 11
-30.9999557586553
 21
-43.999873163273143
 31
0.0
  0
ARC
  5
374
  8
DATA
  6
CONTINUOUS
 62
     7
 10
-15.9999557586553
 20
-65.999873163271332
 30
0.0
 40
2.0
 50
270.0
 51
0.0
  0
ARC
  5
375
  8
DATA
  6
CONTINUOUS
 62
     7
 10
-15.9999557586553
 20
-51.999873163272241
 30
0.0
 40
2.0
 50
0.0
 51
90.0
  0
LINE
  5
376
  8
DATA
  6
CONTINUOUS
 62
     7
 10
-30.49995575865303
 20
-70.539408954240557
 30
0.0
 11
-30.9999557586553
 21
-70.539408954238752
 31
0.0
  0
LINE
  5
377
  8
DATA
  6
CONTINUOUS
 62
     7
 10
-30.49995575865303
 20
-47.460337372304821
 30
0.0
 11
-30.9999557586553
 21
-47.460337372304821
 31
0.0
  0
LINE
  5
378
  8
DATA
  6
CONTINUOUS
 62
     7
 10
-30.49995575865303
 20
-50.871194924128758
 30
0.0
 11
-30.9999557586553
 21
-50.871194924128758
 31
0.0
  0
LINE
  5
379
  8
DATA
  6
CONTINUOUS
 62
     7
 10
-30.49995575865303
 20
-67.128551402414814
 30
0.0
 11
-30.9999557586553
 21
-67.128551402414814
 31
0.0
  0
LINE
  5
37A
  8
DATA
  6
CONTINUOUS
 62
     7
 10
-15.9999557586553
 20
-67.999873163271332
 30
0.0
 11
-15.9999557586553
 21
-49.999873163272241
 31
0.0
  0
LINE
  5
37B
  8
DATA
  6
CONTINUOUS
 62
     7
 10
-22.999955758654391
 20
-68.999873163273151
 30
0.0
 11
-22.9999557586553
 21
-70.999873163273151
 31
0.0
  0
LINE
  5
37C
  8
DATA
  6
CONTINUOUS
 62
     7
 10
-38.499955758654387
 20
-68.499873163272241
 30
0.0
 11
-38.499955758654387
 21
-80.499873163272227
 31
0.0
  0
LINE
  5
37D
  8
DATA
  6
CONTINUOUS
 62
     7
 10
-30.49995575865303
 20
-70.539408954240557
 30
0.0
 11
-30.49995575865303
 21
-70.999873163273151
 31
0.0
  0
LINE
  5
37E
  8
DATA
  6
CONTINUOUS
 62
     7
 10
-30.49995575865303
 20
-67.128551402414814
 30
0.0
 11
-30.49995575865303
 21
-70.539408954240557
 31
0.0
  0
LINE
  5
37F
  8
DATA
  6
CONTINUOUS
 62
     7
 10
-30.49995575865303
 20
-47.460337372304821
 30
0.0
 11
-30.49995575865303
 21
-50.871194924128758
 31
0.0
  0
LINE
  5
380
  8
DATA
  6
CONTINUOUS
 62
     7
 10
-30.49995575865303
 20
-50.871194924128758
 30
0.0
 11
-30.49995575865303
 21
-67.128551402414814
 31
0.0
  0
LINE
  5
381
  8
DATA
  6
CONTINUOUS
 62
     7
 10
-28.999955758654391
 20
-48.999873163272241
 30
0.0
 11
-28.999955758654391
 21
-68.999873163273151
 31
0.0
  0
LINE
  5
382
  8
DATA
  6
CONTINUOUS
 62
     7
 10
-22.999955758654391
 20
-68.999873163273151
 30
0.0
 11
-28.999955758654391
 21
-68.999873163273151
 31
0.0
  0
LINE
  5
383
  8
DATA
  6
CONTINUOUS
 62
     7
 10
-22.9999557586553
 20
-48.999873163273143
 30
0.0
 11
-22.999955758654391
 21
-68.999873163273151
 31
0.0
  0
LINE
  5
384
  8
DATA
  6
CONTINUOUS
 62
     7
 10
-22.9999557586553
 20
-48.999873163273143
 30
0.0
 11
-28.999955758654391
 21
-48.999873163272241
 31
0.0
  0
LINE
  5
385
  8
DATA
  6
CONTINUOUS
 62
     7
 10
-13.9999557586553
 20
-65.999873163271332
 30
0.0
 11
-13.9999557586553
 21
-51.999873163272241
 31
0.0
  0
LINE
  5
386
  8
DATA
  6
CONTINUOUS
 62
     7
 10
-19.9999557586553
 20
-70.999873163273151
 30
0.0
 11
-19.9999557586553
 21
-73.999873163272241
 31
0.0
  0
LINE
  5
387
  8
DATA
  6
CONTINUOUS
 62
     7
 10
-19.9999557586553
 20
-70.999873163273151
 30
0.0
 11
-30.9999557586553
 21
-70.999873163273151
 31
0.0
  0
LINE
  5
388
  8
DATA
  6
CONTINUOUS
 62
     7
 10
-37.999955758655297
 20
-89.999999999998181
 30
0.0
 11
-19.9999557586553
 21
-89.999999999998181
 31
0.0
  0
LINE
  5
389
  8
DATA
  6
CONTINUOUS
 62
     7
 10
-19.9999557586553
 20
-89.999999999998181
 30
0.0
 11
-19.9999557586553
 21
-73.999873163272241
 31
0.0
  0
LINE
  5
38A
  8
DATA
  6
CONTINUOUS
 62
     7
 10
-19.9999557586553
 20
-73.999873163272241
 30
0.0
 11
-30.9999557586553
 21
-73.999873163272241
 31
0.0
  0
LINE
  5
38B
  8
DATA
  6
CONTINUOUS
 62
     7
 10
-38.499955758654387
 20
-80.499873163272227
 30
0.0
 11
-37.999955758655297
 21
-80.499873163271332
 31
0.0
  0
LINE
  5
38C
  8
DATA
  6
CONTINUOUS
 62
     7
 10
-37.999955758655297
 20
-68.499873163271332
 30
0.0
 11
-38.499955758654387
 21
-68.499873163272241
 31
0.0
  0
LINE
  5
38D
  8
DATA
  6
CONTINUOUS
 62
     7
 10
-30.49995575865303
 20
-64.999873163272241
 30
0.0
 11
-28.999955758654391
 21
-64.999873163272241
 31
0.0
  0
LINE
  5
38E
  8
DATA
  6
CONTINUOUS
 62
     7
 10
-28.999955758654391
 20
-52.999873163272241
 30
0.0
 11
-30.49995575865303
 21
-52.999873163272241
 31
0.0
  0
LINE
  5
38F
  8
DATA
  6
CONTINUOUS
 62
     7
 10
-28.999955758654391
 20
-68.499873163272241
 30
0.0
 11
-30.49995575865303
 21
-68.499873163272241
 31
0.0
  0
LINE
  5
390
  8
DATA
  6
CONTINUOUS
 62
     7
 10
-30.49995575865303
 20
-62.999873163271332
 30
0.0
 11
-28.999955758654391
 21
-62.999873163271332
 31
0.0
  0
LINE
  5
391
  8
DATA
  6
CONTINUOUS
 62
     7
 10
-28.999955758654391
 20
-54.999873163272241
 30
0.0
 11
-30.49995575865303
 21
-54.999873163272241
 31
0.0
  0
LINE
  5
392
  8
DATA
  6
CONTINUOUS
 62
     7
 10
-19.99995575865621
 20
-67.999873163271332
 30
0.0
 11
-15.9999557586553
 21
-67.999873163271332
 31
0.0
  0
LINE
  5
393
  8
DATA
  6
CONTINUOUS
 62
     7
 10
-15.9999557586553
 20
-49.999873163272241
 30
0.0
 11
-19.99995575865621
 21
-49.999873163272241
 31
0.0
  0
LINE
  5
394
  8
DATA
  6
CONTINUOUS
 62
     7
 10
-30.49995575865303
 20
-49.499873163272241
 30
0.0
 11
-28.999955758654391
 21
-49.499873163272241
 31
0.0
  0
LINE
  5
395
  8
DATA
  6
CONTINUOUS
 62
     7
 10
-19.9999557586553
 20
-46.999873163273143
 30
0.0
 11
-19.9999557586553
 21
-43.999873163273143
 31
0.0
  0
LINE
  5
396
  8
DATA
  6
CONTINUOUS
 62
     7
 10
-30.9999557586553
 20
-46.999873163273143
 30
0.0
 11
-19.9999557586553
 21
-46.999873163273143
 31
0.0
  0
LINE
  5
397
  8
DATA
  6
CONTINUOUS
 62
     7
 10
-30.9999557586553
 20
-43.999873163273143
 30
0.0
 11
-19.9999557586553
 21
-43.999873163273143
 31
0.0
  0
LINE
  5
398
  8
DATA
  6
CONTINUOUS
 62
     7
 10
-37.999955758657123
 20
280.00000000000819
 30
0.0
 11
-37.999955758658032
 21
600.00000000000921
 31
0.0
  0
LINE
  5
399
  8
DATA
  6
CONTINUOUS
 62
     7
 10
-37.999977879329037
 20
280.00000000000728
 30
0.0
 11
-37.999977879329037
 21
190.00000000000711
 31
0.0
  0
ARC
  5
39A
  8
DATA
  6
CONTINUOUS
 62
     7
 10
-119.999955758658
 20
545.00000000000921
 30
0.0
 40
20.0
 50
180.00000000000131
 51
0.0
  0
ARC
  5
39B
  8
DATA
  6
CONTINUOUS
 62
     7
 10
-119.999955758658
 20
545.00000000000921
 30
0.0
 40
20.0
 50
0.0
 51
180.00000000000131
  0
LINE
  5
39C
  8
DATA
  6
CONTINUOUS
 62
     7
 10
-19.99995575865621
 20
563.99987316329657
 30
0.0
 11
-19.99995575865621
 21
600.00000000000921
 31
0.0
  0
ARC
  5
39D
  8
DATA
  6
CONTINUOUS
 62
     7
 10
-15.999955758657119
 20
541.9998731632968
 30
0.0
 40
2.0000000000004552
 50
270.0
 51
0.0
  0
ARC
  5
39E
  8
DATA
  6
CONTINUOUS
 62
     7
 10
-15.999955758657119
 20
555.99987316329623
 30
0.0
 40
2.0
 50
0.0
 51
90.0
  0
LINE
  5
39F
  8
DATA
  6
CONTINUOUS
 62
     7
 10
-30.4999557586553
 20
540.87119492415422
 30
0.0
 11
-30.999955758657119
 21
540.87119492415422
 31
0.0
  0
LINE
  5
3A0
  8
DATA
  6
CONTINUOUS
 62
     7
 10
-30.4999557586553
 20
537.46033737232926
 30
0.0
 11
-30.999955758657119
 21
537.46033737232926
 31
0.0
  0
LINE
  5
3A1
  8
DATA
  6
CONTINUOUS
 62
     7
 10
-30.4999557586553
 20
560.53940895426513
 30
0.0
 11
-30.999955758657119
 21
560.53940895426422
 31
0.0
  0
LINE
  5
3A2
  8
DATA
  6
CONTINUOUS
 62
     7
 10
-30.4999557586553
 20
557.12855140243937
 30
0.0
 11
-30.999955758657119
 21
557.12855140243937
 31
0.0
  0
LINE
  5
3A3
  8
DATA
  6
CONTINUOUS
 62
     7
 10
-15.999955758657119
 20
539.99987316329623
 30
0.0
 11
-15.999955758657119
 21
557.99987316329623
 31
0.0
  0
LINE
  5
3A4
  8
DATA
  6
CONTINUOUS
 62
     7
 10
-19.99995575865621
 20
536.99987316329771
 30
0.0
 11
-19.99995575865621
 21
560.9998731632968
 31
0.0
  0
LINE
  5
3A5
  8
DATA
  6
CONTINUOUS
 62
     7
 10
-22.999955758657119
 20
538.99987316329498
 30
0.0
 11
-22.999955758657119
 21
536.99987316329896
 31
0.0
  0
LINE
  5
3A6
  8
DATA
  6
CONTINUOUS
 62
     7
 10
-22.999955758657119
 20
560.99987316329862
 30
0.0
 11
-22.999955758657119
 21
558.99987316329498
 31
0.0
  0
LINE
  5
3A7
  8
DATA
  6
CONTINUOUS
 62
     7
 10
-30.4999557586553
 20
537.46033737232926
 30
0.0
 11
-30.4999557586553
 21
536.99987316329896
 31
0.0
  0
LINE
  5
3A8
  8
DATA
  6
CONTINUOUS
 62
     7
 10
-30.4999557586553
 20
560.99987316329862
 30
0.0
 11
-30.4999557586553
 21
560.53940895426513
 31
0.0
  0
LINE
  5
3A9
  8
DATA
  6
CONTINUOUS
 62
     7
 10
-30.4999557586553
 20
557.12855140243937
 30
0.0
 11
-30.4999557586553
 21
540.87119492415422
 31
0.0
  0
LINE
  5
3AA
  8
DATA
  6
CONTINUOUS
 62
     7
 10
-30.4999557586553
 20
540.87119492415422
 30
0.0
 11
-30.4999557586553
 21
537.46033737232926
 31
0.0
  0
LINE
  5
3AB
  8
DATA
  6
CONTINUOUS
 62
     7
 10
-30.4999557586553
 20
560.53940895426513
 30
0.0
 11
-30.4999557586553
 21
557.12855140243937
 31
0.0
  0
LINE
  5
3AC
  8
DATA
  6
CONTINUOUS
 62
     7
 10
-28.99995575865621
 20
558.99987316329589
 30
0.0
 11
-28.99995575865621
 21
538.99987316329498
 31
0.0
  0
LINE
  5
3AD
  8
DATA
  6
CONTINUOUS
 62
     7
 10
-22.999955758657119
 20
538.99987316329498
 30
0.0
 11
-28.99995575865621
 21
538.99987316329498
 31
0.0
  0
LINE
  5
3AE
  8
DATA
  6
CONTINUOUS
 62
     7
 10
-22.999955758657119
 20
558.99987316329498
 30
0.0
 11
-22.999955758657119
 21
538.99987316329498
 31
0.0
  0
LINE
  5
3AF
  8
DATA
  6
CONTINUOUS
 62
     7
 10
-22.999955758657119
 20
558.99987316329498
 30
0.0
 11
-28.99995575865621
 21
558.99987316329589
 31
0.0
  0
LINE
  5
3B0
  8
DATA
  6
CONTINUOUS
 62
     7
 10
-13.999955758657119
 20
541.9998731632968
 30
0.0
 11
-13.999955758657119
 21
555.99987316329623
 31
0.0
  0
LINE
  5
3B1
  8
DATA
  6
CONTINUOUS
 62
     7
 10
-19.99995575865621
 20
536.99987316329771
 30
0.0
 11
-19.99995575865621
 21
533.99987316329759
 31
0.0
  0
LINE
  5
3B2
  8
DATA
  6
CONTINUOUS
 62
     7
 10
-19.99995575865621
 20
536.99987316329771
 30
0.0
 11
-30.999955758657119
 21
536.99987316329771
 31
0.0
  0
LINE
  5
3B3
  8
DATA
  6
CONTINUOUS
 62
     7
 10
-19.99995575865621
 20
563.99987316329657
 30
0.0
 11
-19.99995575865621
 21
560.9998731632968
 31
0.0
  0
LINE
  5
3B4
  8
DATA
  6
CONTINUOUS
 62
     7
 10
-30.999955758657119
 20
560.9998731632968
 30
0.0
 11
-19.99995575865621
 21
560.9998731632968
 31
0.0
  0
LINE
  5
3B5
  8
DATA
  6
CONTINUOUS
 62
     7
 10
-19.99995575865621
 20
533.99987316329759
 30
0.0
 11
-30.999955758657119
 21
533.99987316329759
 31
0.0
  0
LINE
  5
3B6
  8
DATA
  6
CONTINUOUS
 62
     7
 10
-30.999955758657119
 20
533.99987316329759
 30
0.0
 11
-30.999955758657119
 21
563.99987316329657
 31
0.0
  0
LINE
  5
3B7
  8
DATA
  6
CONTINUOUS
 62
     7
 10
-30.999955758657119
 20
563.99987316329657
 30
0.0
 11
-19.99995575865621
 21
563.99987316329657
 31
0.0
  0
LINE
  5
3B8
  8
DATA
  6
CONTINUOUS
 62
     7
 10
-28.99995575865621
 20
554.99987316329862
 30
0.0
 11
-30.4999557586553
 21
554.99987316329862
 31
0.0
  0
LINE
  5
3B9
  8
DATA
  6
CONTINUOUS
 62
     7
 10
-30.4999557586553
 20
542.99987316329862
 30
0.0
 11
-28.99995575865621
 21
542.99987316329862
 31
0.0
  0
LINE
  5
3BA
  8
DATA
  6
CONTINUOUS
 62
     7
 10
-30.4999557586553
 20
544.99987316329577
 30
0.0
 11
-28.99995575865621
 21
544.99987316329577
 31
0.0
  0
LINE
  5
3BB
  8
DATA
  6
CONTINUOUS
 62
     7
 10
-28.99995575865621
 20
552.99987316329623
 30
0.0
 11
-30.4999557586553
 21
552.99987316329623
 31
0.0
  0
LINE
  5
3BC
  8
DATA
  6
CONTINUOUS
 62
     7
 10
-19.99995575865621
 20
539.99987316329577
 30
0.0
 11
-15.999955758657119
 21
539.99987316329623
 31
0.0
  0
LINE
  5
3BD
  8
DATA
  6
CONTINUOUS
 62
     7
 10
-15.999955758657119
 20
557.99987316329623
 30
0.0
 11
-19.99995575865621
 21
557.99987316329623
 31
0.0
  0
LINE
  5
3BE
  8
DATA
  6
CONTINUOUS
 62
     7
 10
-28.99995575865621
 20
539.49987316329668
 30
0.0
 11
-30.4999557586553
 21
539.49987316329668
 31
0.0
  0
LINE
  5
3BF
  8
DATA
  6
CONTINUOUS
 62
     7
 10
-30.4999557586553
 20
558.4998731632968
 30
0.0
 11
-28.99995575865621
 21
558.4998731632968
 31
0.0
  0
LINE
  5
3C0
  8
DATA
  6
CONTINUOUS
 62
     7
 10
-37.999955758657123
 20
600.00000000000921
 30
0.0
 11
-19.99995575865621
 21
600.00000000000921
 31
0.0
  0
LINE
  5
3C1
  8
DATA
  6
CONTINUOUS
 62
     7
 10
-49.999955758653478
 20
-702.40768738961037
 30
0.0
 11
-39.499955758654387
 21
-702.40768738961037
 31
0.0
  0
LINE
  5
3C2
  8
DATA
  6
CONTINUOUS
 62
     7
 10
-37.999955758654387
 20
-762.40768738961231
 30
0.0
 11
-49.999955758653478
 21
-762.40768738961231
 31
0.0
  0
LINE
  5
3C3
  8
DATA
  6
CONTINUOUS
 62
     7
 10
-138.99995575865529
 20
-800.00000000000443
 30
0.0
 11
-138.99995575865529
 21
-803.00000000000432
 31
0.0
  0
LINE
  5
3C4
  8
DATA
  6
CONTINUOUS
 62
     7
 10
-49.999955758653478
 20
-762.40768738961231
 30
0.0
 11
-49.999955758653478
 21
-702.40768738961037
 31
0.0
  0
LINE
  5
3C5
  8
DATA
  6
CONTINUOUS
 62
     7
 10
-100.99995575865491
 20
-803.00000000000432
 30
0.0
 11
-100.99995575865491
 21
-800.00000000000421
 31
0.0
  0
LINE
  5
3C6
  8
DATA
  6
CONTINUOUS
 62
     7
 10
-49.999955758653478
 20
-762.40768738961231
 30
0.0
 11
-49.999955758653478
 21
-782.00000000000443
 31
0.0
  0
LINE
  5
3C7
  8
DATA
  6
CONTINUOUS
 62
     7
 10
-38.499955758653478
 20
-766.00000000000398
 30
0.0
 11
-38.499955758653478
 21
-778.00000000000375
 31
0.0
  0
LINE
  5
3C8
  8
DATA
  6
CONTINUOUS
 62
     7
 10
-19.999955758654391
 20
-800.0
 30
0.0
 11
-30.99995575865621
 21
-800.00000000000387
 31
0.0
  0
LINE
  5
3C9
  8
DATA
  6
CONTINUOUS
 62
     7
 10
-19.999955758654391
 20
-800.0
 30
0.0
 11
-30.99995575865621
 21
-800.00000000000239
 31
0.0
  0
LINE
  5
3CA
  8
DATA
  6
CONTINUOUS
 62
     7
 10
-19.999955758654391
 20
-800.0
 30
0.0
 11
-30.9999557586553
 21
-800.00000000000034
 31
0.0
  0
LINE
  5
3CB
  8
DATA
  6
CONTINUOUS
 62
     7
 10
-37.999955758654387
 20
-800.00000000000193
 30
0.0
 11
-37.999955758654387
 21
-790.0
 31
0.0
  0
LINE
  5
3CC
  8
DATA
  6
CONTINUOUS
 62
     7
 10
-19.999955758654391
 20
-800.0
 30
0.0
 11
-19.999955758654391
 21
-790.0
 31
0.0
  0
LINE
  5
3CD
  8
DATA
  6
CONTINUOUS
 62
     7
 10
-19.999955758654391
 20
-800.0
 30
0.0
 11
-37.999955758654387
 21
-800.00000000000193
 31
0.0
  0
LINE
  5
3CE
  8
DATA
  6
CONTINUOUS
 62
     7
 10
-37.999955758654387
 20
-790.0
 30
0.0
 11
-19.999955758654391
 21
-790.0
 31
0.0
  0
LINE
  5
3CF
  8
DATA
  6
CONTINUOUS
 62
     7
 10
-38.499955758653478
 20
-778.00000000000375
 30
0.0
 11
-37.999955758654387
 21
-778.00000000000375
 31
0.0
  0
LINE
  5
3D0
  8
DATA
  6
CONTINUOUS
 62
     7
 10
-37.999955758654387
 20
-766.00000000000398
 30
0.0
 11
-38.499955758653478
 21
-766.00000000000398
 31
0.0
  0
LINE
  5
3D1
  8
DATA
  6
CONTINUOUS
 62
     7
 10
-39.499955758654387
 20
-712.66851553403171
 30
0.0
 11
-39.499955758654387
 21
-712.31488068362614
 31
0.0
  0
LINE
  5
3D2
  8
DATA
  6
CONTINUOUS
 62
     7
 10
-39.499955758654387
 20
-712.31488068362614
 30
0.0
 11
-39.499955758654387
 21
-708.62094462752816
 31
0.0
  0
LINE
  5
3D3
  8
DATA
  6
CONTINUOUS
 62
     7
 10
-39.499955758654387
 20
-712.31488068362614
 30
0.0
 11
-37.999955758654387
 21
-712.31488068362614
 31
0.0
  0
LINE
  5
3D4
  8
DATA
  6
CONTINUOUS
 62
     7
 10
-39.499955758654387
 20
-702.12761144988485
 30
0.0
 11
-37.999955758654387
 21
-702.12761144988485
 31
0.0
  0
LINE
  5
3D5
  8
DATA
  6
CONTINUOUS
 62
     7
 10
-39.499955758654387
 20
-708.62094462752816
 30
0.0
 11
-39.499955758654387
 21
-702.12761144988485
 31
0.0
  0
LINE
  5
3D6
  8
DATA
  6
CONTINUOUS
 62
     7
 10
-39.499955758654387
 20
-708.62094462752816
 30
0.0
 11
-37.999955758654387
 21
-708.62094462752816
 31
0.0
  0
LINE
  5
3D7
  8
DATA
  6
CONTINUOUS
 62
     7
 10
-39.499955758653478
 20
-744.62614908634373
 30
0.0
 11
-39.499955758653478
 21
-744.27251423593827
 31
0.0
  0
LINE
  5
3D8
  8
DATA
  6
CONTINUOUS
 62
     7
 10
-39.499955758653478
 20
-744.27251423593827
 30
0.0
 11
-39.499955758652114
 21
-740.57857817984075
 31
0.0
  0
LINE
  5
3D9
  8
DATA
  6
CONTINUOUS
 62
     7
 10
-39.499955758653478
 20
-744.27251423593827
 30
0.0
 11
-37.999955758653478
 21
-744.27251423593827
 31
0.0
  0
LINE
  5
3DA
  8
DATA
  6
CONTINUOUS
 62
     7
 10
-39.499955758652114
 20
-734.08524500219721
 30
0.0
 11
-39.499955758654387
 21
-712.66851553403171
 31
0.0
  0
LINE
  5
3DB
  8
DATA
  6
CONTINUOUS
 62
     7
 10
-39.499955758652114
 20
-734.08524500219721
 30
0.0
 11
-37.999955758653478
 21
-734.08524500219721
 31
0.0
  0
LINE
  5
3DC
  8
DATA
  6
CONTINUOUS
 62
     7
 10
-39.499955758652114
 20
-740.57857817984075
 30
0.0
 11
-39.499955758652114
 21
-734.08524500219721
 31
0.0
  0
LINE
  5
3DD
  8
DATA
  6
CONTINUOUS
 62
     7
 10
-39.499955758652114
 20
-740.57857817984075
 30
0.0
 11
-37.999955758653478
 21
-740.57857817984075
 31
0.0
  0
LINE
  5
3DE
  8
DATA
  6
CONTINUOUS
 62
     7
 10
-39.499955758654387
 20
-712.66851553403171
 30
0.0
 11
-37.999955758654387
 21
-712.66851553403171
 31
0.0
  0
LINE
  5
3DF
  8
DATA
  6
CONTINUOUS
 62
     7
 10
-39.499955758653478
 20
-744.62614908634373
 30
0.0
 11
-37.999955758653478
 21
-744.62614908634373
 31
0.0
  0
LINE
  5
3E0
  8
DATA
  6
CONTINUOUS
 62
     7
 10
-37.999955759312869
 20
-1450.000000000003
 30
0.0
 11
-37.999955759313778
 21
-1800.000000000003
 31
0.0
  0
LINE
  5
3E1
  8
DATA
  6
CONTINUOUS
 62
     7
 10
-37.999955759312869
 20
-1800.0000000000041
 30
0.0
 11
-37.99995575931105
 21
-1110.000000000002
 31
0.0
  0
LINE
  5
3E2
  8
DATA
  6
CONTINUOUS
 62
     7
 10
-19.999955759311959
 20
-1733.999873163292
 30
0.0
 11
-19.999955759311959
 21
-1528.224542413466
 31
0.0
  0
LINE
  5
3E3
  8
DATA
  6
CONTINUOUS
 62
     7
 10
-28.999955758653481
 20
-271.00000000000728
 30
0.0
 11
-28.999955758653481
 21
-300.00000000000767
 31
0.0
  0
LINE
  5
3E4
  8
DATA
  6
CONTINUOUS
 62
     7
 10
-22.999955758653481
 20
-271.00000000000762
 30
0.0
 11
-22.999955758653481
 21
-300.00000000000767
 31
0.0
  0
LINE
  5
3E5
  8
DATA
  6
CONTINUOUS
 62
     7
 10
-38.499955758653478
 20
-670.21072019471433
 30
0.0
 11
-39.499955758654387
 21
-670.21072019471433
 31
0.0
  0
LINE
  5
3E6
  8
DATA
  6
CONTINUOUS
 62
     7
 10
-38.499955758653478
 20
-667.00000000000523
 30
0.0
 11
-38.499955758653478
 21
-679.00000000000546
 31
0.0
  0
LINE
  5
3E7
  8
DATA
  6
CONTINUOUS
 62
     7
 10
-39.499955758654387
 20
-679.82505873183209
 30
0.0
 11
-39.499955758654387
 21
-676.67202675988096
 31
0.0
  0
LINE
  5
3E8
  8
DATA
  6
CONTINUOUS
 62
     7
 10
-39.499955758654387
 20
-679.82505873183209
 30
0.0
 11
-37.999955758654387
 21
-679.82505873183209
 31
0.0
  0
LINE
  5
3E9
  8
DATA
  6
CONTINUOUS
 62
     7
 10
-39.499955758654387
 20
-663.71738701707102
 30
0.0
 11
-39.499955758654387
 21
-663.50000000000477
 31
0.0
  0
LINE
  5
3EA
  8
DATA
  6
CONTINUOUS
 62
     7
 10
-39.499955758654387
 20
-676.67202675988096
 30
0.0
 11
-39.499955758654387
 21
-670.21072019471433
 31
0.0
  0
LINE
  5
3EB
  8
DATA
  6
CONTINUOUS
 62
     7
 10
-39.499955758654387
 20
-670.21072019471433
 30
0.0
 11
-39.499955758654387
 21
-663.71738701707102
 31
0.0
  0
LINE
  5
3EC
  8
DATA
  6
CONTINUOUS
 62
     7
 10
-39.499955758654387
 20
-663.71738701707102
 30
0.0
 11
-37.999955758653478
 21
-663.71738701707102
 31
0.0
  0
LINE
  5
3ED
  8
DATA
  6
CONTINUOUS
 62
     7
 10
-44.999911517309172
 20
-668.99995575866024
 30
0.0
 11
-39.499955758654387
 21
-668.99995575866024
 31
0.0
  0
LINE
  5
3EE
  8
DATA
  6
CONTINUOUS
 62
     7
 10
-38.499955758653478
 20
-679.00000000000546
 30
0.0
 11
-37.999955758654387
 21
-679.00000000000546
 31
0.0
  0
LINE
  5
3EF
  8
DATA
  6
CONTINUOUS
 62
     7
 10
-37.999955758653478
 20
-667.00000000000523
 30
0.0
 11
-38.499955758653478
 21
-667.00000000000523
 31
0.0
  0
LINE
  5
3F0
  8
DATA
  6
CONTINUOUS
 62
     7
 10
-38.499955758653478
 20
-676.67202675988096
 30
0.0
 11
-39.499955758654387
 21
-676.67202675988096
 31
0.0
  0
LINE
  5
3F1
  8
DATA
  6
CONTINUOUS
 62
     7
 10
-38.499955758653478
 20
-544.00000000000614
 30
0.0
 11
-38.499955758653478
 21
-556.00000000000625
 31
0.0
  0
LINE
  5
3F2
  8
DATA
  6
CONTINUOUS
 62
     7
 10
-38.499955758653478
 20
-556.00000000000625
 30
0.0
 11
-37.999955758654387
 21
-556.00000000000625
 31
0.0
  0
LINE
  5
3F3
  8
DATA
  6
CONTINUOUS
 62
     7
 10
-37.999955758654387
 20
-544.00000000000614
 30
0.0
 11
-38.499955758653478
 21
-544.00000000000614
 31
0.0
  0
LINE
  5
3F4
  8
DATA
  6
CONTINUOUS
 62
     7
 10
-37.999955758654387
 20
-438.0000000000062
 30
0.0
 11
-157.99995575865549
 21
-318.00000000000728
 31
0.0
  0
LINE
  5
3F5
  8
DATA
  6
CONTINUOUS
 62
     7
 10
-49.99995575865529
 20
-363.00000000000807
 30
0.0
 11
-37.999955758656213
 21
-363.00000000000807
 31
0.0
  0
LINE
  5
3F6
  8
DATA
  6
CONTINUOUS
 62
     7
 10
-49.99995575865529
 20
-426.00000000000477
 30
0.0
 11
-49.99995575865529
 21
-363.00000000000807
 31
0.0
  0
LINE
  5
3F7
  8
DATA
  6
CONTINUOUS
 62
     7
 10
-49.99995575865529
 20
-318.00000000000728
 30
0.0
 11
-49.99995575865529
 21
-363.00000000000807
 31
0.0
  0
LINE
  5
3F8
  8
DATA
  6
CONTINUOUS
 62
     7
 10
-38.499955758653478
 20
-421.00000000000699
 30
0.0
 11
-38.499955758653478
 21
-433.00000000000671
 31
0.0
  0
LINE
  5
3F9
  8
DATA
  6
CONTINUOUS
 62
     7
 10
-38.499955758653478
 20
-433.00000000000671
 30
0.0
 11
-37.999955758654387
 21
-433.00000000000671
 31
0.0
  0
LINE
  5
3FA
  8
DATA
  6
CONTINUOUS
 62
     7
 10
-37.999955758654387
 20
-421.00000000000699
 30
0.0
 11
-38.499955758653478
 21
-421.00000000000699
 31
0.0
  0
LINE
  5
3FB
  8
DATA
  6
CONTINUOUS
 62
     7
 10
-15.999955758654391
 20
-358.00000000000779
 30
0.0
 11
-15.999955758654391
 21
-340.00000000000779
 31
0.0
  0
ARC
  5
3FC
  8
DATA
  6
CONTINUOUS
 62
     7
 10
-15.999955758654391
 20
-342.00000000000801
 30
0.0
 40
2.0
 50
0.0
 51
90.0
  0
ARC
  5
3FD
  8
DATA
  6
CONTINUOUS
 62
     7
 10
-15.999955758654391
 20
-356.00000000000767
 30
0.0
 40
2.000000000000226
 50
270.0
 51
0.0
  0
LINE
  5
3FE
  8
DATA
  6
CONTINUOUS
 62
     7
 10
-13.999955758654391
 20
-356.00000000000767
 30
0.0
 11
-13.999955758654391
 21
-342.00000000000801
 31
0.0
  0
LINE
  5
3FF
  8
DATA
  6
CONTINUOUS
 62
     7
 10
-19.9999557586553
 20
-358.00000000000779
 30
0.0
 11
-15.999955758654391
 21
-358.00000000000779
 31
0.0
  0
LINE
  5
400
  8
DATA
  6
CONTINUOUS
 62
     7
 10
-38.499955758653478
 20
-322.00000000000841
 30
0.0
 11
-38.499955758653478
 21
-334.00000000000841
 31
0.0
  0
LINE
  5
401
  8
DATA
  6
CONTINUOUS
 62
     7
 10
-22.999955758653481
 20
-300.00000000000767
 30
0.0
 11
-19.999955758654391
 21
-300.00000000000767
 31
0.0
  0
LINE
  5
402
  8
DATA
  6
CONTINUOUS
 62
     7
 10
-30.99995575865621
 20
-300.00000000000767
 30
0.0
 11
-28.999955758653481
 21
-300.00000000000767
 31
0.0
  0
LINE
  5
403
  8
DATA
  6
CONTINUOUS
 62
     7
 10
-22.999955758653481
 20
-300.00000000000767
 30
0.0
 11
-19.999955758654391
 21
-300.00000000000767
 31
0.0
  0
LINE
  5
404
  8
DATA
  6
CONTINUOUS
 62
     7
 10
-30.999955758654391
 20
-300.00000000001
 30
0.0
 11
-28.999955758653481
 21
-300.00000000000767
 31
0.0
  0
LINE
  5
405
  8
DATA
  6
CONTINUOUS
 62
     7
 10
-37.999955758654387
 20
-310.00000000001262
 30
0.0
 11
-37.999955758654387
 21
-300.00000000000767
 31
0.0
  0
LINE
  5
406
  8
DATA
  6
CONTINUOUS
 62
     7
 10
-19.999955758654391
 20
-310.00000000001262
 30
0.0
 11
-19.999955758654391
 21
-300.00000000000767
 31
0.0
  0
LINE
  5
407
  8
DATA
  6
CONTINUOUS
 62
     7
 10
-37.999955758654387
 20
-300.00000000000767
 30
0.0
 11
-19.999955758654391
 21
-300.00000000000767
 31
0.0
  0
LINE
  5
408
  8
DATA
  6
CONTINUOUS
 62
     7
 10
-37.999955758654387
 20
-310.00000000001262
 30
0.0
 11
-19.999955758654391
 21
-310.00000000001262
 31
0.0
  0
LINE
  5
409
  8
DATA
  6
CONTINUOUS
 62
     7
 10
-38.499955758653478
 20
-334.00000000000841
 30
0.0
 11
-37.999955758654387
 21
-334.00000000000841
 31
0.0
  0
LINE
  5
40A
  8
DATA
  6
CONTINUOUS
 62
     7
 10
-37.999955758654387
 20
-322.00000000000841
 30
0.0
 11
-38.499955758653478
 21
-322.00000000000841
 31
0.0
  0
LINE
  5
40B
  8
DATA
  6
CONTINUOUS
 62
     7
 10
-15.999955758654391
 20
-340.00000000000779
 30
0.0
 11
-19.9999557586553
 21
-340.00000000000779
 31
0.0
  0
LINE
  5
40C
  8
DATA
  6
CONTINUOUS
 62
     7
 10
-28.999955758653481
 20
-261.00000000000688
 30
0.0
 11
-28.999955758653481
 21
-271.00000000000728
 31
0.0
  0
LINE
  5
40D
  8
DATA
  6
CONTINUOUS
 62
     7
 10
-22.999955758654391
 20
-261.00000000000739
 30
0.0
 11
-22.999955758653481
 21
-271.00000000000762
 31
0.0
  0
LINE
  5
40E
  8
DATA
  6
CONTINUOUS
 62
     7
 10
-22.999955758653481
 20
-271.00000000000762
 30
0.0
 11
-28.999955758653481
 21
-271.00000000000728
 31
0.0
  0
LINE
  5
40F
  8
DATA
  6
CONTINUOUS
 62
     7
 10
-22.999955758654391
 20
-261.00000000000739
 30
0.0
 11
-28.999955758653481
 21
-261.00000000000688
 31
0.0
  0
CIRCLE
  5
410
  8
DATA
  6
CONTINUOUS
 62
     7
 10
-119.99995575931381
 20
-1745.000000000003
 30
0.0
 40
20.0
  0
LINE
  5
411
  8
DATA
  6
CONTINUOUS
 62
     7
 10
-15.99995575931287
 20
-1757.999873163292
 30
0.0
 11
-15.99995575931287
 21
-1739.999873163292
 31
0.0
  0
LINE
  5
412
  8
DATA
  6
CONTINUOUS
 62
     7
 10
-19.999955759311959
 20
-1760.9998731632911
 30
0.0
 11
-19.999955759311959
 21
-1736.999873163292
 31
0.0
  0
LINE
  5
413
  8
DATA
  6
CONTINUOUS
 62
     7
 10
-22.999955759312869
 20
-1736.9998731632941
 30
0.0
 11
-22.999955759312869
 21
-1760.9998731632929
 31
0.0
  0
LINE
  5
414
  8
DATA
  6
CONTINUOUS
 62
     7
 10
-30.49995575931105
 20
-1740.871194924149
 30
0.0
 11
-30.49995575931105
 21
-1757.1285514024339
 31
0.0
  0
LINE
  5
415
  8
DATA
  6
CONTINUOUS
 62
     7
 10
-13.99995575931287
 20
-1755.999873163292
 30
0.0
 11
-13.99995575931287
 21
-1741.999873163292
 31
0.0
  0
LINE
  5
416
  8
DATA
  6
CONTINUOUS
 62
     7
 10
-30.999955759312869
 20
-1763.9998731632911
 30
0.0
 11
-30.999955759312869
 21
-1733.999873163292
 31
0.0
  0
ARC
  5
417
  8
DATA
  6
CONTINUOUS
 62
     7
 10
-15.99995575931287
 20
-1755.999873163292
 30
0.0
 40
1.9999999999997731
 50
270.0
 51
0.0
  0
LINE
  5
418
  8
DATA
  6
CONTINUOUS
 62
     7
 10
-30.49995575931105
 20
-1757.1285514024339
 30
0.0
 11
-30.999955759312869
 21
-1757.1285514024339
 31
0.0
  0
LINE
  5
419
  8
DATA
  6
CONTINUOUS
 62
     7
 10
-30.49995575931105
 20
-1760.539408954259
 30
0.0
 11
-30.999955759312869
 21
-1760.539408954259
 31
0.0
  0
LINE
  5
41A
  8
DATA
  6
CONTINUOUS
 62
     7
 10
-30.49995575931105
 20
-1760.539408954259
 30
0.0
 11
-30.49995575931105
 21
-1760.9998731632929
 31
0.0
  0
LINE
  5
41B
  8
DATA
  6
CONTINUOUS
 62
     7
 10
-30.49995575931105
 20
-1757.1285514024339
 30
0.0
 11
-30.49995575931105
 21
-1760.539408954259
 31
0.0
  0
LINE
  5
41C
  8
DATA
  6
CONTINUOUS
 62
     7
 10
-28.999955759311959
 20
-1758.499873163292
 30
0.0
 11
-28.999955759311959
 21
-1754.9998731632929
 31
0.0
  0
LINE
  5
41D
  8
DATA
  6
CONTINUOUS
 62
     7
 10
-19.999955759311959
 20
-1763.9998731632911
 30
0.0
 11
-19.999955759311959
 21
-1760.9998731632911
 31
0.0
  0
LINE
  5
41E
  8
DATA
  6
CONTINUOUS
 62
     7
 10
-19.999955759311959
 20
-1760.9998731632911
 30
0.0
 11
-30.999955759312869
 21
-1760.9998731632911
 31
0.0
  0
LINE
  5
41F
  8
DATA
  6
CONTINUOUS
 62
     7
 10
-37.999955759312869
 20
-1800.0000000000041
 30
0.0
 11
-19.999955759311959
 21
-1800.0000000000041
 31
0.0
  0
LINE
  5
420
  8
DATA
  6
CONTINUOUS
 62
     7
 10
-19.999955759311959
 20
-1763.9998731632911
 30
0.0
 11
-30.999955759312869
 21
-1763.9998731632911
 31
0.0
  0
LINE
  5
421
  8
DATA
  6
CONTINUOUS
 62
     7
 10
-19.999955759311959
 20
-1800.0000000000041
 30
0.0
 11
-19.999955759311959
 21
-1763.9998731632911
 31
0.0
  0
LINE
  5
422
  8
DATA
  6
CONTINUOUS
 62
     7
 10
-22.999955759312869
 20
-1758.499873163292
 30
0.0
 11
-30.49995575931105
 21
-1758.499873163292
 31
0.0
  0
LINE
  5
423
  8
DATA
  6
CONTINUOUS
 62
     7
 10
-30.49995575931105
 20
-1754.9998731632929
 30
0.0
 11
-22.999955759312869
 21
-1754.9998731632929
 31
0.0
  0
LINE
  5
424
  8
DATA
  6
CONTINUOUS
 62
     7
 10
-19.999955759311959
 20
-1757.999873163292
 30
0.0
 11
-15.99995575931287
 21
-1757.999873163292
 31
0.0
  0
ARC
  5
425
  8
DATA
  6
CONTINUOUS
 62
     7
 10
-15.99995575931287
 20
-1741.999873163292
 30
0.0
 40
2.0
 50
0.0
 51
90.0
  0
LINE
  5
426
  8
DATA
  6
CONTINUOUS
 62
     7
 10
-30.49995575931105
 20
-1737.4603373723239
 30
0.0
 11
-30.999955759312869
 21
-1737.4603373723239
 31
0.0
  0
LINE
  5
427
  8
DATA
  6
CONTINUOUS
 62
     7
 10
-30.49995575931105
 20
-1740.871194924149
 30
0.0
 11
-30.999955759312869
 21
-1740.871194924149
 31
0.0
  0
LINE
  5
428
  8
DATA
  6
CONTINUOUS
 62
     7
 10
-30.49995575931105
 20
-1736.9998731632929
 30
0.0
 11
-30.49995575931105
 21
-1737.4603373723239
 31
0.0
  0
LINE
  5
429
  8
DATA
  6
CONTINUOUS
 62
     7
 10
-30.49995575931105
 20
-1737.4603373723239
 30
0.0
 11
-30.49995575931105
 21
-1740.871194924149
 31
0.0
  0
LINE
  5
42A
  8
DATA
  6
CONTINUOUS
 62
     7
 10
-28.999955759311959
 20
-1742.9998731632929
 30
0.0
 11
-28.999955759311959
 21
-1739.499873163292
 31
0.0
  0
LINE
  5
42B
  8
DATA
  6
CONTINUOUS
 62
     7
 10
-30.999955759312869
 20
-1736.999873163292
 30
0.0
 11
-19.999955759311959
 21
-1736.999873163292
 31
0.0
  0
LINE
  5
42C
  8
DATA
  6
CONTINUOUS
 62
     7
 10
-19.999955759311959
 20
-1733.999873163292
 30
0.0
 11
-19.999955759311959
 21
-1736.999873163292
 31
0.0
  0
LINE
  5
42D
  8
DATA
  6
CONTINUOUS
 62
     7
 10
-30.999955759312869
 20
-1733.999873163292
 30
0.0
 11
-19.999955759311959
 21
-1733.999873163292
 31
0.0
  0
LINE
  5
42E
  8
DATA
  6
CONTINUOUS
 62
     7
 10
-30.49995575931105
 20
-1739.499873163292
 30
0.0
 11
-22.999955759312869
 21
-1739.499873163292
 31
0.0
  0
LINE
  5
42F
  8
DATA
  6
CONTINUOUS
 62
     7
 10
-22.999955759312869
 20
-1742.9998731632929
 30
0.0
 11
-30.49995575931105
 21
-1742.9998731632929
 31
0.0
  0
LINE
  5
430
  8
DATA
  6
CONTINUOUS
 62
     7
 10
-15.99995575931287
 20
-1739.999873163292
 30
0.0
 11
-19.999955759311959
 21
-1739.999873163292
 31
0.0
  0
LINE
  5
431
  8
DATA
  6
CONTINUOUS
 62
     7
 10
-37.99995575931105
 20
-1135.000000000002
 30
0.0
 11
-37.999955759311959
 21
-1330.000000000003
 31
0.0
  0
LINE
  5
432
  8
DATA
  6
CONTINUOUS
 62
     7
 10
-19.999955759311959
 20
-1339.5001268367289
 30
0.0
 11
-19.99995575931105
 21
-1159.7158651913851
 31
0.0
  0
LINE
  5
433
  8
DATA
  6
CONTINUOUS
 62
     7
 10
-37.999977879983888
 20
-1330.000000000003
 30
0.0
 11
-37.999977879984797
 21
-1450.000000000003
 31
0.0
  0
LINE
  5
434
  8
DATA
  6
CONTINUOUS
 62
     7
 10
-19.999955759311959
 20
-1413.0001268367271
 30
0.0
 11
-19.999955759311959
 21
-1351.5001268367271
 31
0.0
  0
LINE
  5
435
  8
DATA
  6
CONTINUOUS
 62
     7
 10
-22.99995575931014
 20
-1356.000126836728
 30
0.0
 11
-22.999955759311959
 21
-1413.0001268367271
 31
0.0
  0
LINE
  5
436
  8
DATA
  6
CONTINUOUS
 62
     7
 10
-30.49995575931014
 20
-1365.000126836728
 30
0.0
 11
-30.49995575931014
 21
-1413.000126836728
 31
0.0
  0
LINE
  5
437
  8
DATA
  6
CONTINUOUS
 62
     7
 10
-30.999955759312869
 20
-1528.224542413466
 30
0.0
 11
-30.999955759312869
 21
-1353.000126836728
 31
0.0
  0
LINE
  5
438
  8
DATA
  6
CONTINUOUS
 62
     7
 10
-19.999955759311959
 20
-1474.911828836639
 30
0.0
 11
-19.999955759311959
 21
-1525.2952977235441
 31
0.0
  0
LINE
  5
439
  8
DATA
  6
CONTINUOUS
 62
     7
 10
-19.999955759311959
 20
-1528.224542413466
 30
0.0
 11
-19.999955759311959
 21
-1525.2952977235441
 31
0.0
  0
LINE
  5
43A
  8
DATA
  6
CONTINUOUS
 62
     7
 10
-19.999955759311959
 20
-1525.2952977235441
 30
0.0
 11
-30.999955759312869
 21
-1525.2952977602749
 31
0.0
  0
LINE
  5
43B
  8
DATA
  6
CONTINUOUS
 62
     7
 10
-19.999955759311959
 20
-1528.224542413466
 30
0.0
 11
-30.999955759312869
 21
-1528.224542413466
 31
0.0
  0
LINE
  5
43C
  8
DATA
  6
CONTINUOUS
 62
     7
 10
-19.999955759311959
 20
-1473.5629746389261
 30
0.0
 11
-19.999955759311959
 21
-1426.121691063506
 31
0.0
  0
LINE
  5
43D
  8
DATA
  6
CONTINUOUS
 62
     7
 10
-22.999955759311959
 20
-1426.121691063506
 30
0.0
 11
-22.999955759311959
 21
-1468.9696042333819
 31
0.0
  0
LINE
  5
43E
  8
DATA
  6
CONTINUOUS
 62
     7
 10
-30.49995575931014
 20
-1426.121691063506
 30
0.0
 11
-30.49995575931014
 21
-1468.248800697203
 31
0.0
  0
LINE
  5
43F
  8
DATA
  6
CONTINUOUS
 62
     7
 10
-22.999955759311959
 20
-1469.729126700767
 30
0.0
 11
-22.999955759311959
 21
-1468.9696042333819
 31
0.0
  0
LINE
  5
440
  8
DATA
  6
CONTINUOUS
 62
     7
 10
-19.999955759311959
 20
-1473.5629746389261
 30
0.0
 11
-19.999955759311959
 21
-1474.911828836639
 31
0.0
  0
LINE
  5
441
  8
DATA
  6
CONTINUOUS
 62
     7
 10
-22.999955759311959
 20
-1469.729126700767
 30
0.0
 11
-22.999955759311959
 21
-1474.911828836639
 31
0.0
  0
LINE
  5
442
  8
DATA
  6
CONTINUOUS
 62
     7
 10
-30.999955759312869
 20
-1469.7291268975339
 30
0.0
 11
-22.999955759311959
 21
-1469.729126700767
 31
0.0
  0
LINE
  5
443
  8
DATA
  6
CONTINUOUS
 62
     7
 10
-22.999955759311959
 20
-1474.911828836639
 30
0.0
 11
-19.999955759311959
 21
-1474.911828836639
 31
0.0
  0
LINE
  5
444
  8
DATA
  6
CONTINUOUS
 62
     7
 10
-22.999955759311959
 20
-1447.7256426011311
 30
0.0
 11
-30.49995575931105
 21
-1447.7256426011311
 31
0.0
  0
LINE
  5
445
  8
DATA
  6
CONTINUOUS
 62
     7
 10
-30.49995575931105
 20
-1459.7256426011299
 30
0.0
 11
-22.999955759311959
 21
-1459.7256426011299
 31
0.0
  0
LINE
  5
446
  8
DATA
  6
CONTINUOUS
 62
     7
 10
-22.999955759311959
 20
-1468.248800697203
 30
0.0
 11
-30.999955759312869
 21
-1468.248800697203
 31
0.0
  0
LINE
  5
447
  8
DATA
  6
CONTINUOUS
 62
     7
 10
-19.999955759311959
 20
-1473.5629746389261
 30
0.0
 11
-22.999955759311959
 21
-1473.5629746389261
 31
0.0
  0
LINE
  5
448
  8
DATA
  6
CONTINUOUS
 62
     7
 10
-30.49995575931014
 20
-1426.121691063506
 30
0.0
 11
-30.999955759312869
 21
-1426.121691063506
 31
0.0
  0
LINE
  5
449
  8
DATA
  6
CONTINUOUS
 62
     7
 10
-30.49995575931014
 20
-1413.000126836728
 30
0.0
 11
-30.999955759312869
 21
-1413.000126836728
 31
0.0
  0
LINE
  5
44A
  8
DATA
  6
CONTINUOUS
 62
     7
 10
-19.999955759311959
 20
-1426.121691063506
 30
0.0
 11
-19.999955759311959
 21
-1421.000126836728
 31
0.0
  0
LINE
  5
44B
  8
DATA
  6
CONTINUOUS
 62
     7
 10
-22.999955759311959
 20
-1421.000126836728
 30
0.0
 11
-22.999955759311959
 21
-1426.121691063506
 31
0.0
  0
LINE
  5
44C
  8
DATA
  6
CONTINUOUS
 62
     7
 10
-19.999955759311959
 20
-1426.121691063506
 30
0.0
 11
-22.999955759311959
 21
-1426.121691063506
 31
0.0
  0
LINE
  5
44D
  8
DATA
  6
CONTINUOUS
 62
     7
 10
-19.999955759311959
 20
-1421.000126836728
 30
0.0
 11
-19.999955759311959
 21
-1413.0001268367271
 31
0.0
  0
LINE
  5
44E
  8
DATA
  6
CONTINUOUS
 62
     7
 10
-22.999955759311959
 20
-1413.0001268367271
 30
0.0
 11
-22.999955759311959
 21
-1421.000126836728
 31
0.0
  0
LINE
  5
44F
  8
DATA
  6
CONTINUOUS
 62
     7
 10
-19.999955759311959
 20
-1421.000126836728
 30
0.0
 11
-22.999955759311959
 21
-1421.000126836728
 31
0.0
  0
LINE
  5
450
  8
DATA
  6
CONTINUOUS
 62
     7
 10
-19.999955759311959
 20
-1413.0001268367271
 30
0.0
 11
-22.999955759311959
 21
-1413.0001268367271
 31
0.0
  0
LINE
  5
451
  8
DATA
  6
CONTINUOUS
 62
     7
 10
-30.49995575931014
 20
-1421.000126836728
 30
0.0
 11
-30.49995575931014
 21
-1426.121691063506
 31
0.0
  0
LINE
  5
452
  8
DATA
  6
CONTINUOUS
 62
     7
 10
-30.49995575931014
 20
-1413.000126836728
 30
0.0
 11
-30.49995575931014
 21
-1421.000126836728
 31
0.0
  0
LINE
  5
453
  8
DATA
  6
CONTINUOUS
 62
     7
 10
-30.49995575931014
 20
-1421.000126836728
 30
0.0
 11
-30.999955759312869
 21
-1421.000126836728
 31
0.0
  0
LINE
  5
454
  8
DATA
  6
CONTINUOUS
 62
     7
 10
-30.49995575931014
 20
-1429.654144812743
 30
0.0
 11
-22.99995575931105
 21
-1429.654144812743
 31
0.0
  0
CIRCLE
  5
455
  8
DATA
  6
CONTINUOUS
 62
     7
 10
-119.99995575931101
 20
-1205.000000000002
 30
0.0
 40
20.0
  0
LINE
  5
456
  8
DATA
  6
CONTINUOUS
 62
     7
 10
-30.49995575931014
 20
-1365.000126836728
 30
0.0
 11
-30.999955759312869
 21
-1365.000126836728
 31
0.0
  0
LINE
  5
457
  8
DATA
  6
CONTINUOUS
 62
     7
 10
-19.999955759311959
 20
-1343.500126836728
 30
0.0
 11
-19.999955759311959
 21
-1342.5001268367289
 31
0.0
  0
LINE
  5
458
  8
DATA
  6
CONTINUOUS
 62
     7
 10
-19.999955759311959
 20
-1351.5001268367271
 30
0.0
 11
-19.999955759311959
 21
-1343.500126836728
 31
0.0
  0
LINE
  5
459
  8
DATA
  6
CONTINUOUS
 62
     7
 10
-19.999955759311959
 20
-1343.500126836728
 30
0.0
 11
-22.99995575931105
 21
-1343.500126836728
 31
0.0
  0
LINE
  5
45A
  8
DATA
  6
CONTINUOUS
 62
     7
 10
-19.999955759311959
 20
-1351.5001268367271
 30
0.0
 11
-22.99995575931105
 21
-1351.5001268367271
 31
0.0
  0
LINE
  5
45B
  8
DATA
  6
CONTINUOUS
 62
     7
 10
-30.49995575931014
 20
-1356.000126836728
 30
0.0
 11
-30.49995575931014
 21
-1357.000126836728
 31
0.0
  0
LINE
  5
45C
  8
DATA
  6
CONTINUOUS
 62
     7
 10
-30.49995575931014
 20
-1357.000126836728
 30
0.0
 11
-30.49995575931014
 21
-1365.000126836728
 31
0.0
  0
LINE
  5
45D
  8
DATA
  6
CONTINUOUS
 62
     7
 10
-30.999955759312869
 20
-1357.000126836728
 30
0.0
 11
-30.49995575931014
 21
-1357.000126836728
 31
0.0
  0
LINE
  5
45E
  8
DATA
  6
CONTINUOUS
 62
     7
 10
-22.99995575931105
 20
-1375.6489359157979
 30
0.0
 11
-30.49995575931014
 21
-1375.6489359157979
 31
0.0
  0
LINE
  5
45F
  8
DATA
  6
CONTINUOUS
 62
     7
 10
-22.99995575931014
 20
-1353.000126836728
 30
0.0
 11
-22.99995575931014
 21
-1356.000126836728
 31
0.0
  0
LINE
  5
460
  8
DATA
  6
CONTINUOUS
 62
     7
 10
-30.999955759312869
 20
-1356.000126836728
 30
0.0
 11
-22.99995575931014
 21
-1356.000126836728
 31
0.0
  0
LINE
  5
461
  8
DATA
  6
CONTINUOUS
 62
     7
 10
-19.999955759311959
 20
-1339.5001268367289
 30
0.0
 11
-19.999955759311959
 21
-1342.5001268367289
 31
0.0
  0
LINE
  5
462
  8
DATA
  6
CONTINUOUS
 62
     7
 10
-22.99995575931014
 20
-1342.5001268367289
 30
0.0
 11
-19.999955759311959
 21
-1342.5001268367289
 31
0.0
  0
LINE
  5
463
  8
DATA
  6
CONTINUOUS
 62
     7
 10
-30.999955759312869
 20
-1353.000126836728
 30
0.0
 11
-22.99995575931014
 21
-1353.000126836728
 31
0.0
  0
LINE
  5
464
  8
DATA
  6
CONTINUOUS
 62
     7
 10
-22.99995575931014
 20
-1353.000126836728
 30
0.0
 11
-22.99995575931014
 21
-1339.5001268367289
 31
0.0
  0
LINE
  5
465
  8
DATA
  6
CONTINUOUS
 62
     7
 10
-22.99995575931014
 20
-1339.5001268367289
 30
0.0
 11
-19.999955759311959
 21
-1339.5001268367289
 31
0.0
  0
LINE
  5
466
  8
DATA
  6
CONTINUOUS
 62
     7
 10
-19.999955759311959
 20
-1155.8585064705701
 30
0.0
 11
-19.99995575931105
 21
-1126.141747202885
 31
0.0
  0
LINE
  5
467
  8
DATA
  6
CONTINUOUS
 62
     7
 10
-22.99995575931105
 20
-1126.246851438151
 30
0.0
 11
-22.99995575931105
 21
-1155.7534022353041
 31
0.0
  0
LINE
  5
468
  8
DATA
  6
CONTINUOUS
 62
     7
 10
-38.49995575931014
 20
-1119.5001268367271
 30
0.0
 11
-38.49995575931014
 21
-1131.500126836728
 31
0.0
  0
LINE
  5
469
  8
DATA
  6
CONTINUOUS
 62
     7
 10
-30.499955759308779
 20
-1129.4605910457601
 30
0.0
 11
-30.499955759308779
 21
-1132.871448597585
 31
0.0
  0
LINE
  5
46A
  8
DATA
  6
CONTINUOUS
 62
     7
 10
-30.999955759311959
 20
-1159.7158651913851
 30
0.0
 11
-30.999955759311959
 21
-1122.28438848207
 31
0.0
  0
ARC
  5
46B
  8
DATA
  6
CONTINUOUS
 62
     7
 10
-15.99995575931105
 20
-1148.00012683673
 30
0.0
 40
2.0
 50
270.0
 51
0.0
  0
ARC
  5
46C
  8
DATA
  6
CONTINUOUS
 62
     7
 10
-15.99995575931105
 20
-1134.00012683673
 30
0.0
 40
2.0
 50
0.0
 51
90.0
  0
LINE
  5
46D
  8
DATA
  6
CONTINUOUS
 62
     7
 10
-30.499955759308779
 20
-1132.871448597585
 30
0.0
 11
-30.999955759311959
 21
-1132.871448597585
 31
0.0
  0
LINE
  5
46E
  8
DATA
  6
CONTINUOUS
 62
     7
 10
-30.499955759308779
 20
-1149.128805075871
 30
0.0
 11
-30.999955759311959
 21
-1149.128805075871
 31
0.0
  0
LINE
  5
46F
  8
DATA
  6
CONTINUOUS
 62
     7
 10
-30.499955759308779
 20
-1152.539662627695
 30
0.0
 11
-30.999955759311959
 21
-1152.539662627695
 31
0.0
  0
LINE
  5
470
  8
DATA
  6
CONTINUOUS
 62
     7
 10
-15.99995575931105
 20
-1150.00012683673
 30
0.0
 11
-15.99995575931105
 21
-1132.00012683673
 31
0.0
  0
LINE
  5
471
  8
DATA
  6
CONTINUOUS
 62
     7
 10
-30.499955759308779
 20
-1152.539662627695
 30
0.0
 11
-30.499955759308779
 21
-1155.2567070643649
 31
0.0
  0
LINE
  5
472
  8
DATA
  6
CONTINUOUS
 62
     7
 10
-30.499955759308779
 20
-1132.871448597585
 30
0.0
 11
-30.499955759308779
 21
-1149.128805075871
 31
0.0
  0
LINE
  5
473
  8
DATA
  6
CONTINUOUS
 62
     7
 10
-30.499955759308779
 20
-1149.128805075871
 30
0.0
 11
-30.499955759308779
 21
-1152.539662627695
 31
0.0
  0
LINE
  5
474
  8
DATA
  6
CONTINUOUS
 62
     7
 10
-28.99995575931014
 20
-1135.000126836728
 30
0.0
 11
-28.99995575931014
 21
-1131.500126836728
 31
0.0
  0
LINE
  5
475
  8
DATA
  6
CONTINUOUS
 62
     7
 10
-28.99995575931014
 20
-1150.500126836728
 30
0.0
 11
-28.99995575931014
 21
-1147.0001268367289
 31
0.0
  0
LINE
  5
476
  8
DATA
  6
CONTINUOUS
 62
     7
 10
-13.99995575931105
 20
-1148.00012683673
 30
0.0
 11
-13.99995575931105
 21
-1134.00012683673
 31
0.0
  0
LINE
  5
477
  8
DATA
  6
CONTINUOUS
 62
     7
 10
-19.99995575931105
 20
-1155.8585064705701
 30
0.0
 11
-19.99995575931105
 21
-1156.7322995052809
 31
0.0
  0
LINE
  5
478
  8
DATA
  6
CONTINUOUS
 62
     7
 10
-22.99995575931105
 20
-1155.2567070643649
 30
0.0
 11
-30.999955759311959
 21
-1155.2567070643649
 31
0.0
  0
LINE
  5
479
  8
DATA
  6
CONTINUOUS
 62
     7
 10
-22.99995575931105
 20
-1155.8585064705701
 30
0.0
 11
-19.99995575931105
 21
-1155.8585064705701
 31
0.0
  0
LINE
  5
47A
  8
DATA
  6
CONTINUOUS
 62
     7
 10
-22.99995575931105
 20
-1155.7534022353041
 30
0.0
 11
-22.99995575931105
 21
-1155.8585064705701
 31
0.0
  0
LINE
  5
47B
  8
DATA
  6
CONTINUOUS
 62
     7
 10
-19.99995575931105
 20
-1159.7158651913851
 30
0.0
 11
-19.99995575931105
 21
-1156.7322995052809
 31
0.0
  0
LINE
  5
47C
  8
DATA
  6
CONTINUOUS
 62
     7
 10
-19.99995575931105
 20
-1156.7322995052809
 30
0.0
 11
-30.999955759311959
 21
-1156.7322995052809
 31
0.0
  0
LINE
  5
47D
  8
DATA
  6
CONTINUOUS
 62
     7
 10
-19.99995575931105
 20
-1159.7158651913851
 30
0.0
 11
-30.999955759311959
 21
-1159.7158651913851
 31
0.0
  0
LINE
  5
47E
  8
DATA
  6
CONTINUOUS
 62
     7
 10
-38.49995575931014
 20
-1131.500126836728
 30
0.0
 11
-37.99995575931105
 21
-1131.5001268367289
 31
0.0
  0
LINE
  5
47F
  8
DATA
  6
CONTINUOUS
 62
     7
 10
-30.499955759308779
 20
-1131.500126836728
 30
0.0
 11
-22.999955759308779
 21
-1131.500126836728
 31
0.0
  0
LINE
  5
480
  8
DATA
  6
CONTINUOUS
 62
     7
 10
-22.999955759308779
 20
-1150.500126836728
 30
0.0
 11
-30.499955759308779
 21
-1150.500126836728
 31
0.0
  0
LINE
  5
481
  8
DATA
  6
CONTINUOUS
 62
     7
 10
-30.499955759308779
 20
-1147.0001268367289
 30
0.0
 11
-22.999955759308779
 21
-1147.0001268367289
 31
0.0
  0
LINE
  5
482
  8
DATA
  6
CONTINUOUS
 62
     7
 10
-22.999955759308779
 20
-1135.000126836728
 30
0.0
 11
-30.499955759308779
 21
-1135.000126836728
 31
0.0
  0
LINE
  5
483
  8
DATA
  6
CONTINUOUS
 62
     7
 10
-19.999955759311959
 20
-1150.00012683673
 30
0.0
 11
-15.99995575931105
 21
-1150.00012683673
 31
0.0
  0
LINE
  5
484
  8
DATA
  6
CONTINUOUS
 62
     7
 10
-15.99995575931105
 20
-1132.00012683673
 30
0.0
 11
-19.999955759311959
 21
-1132.00012683673
 31
0.0
  0
LINE
  5
485
  8
DATA
  6
CONTINUOUS
 62
     7
 10
-30.499955759308779
 20
-1129.4605910457601
 30
0.0
 11
-30.999955759311959
 21
-1129.460591045761
 31
0.0
  0
LINE
  5
486
  8
DATA
  6
CONTINUOUS
 62
     7
 10
-30.499955759308779
 20
-1126.7435466090899
 30
0.0
 11
-30.499955759308779
 21
-1129.4605910457601
 31
0.0
  0
LINE
  5
487
  8
DATA
  6
CONTINUOUS
 62
     7
 10
-19.99995575931105
 20
-1125.267954168175
 30
0.0
 11
-19.99995575931105
 21
-1126.141747202885
 31
0.0
  0
LINE
  5
488
  8
DATA
  6
CONTINUOUS
 62
     7
 10
-22.99995575931105
 20
-1126.7435466090899
 30
0.0
 11
-30.999955759311959
 21
-1126.7435466090899
 31
0.0
  0
LINE
  5
489
  8
DATA
  6
CONTINUOUS
 62
     7
 10
-22.99995575931105
 20
-1126.141747202885
 30
0.0
 11
-22.99995575931105
 21
-1126.246851438151
 31
0.0
  0
LINE
  5
48A
  8
DATA
  6
CONTINUOUS
 62
     7
 10
-19.99995575931105
 20
-1126.141747202885
 30
0.0
 11
-22.99995575931105
 21
-1126.141747202885
 31
0.0
  0
LINE
  5
48B
  8
DATA
  6
CONTINUOUS
 62
     7
 10
-19.99995575931105
 20
-1122.28438848207
 30
0.0
 11
-19.99995575931105
 21
-1125.267954168175
 31
0.0
  0
LINE
  5
48C
  8
DATA
  6
CONTINUOUS
 62
     7
 10
-30.999955759311959
 20
-1125.267954168175
 30
0.0
 11
-19.99995575931105
 21
-1125.267954168175
 31
0.0
  0
LINE
  5
48D
  8
DATA
  6
CONTINUOUS
 62
     7
 10
-37.99995575931105
 20
-1110.000000000002
 30
0.0
 11
-37.99995575931105
 21
-1100.000000000002
 31
0.0
  0
LINE
  5
48E
  8
DATA
  6
CONTINUOUS
 62
     7
 10
-19.99995575931105
 20
-1110.000000000002
 30
0.0
 11
-19.99995575931105
 21
-1100.000000000002
 31
0.0
  0
LINE
  5
48F
  8
DATA
  6
CONTINUOUS
 62
     7
 10
-37.99995575931105
 20
-1100.000000000002
 30
0.0
 11
-19.99995575931105
 21
-1100.000000000002
 31
0.0
  0
LINE
  5
490
  8
DATA
  6
CONTINUOUS
 62
     7
 10
-30.999955759311959
 20
-1122.28438848207
 30
0.0
 11
-19.99995575931105
 21
-1122.28438848207
 31
0.0
  0
LINE
  5
491
  8
DATA
  6
CONTINUOUS
 62
     7
 10
-19.99995575931105
 20
-1122.28438848207
 30
0.0
 11
-19.99995575931105
 21
-1110.000000000002
 31
0.0
  0
LINE
  5
492
  8
DATA
  6
CONTINUOUS
 62
     7
 10
-19.99995575931105
 20
-1110.000000000002
 30
0.0
 11
-37.99995575931105
 21
-1110.000000000002
 31
0.0
  0
LINE
  5
493
  8
DATA
  6
CONTINUOUS
 62
     7
 10
-37.99995575931105
 20
-1119.5001268367289
 30
0.0
 11
-38.49995575931014
 21
-1119.5001268367271
 31
0.0
  0
CIRCLE
  5
494
  8
DATA
  6
CONTINUOUS
 62
     7
 10
-309.99995575866558
 20
-550.00000000001683
 30
0.0
 40
80.443218610522763
  0
CIRCLE
  5
495
  8
DATA
  6
CONTINUOUS
 62
     7
 10
-309.99995575866558
 20
-550.00000000001683
 30
0.0
 40
209.9979958766273
  0
CIRCLE
  5
496
  8
DATA
  6
CONTINUOUS
 62
     7
 10
-309.99995575866558
 20
-550.00000000001683
 30
0.0
 40
225.5464710952437
  0
CIRCLE
  5
497
  8
DATA
  6
CONTINUOUS
 62
     7
 10
-309.99995575867149
 20
-550.00000000000284
 30
0.0
 40
228.5000000000218
  0
LINE
  5
498
  8
DATA
  6
CONTINUOUS
 62
     7
 10
-110.34999727237511
 20
-636.04296474377077
 30
0.0
 11
-107.075551387815
 21
-637.39928463841227
 31
0.0
  0
LINE
  5
499
  8
DATA
  6
CONTINUOUS
 62
     7
 10
-110.812612730236
 20
-632.5290514771043
 30
0.0
 11
-110.34999727237511
 21
-636.04296474377077
 31
0.0
  0
LINE
  5
49A
  8
DATA
  6
CONTINUOUS
 62
     7
 10
-108.0007823035387
 20
-630.37145810507889
 30
0.0
 11
-110.812612730236
 21
-632.5290514771043
 31
0.0
  0
LINE
  5
49B
  8
DATA
  6
CONTINUOUS
 62
     7
 10
-104.72633641898
 20
-631.72777799972016
 30
0.0
 11
-108.0007823035387
 21
-630.37145810507889
 31
0.0
  0
LINE
  5
49C
  8
DATA
  6
CONTINUOUS
 62
     7
 10
-104.2637209611168
 20
-635.24169126638697
 30
0.0
 11
-104.72633641898
 21
-631.72777799972016
 31
0.0
  0
LINE
  5
49D
  8
DATA
  6
CONTINUOUS
 62
     7
 10
-107.075551387815
 20
-637.39928463841227
 30
0.0
 11
-104.2637209611168
 21
-635.24169126638697
 31
0.0
  0
CIRCLE
  5
49E
  8
DATA
  6
CONTINUOUS
 62
     7
 10
-107.5381668456768
 20
-633.88537137174569
 30
0.0
 40
5.9070578095448241
  0
LINE
  5
49F
  8
DATA
  6
CONTINUOUS
 62
     7
 10
-229.66768009311349
 20
-752.01540335298876
 30
0.0
 11
-228.31136019847131
 21
-755.28984923754797
 31
0.0
  0
LINE
  5
4A0
  8
DATA
  6
CONTINUOUS
 62
     7
 10
-227.5100867210875
 20
-749.20357292629103
 30
0.0
 11
-229.66768009311349
 21
-752.01540335298876
 31
0.0
  0
LINE
  5
4A1
  8
DATA
  6
CONTINUOUS
 62
     7
 10
-223.99617345442161
 20
-749.66618838415343
 30
0.0
 11
-227.5100867210875
 21
-749.20357292629103
 31
0.0
  0
LINE
  5
4A2
  8
DATA
  6
CONTINUOUS
 62
     7
 10
-222.63985355977951
 20
-752.94063426871276
 30
0.0
 11
-223.99617345442161
 21
-749.66618838415343
 31
0.0
  0
LINE
  5
4A3
  8
DATA
  6
CONTINUOUS
 62
     7
 10
-224.7974469318045
 20
-755.75246469541014
 30
0.0
 11
-222.63985355977951
 21
-752.94063426871276
 31
0.0
  0
LINE
  5
4A4
  8
DATA
  6
CONTINUOUS
 62
     7
 10
-228.31136019847131
 20
-755.28984923754797
 30
0.0
 11
-224.7974469318045
 21
-755.75246469541014
 31
0.0
  0
CIRCLE
  5
4A5
  8
DATA
  6
CONTINUOUS
 62
     7
 10
-226.15376682644671
 20
-752.4780188108507
 30
0.0
 40
5.9070578095447672
  0
LINE
  5
4A6
  8
DATA
  6
CONTINUOUS
 62
     7
 10
-392.52900723577318
 20
-749.18734302843632
 30
0.0
 11
-396.04292050244032
 21
-749.64995848629871
 31
0.0
  0
LINE
  5
4A7
  8
DATA
  6
CONTINUOUS
 62
     7
 10
-390.37141386374861
 20
-751.99917345513381
 30
0.0
 11
-392.52900723577318
 21
-749.18734302843632
 31
0.0
  0
CIRCLE
  5
4A8
  8
DATA
  6
CONTINUOUS
 62
     7
 10
-393.88532713041451
 20
-752.46178891299564
 30
0.0
 40
5.9070578095447672
  0
LINE
  5
4A9
  8
DATA
  6
CONTINUOUS
 62
     7
 10
-395.24164702505612
 20
-755.73623479755543
 30
0.0
 11
-391.72773375839029
 21
-755.27361933969314
 31
0.0
  0
LINE
  5
4AA
  8
DATA
  6
CONTINUOUS
 62
     7
 10
-397.39924039708131
 20
-752.92440437085781
 30
0.0
 11
-395.24164702505612
 21
-755.73623479755543
 31
0.0
  0
LINE
  5
4AB
  8
DATA
  6
CONTINUOUS
 62
     7
 10
-396.04292050244032
 20
-749.64995848629871
 30
0.0
 11
-397.39924039708131
 21
-752.92440437085781
 31
0.0
  0
LINE
  5
4AC
  8
DATA
  6
CONTINUOUS
 62
     7
 10
-391.72773375839029
 20
-755.27361933969314
 30
0.0
 11
-390.37141386374861
 21
-751.99917345513381
 31
0.0
  0
LINE
  5
4AD
  8
DATA
  6
CONTINUOUS
 62
     7
 10
-107.9845524056847
 20
-469.66772433444447
 30
0.0
 11
-104.7101065211247
 21
-468.31140443980291
 31
0.0
  0
LINE
  5
4AE
  8
DATA
  6
CONTINUOUS
 62
     7
 10
-110.79638283238209
 20
-467.510130962419
 30
0.0
 11
-107.9845524056847
 21
-469.66772433444447
 31
0.0
  0
LINE
  5
4AF
  8
DATA
  6
CONTINUOUS
 62
     7
 10
-110.33376737451979
 20
-463.99621769575219
 30
0.0
 11
-110.79638283238209
 21
-467.510130962419
 31
0.0
  0
LINE
  5
4B0
  8
DATA
  6
CONTINUOUS
 62
     7
 10
-107.0593214899597
 20
-462.63989780111092
 30
0.0
 11
-110.33376737451979
 21
-463.99621769575219
 31
0.0
  0
LINE
  5
4B1
  8
DATA
  6
CONTINUOUS
 62
     7
 10
-104.2474910632629
 20
-464.79749117313651
 30
0.0
 11
-107.0593214899597
 21
-462.63989780111092
 31
0.0
  0
LINE
  5
4B2
  8
DATA
  6
CONTINUOUS
 62
     7
 10
-104.7101065211247
 20
-468.31140443980291
 30
0.0
 11
-104.2474910632629
 21
-464.79749117313651
 31
0.0
  0
CIRCLE
  5
4B3
  8
DATA
  6
CONTINUOUS
 62
     7
 10
-107.521936947822
 20
-466.15381106777738
 30
0.0
 40
5.9070578095448241
  0
LINE
  5
4B4
  8
DATA
  6
CONTINUOUS
 62
     7
 10
-223.9569910149024
 20
-350.35004151370788
 30
0.0
 11
-222.60067112026249
 21
-347.07559562914838
 31
0.0
  0
LINE
  5
4B5
  8
DATA
  6
CONTINUOUS
 62
     7
 10
-227.47090428156969
 20
-350.8126569715696
 30
0.0
 11
-223.9569910149024
 21
-350.35004151370788
 31
0.0
  0
LINE
  5
4B6
  8
DATA
  6
CONTINUOUS
 62
     7
 10
-229.62849765359431
 20
-348.00082654487261
 30
0.0
 11
-227.47090428156969
 21
-350.8126569715696
 31
0.0
  0
LINE
  5
4B7
  8
DATA
  6
CONTINUOUS
 62
     7
 10
-228.27217775895349
 20
-344.726380660313
 30
0.0
 11
-229.62849765359431
 21
-348.00082654487261
 31
0.0
  0
LINE
  5
4B8
  8
DATA
  6
CONTINUOUS
 62
     7
 10
-224.75826449228759
 20
-344.26376520245071
 30
0.0
 11
-228.27217775895349
 21
-344.726380660313
 31
0.0
  0
LINE
  5
4B9
  8
DATA
  6
CONTINUOUS
 62
     7
 10
-222.60067112026249
 20
-347.07559562914838
 30
0.0
 11
-224.75826449228759
 21
-344.26376520245071
 31
0.0
  0
CIRCLE
  5
4BA
  8
DATA
  6
CONTINUOUS
 62
     7
 10
-226.11458438692841
 20
-347.53821108701021
 30
0.0
 40
5.9070578095447672
  0
LINE
  5
4BB
  8
DATA
  6
CONTINUOUS
 62
     7
 10
-512.01535911165945
 20
-630.33227566556161
 30
0.0
 11
-515.28980499621844
 21
-631.68859556020254
 31
0.0
  0
LINE
  5
4BC
  8
DATA
  6
CONTINUOUS
 62
     7
 10
-509.20352868496133
 20
-632.48986903758691
 30
0.0
 11
-512.01535911165945
 21
-630.33227566556161
 31
0.0
  0
LINE
  5
4BD
  8
DATA
  6
CONTINUOUS
 62
     7
 10
-509.66614414282361
 20
-636.0037823042536
 30
0.0
 11
-509.20352868496133
 21
-632.48986903758691
 31
0.0
  0
LINE
  5
4BE
  8
DATA
  6
CONTINUOUS
 62
     7
 10
-512.94059002738265
 20
-637.36010219889465
 30
0.0
 11
-509.66614414282361
 21
-636.0037823042536
 31
0.0
  0
LINE
  5
4BF
  8
DATA
  6
CONTINUOUS
 62
     7
 10
-515.75242045408038
 20
-635.20250882686958
 30
0.0
 11
-512.94059002738265
 21
-637.36010219889465
 31
0.0
  0
LINE
  5
4C0
  8
DATA
  6
CONTINUOUS
 62
     7
 10
-515.28980499621844
 20
-631.68859556020254
 30
0.0
 11
-515.75242045408038
 21
-635.20250882686958
 31
0.0
  0
CIRCLE
  5
4C1
  8
DATA
  6
CONTINUOUS
 62
     7
 10
-512.47797456952128
 20
-633.84618893222807
 30
0.0
 40
5.9070578095447672
  0
LINE
  5
4C2
  8
DATA
  6
CONTINUOUS
 62
     7
 10
-509.64991424496827
 20
-463.95703525623492
 30
0.0
 11
-512.92436012952726
 21
-462.60071536159342
 31
0.0
  0
LINE
  5
4C3
  8
DATA
  6
CONTINUOUS
 62
     7
 10
-509.18729878710627
 20
-467.4709485229011
 30
0.0
 11
-509.64991424496827
 21
-463.95703525623492
 31
0.0
  0
LINE
  5
4C4
  8
DATA
  6
CONTINUOUS
 62
     7
 10
-511.99912921380371
 20
-469.6285418949268
 30
0.0
 11
-509.18729878710627
 21
-467.4709485229011
 31
0.0
  0
LINE
  5
4C5
  8
DATA
  6
CONTINUOUS
 62
     7
 10
-515.27357509836338
 20
-468.2722220002853
 30
0.0
 11
-511.99912921380371
 21
-469.6285418949268
 31
0.0
  0
LINE
  5
4C6
  8
DATA
  6
CONTINUOUS
 62
     7
 10
-515.73619055622567
 20
-464.75830873361872
 30
0.0
 11
-515.27357509836338
 21
-468.2722220002853
 31
0.0
  0
LINE
  5
4C7
  8
DATA
  6
CONTINUOUS
 62
     7
 10
-512.92436012952726
 20
-462.60071536159342
 30
0.0
 11
-515.73619055622567
 21
-464.75830873361872
 31
0.0
  0
CIRCLE
  5
4C8
  8
DATA
  6
CONTINUOUS
 62
     7
 10
-512.46174467166554
 20
-466.11462862825988
 30
0.0
 40
5.9070578095447672
  0
LINE
  5
4C9
  8
DATA
  6
CONTINUOUS
 62
     7
 10
-390.33223142423122
 20
-347.9845966470175
 30
0.0
 11
-391.68855131887238
 21
-344.71015076245811
 31
0.0
  0
LINE
  5
4CA
  8
DATA
  6
CONTINUOUS
 62
     7
 10
-392.48982479625619
 20
-350.79642707371482
 30
0.0
 11
-390.33223142423122
 21
-347.9845966470175
 31
0.0
  0
LINE
  5
4CB
  8
DATA
  6
CONTINUOUS
 62
     7
 10
-396.00373806292259
 20
-350.33381161585271
 30
0.0
 11
-392.48982479625619
 21
-350.79642707371482
 31
0.0
  0
LINE
  5
4CC
  8
DATA
  6
CONTINUOUS
 62
     7
 10
-397.36005795756432
 20
-347.05936573129298
 30
0.0
 11
-396.00373806292259
 21
-350.33381161585271
 31
0.0
  0
LINE
  5
4CD
  8
DATA
  6
CONTINUOUS
 62
     7
 10
-395.20246458553839
 20
-344.24753530459549
 30
0.0
 11
-397.36005795756432
 21
-347.05936573129298
 31
0.0
  0
LINE
  5
4CE
  8
DATA
  6
CONTINUOUS
 62
     7
 10
-391.68855131887238
 20
-344.71015076245811
 30
0.0
 11
-395.20246458553839
 21
-344.24753530459549
 31
0.0
  0
CIRCLE
  5
4CF
  8
DATA
  6
CONTINUOUS
 62
     7
 10
-393.84614469089752
 20
-347.52198118915533
 30
0.0
 40
5.9070578095447672
  0
ARC
  5
4D0
  8
DATA
  6
CONTINUOUS
 62
     7
 10
-544.99995575865614
 20
1199.999955758643
 30
0.0
 40
3.5
 50
0.0
 51
180.0
  0
ARC
  5
4D1
  8
DATA
  6
CONTINUOUS
 62
     7
 10
-544.99995575865614
 20
1199.999955758643
 30
0.0
 40
3.5
 50
180.0
 51
0.0
  0
ARC
  5
4D2
  8
DATA
  6
CONTINUOUS
 62
     7
 10
-464.99995575865711
 20
1199.999955758643
 30
0.0
 40
3.4999999999998859
 50
0.0
 51
180.0
  0
ARC
  5
4D3
  8
DATA
  6
CONTINUOUS
 62
     7
 10
-464.99995575865711
 20
1199.999955758643
 30
0.0
 40
3.5
 50
180.0
 51
0.0
  0
ARC
  5
4D4
  8
DATA
  6
CONTINUOUS
 62
     7
 10
-154.99995575865509
 20
1199.999955758643
 30
0.0
 40
3.5
 50
0.0
 51
180.0
  0
ARC
  5
4D5
  8
DATA
  6
CONTINUOUS
 62
     7
 10
-154.99995575865509
 20
1199.999955758643
 30
0.0
 40
3.5
 50
180.0
 51
0.0
  0
ARC
  5
4D6
  8
DATA
  6
CONTINUOUS
 62
     7
 10
-74.999955758655986
 20
1199.999955758643
 30
0.0
 40
3.4999999999999432
 50
0.0
 51
180.0
  0
ARC
  5
4D7
  8
DATA
  6
CONTINUOUS
 62
     7
 10
-74.999955758655986
 20
1199.999955758643
 30
0.0
 40
3.5
 50
180.0
 51
0.0
  0
LINE
  5
4D8
  8
DATA
  6
CONTINUOUS
 62
     7
 10
-37.999955758656903
 20
817.99999999999886
 30
0.0
 11
-37.999955758656903
 21
1281.9999999999959
 31
0.0
  0
ARC
  5
4D9
  8
DATA
  6
CONTINUOUS
 62
     7
 10
-544.99995575865614
 20
1199.999955758643
 30
0.0
 40
6.0000000000009086
 50
180.0
 51
0.0
  0
ARC
  5
4DA
  8
DATA
  6
CONTINUOUS
 62
     7
 10
-544.99995575865614
 20
1199.999955758643
 30
0.0
 40
6.0000000000007958
 50
0.0
 51
180.0
  0
ARC
  5
4DB
  8
DATA
  6
CONTINUOUS
 62
     7
 10
-464.99995575865711
 20
1199.999955758643
 30
0.0
 40
6.0000000000007958
 50
180.0
 51
0.0
  0
ARC
  5
4DC
  8
DATA
  6
CONTINUOUS
 62
     7
 10
-464.99995575865711
 20
1199.999955758643
 30
0.0
 40
6.0000000000007958
 50
0.0
 51
180.0
  0
ARC
  5
4DD
  8
DATA
  6
CONTINUOUS
 62
     7
 10
-154.99995575865509
 20
1199.999955758643
 30
0.0
 40
6.0
 50
180.0
 51
0.0
  0
ARC
  5
4DE
  8
DATA
  6
CONTINUOUS
 62
     7
 10
-154.99995575865509
 20
1199.999955758643
 30
0.0
 40
6.0
 50
0.0
 51
180.0
  0
ARC
  5
4DF
  8
DATA
  6
CONTINUOUS
 62
     7
 10
-74.999955758655986
 20
1199.999955758643
 30
0.0
 40
6.0
 50
180.0
 51
0.0
  0
ARC
  5
4E0
  8
DATA
  6
CONTINUOUS
 62
     7
 10
-74.999955758655986
 20
1199.999955758643
 30
0.0
 40
5.9999999999999432
 50
0.0
 51
180.0
  0
LINE
  5
4E1
  8
DATA
  6
CONTINUOUS
 62
     7
 10
-581.99995575865614
 20
817.99999999999898
 30
0.0
 11
-581.99995575865614
 21
1281.999999999997
 31
0.0
  0
LINE
  5
4E2
  8
DATA
  6
CONTINUOUS
 62
     7
 10
-19.99995575865599
 20
799.99999999999955
 30
0.0
 11
-19.99995575865599
 21
1299.999999999997
 31
0.0
  0
LINE
  5
4E3
  8
DATA
  6
CONTINUOUS
 62
     7
 10
-37.999955758656
 20
800.0
 30
0.0
 11
-37.999955758656
 21
1299.999999999997
 31
0.0
  0
LINE
  5
4E4
  8
DATA
  6
CONTINUOUS
 62
     7
 10
-581.9999999999992
 20
1299.999999999997
 30
0.0
 11
-581.9999999999992
 21
799.99999999999955
 31
0.0
  0
LINE
  5
4E5
  8
DATA
  6
CONTINUOUS
 62
     7
 10
-600.0
 20
1299.999999999997
 30
0.0
 11
-600.0
 21
800.0
 31
0.0
  0
LINE
  5
4E6
  8
DATA
  6
CONTINUOUS
 62
     7
 10
-37.999955758656
 20
1299.999999999997
 30
0.0
 11
-581.99995575865614
 21
1299.999999999997
 31
0.0
  0
LINE
  5
4E7
  8
DATA
  6
CONTINUOUS
 62
     7
 10
-581.99995575865614
 20
1281.999999999998
 30
0.0
 11
-37.999955758656
 21
1281.999999999997
 31
0.0
  0
LINE
  5
4E8
  8
DATA
  6
CONTINUOUS
 62
     7
 10
-480.99995575865512
 20
1303.499999999997
 30
0.0
 11
-518.99995575865466
 21
1303.499999999997
 31
0.0
  0
LINE
  5
4E9
  8
DATA
  6
CONTINUOUS
 62
     7
 10
-37.999955758656903
 20
1281.9999999999959
 30
0.0
 11
-581.99995575865614
 21
1281.999999999997
 31
0.0
  0
LINE
  5
4EA
  8
DATA
  6
CONTINUOUS
 62
     7
 10
-37.999955758656
 20
1299.999999999997
 30
0.0
 11
-19.99995575865599
 21
1299.999999999997
 31
0.0
  0
LINE
  5
4EB
  8
DATA
  6
CONTINUOUS
 62
     7
 10
-37.999955758656
 20
1281.999999999997
 30
0.0
 11
-37.999955758656
 21
1299.999999999997
 31
0.0
  0
ARC
  5
4EC
  8
DATA
  6
CONTINUOUS
 62
     7
 10
-74.999955758655076
 20
1259.999955758643
 30
0.0
 40
3.4999999999999432
 50
0.0
 51
180.0
  0
ARC
  5
4ED
  8
DATA
  6
CONTINUOUS
 62
     7
 10
-74.999955758655076
 20
1259.999955758643
 30
0.0
 40
3.5
 50
180.0
 51
0.0
  0
ARC
  5
4EE
  8
DATA
  6
CONTINUOUS
 62
     7
 10
-74.999955758655986
 20
1259.999955758643
 30
0.0
 40
6.0
 50
180.0
 51
0.0
  0
ARC
  5
4EF
  8
DATA
  6
CONTINUOUS
 62
     7
 10
-74.999955758655986
 20
1259.999955758643
 30
0.0
 40
5.9999999999999432
 50
0.0
 51
180.0
  0
ARC
  5
4F0
  8
DATA
  6
CONTINUOUS
 62
     7
 10
-154.99995575865509
 20
1259.999955758643
 30
0.0
 40
6.0
 50
180.0
 51
0.0
  0
ARC
  5
4F1
  8
DATA
  6
CONTINUOUS
 62
     7
 10
-154.99995575865509
 20
1259.999955758643
 30
0.0
 40
6.0
 50
0.0
 51
180.0
  0
LINE
  5
4F2
  8
DATA
  6
CONTINUOUS
 62
     7
 10
-119.9999557586551
 20
1303.499999999997
 30
0.0
 11
-138.99995575865509
 21
1303.499999999997
 31
0.0
  0
LINE
  5
4F3
  8
DATA
  6
CONTINUOUS
 62
     7
 10
-100.9999557586551
 20
1303.499999999997
 30
0.0
 11
-119.9999557586551
 21
1303.499999999997
 31
0.0
  0
LINE
  5
4F4
  8
DATA
  6
CONTINUOUS
 62
     7
 10
-100.9999557586551
 20
1299.999999999997
 30
0.0
 11
-100.9999557586551
 21
1303.499999999997
 31
0.0
  0
ARC
  5
4F5
  8
DATA
  6
CONTINUOUS
 62
     7
 10
-154.99995575865421
 20
1259.999955758643
 30
0.0
 40
3.5
 50
0.0
 51
180.0
  0
ARC
  5
4F6
  8
DATA
  6
CONTINUOUS
 62
     7
 10
-154.99995575865421
 20
1259.999955758643
 30
0.0
 40
3.5
 50
180.0
 51
0.0
  0
LINE
  5
4F7
  8
DATA
  6
CONTINUOUS
 62
     7
 10
-138.99995575865509
 20
1303.499999999997
 30
0.0
 11
-138.99995575865509
 21
1299.999999999997
 31
0.0
  0
ARC
  5
4F8
  8
DATA
  6
CONTINUOUS
 62
     7
 10
-464.99995575865711
 20
1259.999955758643
 30
0.0
 40
3.4999999999998859
 50
0.0
 51
180.0
  0
ARC
  5
4F9
  8
DATA
  6
CONTINUOUS
 62
     7
 10
-464.99995575865711
 20
1259.999955758643
 30
0.0
 40
3.5
 50
180.0
 51
0.0
  0
ARC
  5
4FA
  8
DATA
  6
CONTINUOUS
 62
     7
 10
-464.99995575865711
 20
1259.999955758643
 30
0.0
 40
6.0000000000007958
 50
180.0
 51
0.0
  0
ARC
  5
4FB
  8
DATA
  6
CONTINUOUS
 62
     7
 10
-464.99995575865711
 20
1259.999955758643
 30
0.0
 40
6.0000000000007958
 50
0.0
 51
180.0
  0
LINE
  5
4FC
  8
DATA
  6
CONTINUOUS
 62
     7
 10
-480.99995575865512
 20
1299.999999999997
 30
0.0
 11
-480.99995575865512
 21
1303.499999999997
 31
0.0
  0
LINE
  5
4FD
  8
DATA
  6
CONTINUOUS
 62
     7
 10
-518.99995575865466
 20
1303.499999999997
 30
0.0
 11
-518.99995575865466
 21
1299.999999999997
 31
0.0
  0
ARC
  5
4FE
  8
DATA
  6
CONTINUOUS
 62
     7
 10
-544.99995575865614
 20
1259.999955758643
 30
0.0
 40
3.5
 50
0.0
 51
180.0
  0
ARC
  5
4FF
  8
DATA
  6
CONTINUOUS
 62
     7
 10
-544.99995575865614
 20
1259.999955758643
 30
0.0
 40
3.5
 50
180.0
 51
0.0
  0
ARC
  5
500
  8
DATA
  6
CONTINUOUS
 62
     7
 10
-544.99995575865614
 20
1259.999955758643
 30
0.0
 40
6.0000000000009086
 50
180.0
 51
0.0
  0
ARC
  5
501
  8
DATA
  6
CONTINUOUS
 62
     7
 10
-544.99995575865614
 20
1259.999955758643
 30
0.0
 40
6.0000000000007958
 50
0.0
 51
180.0
  0
LINE
  5
502
  8
DATA
  6
CONTINUOUS
 62
     7
 10
-581.9999999999992
 20
1299.999999999997
 30
0.0
 11
-600.0
 21
1299.999999999997
 31
0.0
  0
LINE
  5
503
  8
DATA
  6
CONTINUOUS
 62
     7
 10
-581.99995575865614
 20
1281.999999999998
 30
0.0
 11
-581.99995575865614
 21
1299.999999999997
 31
0.0
  0
LINE
  5
504
  8
DATA
  6
CONTINUOUS
 62
     7
 10
-581.99995575865523
 20
1287.999999999998
 30
0.0
 11
-581.9999999999992
 21
1287.999999999997
 31
0.0
  0
LINE
  5
505
  8
DATA
  6
CONTINUOUS
 62
     7
 10
-581.99995575865614
 20
799.9999999999992
 30
0.0
 11
-37.999955758656
 21
799.99999999999909
 31
0.0
  0
LINE
  5
506
  8
DATA
  6
CONTINUOUS
 62
     7
 10
-581.99995575865614
 20
817.99999999999955
 30
0.0
 11
-37.999955758656
 21
817.99999999999898
 31
0.0
  0
LINE
  5
507
  8
DATA
  6
CONTINUOUS
 62
     7
 10
-581.99995575865614
 20
817.99999999999898
 30
0.0
 11
-37.999955758656903
 21
817.99999999999886
 31
0.0
  0
LINE
  5
508
  8
DATA
  6
CONTINUOUS
 62
     7
 10
-418.99995575865279
 20
1112.9999778793201
 30
0.0
 11
-494.49995575865228
 21
1112.9999778793201
 31
0.0
  0
LINE
  5
509
  8
DATA
  6
CONTINUOUS
 62
     7
 10
-494.49995575865228
 20
1057.999977879321
 30
0.0
 11
-418.99995575865279
 21
1057.999977879321
 31
0.0
  0
LINE
  5
50A
  8
DATA
  6
CONTINUOUS
 62
     7
 10
-418.99995575865279
 20
1041.9999778793201
 30
0.0
 11
-494.49995575865228
 21
1041.9999778793201
 31
0.0
  0
LINE
  5
50B
  8
DATA
  6
CONTINUOUS
 62
     7
 10
-494.49995575865228
 20
1128.9999778793201
 30
0.0
 11
-418.99995575865279
 21
1128.9999778793201
 31
0.0
  0
LINE
  5
50C
  8
DATA
  6
CONTINUOUS
 62
     7
 10
-22.99995575865508
 20
800.0
 30
0.0
 11
-22.99995575865508
 21
770.99999999999943
 31
0.0
  0
LINE
  5
50D
  8
DATA
  6
CONTINUOUS
 62
     7
 10
-28.99995575865508
 20
800.0
 30
0.0
 11
-28.99995575865508
 21
770.99999999999943
 31
0.0
  0
LINE
  5
50E
  8
DATA
  6
CONTINUOUS
 62
     7
 10
-168.99995575865421
 20
1114.9999778793201
 30
0.0
 11
-228.49995575865179
 21
1114.9999778793201
 31
0.0
  0
LINE
  5
50F
  8
DATA
  6
CONTINUOUS
 62
     7
 10
-228.49995575865179
 20
1055.9999778793201
 30
0.0
 11
-208.49995575865091
 21
1055.9999778793201
 31
0.0
  0
LINE
  5
510
  8
DATA
  6
CONTINUOUS
 62
     7
 10
-208.49995575865091
 20
1043.9999778793201
 30
0.0
 11
-228.49995575865179
 21
1043.9999778793201
 31
0.0
  0
LINE
  5
511
  8
DATA
  6
CONTINUOUS
 62
     7
 10
-228.49995575865179
 20
1126.9999778793201
 30
0.0
 11
-168.99995575865421
 21
1126.9999778793201
 31
0.0
  0
LINE
  5
512
  8
DATA
  6
CONTINUOUS
 62
     7
 10
-87.999955758654181
 20
1105.9999778793201
 30
0.0
 11
-168.99995575865421
 21
1105.9999778793201
 31
0.0
  0
LINE
  5
513
  8
DATA
  6
CONTINUOUS
 62
     7
 10
-168.99995575865421
 20
1135.999977879321
 30
0.0
 11
-87.999955758654181
 21
1135.9999778793201
 31
0.0
  0
LINE
  5
514
  8
DATA
  6
CONTINUOUS
 62
     7
 10
-87.999955758654181
 20
1135.9999778793201
 30
0.0
 11
-87.999955758654181
 21
1105.9999778793201
 31
0.0
  0
LINE
  5
515
  8
DATA
  6
CONTINUOUS
 62
     7
 10
-168.99995575865421
 20
1114.9999778793201
 30
0.0
 11
-168.99995575865421
 21
1126.9999778793201
 31
0.0
  0
LINE
  5
516
  8
DATA
  6
CONTINUOUS
 62
     7
 10
-175.249955758651
 20
1126.9999778793201
 30
0.0
 11
-175.249955758651
 21
1114.9999778793201
 31
0.0
  0
LINE
  5
517
  8
DATA
  6
CONTINUOUS
 62
     7
 10
-168.99995575865421
 20
1105.9999778793201
 30
0.0
 11
-168.99995575865421
 21
1114.9999778793201
 31
0.0
  0
LINE
  5
518
  8
DATA
  6
CONTINUOUS
 62
     7
 10
-168.99995575865421
 20
1126.9999778793201
 30
0.0
 11
-168.99995575865421
 21
1135.999977879321
 31
0.0
  0
LINE
  5
519
  8
DATA
  6
CONTINUOUS
 62
     7
 10
-193.99995575865319
 20
1126.9999778793201
 30
0.0
 11
-193.99995575865319
 21
1114.9999778793201
 31
0.0
  0
ARC
  5
51A
  8
DATA
  6
CONTINUOUS
 62
     7
 10
-74.999955758655986
 20
899.99999999999955
 30
0.0
 40
3.4999999999999432
 50
0.0
 51
180.0
  0
ARC
  5
51B
  8
DATA
  6
CONTINUOUS
 62
     7
 10
-74.999955758655986
 20
899.99999999999955
 30
0.0
 40
3.5
 50
180.0
 51
0.0
  0
ARC
  5
51C
  8
DATA
  6
CONTINUOUS
 62
     7
 10
-74.999955758655986
 20
899.99999999999955
 30
0.0
 40
6.0
 50
180.0
 51
0.0
  0
ARC
  5
51D
  8
DATA
  6
CONTINUOUS
 62
     7
 10
-74.999955758655986
 20
899.99999999999955
 30
0.0
 40
5.9999999999999432
 50
0.0
 51
180.0
  0
LINE
  5
51E
  8
DATA
  6
CONTINUOUS
 62
     7
 10
-37.999955758656
 20
800.0
 30
0.0
 11
-19.99995575865599
 21
799.99999999999955
 31
0.0
  0
LINE
  5
51F
  8
DATA
  6
CONTINUOUS
 62
     7
 10
-15.99995575865508
 20
840.0
 30
0.0
 11
-15.99995575865508
 21
849.0
 31
0.0
  0
ARC
  5
520
  8
DATA
  6
CONTINUOUS
 62
     7
 10
-15.99995575865508
 20
842.0
 30
0.0
 40
2.0
 50
270.0
 51
0.0
  0
LINE
  5
521
  8
DATA
  6
CONTINUOUS
 62
     7
 10
-15.99995575865508
 20
849.0
 30
0.0
 11
-15.99995575865508
 21
857.99999999999955
 31
0.0
  0
LINE
  5
522
  8
DATA
  6
CONTINUOUS
 62
     7
 10
-13.99995575865508
 20
842.0
 30
0.0
 11
-13.99995575865508
 21
856.0
 31
0.0
  0
LINE
  5
523
  8
DATA
  6
CONTINUOUS
 62
     7
 10
-15.99995575865508
 20
857.99999999999955
 30
0.0
 11
-19.99995575865508
 21
857.99999999999955
 31
0.0
  0
ARC
  5
524
  8
DATA
  6
CONTINUOUS
 62
     7
 10
-15.99995575865508
 20
856.0
 30
0.0
 40
2.0
 50
0.0
 51
89.999999999986997
  0
LINE
  5
525
  8
DATA
  6
CONTINUOUS
 62
     7
 10
-19.99995575865508
 20
840.0
 30
0.0
 11
-15.99995575865508
 21
840.0
 31
0.0
  0
ARC
  5
526
  8
DATA
  6
CONTINUOUS
 62
     7
 10
-74.999955758655986
 20
840.0
 30
0.0
 40
3.4999999999999432
 50
0.0
 51
180.0
  0
ARC
  5
527
  8
DATA
  6
CONTINUOUS
 62
     7
 10
-74.999955758655986
 20
840.0
 30
0.0
 40
3.5
 50
180.0
 51
0.0
  0
ARC
  5
528
  8
DATA
  6
CONTINUOUS
 62
     7
 10
-74.999955758655986
 20
840.0
 30
0.0
 40
6.0
 50
180.0
 51
0.0
  0
ARC
  5
529
  8
DATA
  6
CONTINUOUS
 62
     7
 10
-74.999955758655986
 20
840.0
 30
0.0
 40
5.9999999999999432
 50
0.0
 51
180.0
  0
LINE
  5
52A
  8
DATA
  6
CONTINUOUS
 62
     7
 10
-37.999955758656
 20
799.99999999999909
 30
0.0
 11
-37.999955758656
 21
817.99999999999898
 31
0.0
  0
ARC
  5
52B
  8
DATA
  6
CONTINUOUS
 62
     7
 10
-154.99995575865509
 20
899.99999999999955
 30
0.0
 40
6.0
 50
180.0
 51
0.0
  0
ARC
  5
52C
  8
DATA
  6
CONTINUOUS
 62
     7
 10
-154.99995575865509
 20
899.99999999999955
 30
0.0
 40
6.0
 50
0.0
 51
180.0
  0
ARC
  5
52D
  8
DATA
  6
CONTINUOUS
 62
     7
 10
-154.99995575865509
 20
899.99999999999955
 30
0.0
 40
3.5
 50
0.0
 51
180.0
  0
ARC
  5
52E
  8
DATA
  6
CONTINUOUS
 62
     7
 10
-154.99995575865509
 20
899.99999999999955
 30
0.0
 40
3.5
 50
180.0
 51
0.0
  0
ARC
  5
52F
  8
DATA
  6
CONTINUOUS
 62
     7
 10
-154.99995575865509
 20
840.0
 30
0.0
 40
6.0
 50
180.0
 51
0.0
  0
ARC
  5
530
  8
DATA
  6
CONTINUOUS
 62
     7
 10
-154.99995575865509
 20
840.0
 30
0.0
 40
6.0
 50
0.0
 51
180.0
  0
ARC
  5
531
  8
DATA
  6
CONTINUOUS
 62
     7
 10
-154.99995575865509
 20
840.0
 30
0.0
 40
3.5
 50
0.0
 51
180.0
  0
ARC
  5
532
  8
DATA
  6
CONTINUOUS
 62
     7
 10
-154.99995575865509
 20
840.0
 30
0.0
 40
3.5
 50
180.0
 51
0.0
  0
LINE
  5
533
  8
DATA
  6
CONTINUOUS
 62
     7
 10
-323.4999557586529
 20
1112.9999778793201
 30
0.0
 11
-398.99995575865279
 21
1112.9999778793201
 31
0.0
  0
LINE
  5
534
  8
DATA
  6
CONTINUOUS
 62
     7
 10
-398.99995575865279
 20
1057.999977879321
 30
0.0
 11
-323.4999557586529
 21
1057.999977879321
 31
0.0
  0
LINE
  5
535
  8
DATA
  6
CONTINUOUS
 62
     7
 10
-323.4999557586529
 20
1041.9999778793201
 30
0.0
 11
-398.99995575865279
 21
1041.9999778793201
 31
0.0
  0
LINE
  5
536
  8
DATA
  6
CONTINUOUS
 62
     7
 10
-398.99995575865279
 20
1128.9999778793201
 30
0.0
 11
-323.4999557586529
 21
1128.9999778793201
 31
0.0
  0
LINE
  5
537
  8
DATA
  6
CONTINUOUS
 62
     7
 10
-228.49995575865179
 20
1112.9999778793201
 30
0.0
 11
-303.49995575865381
 21
1112.9999778793201
 31
0.0
  0
LINE
  5
538
  8
DATA
  6
CONTINUOUS
 62
     7
 10
-303.49995575865381
 20
1128.9999778793201
 30
0.0
 11
-228.49995575865179
 21
1128.9999778793201
 31
0.0
  0
LINE
  5
539
  8
DATA
  6
CONTINUOUS
 62
     7
 10
-228.49995575865179
 20
1114.9999778793201
 30
0.0
 11
-228.49995575865179
 21
1112.9999778793201
 31
0.0
  0
LINE
  5
53A
  8
DATA
  6
CONTINUOUS
 62
     7
 10
-228.49995575865179
 20
1128.9999778793201
 30
0.0
 11
-228.49995575865179
 21
1126.9999778793201
 31
0.0
  0
LINE
  5
53B
  8
DATA
  6
CONTINUOUS
 62
     7
 10
-303.49995575865381
 20
1114.9999778793201
 30
0.0
 11
-323.4999557586529
 21
1114.9999778793201
 31
0.0
  0
LINE
  5
53C
  8
DATA
  6
CONTINUOUS
 62
     7
 10
-323.4999557586529
 20
1126.9999778793201
 30
0.0
 11
-303.49995575865381
 21
1126.9999778793201
 31
0.0
  0
LINE
  5
53D
  8
DATA
  6
CONTINUOUS
 62
     7
 10
-303.49995575865381
 20
1112.9999778793201
 30
0.0
 11
-303.49995575865381
 21
1114.9999778793201
 31
0.0
  0
LINE
  5
53E
  8
DATA
  6
CONTINUOUS
 62
     7
 10
-303.49995575865381
 20
1126.9999778793201
 30
0.0
 11
-303.49995575865381
 21
1128.9999778793201
 31
0.0
  0
LINE
  5
53F
  8
DATA
  6
CONTINUOUS
 62
     7
 10
-323.4999557586529
 20
1114.9999778793201
 30
0.0
 11
-323.4999557586529
 21
1112.9999778793201
 31
0.0
  0
LINE
  5
540
  8
DATA
  6
CONTINUOUS
 62
     7
 10
-323.4999557586529
 20
1128.9999778793201
 30
0.0
 11
-323.4999557586529
 21
1126.9999778793201
 31
0.0
  0
LINE
  5
541
  8
DATA
  6
CONTINUOUS
 62
     7
 10
-303.49995575865381
 20
1057.999977879321
 30
0.0
 11
-228.49995575865179
 21
1057.999977879321
 31
0.0
  0
LINE
  5
542
  8
DATA
  6
CONTINUOUS
 62
     7
 10
-228.49995575865179
 20
1041.9999778793201
 30
0.0
 11
-303.49995575865381
 21
1041.9999778793201
 31
0.0
  0
LINE
  5
543
  8
DATA
  6
CONTINUOUS
 62
     7
 10
-228.49995575865179
 20
1057.999977879321
 30
0.0
 11
-228.49995575865179
 21
1055.9999778793201
 31
0.0
  0
LINE
  5
544
  8
DATA
  6
CONTINUOUS
 62
     7
 10
-228.49995575865179
 20
1043.9999778793201
 30
0.0
 11
-228.49995575865179
 21
1041.9999778793201
 31
0.0
  0
LINE
  5
545
  8
DATA
  6
CONTINUOUS
 62
     7
 10
-323.4999557586529
 20
1055.9999778793201
 30
0.0
 11
-303.49995575865381
 21
1055.9999778793201
 31
0.0
  0
LINE
  5
546
  8
DATA
  6
CONTINUOUS
 62
     7
 10
-303.49995575865381
 20
1055.9999778793201
 30
0.0
 11
-303.49995575865381
 21
1057.999977879321
 31
0.0
  0
LINE
  5
547
  8
DATA
  6
CONTINUOUS
 62
     7
 10
-323.4999557586529
 20
1057.999977879321
 30
0.0
 11
-323.4999557586529
 21
1055.9999778793201
 31
0.0
  0
LINE
  5
548
  8
DATA
  6
CONTINUOUS
 62
     7
 10
-303.49995575865381
 20
1043.9999778793201
 30
0.0
 11
-323.4999557586529
 21
1043.9999778793201
 31
0.0
  0
LINE
  5
549
  8
DATA
  6
CONTINUOUS
 62
     7
 10
-303.49995575865381
 20
1041.9999778793201
 30
0.0
 11
-303.49995575865381
 21
1043.9999778793201
 31
0.0
  0
LINE
  5
54A
  8
DATA
  6
CONTINUOUS
 62
     7
 10
-323.4999557586529
 20
1043.9999778793201
 30
0.0
 11
-323.4999557586529
 21
1041.9999778793201
 31
0.0
  0
LINE
  5
54B
  8
DATA
  6
CONTINUOUS
 62
     7
 10
-398.99995575865279
 20
1112.9999778793201
 30
0.0
 11
-398.99995575865279
 21
1114.9999778793201
 31
0.0
  0
LINE
  5
54C
  8
DATA
  6
CONTINUOUS
 62
     7
 10
-398.99995575865279
 20
1114.9999778793201
 30
0.0
 11
-418.99995575865279
 21
1114.9999778793201
 31
0.0
  0
LINE
  5
54D
  8
DATA
  6
CONTINUOUS
 62
     7
 10
-418.99995575865279
 20
1114.9999778793201
 30
0.0
 11
-418.99995575865279
 21
1112.9999778793201
 31
0.0
  0
LINE
  5
54E
  8
DATA
  6
CONTINUOUS
 62
     7
 10
-418.99995575865279
 20
1128.9999778793201
 30
0.0
 11
-418.99995575865279
 21
1126.9999778793201
 31
0.0
  0
LINE
  5
54F
  8
DATA
  6
CONTINUOUS
 62
     7
 10
-418.99995575865279
 20
1126.9999778793201
 30
0.0
 11
-398.99995575865279
 21
1126.9999778793201
 31
0.0
  0
LINE
  5
550
  8
DATA
  6
CONTINUOUS
 62
     7
 10
-398.99995575865279
 20
1126.9999778793201
 30
0.0
 11
-398.99995575865279
 21
1128.9999778793201
 31
0.0
  0
LINE
  5
551
  8
DATA
  6
CONTINUOUS
 62
     7
 10
-418.99995575865279
 20
1057.999977879321
 30
0.0
 11
-418.99995575865279
 21
1055.9999778793201
 31
0.0
  0
LINE
  5
552
  8
DATA
  6
CONTINUOUS
 62
     7
 10
-418.99995575865279
 20
1055.9999778793201
 30
0.0
 11
-398.99995575865279
 21
1055.9999778793201
 31
0.0
  0
LINE
  5
553
  8
DATA
  6
CONTINUOUS
 62
     7
 10
-398.99995575865279
 20
1055.9999778793201
 30
0.0
 11
-398.99995575865279
 21
1057.999977879321
 31
0.0
  0
LINE
  5
554
  8
DATA
  6
CONTINUOUS
 62
     7
 10
-398.99995575865279
 20
1041.9999778793201
 30
0.0
 11
-398.99995575865279
 21
1043.9999778793201
 31
0.0
  0
LINE
  5
555
  8
DATA
  6
CONTINUOUS
 62
     7
 10
-398.99995575865279
 20
1043.9999778793201
 30
0.0
 11
-418.99995575865279
 21
1043.9999778793201
 31
0.0
  0
LINE
  5
556
  8
DATA
  6
CONTINUOUS
 62
     7
 10
-418.99995575865279
 20
1043.9999778793201
 30
0.0
 11
-418.99995575865279
 21
1041.9999778793201
 31
0.0
  0
ARC
  5
557
  8
DATA
  6
CONTINUOUS
 62
     7
 10
-464.99995575865711
 20
899.99999999999955
 30
0.0
 40
3.4999999999998859
 50
0.0
 51
180.0
  0
ARC
  5
558
  8
DATA
  6
CONTINUOUS
 62
     7
 10
-464.99995575865711
 20
899.99999999999955
 30
0.0
 40
3.5
 50
180.0
 51
0.0
  0
ARC
  5
559
  8
DATA
  6
CONTINUOUS
 62
     7
 10
-464.99995575865711
 20
899.99999999999955
 30
0.0
 40
6.0000000000007958
 50
180.0
 51
0.0
  0
ARC
  5
55A
  8
DATA
  6
CONTINUOUS
 62
     7
 10
-464.99995575865711
 20
899.99999999999955
 30
0.0
 40
6.0000000000007958
 50
0.0
 51
180.0
  0
ARC
  5
55B
  8
DATA
  6
CONTINUOUS
 62
     7
 10
-464.99995575865711
 20
840.0
 30
0.0
 40
3.4999999999998859
 50
0.0
 51
180.0
  0
ARC
  5
55C
  8
DATA
  6
CONTINUOUS
 62
     7
 10
-464.99995575865711
 20
840.0
 30
0.0
 40
3.5
 50
180.0
 51
0.0
  0
ARC
  5
55D
  8
DATA
  6
CONTINUOUS
 62
     7
 10
-464.99995575865711
 20
840.0
 30
0.0
 40
6.0000000000007958
 50
180.0
 51
0.0
  0
ARC
  5
55E
  8
DATA
  6
CONTINUOUS
 62
     7
 10
-464.99995575865711
 20
840.0
 30
0.0
 40
6.0000000000007958
 50
0.0
 51
180.0
  0
LINE
  5
55F
  8
DATA
  6
CONTINUOUS
 62
     7
 10
-22.99995575865508
 20
770.99999999999943
 30
0.0
 11
-28.99995575865508
 21
770.99999999999943
 31
0.0
  0
LINE
  5
560
  8
DATA
  6
CONTINUOUS
 62
     7
 10
-28.99995575865508
 20
760.99999999999886
 30
0.0
 11
-22.99995575865508
 21
760.9999999999992
 31
0.0
  0
LINE
  5
561
  8
DATA
  6
CONTINUOUS
 62
     7
 10
-22.99995575865508
 20
770.99999999999943
 30
0.0
 11
-22.99995575865508
 21
760.9999999999992
 31
0.0
  0
LINE
  5
562
  8
DATA
  6
CONTINUOUS
 62
     7
 10
-28.99995575865508
 20
770.99999999999943
 30
0.0
 11
-28.99995575865508
 21
760.99999999999886
 31
0.0
  0
LINE
  5
563
  8
DATA
  6
CONTINUOUS
 62
     7
 10
-591.0
 20
770.99999999999943
 30
0.0
 11
-591.0
 21
800.0
 31
0.0
  0
LINE
  5
564
  8
DATA
  6
CONTINUOUS
 62
     7
 10
-597.0
 20
770.99999999999943
 30
0.0
 11
-597.0
 21
800.0
 31
0.0
  0
ARC
  5
565
  8
DATA
  6
CONTINUOUS
 62
     7
 10
-514.49995575865194
 20
1085.4999778793201
 30
0.0
 40
29.50000000000032
 50
135.00000000000091
 51
224.9999999999994
  0
ARC
  5
566
  8
DATA
  6
CONTINUOUS
 62
     7
 10
-514.49995575865194
 20
1085.4999778793201
 30
0.0
 40
41.500000000000497
 50
135.00000000000099
 51
225.00000000000011
  0
ARC
  5
567
  8
DATA
  6
CONTINUOUS
 62
     7
 10
-514.49995575865194
 20
1085.4999778793201
 30
0.0
 40
27.500000000000341
 50
90.0
 51
135.00000000000091
  0
ARC
  5
568
  8
DATA
  6
CONTINUOUS
 62
     7
 10
-514.426397180197
 20
1085.322391761584
 30
0.0
 40
43.677648058666378
 50
90.096493247052635
 51
134.90350675294769
  0
LINE
  5
569
  8
DATA
  6
CONTINUOUS
 62
     7
 10
-494.49995575865228
 20
1112.9999778793201
 30
0.0
 11
-494.49995575865228
 21
1114.999977879321
 31
0.0
  0
LINE
  5
56A
  8
DATA
  6
CONTINUOUS
 62
     7
 10
-494.49995575865228
 20
1114.999977879321
 30
0.0
 11
-514.49995575865194
 21
1114.999977879321
 31
0.0
  0
LINE
  5
56B
  8
DATA
  6
CONTINUOUS
 62
     7
 10
-514.49995575865194
 20
1114.999977879321
 30
0.0
 11
-514.49995575865194
 21
1112.999977879321
 31
0.0
  0
LINE
  5
56C
  8
DATA
  6
CONTINUOUS
 62
     7
 10
-514.49995575865194
 20
1128.9999778793201
 30
0.0
 11
-514.49995575865194
 21
1126.999977879321
 31
0.0
  0
LINE
  5
56D
  8
DATA
  6
CONTINUOUS
 62
     7
 10
-514.49995575865194
 20
1126.999977879321
 30
0.0
 11
-494.49995575865228
 21
1126.999977879321
 31
0.0
  0
LINE
  5
56E
  8
DATA
  6
CONTINUOUS
 62
     7
 10
-494.49995575865228
 20
1126.999977879321
 30
0.0
 11
-494.49995575865228
 21
1128.9999778793201
 31
0.0
  0
LINE
  5
56F
  8
DATA
  6
CONTINUOUS
 62
     7
 10
-533.94539224128152
 20
1104.94541436195
 30
0.0
 11
-535.35960580365565
 21
1106.3596279243241
 31
0.0
  0
LINE
  5
570
  8
DATA
  6
CONTINUOUS
 62
     7
 10
-543.84488717789372
 20
1114.844909298562
 30
0.0
 11
-545.25910074026615
 21
1116.259122860936
 31
0.0
  0
ARC
  5
571
  8
DATA
  6
CONTINUOUS
 62
     7
 10
-514.49995575865194
 20
1085.4999778793201
 30
0.0
 40
43.49999999999995
 50
224.9999999999996
 51
270.0
  0
ARC
  5
572
  8
DATA
  6
CONTINUOUS
 62
     7
 10
-514.49995575865194
 20
1085.499977879321
 30
0.0
 40
27.499999999999741
 50
225.00000000000119
 51
270.00000000000188
  0
LINE
  5
573
  8
DATA
  6
CONTINUOUS
 62
     7
 10
-514.49995575865194
 20
1057.999977879321
 30
0.0
 11
-514.49995575865194
 21
1055.9999778793201
 31
0.0
  0
LINE
  5
574
  8
DATA
  6
CONTINUOUS
 62
     7
 10
-514.49995575865194
 20
1055.9999778793201
 30
0.0
 11
-494.49995575865228
 21
1055.9999778793201
 31
0.0
  0
LINE
  5
575
  8
DATA
  6
CONTINUOUS
 62
     7
 10
-494.49995575865228
 20
1055.9999778793201
 30
0.0
 11
-494.49995575865228
 21
1057.999977879321
 31
0.0
  0
LINE
  5
576
  8
DATA
  6
CONTINUOUS
 62
     7
 10
-535.35960580365565
 20
1064.6403278343171
 30
0.0
 11
-533.94539224128152
 21
1066.0545413966911
 31
0.0
  0
LINE
  5
577
  8
DATA
  6
CONTINUOUS
 62
     7
 10
-545.25910074026615
 20
1054.740832897706
 30
0.0
 11
-543.84488717789372
 21
1056.1550464600789
 31
0.0
  0
LINE
  5
578
  8
DATA
  6
CONTINUOUS
 62
     7
 10
-494.49995575865228
 20
1041.9999778793201
 30
0.0
 11
-494.49995575865228
 21
1043.9999778793201
 31
0.0
  0
LINE
  5
579
  8
DATA
  6
CONTINUOUS
 62
     7
 10
-494.49995575865228
 20
1043.9999778793201
 30
0.0
 11
-514.49995575865194
 21
1043.9999778793201
 31
0.0
  0
LINE
  5
57A
  8
DATA
  6
CONTINUOUS
 62
     7
 10
-514.49995575865194
 20
1043.9999778793201
 30
0.0
 11
-514.49995575865194
 21
1041.9999778793201
 31
0.0
  0
ARC
  5
57B
  8
DATA
  6
CONTINUOUS
 62
     7
 10
-544.99995575865614
 20
899.99999999999955
 30
0.0
 40
3.5
 50
0.0
 51
180.0
  0
ARC
  5
57C
  8
DATA
  6
CONTINUOUS
 62
     7
 10
-544.99995575865614
 20
899.99999999999955
 30
0.0
 40
3.5
 50
180.0
 51
0.0
  0
ARC
  5
57D
  8
DATA
  6
CONTINUOUS
 62
     7
 10
-544.99995575865614
 20
899.99999999999955
 30
0.0
 40
6.0
 50
180.0
 51
0.0
  0
ARC
  5
57E
  8
DATA
  6
CONTINUOUS
 62
     7
 10
-544.99995575865614
 20
899.99999999999955
 30
0.0
 40
5.9999999999998863
 50
0.0
 51
180.0
  0
ARC
  5
57F
  8
DATA
  6
CONTINUOUS
 62
     7
 10
-544.99995575865614
 20
840.00000000000034
 30
0.0
 40
3.5
 50
0.0
 51
180.0
  0
ARC
  5
580
  8
DATA
  6
CONTINUOUS
 62
     7
 10
-544.99995575865614
 20
840.00000000000034
 30
0.0
 40
3.5
 50
180.0
 51
0.0
  0
ARC
  5
581
  8
DATA
  6
CONTINUOUS
 62
     7
 10
-544.99995575865614
 20
840.0
 30
0.0
 40
6.0
 50
180.0
 51
0.0
  0
ARC
  5
582
  8
DATA
  6
CONTINUOUS
 62
     7
 10
-544.99995575865614
 20
840.0
 30
0.0
 40
5.9999999999998863
 50
0.0
 51
180.0
  0
LINE
  5
583
  8
DATA
  6
CONTINUOUS
 62
     7
 10
-603.99999999999829
 20
849.0
 30
0.0
 11
-603.99999999999829
 21
840.0
 31
0.0
  0
ARC
  5
584
  8
DATA
  6
CONTINUOUS
 62
     7
 10
-603.99999999999829
 20
842.0
 30
0.0
 40
2.0
 50
180.0
 51
270.0
  0
LINE
  5
585
  8
DATA
  6
CONTINUOUS
 62
     7
 10
-603.99999999999829
 20
857.99999999999955
 30
0.0
 11
-603.99999999999829
 21
849.0
 31
0.0
  0
LINE
  5
586
  8
DATA
  6
CONTINUOUS
 62
     7
 10
-599.99999999999829
 20
857.99999999999955
 30
0.0
 11
-603.99999999999829
 21
857.99999999999955
 31
0.0
  0
ARC
  5
587
  8
DATA
  6
CONTINUOUS
 62
     7
 10
-603.99999999999829
 20
855.99999999999955
 30
0.0
 40
2.000000000000226
 50
90.0
 51
180.0
  0
LINE
  5
588
  8
DATA
  6
CONTINUOUS
 62
     7
 10
-581.9999999999992
 20
799.99999999999955
 30
0.0
 11
-600.0
 21
800.0
 31
0.0
  0
LINE
  5
589
  8
DATA
  6
CONTINUOUS
 62
     7
 10
-581.99995575865614
 20
817.99999999999955
 30
0.0
 11
-581.99995575865614
 21
799.9999999999992
 31
0.0
  0
LINE
  5
58A
  8
DATA
  6
CONTINUOUS
 62
     7
 10
-581.9999999999992
 20
811.99995575864534
 30
0.0
 11
-581.99995575865614
 21
811.99995575864534
 31
0.0
  0
LINE
  5
58B
  8
DATA
  6
CONTINUOUS
 62
     7
 10
-603.99999999999829
 20
840.0
 30
0.0
 11
-599.99999999999829
 21
840.0
 31
0.0
  0
LINE
  5
58C
  8
DATA
  6
CONTINUOUS
 62
     7
 10
-591.0
 20
760.9999999999992
 30
0.0
 11
-591.0
 21
770.99999999999943
 31
0.0
  0
LINE
  5
58D
  8
DATA
  6
CONTINUOUS
 62
     7
 10
-597.0
 20
760.9999999999992
 30
0.0
 11
-597.0
 21
770.99999999999943
 31
0.0
  0
LINE
  5
58E
  8
DATA
  6
CONTINUOUS
 62
     7
 10
-597.0
 20
770.99999999999943
 30
0.0
 11
-591.0
 21
770.99999999999943
 31
0.0
  0
LINE
  5
58F
  8
DATA
  6
CONTINUOUS
 62
     7
 10
-597.0
 20
760.9999999999992
 30
0.0
 11
-591.0
 21
760.9999999999992
 31
0.0
  0
LINE
  5
590
  8
DATA
  6
CONTINUOUS
 62
     7
 10
-206.9999557586541
 20
1023.999977879321
 30
0.0
 11
-206.9999557586541
 21
1075.9999778793201
 31
0.0
  0
LINE
  5
591
  8
DATA
  6
CONTINUOUS
 62
     7
 10
-71.999955758655076
 20
1075.9999778793201
 30
0.0
 11
-71.999955758655076
 21
1023.999977879321
 31
0.0
  0
LINE
  5
592
  8
DATA
  6
CONTINUOUS
 62
     7
 10
-70.499955758653314
 20
1075.9999778793201
 30
0.0
 11
-70.499955758653314
 21
1023.99997787932
 31
0.0
  0
LINE
  5
593
  8
DATA
  6
CONTINUOUS
 62
     7
 10
-208.49995564177721
 20
1057.9999774542091
 30
0.0
 11
-208.49995564177581
 21
1075.9999778793201
 31
0.0
  0
LINE
  5
594
  8
DATA
  6
CONTINUOUS
 62
     7
 10
-82.499955758654167
 20
1075.9999778793201
 30
0.0
 11
-82.499955758654167
 21
1023.99997787932
 31
0.0
  0
LINE
  5
595
  8
DATA
  6
CONTINUOUS
 62
     7
 10
-196.4999557586541
 20
1023.999977879321
 30
0.0
 11
-196.49995575865319
 21
1075.9999778793201
 31
0.0
  0
LINE
  5
596
  8
DATA
  6
CONTINUOUS
 62
     7
 10
-188.99995575865319
 20
1093.9999778793201
 30
0.0
 11
-89.999955758654167
 21
1093.9999778793201
 31
0.0
  0
LINE
  5
597
  8
DATA
  6
CONTINUOUS
 62
     7
 10
-188.99995575865319
 20
1095.499977879321
 30
0.0
 11
-89.999955758653243
 21
1095.499977879321
 31
0.0
  0
LINE
  5
598
  8
DATA
  6
CONTINUOUS
 62
     7
 10
-188.99995575865319
 20
1083.4999778793201
 30
0.0
 11
-89.999955758653243
 21
1083.4999778793201
 31
0.0
  0
ARC
  5
599
  8
DATA
  6
CONTINUOUS
 62
     7
 10
-89.999955758654167
 20
1075.9999778793201
 30
0.0
 40
18.0
 50
0.0
 51
90.0
  0
ARC
  5
59A
  8
DATA
  6
CONTINUOUS
 62
     7
 10
-89.999955758653243
 20
1075.9999778793201
 30
0.0
 40
19.500000000000401
 50
0.0
 51
90.0
  0
CIRCLE
  5
59B
  8
DATA
  6
CONTINUOUS
 62
     7
 10
-106.9999557586542
 20
1087.9999778793201
 30
0.0
 40
4.0
  0
LINE
  5
59C
  8
DATA
  6
CONTINUOUS
 62
     7
 10
-106.9999557586542
 20
1085.9999778793201
 30
0.0
 11
-106.9999557586542
 21
1089.9999778793201
 31
0.0
  0
ARC
  5
59D
  8
DATA
  6
CONTINUOUS
 62
     7
 10
-89.999955758653243
 20
1075.9999778793201
 30
0.0
 40
7.5
 50
0.0
 51
90.0
  0
LINE
  5
59E
  8
DATA
  6
CONTINUOUS
 62
     7
 10
-104.9999557586542
 20
1087.9999778793201
 30
0.0
 11
-108.9999557586542
 21
1087.9999778793201
 31
0.0
  0
CIRCLE
  5
59F
  8
DATA
  6
CONTINUOUS
 62
     7
 10
-171.99995575865421
 20
1087.9999778793201
 30
0.0
 40
3.9999999999999432
  0
LINE
  5
5A0
  8
DATA
  6
CONTINUOUS
 62
     7
 10
-173.99995575865319
 20
1087.9999778793201
 30
0.0
 11
-169.99995575865421
 21
1087.9999778793201
 31
0.0
  0
LINE
  5
5A1
  8
DATA
  6
CONTINUOUS
 62
     7
 10
-171.99995575865421
 20
1085.9999778793201
 30
0.0
 11
-171.99995575865421
 21
1089.9999778793201
 31
0.0
  0
ARC
  5
5A2
  8
DATA
  6
CONTINUOUS
 62
     7
 10
-188.99995575865319
 20
1075.9999778793201
 30
0.0
 40
17.99999999999989
 50
90.0
 51
180.0
  0
POLYLINE
  5
5A3
  8
DATA
  6
CONTINUOUS
 62
     7
 66
     1
 10
0.0
 20
0.0
 30
0.0
 70
   128
  0
VERTEX
  5
6E7
  8
DATA
  6
CONTINUOUS
 62
     7
 10
-208.49995564177581
 20
1075.9999778793201
 30
0.0
  0
VERTEX
  5
6E8
  8
DATA
  6
CONTINUOUS
 62
     7
 10
-208.3014737596429
 20
1078.7751172090159
 30
0.0
  0
VERTEX
  5
6E9
  8
DATA
  6
CONTINUOUS
 62
     7
 10
-207.71006863199301
 20
1081.4937627048
 30
0.0
  0
VERTEX
  5
6EA
  8
DATA
  6
CONTINUOUS
 62
     7
 10
-206.73777956175101
 20
1084.100570584304
 30
0.0
  0
VERTEX
  5
6EB
  8
DATA
  6
CONTINUOUS
 62
     7
 10
-205.40439955053779
 20
1086.5424737565161
 30
0.0
  0
VERTEX
  5
6EC
  8
DATA
  6
CONTINUOUS
 62
     7
 10
-203.73707237023089
 20
1088.7697621147149
 30
0.0
  0
VERTEX
  5
6ED
  8
DATA
  6
CONTINUOUS
 62
     7
 10
-201.76973999404819
 20
1090.737094490898
 30
0.0
  0
VERTEX
  5
6EE
  8
DATA
  6
CONTINUOUS
 62
     7
 10
-199.54245163584901
 20
1092.404421671205
 30
0.0
  0
VERTEX
  5
6EF
  8
DATA
  6
CONTINUOUS
 62
     7
 10
-197.10054846363821
 20
1093.737801682418
 30
0.0
  0
VERTEX
  5
6F0
  8
DATA
  6
CONTINUOUS
 62
     7
 10
-194.4937405841321
 20
1094.7100907526601
 30
0.0
  0
VERTEX
  5
6F1
  8
DATA
  6
CONTINUOUS
 62
     7
 10
-191.77509508834899
 20
1095.301495880311
 30
0.0
  0
VERTEX
  5
6F2
  8
DATA
  6
CONTINUOUS
 62
     7
 10
-188.99995575865319
 20
1095.499977879321
 30
0.0
  0
SEQEND
  5
6F3
  8
DATA
  6
CONTINUOUS
 62
     7
  0
ARC
  5
5B1
  8
DATA
  6
CONTINUOUS
 62
     7
 10
-188.99995575865319
 20
1075.9999778793201
 30
0.0
 40
7.5000000000004547
 50
90.0
 51
180.0
  0
LINE
  5
5B2
  8
DATA
  6
CONTINUOUS
 62
     7
 10
-89.999955758654167
 20
1005.999977879321
 30
0.0
 11
-188.99995575865319
 21
1005.999977879321
 31
0.0
  0
CIRCLE
  5
5B3
  8
DATA
  6
CONTINUOUS
 62
     7
 10
-121.3136642576399
 20
1061.313686378305
 30
0.0
 40
3.0
  0
CIRCLE
  5
5B4
  8
DATA
  6
CONTINUOUS
 62
     7
 10
-121.3136642576399
 20
1061.313686378305
 30
0.0
 40
1.0
  0
CIRCLE
  5
5B5
  8
DATA
  6
CONTINUOUS
 62
     7
 10
-109.9999557586542
 20
1049.999977879321
 30
0.0
 40
12.0
  0
LINE
  5
5B6
  8
DATA
  6
CONTINUOUS
 62
     7
 10
-89.999955758653243
 20
1004.499977879321
 30
0.0
 11
-188.99995575865319
 21
1004.499977879321
 31
0.0
  0
LINE
  5
5B7
  8
DATA
  6
CONTINUOUS
 62
     7
 10
-89.999955758653243
 20
1016.49997787932
 30
0.0
 11
-188.99995575865319
 21
1016.499977879321
 31
0.0
  0
ARC
  5
5B8
  8
DATA
  6
CONTINUOUS
 62
     7
 10
-89.999955758654167
 20
1023.999977879321
 30
0.0
 40
17.99999999999989
 50
270.0
 51
0.0
  0
ARC
  5
5B9
  8
DATA
  6
CONTINUOUS
 62
     7
 10
-89.999955758653243
 20
1023.99997787932
 30
0.0
 40
7.4999999999996581
 50
270.0
 51
0.0
  0
ARC
  5
5BA
  8
DATA
  6
CONTINUOUS
 62
     7
 10
-89.999955758653243
 20
1023.99997787932
 30
0.0
 40
19.499999999999659
 50
270.0
 51
0.0
  0
ARC
  5
5BB
  8
DATA
  6
CONTINUOUS
 62
     7
 10
-109.9999557586542
 20
1049.999977879321
 30
0.0
 40
8.9999999999999378
 50
279.59406822685168
 51
73.872379786836092
  0
ARC
  5
5BC
  8
DATA
  6
CONTINUOUS
 62
     7
 10
-109.9999557586542
 20
1049.999977879321
 30
0.0
 40
8.9999999999999361
 50
106.12762021316389
 51
260.40593177314832
  0
CIRCLE
  5
5BD
  8
DATA
  6
CONTINUOUS
 62
     7
 10
-98.686247259670225
 20
1038.6862693803359
 30
0.0
 40
3.0
  0
CIRCLE
  5
5BE
  8
DATA
  6
CONTINUOUS
 62
     7
 10
-77.999955758654181
 20
1049.999977879321
 30
0.0
 40
4.0
  0
LINE
  5
5BF
  8
DATA
  6
CONTINUOUS
 62
     7
 10
-77.999955758654181
 20
1051.999977879321
 30
0.0
 11
-77.999955758654181
 21
1047.999977879321
 31
0.0
  0
LINE
  5
5C0
  8
DATA
  6
CONTINUOUS
 62
     7
 10
-75.999955758655076
 20
1049.999977879321
 30
0.0
 11
-79.999955758654181
 21
1049.999977879321
 31
0.0
  0
ARC
  5
5C1
  8
DATA
  6
CONTINUOUS
 62
     7
 10
-109.9999557586542
 20
1049.999977879321
 30
0.0
 40
3.9999999999999512
 50
44.99999999998964
 51
135.0000000000104
  0
LINE
  5
5C2
  8
DATA
  6
CONTINUOUS
 62
     7
 10
-107.4999557586542
 20
1058.645786112216
 30
0.0
 11
-107.4999557586542
 21
1060.1980169065059
 31
0.0
  0
LINE
  5
5C3
  8
DATA
  6
CONTINUOUS
 62
     7
 10
-112.4999557586551
 20
1058.645786112216
 30
0.0
 11
-112.4999557586551
 21
1060.1980169065059
 31
0.0
  0
ARC
  5
5C4
  8
DATA
  6
CONTINUOUS
 62
     7
 10
-109.9999557586542
 20
1049.999977879321
 30
0.0
 40
10.499999999999901
 50
76.225853001962903
 51
103.7741469980371
  0
ARC
  5
5C5
  8
DATA
  6
CONTINUOUS
 62
     7
 10
-109.9999557586542
 20
1049.999977879321
 30
0.0
 40
2.999999999999944
 50
135.0000000000108
 51
224.99999999999079
  0
ARC
  5
5C6
  8
DATA
  6
CONTINUOUS
 62
     7
 10
-109.9999557586542
 20
1049.999977879321
 30
0.0
 40
3.0000000000000231
 50
315.00000000000921
 51
44.999999999989257
  0
LINE
  5
5C7
  8
DATA
  6
CONTINUOUS
 62
     7
 10
-107.8786354150951
 20
1052.1212982228799
 30
0.0
 11
-107.171528633908
 21
1052.828405004067
 31
0.0
  0
LINE
  5
5C8
  8
DATA
  6
CONTINUOUS
 62
     7
 10
-112.1212761022133
 20
1052.1212982228799
 30
0.0
 11
-112.8283828833999
 21
1052.828405004067
 31
0.0
  0
LINE
  5
5C9
  8
DATA
  6
CONTINUOUS
 62
     7
 10
-107.8786354150951
 20
1047.878657535761
 30
0.0
 11
-107.171528633908
 21
1047.171550754575
 31
0.0
  0
LINE
  5
5CA
  8
DATA
  6
CONTINUOUS
 62
     7
 10
-112.1212761022133
 20
1047.878657535761
 30
0.0
 11
-112.8283828833999
 21
1047.171550754575
 31
0.0
  0
ARC
  5
5CB
  8
DATA
  6
CONTINUOUS
 62
     7
 10
-109.9999557586542
 20
1049.999977879321
 30
0.0
 40
4.0000000000000311
 50
224.99999999999079
 51
315.00000000000921
  0
LINE
  5
5CC
  8
DATA
  6
CONTINUOUS
 62
     7
 10
-113.535489664587
 20
1046.4644439733879
 30
0.0
 11
-114.2425964457733
 21
1045.757337192201
 31
0.0
  0
ARC
  5
5CD
  8
DATA
  6
CONTINUOUS
 62
     7
 10
-109.9999557586542
 20
1049.9999778793201
 30
0.0
 40
5.9999999999998881
 50
224.99999999998931
 51
315.00000000001069
  0
LINE
  5
5CE
  8
DATA
  6
CONTINUOUS
 62
     7
 10
-105.7573150715351
 20
1045.757337192201
 30
0.0
 11
-106.4644218527222
 21
1046.4644439733879
 31
0.0
  0
ARC
  5
5CF
  8
DATA
  6
CONTINUOUS
 62
     7
 10
-109.9999557586542
 20
1049.999977879321
 30
0.0
 40
5.0000000000001199
 50
315.0000000000083
 51
44.999999999990791
  0
LINE
  5
5D0
  8
DATA
  6
CONTINUOUS
 62
     7
 10
-106.4644218527222
 20
1053.535511785253
 30
0.0
 11
-105.7573150715351
 21
1054.2426185664399
 31
0.0
  0
ARC
  5
5D1
  8
DATA
  6
CONTINUOUS
 62
     7
 10
-109.9999557586542
 20
1049.999977879321
 30
0.0
 40
5.9999999999994857
 50
44.999999999991559
 51
135.0000000000085
  0
LINE
  5
5D2
  8
DATA
  6
CONTINUOUS
 62
     7
 10
-114.2425964457733
 20
1054.2426185664399
 30
0.0
 11
-113.535489664587
 21
1053.535511785253
 31
0.0
  0
ARC
  5
5D3
  8
DATA
  6
CONTINUOUS
 62
     7
 10
-109.9999557586542
 20
1049.999977879321
 30
0.0
 40
5.00000000000004
 50
135.00000000000921
 51
224.9999999999917
  0
LINE
  5
5D4
  8
DATA
  6
CONTINUOUS
 62
     7
 10
-108.4999557586542
 20
1041.125858204671
 30
0.0
 11
-108.4999557586542
 21
1039.499977879321
 31
0.0
  0
LINE
  5
5D5
  8
DATA
  6
CONTINUOUS
 62
     7
 10
-111.4999557586542
 20
1041.125858204671
 30
0.0
 11
-111.4999557586542
 21
1039.499977879321
 31
0.0
  0
LINE
  5
5D6
  8
DATA
  6
CONTINUOUS
 62
     7
 10
-108.4999557586542
 20
1039.499977879321
 30
0.0
 11
-111.4999557586542
 21
1039.499977879321
 31
0.0
  0
CIRCLE
  5
5D7
  8
DATA
  6
CONTINUOUS
 62
     7
 10
-98.686247259670225
 20
1038.6862693803359
 30
0.0
 40
1.0
  0
LINE
  5
5D8
  8
DATA
  6
CONTINUOUS
 62
     7
 10
-104.9999557586542
 20
1011.999977879321
 30
0.0
 11
-108.9999557586542
 21
1011.999977879321
 31
0.0
  0
CIRCLE
  5
5D9
  8
DATA
  6
CONTINUOUS
 62
     7
 10
-106.9999557586542
 20
1011.999977879321
 30
0.0
 40
4.0
  0
LINE
  5
5DA
  8
DATA
  6
CONTINUOUS
 62
     7
 10
-106.9999557586542
 20
1013.999977879321
 30
0.0
 11
-106.9999557586542
 21
1009.999977879321
 31
0.0
  0
ARC
  5
5DB
  8
DATA
  6
CONTINUOUS
 62
     7
 10
-188.99995575865319
 20
1023.999977879321
 30
0.0
 40
18.0
 50
180.0
 51
270.0
  0
ARC
  5
5DC
  8
DATA
  6
CONTINUOUS
 62
     7
 10
-188.99995575865319
 20
1023.999977879321
 30
0.0
 40
7.5000000000009086
 50
180.0
 51
270.0
  0
ARC
  5
5DD
  8
DATA
  6
CONTINUOUS
 62
     7
 10
-188.99995575865319
 20
1023.999977879321
 30
0.0
 40
19.500000000000451
 50
180.0
 51
270.0
  0
CIRCLE
  5
5DE
  8
DATA
  6
CONTINUOUS
 62
     7
 10
-168.99995575865421
 20
1049.999977879321
 30
0.0
 40
7.9999999999999432
  0
CIRCLE
  5
5DF
  8
DATA
  6
CONTINUOUS
 62
     7
 10
-168.99995575865421
 20
1049.999977879321
 30
0.0
 40
6.9999999999999432
  0
LINE
  5
5E0
  8
DATA
  6
CONTINUOUS
 62
     7
 10
-208.49995575865501
 20
1023.999977879321
 30
0.0
 11
-208.49995564177721
 21
1041.999977516544
 31
0.0
  0
CIRCLE
  5
5E1
  8
DATA
  6
CONTINUOUS
 62
     7
 10
-200.9999557586541
 20
1049.999977879321
 30
0.0
 40
4.0
  0
LINE
  5
5E2
  8
DATA
  6
CONTINUOUS
 62
     7
 10
-202.99995575865319
 20
1049.999977879321
 30
0.0
 11
-198.9999557586541
 21
1049.999977879321
 31
0.0
  0
LINE
  5
5E3
  8
DATA
  6
CONTINUOUS
 62
     7
 10
-200.9999557586541
 20
1051.999977879321
 30
0.0
 11
-200.9999557586541
 21
1047.999977879321
 31
0.0
  0
LINE
  5
5E4
  8
DATA
  6
CONTINUOUS
 62
     7
 10
-206.9999557586541
 20
1041.9999774958731
 30
0.0
 11
-208.49995564177721
 21
1041.999977516544
 31
0.0
  0
LINE
  5
5E5
  8
DATA
  6
CONTINUOUS
 62
     7
 10
-208.49995564177721
 20
1057.9999774542091
 30
0.0
 11
-206.9999557586541
 21
1057.9999774542091
 31
0.0
  0
CIRCLE
  5
5E6
  8
DATA
  6
CONTINUOUS
 62
     7
 10
-171.99995575865421
 20
1011.999977879321
 30
0.0
 40
3.9999999999999432
  0
LINE
  5
5E7
  8
DATA
  6
CONTINUOUS
 62
     7
 10
-173.99995575865319
 20
1011.999977879321
 30
0.0
 11
-169.99995575865421
 21
1011.999977879321
 31
0.0
  0
LINE
  5
5E8
  8
DATA
  6
CONTINUOUS
 62
     7
 10
-171.99995575865421
 20
1013.999977879321
 30
0.0
 11
-171.99995575865421
 21
1009.999977879321
 31
0.0
  0
POLYLINE
  5
5E9
  8
DATA
  6
CONTINUOUS
 62
     7
 66
     1
 10
0.0
 20
0.0
 30
0.0
 70
   129
  0
VERTEX
  5
6F4
  8
DATA
  6
CONTINUOUS
 62
     7
 10
-563.49995564178062
 20
1012.999999999999
 30
0.0
  0
VERTEX
  5
6F5
  8
DATA
  6
CONTINUOUS
 62
     7
 10
-563.49995564178062
 20
1012.999999999999
 30
0.0
 42
-0.4142135623730451
  0
VERTEX
  5
6F6
  8
DATA
  6
CONTINUOUS
 62
     7
 10
-551.49995564178062
 20
1024.9999999999991
 30
0.0
  0
VERTEX
  5
6F7
  8
DATA
  6
CONTINUOUS
 62
     7
 10
-513.49995564177834
 20
1024.999999999998
 30
0.0
  0
VERTEX
  5
6F8
  8
DATA
  6
CONTINUOUS
 62
     7
 10
-513.49995564177868
 20
1024.999999999998
 30
0.0
 42
-0.4142135623730367
  0
VERTEX
  5
6F9
  8
DATA
  6
CONTINUOUS
 62
     7
 10
-501.49995564178118
 20
1012.999999999999
 30
0.0
  0
VERTEX
  5
6FA
  8
DATA
  6
CONTINUOUS
 62
     7
 10
-501.49995564178028
 20
954.99999999999864
 30
0.0
  0
VERTEX
  5
6FB
  8
DATA
  6
CONTINUOUS
 62
     7
 10
-501.49995564178028
 20
954.99999999999818
 30
0.0
 42
-0.4142135623730396
  0
VERTEX
  5
6FC
  8
DATA
  6
CONTINUOUS
 62
     7
 10
-513.49995564177834
 20
942.99999999999795
 30
0.0
  0
VERTEX
  5
6FD
  8
DATA
  6
CONTINUOUS
 62
     7
 10
-551.49995564178062
 20
942.99999999999875
 30
0.0
  0
VERTEX
  5
6FE
  8
DATA
  6
CONTINUOUS
 62
     7
 10
-551.49995564178062
 20
942.99999999999875
 30
0.0
 42
-0.4142135623730978
  0
VERTEX
  5
6FF
  8
DATA
  6
CONTINUOUS
 62
     7
 10
-563.49995564177789
 20
954.99999999999864
 30
0.0
  0
SEQEND
  5
700
  8
DATA
  6
CONTINUOUS
 62
     7
  0
LINE
  5
5F7
  8
DATA
  6
CONTINUOUS
 62
     7
 10
-605.99999999999818
 20
842.0
 30
0.0
 11
-605.99999999999818
 21
855.99999999999955
 31
0.0
  0
TEXT
  5
5F8
  8
DATA
 62
     7
 10
1078.745144986882
 20
-2172.2340588136799
 30
0.0
 40
48.865234375000007
  1
AIRLINE LA8-SUB
 41
0.7
 11
1078.745144986882
 21
-2123.3688244386799
 31
0.0
 73
     3
  0
TEXT
  5
5F9
  8
DATA
 62
     7
 10
1078.745144986882
 20
-2015.891582962483
 30
0.0
 40
48.865234375000007
  1
CODA
 41
0.7
 11
1078.745144986882
 21
-1967.026348587483
 31
0.0
 73
     3
  0
TEXT
  5
5FA
  8
DATA
 62
     7
 10
1032.644444373854
 20
-2083.4900537349031
 30
0.0
 40
32.57687421875
  1
ラインアレイ・システム・サブウーファー
 41
0.7
 11
1032.644444373854
 21
-2050.9131795161529
 31
0.0
 73
     3
  0
LINE
  5
5FB
  8
DATA
  6
CONTINUOUS
 62
     7
 10
-518.99995575865546
 20
-803.00000000000432
 30
0.0
 11
-480.99995575865557
 21
-803.00000000000432
 31
0.0
  0
LINE
  5
5FC
  8
DATA
  6
CONTINUOUS
 62
     7
 10
-138.99995575865529
 20
-803.00000000000432
 30
0.0
 11
-100.99995575865491
 21
-803.00000000000432
 31
0.0
  0
VIEWPORT
  5
5FD
 67
     1
  8
0
 10
128.5
 20
97.5
 30
0.0
 40
314.226
 41
222.18000000000001
 68
     1
 69
     1
1001
ACAD
1000
MVIEW
1002
{
1070
    16
1010
0.0
1020
0.0
1030
0.0
1010
0.0
1020
0.0
1030
1.0
1040
0.0
1040
222.18000000000001
1040
128.5
1040
97.5
1040
50.0
1040
0.0
1040
0.0
1070
     0
1070
   100
1070
     1
1070
     3
1070
     0
1070
     0
1070
     0
1070
     0
1040
0.0
1040
0.0
1040
0.0
1040
10.0
1040
10.0
1040
10.0
1040
10.0
1070
     0
1002
{
1002
}
1002
}
  0
ENDSEC
  0
EOF
