  0
SECTION
  2
HEADER
  9
$ACADVER
  1
AC1009
  9
$INSBASE
 10
0.0
 20
0.0
 30
0.0
  9
$EXTMIN
 10
-80.010985489947416
 20
-131.67677505465531
 30
-0.0015258207003583
  9
$EXTMAX
 10
280.01098716632811
 20
403.54994963264153
 30
0.0000000349246037
  9
$LIMMIN
 10
0.0
 20
0.0
  9
$LIMMAX
 10
0.0
 20
0.0
  9
$ORTHOMODE
 70
     0
  9
$REGENMODE
 70
     1
  9
$FILLMODE
 70
     1
  9
$QTEXTMODE
 70
     0
  9
$MIRRTEXT
 70
     1
  9
$DRAGMODE
 70
     2
  9
$LTSCALE
 40
10.16
  9
$OSMODE
 70
   231
  9
$ATTMODE
 70
     1
  9
$TEXTSIZE
 40
0.0
  9
$TRACEWID
 40
1.0
  9
$TEXTSTYLE
  7
STANDARD
  9
$CLAYER
  8
DATA
  9
$CELTYPE
  6
BYLAYER
  9
$CECOLOR
 62
   256
  9
$DIMSCALE
 40
1.0
  9
$DIMASZ
 40
0.18
  9
$DIMEXO
 40
0.0625
  9
$DIMDLI
 40
0.38
  9
$DIMRND
 40
0.0
  9
$DIMDLE
 40
0.0
  9
$DIMEXE
 40
0.18
  9
$DIMTP
 40
0.0
  9
$DIMTM
 40
0.0
  9
$DIMTXT
 40
0.18
  9
$DIMCEN
 40
0.09
  9
$DIMTSZ
 40
0.0
  9
$DIMTOL
 70
     0
  9
$DIMLIM
 70
     0
  9
$DIMTIH
 70
     1
  9
$DIMTOH
 70
     1
  9
$DIMSE1
 70
     0
  9
$DIMSE2
 70
     0
  9
$DIMTAD
 70
     0
  9
$DIMZIN
 70
     0
  9
$DIMBLK
  1

  9
$DIMASO
 70
     1
  9
$DIMSHO
 70
     1
  9
$DIMPOST
  1

  9
$DIMAPOST
  1

  9
$DIMALT
 70
     0
  9
$DIMALTD
 70
     2
  9
$DIMALTF
 40
25.399999999999999
  9
$DIMLFAC
 40
1.0
  9
$DIMTOFL
 70
     0
  9
$DIMTVP
 40
0.0
  9
$DIMTIX
 70
     0
  9
$DIMSOXD
 70
     0
  9
$DIMSAH
 70
     0
  9
$DIMBLK1
  1

  9
$DIMBLK2
  1

  9
$DIMSTYLE
  2
STANDARD
  9
$DIMCLRD
 70
     0
  9
$DIMCLRE
 70
     0
  9
$DIMCLRT
 70
     0
  9
$DIMTFAC
 40
1.0
  9
$DIMGAP
 40
0.09
  9
$LUNITS
 70
     2
  9
$LUPREC
 70
     4
  9
$SKETCHINC
 40
0.1
  9
$FILLETRAD
 40
0.0
  9
$AUNITS
 70
     0
  9
$AUPREC
 70
     0
  9
$MENU
  1
acad
  9
$ELEVATION
 40
0.0
  9
$PELEVATION
 40
0.0
  9
$THICKNESS
 40
0.0
  9
$LIMCHECK
 70
     0
  9
$BLIPMODE
 70
     0
  9
$CHAMFERA
 40
0.0
  9
$CHAMFERB
 40
0.0
  9
$SKPOLY
 70
     0
  9
$TDCREATE
 40
2455715.4072800931
  9
$TDUPDATE
 40
2455715.4100346412
  9
$TDINDWG
 40
0.0003499769
  9
$TDUSRTIMER
 40
0.0003499769
  9
$USRTIMER
 70
     1
  9
$ANGBASE
 50
0.0
  9
$ANGDIR
 70
     0
  9
$PDMODE
 70
     1
  9
$PDSIZE
 40
-2.0
  9
$PLINEWID
 40
0.0
  9
$COORDS
 70
     1
  9
$SPLFRAME
 70
     0
  9
$SPLINETYPE
 70
     6
  9
$SPLINESEGS
 70
     8
  9
$ATTDIA
 70
     0
  9
$ATTREQ
 70
     1
  9
$HANDLING
 70
     1
  9
$HANDSEED
  5
232
  9
$SURFTAB1
 70
     6
  9
$SURFTAB2
 70
     6
  9
$SURFTYPE
 70
     6
  9
$SURFU
 70
     6
  9
$SURFV
 70
     6
  9
$UCSNAME
  2

  9
$UCSORG
 10
0.0
 20
0.0
 30
0.0
  9
$UCSXDIR
 10
1.0
 20
0.0
 30
0.0
  9
$UCSYDIR
 10
0.0
 20
1.0
 30
0.0
  9
$PUCSNAME
  2

  9
$PUCSORG
 10
0.0
 20
0.0
 30
0.0
  9
$PUCSXDIR
 10
1.0
 20
0.0
 30
0.0
  9
$PUCSYDIR
 10
0.0
 20
1.0
 30
0.0
  9
$USERI1
 70
     0
  9
$USERI2
 70
     0
  9
$USERI3
 70
     0
  9
$USERI4
 70
     0
  9
$USERI5
 70
     0
  9
$USERR1
 40
0.0
  9
$USERR2
 40
0.0
  9
$USERR3
 40
0.0
  9
$USERR4
 40
0.0
  9
$USERR5
 40
0.0
  9
$WORLDVIEW
 70
     1
  9
$SHADEDGE
 70
     3
  9
$SHADEDIF
 70
    70
  9
$TILEMODE
 70
     1
  9
$MAXACTVP
 70
    64
  9
$PLIMCHECK
 70
     0
  9
$PEXTMIN
 10
1.0000000000000000E+020
 20
1.0000000000000000E+020
 30
1.0000000000000000E+020
  9
$PEXTMAX
 10
-1.0000000000000000E+020
 20
-1.0000000000000000E+020
 30
-1.0000000000000000E+020
  9
$PLIMMIN
 10
0.0
 20
0.0
  9
$PLIMMAX
 10
12.0
 20
9.0
  9
$UNITMODE
 70
     0
  9
$VISRETAIN
 70
     0
  9
$PLINEGEN
 70
     1
  9
$PSLTSCALE
 70
     0
  0
ENDSEC
  0
SECTION
  2
TABLES
  0
TABLE
  2
VPORT
 70
     1
  0
VPORT
  2
*ACTIVE
 70
     0
 10
0.0
 20
0.0
 11
1.0
 21
1.0
 12
100.0000008381904
 22
135.93658728899311
 13
0.0
 23
0.0
 14
1.0
 24
1.0
 15
0.0
 25
0.0
 16
0.0
 26
0.0
 36
1.0
 17
0.0
 27
0.0
 37
0.0
 40
539.16704413284754
 41
1.9619164619164611
 42
50.0
 43
0.0
 44
0.0
 50
0.0
 51
0.0
 71
     0
 72
  2000
 73
     1
 74
     1
 75
     0
 76
     0
 77
     0
 78
     0
  0
ENDTAB
  0
TABLE
  2
LTYPE
 70
    11
  0
LTYPE
  2
CONTINUOUS
 70
     0
  3
Solid line
 72
    65
 73
     0
 40
0.0
  0
LTYPE
  2
STYLE_01
 70
     0
  3

 72
    65
 73
     2
 40
0.4166412353515625
 49
0.208282470703125
 49
-0.2083587646484375
  0
ENDTAB
  0
TABLE
  2
LAYER
 70
     6
  0
LAYER
  2
0
 70
     0
 62
     7
  6
CONTINUOUS
  0
LAYER
  2
DATA
 70
     0
 62
     7
  6
CONTINUOUS
  0
LAYER
  2
HIBINO-BASE
 70
     0
 62
     7
  6
CONTINUOUS
  0
LAYER
  2
SPEC
 70
     0
 62
     7
  6
CONTINUOUS
  0
LAYER
  2
DIMNSIONS
 70
     0
 62
     7
  6
CONTINUOUS
  0
ENDTAB
  0
TABLE
  2
STYLE
 70
     3
  0
STYLE
  2
STANDARD
 70
     0
 40
0.0
 41
1.0
 50
0.0
 71
     0
 42
0.0
  3
txt
  4
BIGFONT.SHX
  0
ENDTAB
  0
TABLE
  2
VIEW
 70
     0
  0
ENDTAB
  0
TABLE
  2
UCS
 70
     0
  0
ENDTAB
  0
TABLE
  2
APPID
 70
     4
  0
APPID
  2
ACAD
 70
     0
  0
APPID
  2
ACADANNOTATIVE
 70
     0
  0
APPID
  2
ACAD_NAV_VCDISPLAY
 70
     0
  0
APPID
  2
ACAD_MLEADERVER
 70
     0
  0
ENDTAB
  0
TABLE
  2
DIMSTYLE
 70
     2
  0
DIMSTYLE
  2
STANDARD
 70
     0
  3

  4

  5

  6

  7

 40
1.0
 41
0.18
 42
0.0625
 43
0.38
 44
0.18
 45
0.0
 46
0.0
 47
0.0
 48
0.0
140
0.18
141
0.09
142
0.0
143
25.399999999999999
144
1.0
145
0.0
146
1.0
147
0.09
 71
     0
 72
     0
 73
     1
 74
     1
 75
     0
 76
     0
 77
     0
 78
     0
170
     0
171
     2
172
     0
173
     0
174
     0
175
     0
176
     0
177
     0
178
     0
  0
ENDTAB
  0
ENDSEC
  0
SECTION
  2
BLOCKS
  0
BLOCK
  8
0
  2
$MODEL_SPACE
 70
     0
 10
0.0
 20
0.0
 30
0.0
  3
$MODEL_SPACE
  1

  0
ENDBLK
  5
1C6
  8
0
  0
BLOCK
 67
     1
  8
0
  2
$PAPER_SPACE
 70
     0
 10
0.0
 20
0.0
 30
0.0
  3
$PAPER_SPACE
  1

  0
ENDBLK
  5
1C2
 67
     1
  8
0
  0
ENDSEC
  0
SECTION
  2
ENTITIES
  0
LINE
  5
2D
  8
HIBINO-BASE
  6
CONTINUOUS
 62
     7
 10
-79.999999999999986
 20
403.53364789486591
 30
0.0
 11
279.99999999999989
 21
403.53364789486591
 31
0.0
  0
LINE
  5
2E
  8
HIBINO-BASE
  6
CONTINUOUS
 62
     7
 10
279.99999999999989
 20
-116.46635210513411
 30
0.0
 11
-79.999999999999986
 21
-116.46635210513411
 31
0.0
  0
LINE
  5
2F
  8
HIBINO-BASE
  6
CONTINUOUS
 62
     7
 10
-79.999999999999986
 20
-116.46635210513411
 30
0.0
 11
-79.999999999999986
 21
403.53364789486591
 31
0.0
  0
LINE
  5
30
  8
HIBINO-BASE
  6
CONTINUOUS
 62
     7
 10
279.99999999999989
 20
403.53364789486591
 30
0.0
 11
279.99999999999989
 21
-116.46635210513411
 31
0.0
  0
LINE
  5
31
  8
HIBINO-BASE
  6
CONTINUOUS
 62
     7
 10
100.0
 20
-71.466352105134064
 30
0.0
 11
279.99999999999989
 21
-71.466352105134064
 31
0.0
  0
LINE
  5
32
  8
HIBINO-BASE
  6
CONTINUOUS
 62
     7
 10
100.0
 20
-116.46635210513411
 30
0.0
 11
100.0
 21
-71.466352105134064
 31
0.0
  0
TEXT
  5
33
  8
HIBINO-BASE
 62
     7
 10
101.8
 20
-76.483738771800731
 30
0.0
 40
3.2576822916666659
  1
NOTE
 41
0.7
 11
101.8
 21
-73.226056480134062
 31
0.0
 73
     3
  0
LINE
  5
34
  8
HIBINO-BASE
  6
CONTINUOUS
 62
     7
 10
170.0
 20
-116.46635210513411
 30
0.0
 11
170.0
 21
-71.466352105134064
 31
0.0
  0
TEXT
  5
35
  8
HIBINO-BASE
 62
     7
 10
171.7999999999999
 20
-76.483738771800731
 30
0.0
 40
3.2576822916666659
  1
TITLE
 41
0.7
 11
171.7999999999999
 21
-73.226056480134062
 31
0.0
 73
     3
  0
LINE
  5
36
  8
HIBINO-BASE
  6
CONTINUOUS
 62
     7
 10
100.0
 20
-96.466352105134064
 30
0.0
 11
279.99999999999989
 21
-96.466352105134064
 31
0.0
  0
TEXT
  5
37
  8
HIBINO-BASE
 62
     7
 10
196.80000000000001
 20
-101.3710987718007
 30
0.0
 40
3.2576822916666659
  1
DRAWN
 41
0.7
 11
196.80000000000001
 21
-98.113416480134106
 31
0.0
 73
     3
  0
TEXT
  5
38
  8
HIBINO-BASE
 62
     7
 10
146.7999999999999
 20
-101.3710987718007
 30
0.0
 40
3.2576822916666659
  1
DATE
 41
0.7
 11
146.7999999999999
 21
-98.113416480134106
 31
0.0
 73
     3
  0
TEXT
  5
39
  8
HIBINO-BASE
 62
     7
 10
126.8
 20
-101.3710987718007
 30
0.0
 40
3.2576822916666659
  1
SCALE
 41
0.7
 11
126.8
 21
-98.113416480134106
 31
0.0
 73
     3
  0
TEXT
  5
3A
  8
HIBINO-BASE
 62
     7
 10
171.7999999999999
 20
-101.3710987718007
 30
0.0
 40
3.2576822916666659
  1
DESIGN
 41
0.7
 11
171.7999999999999
 21
-98.113416480134106
 31
0.0
 73
     3
  0
TEXT
  5
3B
  8
HIBINO-BASE
 62
     7
 10
246.7999999999999
 20
-101.3710987718007
 30
0.0
 40
3.2576822916666659
  1
DRAWING NO.
 41
0.7
 11
246.7999999999999
 21
-98.113416480134106
 31
0.0
 73
     3
  0
TEXT
  5
3C
  8
HIBINO-BASE
 62
     7
 10
221.7999999999999
 20
-101.3710987718007
 30
0.0
 40
3.2576822916666659
  1
CHECK
 41
0.7
 11
221.7999999999999
 21
-98.113416480134106
 31
0.0
 73
     3
  0
LINE
  5
3D
  8
HIBINO-BASE
  6
CONTINUOUS
 62
     7
 10
128.74999999999989
 20
-113.96635210513411
 30
0.0
 11
136.25
 21
-106.46635210513401
 31
0.0
  0
TEXT
  5
3E
  8
HIBINO-BASE
 62
     7
 10
127.5
 20
-108.68423877180069
 30
0.0
 40
3.2576822916666659
  1
1
 41
0.7
 11
127.5
 21
-105.4265564801341
 31
0.0
 73
     3
  0
LINE
  5
3F
  8
HIBINO-BASE
  6
CONTINUOUS
 62
     7
 10
125.0
 20
-116.46635210513411
 30
0.0
 11
125.0
 21
-96.466352105134064
 31
0.0
  0
LINE
  5
40
  8
HIBINO-BASE
  6
CONTINUOUS
 62
     7
 10
145.0
 20
-116.46635210513411
 30
0.0
 11
145.0
 21
-96.466352105134064
 31
0.0
  0
LINE
  5
41
  8
HIBINO-BASE
  6
CONTINUOUS
 62
     7
 10
195.0
 20
-96.466352105134064
 30
0.0
 11
195.0
 21
-116.46635210513411
 31
0.0
  0
LINE
  5
42
  8
HIBINO-BASE
  6
CONTINUOUS
 62
     7
 10
245.0
 20
-96.466352105134064
 30
0.0
 11
245.0
 21
-116.46635210513411
 31
0.0
  0
LINE
  5
43
  8
HIBINO-BASE
  6
CONTINUOUS
 62
     7
 10
220.0
 20
-116.46635210513411
 30
0.0
 11
220.0
 21
-96.466352105134064
 31
0.0
  0
TEXT
  5
44
  8
HIBINO-BASE
 62
     7
 10
146.71307999999999
 20
-110.7390587718007
 30
0.0
 40
3.2576822916666659
  1
'11.05.
 41
0.7
 11
146.71307999999999
 21
-107.4813764801341
 31
0.0
 73
     3
  0
TEXT
  5
45
  8
HIBINO-BASE
 62
     7
 10
135.0
 20
-112.43423877180069
 30
0.0
 40
3.2576822916666659
  1
2
 41
0.7
 11
135.0
 21
-109.1765564801341
 31
0.0
 73
     3
  0
TEXT
  5
46
  8
HIBINO-BASE
 62
     7
 10
198.0116200220692
 20
-110.7390587718007
 30
0.0
 40
3.2576822916666659
  1
T.Ootake
 41
0.7
 11
198.0116200220692
 21
-107.4813764801341
 31
0.0
 73
     3
  0
TEXT
  5
47
  8
HIBINO-BASE
 62
     7
 10
107.76666666666659
 20
-112.51435210513399
 30
0.0
 40
6.5153645833333318
  1
A4
 41
0.7
 11
107.76666666666659
 21
-105.9989875218007
 31
0.0
 73
     3
  0
TEXT
  5
48
  8
HIBINO-BASE
 62
     7
 10
101.9166666666666
 20
-101.7052621051341
 30
0.0
 40
3.2576822916666659
  1
PAPER SIZE
 41
0.7
 11
101.9166666666666
 21
-98.447579813467414
 31
0.0
 73
     3
  0
TEXT
  5
49
  8
HIBINO-BASE
 62
     7
 10
-74.48072948621963
 20
-129.31683257348661
 30
0.0
 40
7.0583116319444441
  1
Hibino-Intersound Corporation
 41
0.7
 11
-74.48072948621963
 21
-122.2585209415421
 31
0.0
 73
     3
  0
TEXT
  5
4A
  8
HIBINO-BASE
 62
     7
 10
140.36121936042781
 20
-128.61465606690771
 30
0.0
 40
7.0583116319444441
  1
ヒビノインターサウンド株式会社
 41
0.7
 11
140.36121936042781
 21
-121.55634443496329
 31
0.0
 73
     3
  0
LINE
  5
4B
  8
SPEC
  6
CONTINUOUS
 62
     7
 10
-64.999999999999986
 20
383.53364789486602
 30
0.0
 11
230.0
 21
383.53364789486602
 31
0.0
  0
LINE
  5
4C
  8
SPEC
  6
CONTINUOUS
 62
     7
 10
-64.999999999999986
 20
376.03364789486591
 30
0.0
 11
230.0
 21
376.03364789486591
 31
0.0
  0
LINE
  5
4D
  8
SPEC
  6
CONTINUOUS
 62
     7
 10
-64.999999999999986
 20
361.03364789486602
 30
0.0
 11
230.0
 21
361.03364789486602
 31
0.0
  0
LINE
  5
4E
  8
SPEC
  6
CONTINUOUS
 62
     7
 10
-64.999999999999986
 20
368.53364789486602
 30
0.0
 11
230.0
 21
368.53364789486602
 31
0.0
  0
LINE
  5
4F
  8
SPEC
  6
CONTINUOUS
 62
     7
 10
-64.999999999999986
 20
383.53364789486602
 30
0.0
 11
-64.999999999999986
 21
263.53364789486591
 31
0.0
  0
TEXT
  5
50
  8
SPEC
 62
     7
 10
-62.5
 20
386.32018789486591
 30
0.0
 40
4.8865234375000002
  1
仕様
 41
0.7
 11
-62.5
 21
391.2067113323659
 31
0.0
 73
     3
  0
LINE
  5
51
  8
SPEC
  6
CONTINUOUS
 62
     7
 10
230.0
 20
383.53364789486602
 30
0.0
 11
230.0
 21
263.53364789486591
 31
0.0
  0
LINE
  5
52
  8
SPEC
  6
CONTINUOUS
 62
     7
 10
-64.999999999999986
 20
353.53364789486602
 30
0.0
 11
230.0
 21
353.53364789486602
 31
0.0
  0
LINE
  5
53
  8
SPEC
  6
CONTINUOUS
 62
     7
 10
-64.999999999999986
 20
346.03364789486602
 30
0.0
 11
230.0
 21
346.03364789486602
 31
0.0
  0
LINE
  5
54
  8
SPEC
  6
CONTINUOUS
 62
     7
 10
-64.999999999999986
 20
338.53364789486591
 30
0.0
 11
230.0
 21
338.53364789486591
 31
0.0
  0
LINE
  5
55
  8
SPEC
  6
CONTINUOUS
 62
     7
 10
-64.999999999999986
 20
331.03364789486602
 30
0.0
 11
230.0
 21
331.03364789486602
 31
0.0
  0
LINE
  5
56
  8
SPEC
  6
CONTINUOUS
 62
     7
 10
-64.999999999999986
 20
323.53364789486602
 30
0.0
 11
230.0
 21
323.53364789486602
 31
0.0
  0
LINE
  5
57
  8
SPEC
  6
CONTINUOUS
 62
     7
 10
-64.999999999999986
 20
316.03364789486602
 30
0.0
 11
230.0
 21
316.03364789486602
 31
0.0
  0
LINE
  5
58
  8
SPEC
  6
CONTINUOUS
 62
     7
 10
-64.999999999999986
 20
308.53364789486602
 30
0.0
 11
230.0
 21
308.53364789486602
 31
0.0
  0
LINE
  5
59
  8
SPEC
  6
CONTINUOUS
 62
     7
 10
-64.999999999999986
 20
301.03364789486591
 30
0.0
 11
230.0
 21
301.03364789486591
 31
0.0
  0
LINE
  5
5A
  8
SPEC
  6
CONTINUOUS
 62
     7
 10
-64.999999999999986
 20
293.53364789486602
 30
0.0
 11
230.0
 21
293.53364789486602
 31
0.0
  0
LINE
  5
5B
  8
SPEC
  6
CONTINUOUS
 62
     7
 10
-64.999999999999986
 20
286.03364789486602
 30
0.0
 11
230.0
 21
286.03364789486602
 31
0.0
  0
TEXT
  5
5C
  8
SPEC
 62
     7
 10
-63.392685208711463
 20
280.45237953751968
 30
0.0
 40
3.8006293402777769
  1
寸法
 41
0.7
 11
-63.392685208711463
 21
284.25300887779753
 31
0.0
 73
     3
  0
TEXT
  5
5D
  8
SPEC
 62
     7
 10
31.25224517051328
 20
280.3471327449742
 30
0.0
 40
3.8006293402777769
  1
\U+03A619\U+00D792mm(突起部含まず）
 41
0.7
 11
31.25224517051328
 21
284.14776208525211
 31
0.0
 73
     3
  0
TEXT
  5
5E
  8
SPEC
 62
     7
 10
31.727744569725211
 20
287.92622030982989
 30
0.0
 40
3.8006293402777769
  1
約64g
 41
0.7
 11
31.727744569725211
 21
291.72684965010779
 31
0.0
 73
     3
  0
TEXT
  5
5F
  8
SPEC
 62
     7
 10
-63.220031922954263
 20
287.9985281856018
 30
0.0
 40
3.8006293402777769
  1
重量
 41
0.7
 11
-63.220031922954263
 21
291.79915752587948
 31
0.0
 73
     3
  0
LINE
  5
60
  8
SPEC
  6
CONTINUOUS
 62
     7
 10
30.000000000000011
 20
383.53364789486602
 30
0.0
 11
30.000000000000011
 21
263.53364789486591
 31
0.0
  0
LINE
  5
61
  8
SPEC
  6
CONTINUOUS
 62
     7
 10
-64.999999999999986
 20
278.53364789486591
 30
0.0
 11
230.0
 21
278.53364789486591
 31
0.0
  0
LINE
  5
62
  8
SPEC
  6
CONTINUOUS
 62
     7
 10
-64.999999999999986
 20
271.03364789486591
 30
0.0
 11
230.0
 21
271.03364789486591
 31
0.0
  0
LINE
  5
63
  8
SPEC
  6
CONTINUOUS
 62
     7
 10
-64.999999999999986
 20
263.53364789486591
 30
0.0
 11
230.0
 21
263.53364789486591
 31
0.0
  0
TEXT
  5
64
  8
SPEC
 62
     7
 10
-63.313663423878069
 20
377.9121620532016
 30
0.0
 40
3.8006293402777769
  1
指向性
 41
0.7
 11
-63.313663423878069
 21
381.71279139347939
 31
0.0
 73
     3
  0
TEXT
  5
65
  8
SPEC
 62
     7
 10
31.66699365086777
 20
377.7550863281831
 30
0.0
 40
3.8006293402777769
  1
単一指向性
 41
0.7
 11
31.66699365086777
 21
381.55571566846078
 31
0.0
 73
     3
  0
TEXT
  5
66
  8
SPEC
 62
     7
 10
-63.623207157730278
 20
370.56726244857481
 30
0.0
 40
3.8006293402777769
  1
カートリッジ
 41
0.7
 11
-63.623207157730278
 21
374.3678917888526
 31
0.0
 73
     3
  0
TEXT
  5
67
  8
SPEC
 62
     7
 10
31.192688541182729
 20
370.4945501857747
 30
0.0
 40
3.8006293402777769
  1
プリポラライズド・コンデンサー,ツインダイヤフラム、\U+03A619mm
 41
0.7
 11
31.192688541182729
 21
374.29517952605249
 31
0.0
 73
     3
  0
TEXT
  5
68
  8
SPEC
 62
     7
 10
-63.248584122443347
 20
347.91601726104591
 30
0.0
 40
3.8006293402777769
  1
等価雑音レベル(Aウェイト、代表値)
 41
0.7
 11
-63.248584122443347
 21
351.71664660132382
 31
0.0
 73
     3
  0
TEXT
  5
69
  8
SPEC
 62
     7
 10
31.539211906992559
 20
347.91336739108073
 30
0.0
 40
3.8006293402777769
  1
20dB SPL
 41
0.7
 11
31.539211906992559
 21
351.71399673135852
 31
0.0
 73
     3
  0
TEXT
  5
6A
  8
SPEC
 62
     7
 10
-63.26726251771084
 20
355.35557332786141
 30
0.0
 40
3.8006293402777769
  1
感度(\U+00B12dB@1kHz、公称値）
 41
0.7
 11
-63.26726251771084
 21
359.15620266813931
 31
0.0
 73
     3
  0
TEXT
  5
6B
  8
SPEC
 62
     7
 10
31.91723932085246
 20
355.43651940603968
 30
0.0
 40
3.8006293402777769
  1
-40dB re、1V/Pa
 41
0.7
 11
31.91723932085246
 21
359.23714874631759
 31
0.0
 73
     3
  0
TEXT
  5
6C
  8
SPEC
 62
     7
 10
-63.174771704756651
 20
362.90869726622481
 30
0.0
 40
3.8006293402777769
  1
周波数レンジ(\U+00B12dB)
 41
0.7
 11
-63.174771704756651
 21
366.7093266065026
 31
0.0
 73
     3
  0
TEXT
  5
6D
  8
SPEC
 62
     7
 10
31.856015232544308
 20
362.78704743914432
 30
0.0
 40
3.8006293402777769
  1
50Hz～17kHz
 41
0.7
 11
31.856015232544308
 21
366.58767677942211
 31
0.0
 73
     3
  0
TEXT
  5
6E
  8
SPEC
 62
     7
 10
-63.245788732556854
 20
340.44550550250722
 30
0.0
 40
3.8006293402777769
  1
全高調波歪み(THD)
 41
0.7
 11
-63.245788732556854
 21
344.24613484278501
 31
0.0
 73
     3
  0
TEXT
  5
6F
  8
SPEC
 62
     7
 10
31.54772018868282
 20
340.34938205055028
 30
0.0
 40
3.8006293402777769
  1
1%%%以下(137dB SPL)
 41
0.7
 11
31.54772018868282
 21
344.15001139082813
 31
0.0
 73
     3
  0
TEXT
  5
70
  8
SPEC
 62
     7
 10
-63.695376354886591
 20
303.03263310498272
 30
0.0
 40
3.8006293402777769
  1
コネクター
 41
0.7
 11
-63.695376354886591
 21
306.83326244526052
 31
0.0
 73
     3
  0
TEXT
  5
71
  8
SPEC
 62
     7
 10
31.873543777245072
 20
302.77181821518718
 30
0.0
 40
3.8006293402777769
  1
XLR3ピン(オス)
 41
0.7
 11
31.873543777245072
 21
306.57244755546498
 31
0.0
 73
     3
  0
TEXT
  5
72
  8
SPEC
 62
     7
 10
-63.539242573825639
 20
317.89915328746218
 30
0.0
 40
3.8006293402777769
  1
ケーブル引き伸ばし可能距離
 41
0.7
 11
-63.539242573825639
 21
321.69978262773998
 31
0.0
 73
     3
  0
TEXT
  5
73
  8
SPEC
 62
     7
 10
31.797662488534769
 20
317.8742495149146
 30
0.0
 40
3.8006293402777769
  1
最大100m
 41
0.7
 11
31.797662488534769
 21
321.67487885519239
 31
0.0
 73
     3
  0
TEXT
  5
74
  8
SPEC
 62
     7
 10
-63.403665516744141
 20
325.22994248495138
 30
0.0
 40
3.8006293402777769
  1
インピーダンス
 41
0.7
 11
-63.403665516744141
 21
329.03057182522917
 31
0.0
 73
     3
  0
TEXT
  5
75
  8
SPEC
 62
     7
 10
31.780563774862699
 20
325.33442312054422
 30
0.0
 40
3.8006293402777769
  1
200\U+03A9以下
 41
0.7
 11
31.780563774862699
 21
329.1350524608219
 31
0.0
 73
     3
  0
TEXT
  5
76
  8
SPEC
 62
     7
 10
-63.555065257937393
 20
332.80748681109952
 30
0.0
 40
3.8006293402777769
  1
ダイナミックレンジ(代表値)
 41
0.7
 11
-63.555065257937393
 21
336.6081161513772
 31
0.0
 73
     3
  0
TEXT
  5
77
  8
SPEC
 62
     7
 10
31.516173020330928
 20
332.71782103189241
 30
0.0
 40
3.8006293402777769
  1
117dB
 41
0.7
 11
31.516173020330928
 21
336.51845037217021
 31
0.0
 73
     3
  0
TEXT
  5
78
  8
SPEC
 62
     7
 10
-63.298549886835097
 20
310.31079295537148
 30
0.0
 40
3.8006293402777769
  1
電源
 41
0.7
 11
-63.298549886835097
 21
314.11142229564928
 31
0.0
 73
     3
  0
TEXT
  5
79
  8
SPEC
 62
     7
 10
31.175574367135269
 20
310.47488564943779
 30
0.0
 40
3.8006293402777769
  1
ファンタムDC48V/2.8mA
 41
0.7
 11
31.175574367135269
 21
314.27551498971559
 31
0.0
 73
     3
  0
TEXT
  5
7A
  8
SPEC
 62
     7
 10
-63.074158685928097
 20
295.48721267811959
 30
0.0
 40
3.8006293402777769
  1
色
 41
0.7
 11
-63.074158685928097
 21
299.28784201839738
 31
0.0
 73
     3
  0
TEXT
  5
7B
  8
SPEC
 62
     7
 10
31.61343861661171
 20
295.51473250231351
 30
0.0
 40
3.8006293402777769
  1
マットブラック
 41
0.7
 11
31.61343861661171
 21
299.3153618425913
 31
0.0
 73
     3
  0
TEXT
  5
7C
  8
SPEC
 62
     7
 10
-63.146710811090891
 20
265.65560581479161
 30
0.0
 40
3.8006293402777769
  1
使用湿度範囲
 41
0.7
 11
-63.146710811090891
 21
269.45623515506941
 31
0.0
 73
     3
  0
TEXT
  5
7D
  8
SPEC
 62
     7
 10
31.78595237139281
 20
265.44503750187829
 30
0.0
 40
3.8006293402777769
  1
90%%%以下
 41
0.7
 11
31.78595237139281
 21
269.2456668421562
 31
0.0
 73
     3
  0
TEXT
  5
7E
  8
SPEC
 62
     7
 10
-63.147822386735768
 20
272.94578991082182
 30
0.0
 40
3.8006293402777769
  1
使用温度範囲
 41
0.7
 11
-63.147822386735768
 21
276.7464192510995
 31
0.0
 73
     3
  0
TEXT
  5
7F
  8
SPEC
 62
     7
 10
32.017876729291359
 20
272.7880881742434
 30
0.0
 40
3.8006293402777769
  1
-40℃～45℃
 41
0.7
 11
32.017876729291359
 21
276.58871751452119
 31
0.0
 73
     3
  0
TEXT
  5
80
  8
DIMNSIONS
 62
     7
 10
60.0
 20
-91.927372105134054
 30
0.0
 40
4.8865234375000002
  1
(単位：mm)
 41
0.7
 11
60.0
 21
-87.040848667634066
 31
0.0
 73
     3
  0
LINE
  5
81
  8
DIMNSIONS
  6
CONTINUOUS
 62
     7
 10
56.343233155456147
 20
-5.3178292675401613
 30
0.0
 11
65.625
 21
5.4027777781000159
 31
0.0
  0
LINE
  5
82
  8
DIMNSIONS
  6
CONTINUOUS
 62
     7
 10
56.343233155456147
 20
-5.3178292675401613
 30
0.0
 11
58.612974265720901
 21
-0.6641703497738547
 31
0.0
  0
LINE
  5
83
  8
DIMNSIONS
  6
CONTINUOUS
 62
     7
 10
56.343233155456147
 20
-5.3178292675401613
 30
0.0
 11
60.635716075842467
 21
-2.4225129793389319
 31
0.0
  0
LINE
  5
84
  8
DIMNSIONS
  6
CONTINUOUS
 62
     7
 10
65.625
 20
5.4027777781000159
 30
0.0
 11
83.7361111111111
 21
5.4027777781000159
 31
0.0
  0
TEXT
  5
85
  8
DIMNSIONS
 62
     7
 10
69.625
 20
7.3905555558777971
 30
0.0
 40
5.4294704861111107
  1
\U+03C619
 41
0.7
 11
69.625
 21
12.82002604198891
 31
0.0
 73
     3
  0
LINE
  5
86
  8
DIMNSIONS
  6
CONTINUOUS
 62
     7
 10
36.625000000275961
 20
18.75000000000934
 30
0.0
 11
11.625
 21
18.75000000000934
 31
0.0
  0
LINE
  5
87
  8
DIMNSIONS
  6
CONTINUOUS
 62
     7
 10
36.73179267932106
 20
110.7500000000004
 30
0.0
 11
11.625
 21
110.7500000000004
 31
0.0
  0
LINE
  5
88
  8
DIMNSIONS
  6
CONTINUOUS
 62
     7
 10
15.625
 20
18.75000000000934
 30
0.0
 11
15.625
 21
110.7500000000004
 31
0.0
  0
LINE
  5
89
  8
DIMNSIONS
  6
CONTINUOUS
 62
     7
 10
15.625
 20
18.75000000000934
 30
0.0
 11
14.284920409699501
 21
23.751245117196831
 31
0.0
  0
LINE
  5
8A
  8
DIMNSIONS
  6
CONTINUOUS
 62
     7
 10
15.625
 20
18.75000000000934
 30
0.0
 11
16.965079590300491
 21
23.751245117196831
 31
0.0
  0
LINE
  5
8B
  8
DIMNSIONS
  6
CONTINUOUS
 62
     7
 10
15.625
 20
110.7500000000004
 30
0.0
 11
16.965079590300491
 21
105.7487548828129
 31
0.0
  0
LINE
  5
8C
  8
DIMNSIONS
  6
CONTINUOUS
 62
     7
 10
15.625
 20
110.7500000000004
 30
0.0
 11
14.284920409699501
 21
105.7487548828129
 31
0.0
  0
TEXT
  5
8D
  8
DIMNSIONS
 62
     7
 10
13.637222222222229
 20
61.222222222227117
 30
0.0
 40
5.4294704861111107
  1
92
 50
90.0
 41
0.7
 11
8.2077517361111205
 21
61.222222222227117
 31
0.0
 73
     3
  0
LINE
  5
8E
  8
DIMNSIONS
  6
CONTINUOUS
 62
     7
 10
55.91393038433872
 20
171.3633639807511
 30
0.0
 11
65.625
 21
184.375
 31
0.0
  0
LINE
  5
8F
  8
DIMNSIONS
  6
CONTINUOUS
 62
     7
 10
55.91393038433872
 20
171.3633639807511
 30
0.0
 11
57.853519683224391
 21
176.16401595544991
 31
0.0
  0
LINE
  5
90
  8
DIMNSIONS
  6
CONTINUOUS
 62
     7
 10
55.91393038433872
 20
171.3633639807511
 30
0.0
 11
59.993989977431603
 21
174.5510558961254
 31
0.0
  0
LINE
  5
91
  8
DIMNSIONS
  6
CONTINUOUS
 62
     7
 10
65.625
 20
184.375
 30
0.0
 11
83.7361111111111
 21
184.375
 31
0.0
  0
TEXT
  5
92
  8
DIMNSIONS
 62
     7
 10
69.625
 20
186.36277777777781
 30
0.0
 40
5.4294704861111107
  1
\U+03C619
 41
0.7
 11
69.625
 21
191.79224826388889
 31
0.0
 73
     3
  0
TEXT
  5
93
  8
DATA
 62
     7
 10
204.57704944645559
 20
-94.321723490100567
 30
0.0
 40
4.8865234375000002
  1
2011C
 41
0.7
 11
204.57704944645559
 21
-89.435200052600578
 31
0.0
 73
     3
  0
TEXT
  5
94
  8
DATA
 62
     7
 10
204.57704944645559
 20
-79.322915337438658
 30
0.0
 40
4.8865234375000002
  1
DPA
 41
0.7
 11
204.57704944645559
 21
-74.436391899938656
 31
0.0
 73
     3
  0
TEXT
  5
95
  8
DATA
 62
     7
 10
-60.0
 20
-107.99035210513409
 30
0.0
 40
3.2576822916666659
  1
仕様および外観は予告なく変更されることがありますので、ご了承ください。
 41
0.7
 11
-60.0
 21
-104.7326698134674
 31
0.0
 73
     3
  0
LINE
  5
96
  8
DATA
  6
CONTINUOUS
 62
     7
 10
40.625000000220453
 20
59.749999999687113
 30
0.0
 11
59.625000000220453
 21
59.749999999687113
 31
0.0
  0
LINE
  5
97
  8
DATA
  6
CONTINUOUS
 62
     7
 10
40.625000000275961
 20
59.750000000009337
 30
0.0
 11
40.625000000275961
 21
18.75000000000934
 31
0.0
  0
LINE
  5
98
  8
DATA
  6
CONTINUOUS
 62
     7
 10
59.625000000275961
 20
59.750000000009337
 30
0.0
 11
59.625000000275961
 21
18.75000000000934
 31
0.0
  0
TEXT
  5
99
  8
DATA
 62
     7
 10
45.147747989901113
 20
23.2410958732148
 30
0.0
 40
3.2576822916666659
  1
MMP-C
 41
0.7
 11
45.147747989901113
 21
26.498778164881472
 31
0.0
 73
     3
  0
CIRCLE
  5
9A
  8
DATA
  6
CONTINUOUS
 62
     7
 10
50.125000000275961
 20
-12.49999999983401
 30
0.0
 40
9.5
  0
ARC
  5
9B
  8
DATA
  6
CONTINUOUS
 62
     7
 10
50.12500000027589
 20
-12.49999999983401
 30
0.0
 40
8.0000000000000675
 50
52.793688021979897
 51
38.897425550919777
  0
CIRCLE
  5
9C
  8
DATA
  6
CONTINUOUS
 62
     7
 10
50.125000000275961
 20
-16.49999999983401
 30
0.0
 40
1.150000000000005
  0
CIRCLE
  5
9D
  8
DATA
  6
CONTINUOUS
 62
     7
 10
46.125000000275968
 20
-12.49999999983401
 30
0.0
 40
1.150000000000005
  0
CIRCLE
  5
9E
  8
DATA
  6
CONTINUOUS
 62
     7
 10
54.125000000275968
 20
-12.49999999983401
 30
0.0
 40
1.150000000000005
  0
ARC
  5
9F
  8
DATA
  6
CONTINUOUS
 62
     7
 10
55.224086104067318
 20
-7.2481462230358034
 30
0.0
 40
1.150000000000031
 50
348.54291116051797
 51
103.14820241238171
  0
LINE
  5
A0
  8
DATA
  6
CONTINUOUS
 62
     7
 10
40.625000000275961
 20
18.75000000000934
 30
0.0
 11
59.625000000275961
 21
18.75000000000934
 31
0.0
  0
TEXT
  5
A1
  8
DATA
 62
     7
 10
200.77252074521999
 20
-86.260384026798761
 30
0.0
 40
3.2576822916666659
  1
単一指向性マイクロホン
 41
0.7
 11
200.77252074521999
 21
-83.002701735132106
 31
0.0
 73
     3
  0
LINE
  5
A2
  8
DATA
  6
CONTINUOUS
 62
     7
 10
40.625000000275961
 20
59.750000000009337
 30
0.0
 11
59.625000000275961
 21
59.750000000009337
 31
0.0
  0
LINE
  5
A3
  8
DATA
  6
CONTINUOUS
 62
     7
 10
40.73179267932106
 20
59.75
 30
0.0
 11
59.73179267932106
 21
59.75
 31
0.0
  0
TEXT
  5
A4
  8
DATA
 62
     7
 10
101.6389567774273
 20
129.1976408903856
 30
0.0
 40
5.4294704861111107
  1
ウインドスクリーン
 41
0.7
 11
101.6389567774273
 21
134.62711137649671
 31
0.0
 73
     3
  0
LINE
  5
A5
  8
DATA
  6
CONTINUOUS
 62
     7
 10
96.981792679100636
 20
126.25000000031289
 30
0.0
 11
168.85679267910061
 21
126.25000000031289
 31
0.0
  0
LINE
  5
A6
  8
DATA
  6
CONTINUOUS
 62
     7
 10
40.73179267932106
 20
59.75
 30
0.0
 11
40.73179267932111
 21
110.7500000000004
 31
0.0
  0
LINE
  5
A7
  8
DATA
  6
CONTINUOUS
 62
     7
 10
59.73179267932106
 20
59.75
 30
0.0
 11
59.73179267932106
 21
110.7500000000004
 31
0.0
  0
TEXT
  5
A8
  8
DATA
 62
     7
 10
47.719286885733517
 20
62.313406891273218
 30
0.0
 40
1.900314670138888
  1
2011
 41
0.7
 11
47.719286885733517
 21
64.213721561412115
 31
0.0
 73
     3
  0
LINE
  5
A9
  8
DATA
  6
CONTINUOUS
 62
     7
 10
40.73179267932106
 20
59.75
 30
0.0
 11
59.73179267932106
 21
59.75
 31
0.0
  0
LINE
  5
AA
  8
DATA
  6
CONTINUOUS
 62
     7
 10
40.73179267932106
 20
60.050000000000011
 30
0.0
 11
59.73179267932106
 21
60.050000000000011
 31
0.0
  0
CIRCLE
  5
AB
  8
DATA
  6
CONTINUOUS
 62
     7
 10
50.231792679513077
 20
163.75
 30
0.0
 40
3.8000000000000682
  0
ARC
  5
AC
  8
DATA
  6
CONTINUOUS
 62
     7
 10
50.231792679513077
 20
163.75
 30
0.0
 40
9.5
 50
90.00000000000756
 51
109.9999999999998
  0
ARC
  5
AD
  8
DATA
  6
CONTINUOUS
 62
     7
 10
50.231792679513077
 20
163.75
 30
0.0
 40
9.4999999999999822
 50
129.9999999999996
 51
149.99999999999969
  0
ARC
  5
AE
  8
DATA
  6
CONTINUOUS
 62
     7
 10
50.231792679513077
 20
163.75
 30
0.0
 40
9.499999999999984
 50
169.99999999999969
 51
189.99999999999949
  0
ARC
  5
AF
  8
DATA
  6
CONTINUOUS
 62
     7
 10
50.231792679513077
 20
163.75
 30
0.0
 40
9.4999999999999591
 50
209.99999999999969
 51
229.9999999999996
  0
ARC
  5
B0
  8
DATA
  6
CONTINUOUS
 62
     7
 10
50.231792679513077
 20
163.75
 30
0.0
 40
9.4999999999999964
 50
249.9999999999998
 51
270.0000000000079
  0
ARC
  5
B1
  8
DATA
  6
CONTINUOUS
 62
     7
 10
50.231792679513077
 20
163.75
 30
0.0
 40
9.5000000000000338
 50
289.99999999999972
 51
309.99999999999977
  0
ARC
  5
B2
  8
DATA
  6
CONTINUOUS
 62
     7
 10
50.231792679513077
 20
163.75
 30
0.0
 40
9.5000000000000195
 50
329.99999999999972
 51
349.99999999999977
  0
ARC
  5
B3
  8
DATA
  6
CONTINUOUS
 62
     7
 10
50.231792679513077
 20
163.75
 30
0.0
 40
9.5000000000000284
 50
9.9999999999998952
 51
29.999999999999861
  0
ARC
  5
B4
  8
DATA
  6
CONTINUOUS
 62
     7
 10
50.231792679513077
 20
163.75
 30
0.0
 40
9.5000000000000302
 50
49.999999999999723
 51
69.999999999999829
  0
CIRCLE
  5
B5
  8
DATA
  6
CONTINUOUS
 62
     7
 10
50.231792679513077
 20
163.75
 30
0.0
 40
1.0
  0
ARC
  5
B6
  8
DATA
  6
CONTINUOUS
 62
     7
 10
50.231792679513141
 20
163.75
 30
0.0
 40
9.2499999999999591
 50
70.007125127732166
 51
90.007125127722773
  0
ARC
  5
B7
  8
DATA
  6
CONTINUOUS
 62
     7
 10
50.231792679513141
 20
163.75
 30
0.0
 40
9.2499999999999805
 50
110.0071251277321
 51
130.007125127732
  0
ARC
  5
B8
  8
DATA
  6
CONTINUOUS
 62
     7
 10
50.231792679513141
 20
163.75
 30
0.0
 40
9.2500000000000036
 50
150.00712512773191
 51
170.0071251277318
  0
ARC
  5
B9
  8
DATA
  6
CONTINUOUS
 62
     7
 10
50.231792679513141
 20
163.75
 30
0.0
 40
9.249999999999984
 50
190.0071251277316
 51
210.0071251277316
  0
ARC
  5
BA
  8
DATA
  6
CONTINUOUS
 62
     7
 10
50.231792679513141
 20
163.75
 30
0.0
 40
9.2499999999999822
 50
230.00712512773131
 51
250.0071251277314
  0
ARC
  5
BB
  8
DATA
  6
CONTINUOUS
 62
     7
 10
50.231792679513141
 20
163.75
 30
0.0
 40
9.249999999999968
 50
270.00712512772282
 51
290.0071251277314
  0
ARC
  5
BC
  8
DATA
  6
CONTINUOUS
 62
     7
 10
50.231792679513141
 20
163.75
 30
0.0
 40
9.249999999999984
 50
310.00712512773129
 51
330.0071251277314
  0
ARC
  5
BD
  8
DATA
  6
CONTINUOUS
 62
     7
 10
50.231792679513141
 20
163.75
 30
0.0
 40
9.249999999999984
 50
350.00712512773163
 51
10.007125981505061
  0
ARC
  5
BE
  8
DATA
  6
CONTINUOUS
 62
     7
 10
50.231792679513141
 20
163.75
 30
0.0
 40
9.2499999999999876
 50
30.007125127731719
 51
50.007125127732067
  0
LINE
  5
BF
  8
DATA
  6
CONTINUOUS
 62
     7
 10
50.205565392287767
 20
167.54990948963319
 30
0.0
 11
50.231792679513077
 21
173.25
 31
0.0
  0
LINE
  5
C0
  8
DATA
  6
CONTINUOUS
 62
     7
 10
51.506792679513111
 20
167.32971716759849
 30
0.0
 11
53.480984041106957
 21
172.67707989746609
 31
0.0
  0
LINE
  5
C1
  8
DATA
  6
CONTINUOUS
 62
     7
 10
52.654236149742573
 20
166.67775812415269
 30
0.0
 11
56.338274971535213
 21
171.0274222096302
 31
0.0
  0
LINE
  5
C2
  8
DATA
  6
CONTINUOUS
 62
     7
 10
53.509497186004403
 20
165.6726682418261
 30
0.0
 11
58.459034015465242
 21
168.5
 31
0.0
  0
LINE
  5
C3
  8
DATA
  6
CONTINUOUS
 62
     7
 10
53.969418685016748
 20
164.4356761939741
 30
0.0
 11
59.587466333129029
 21
165.3996576878358
 31
0.0
  0
LINE
  5
C4
  8
DATA
  6
CONTINUOUS
 62
     7
 10
53.9785273262804
 20
163.11598147762589
 30
0.0
 11
59.587466333129029
 21
162.10034231216409
 31
0.0
  0
LINE
  5
C5
  8
DATA
  6
CONTINUOUS
 62
     7
 10
53.535724473229763
 20
161.87275875219291
 30
0.0
 11
58.459034015465178
 21
159.0
 31
0.0
  0
LINE
  5
C6
  8
DATA
  6
CONTINUOUS
 62
     7
 10
52.694418685016778
 20
160.8559590263755
 30
0.0
 11
56.338274971535142
 21
156.47257779036971
 31
0.0
  0
LINE
  5
C7
  8
DATA
  6
CONTINUOUS
 62
     7
 10
51.556083856050961
 20
160.18822335347309
 30
0.0
 11
53.4809840411069
 21
154.82292010253391
 31
0.0
  0
LINE
  5
C8
  8
DATA
  6
CONTINUOUS
 62
     7
 10
50.258019966738502
 20
159.95009051036669
 30
0.0
 11
50.231792679513077
 21
154.25
 31
0.0
  0
LINE
  5
C9
  8
DATA
  6
CONTINUOUS
 62
     7
 10
48.9567926795131
 20
160.1702828324014
 30
0.0
 11
46.98260131791919
 21
154.82292010253391
 31
0.0
  0
LINE
  5
CA
  8
DATA
  6
CONTINUOUS
 62
     7
 10
47.809349209283639
 20
160.8222418758472
 30
0.0
 11
44.125310387490892
 21
156.4725777903698
 31
0.0
  0
LINE
  5
CB
  8
DATA
  6
CONTINUOUS
 62
     7
 10
46.954088173021873
 20
161.82733175817381
 30
0.0
 11
42.004551343560919
 21
159.0
 31
0.0
  0
LINE
  5
CC
  8
DATA
  6
CONTINUOUS
 62
     7
 10
46.494166674009449
 20
163.0643238060259
 30
0.0
 11
40.876119025897047
 21
162.1003423121642
 31
0.0
  0
LINE
  5
CD
  8
DATA
  6
CONTINUOUS
 62
     7
 10
46.485058032745812
 20
164.38401852237399
 30
0.0
 11
40.876119025897133
 21
165.39965768783591
 31
0.0
  0
LINE
  5
CE
  8
DATA
  6
CONTINUOUS
 62
     7
 10
46.927860885796441
 20
165.62724124780709
 30
0.0
 11
42.004551343560919
 21
168.5
 31
0.0
  0
LINE
  5
CF
  8
DATA
  6
CONTINUOUS
 62
     7
 10
47.769166674009497
 20
166.64404097362441
 30
0.0
 11
44.125310387490998
 21
171.02742220963029
 31
0.0
  0
LINE
  5
D0
  8
DATA
  6
CONTINUOUS
 62
     7
 10
48.907501502975251
 20
167.31177664652679
 30
0.0
 11
46.982601317919247
 21
172.67707989746609
 31
0.0
  0
LINE
  5
D1
  8
DATA
  6
CONTINUOUS
 62
     7
 10
40.73179267932106
 20
110.7500000000004
 30
0.0
 11
41.324664264842937
 21
110.7500000000004
 31
0.0
  0
LINE
  5
D2
  8
DATA
  6
CONTINUOUS
 62
     7
 10
42.724664264842922
 20
110.7500000000004
 30
0.0
 11
44.074664264842951
 21
110.7500000000004
 31
0.0
  0
LINE
  5
D3
  8
DATA
  6
CONTINUOUS
 62
     7
 10
45.424664264842967
 20
110.7500000000004
 30
0.0
 11
46.77466426484294
 21
110.7500000000004
 31
0.0
  0
LINE
  5
D4
  8
DATA
  6
CONTINUOUS
 62
     7
 10
48.124664264842949
 20
110.7500000000004
 30
0.0
 11
49.474664264842929
 21
110.7500000000004
 31
0.0
  0
LINE
  5
D5
  8
DATA
  6
CONTINUOUS
 62
     7
 10
50.824664264842951
 20
110.7500000000004
 30
0.0
 11
52.174664264842967
 21
110.7500000000004
 31
0.0
  0
LINE
  5
D6
  8
DATA
  6
CONTINUOUS
 62
     7
 10
53.52466426484294
 20
110.7500000000004
 30
0.0
 11
54.874664264842963
 21
110.7500000000004
 31
0.0
  0
LINE
  5
D7
  8
DATA
  6
CONTINUOUS
 62
     7
 10
56.224664264842971
 20
110.7500000000004
 30
0.0
 11
57.574664264842951
 21
110.7500000000004
 31
0.0
  0
LINE
  5
D8
  8
DATA
  6
CONTINUOUS
 62
     7
 10
58.924664264842967
 20
110.7500000000004
 30
0.0
 11
59.73179267932106
 21
110.7500000000004
 31
0.0
  0
LINE
  5
D9
  8
DATA
  6
CONTINUOUS
 62
     7
 10
41.324664264842937
 20
69.75
 30
0.0
 11
42.724664264842922
 21
69.75
 31
0.0
  0
LINE
  5
DA
  8
DATA
  6
CONTINUOUS
 62
     7
 10
44.074664264842951
 20
69.75
 30
0.0
 11
45.424664264842967
 21
69.75
 31
0.0
  0
LINE
  5
DB
  8
DATA
  6
CONTINUOUS
 62
     7
 10
46.77466426484294
 20
69.75
 30
0.0
 11
48.124664264842949
 21
69.75
 31
0.0
  0
LINE
  5
DC
  8
DATA
  6
CONTINUOUS
 62
     7
 10
49.474664264842929
 20
69.75
 30
0.0
 11
50.824664264842951
 21
69.75
 31
0.0
  0
LINE
  5
DD
  8
DATA
  6
CONTINUOUS
 62
     7
 10
52.174664264842967
 20
69.75
 30
0.0
 11
53.52466426484294
 21
69.75
 31
0.0
  0
LINE
  5
DE
  8
DATA
  6
CONTINUOUS
 62
     7
 10
54.874664264842963
 20
69.75
 30
0.0
 11
56.224664264842971
 21
69.75
 31
0.0
  0
LINE
  5
DF
  8
DATA
  6
CONTINUOUS
 62
     7
 10
57.574664264842951
 20
69.75
 30
0.0
 11
58.924664264842967
 21
69.75
 31
0.0
  0
LINE
  5
E0
  8
DATA
  6
CONTINUOUS
 62
     7
 10
41.324664264842937
 20
79.250000000000014
 30
0.0
 11
42.724664264842922
 21
79.250000000000014
 31
0.0
  0
LINE
  5
E1
  8
DATA
  6
CONTINUOUS
 62
     7
 10
44.074664264842951
 20
79.250000000000014
 30
0.0
 11
45.424664264842967
 21
79.250000000000014
 31
0.0
  0
LINE
  5
E2
  8
DATA
  6
CONTINUOUS
 62
     7
 10
46.77466426484294
 20
79.250000000000014
 30
0.0
 11
48.124664264842949
 21
79.250000000000014
 31
0.0
  0
LINE
  5
E3
  8
DATA
  6
CONTINUOUS
 62
     7
 10
49.474664264842929
 20
79.250000000000014
 30
0.0
 11
50.824664264842951
 21
79.250000000000014
 31
0.0
  0
LINE
  5
E4
  8
DATA
  6
CONTINUOUS
 62
     7
 10
52.174664264842967
 20
79.250000000000014
 30
0.0
 11
53.52466426484294
 21
79.250000000000014
 31
0.0
  0
LINE
  5
E5
  8
DATA
  6
CONTINUOUS
 62
     7
 10
54.874664264842963
 20
79.250000000000014
 30
0.0
 11
56.224664264842971
 21
79.250000000000014
 31
0.0
  0
LINE
  5
E6
  8
DATA
  6
CONTINUOUS
 62
     7
 10
57.574664264842951
 20
79.250000000000014
 30
0.0
 11
58.924664264842967
 21
79.250000000000014
 31
0.0
  0
LINE
  5
E7
  8
DATA
  6
CONTINUOUS
 62
     7
 10
41.324664264842937
 20
82.500000000000014
 30
0.0
 11
42.724664264842922
 21
82.500000000000014
 31
0.0
  0
LINE
  5
E8
  8
DATA
  6
CONTINUOUS
 62
     7
 10
44.074664264842951
 20
82.500000000000014
 30
0.0
 11
45.424664264842967
 21
82.500000000000014
 31
0.0
  0
LINE
  5
E9
  8
DATA
  6
CONTINUOUS
 62
     7
 10
46.77466426484294
 20
82.500000000000014
 30
0.0
 11
48.124664264842949
 21
82.500000000000014
 31
0.0
  0
LINE
  5
EA
  8
DATA
  6
CONTINUOUS
 62
     7
 10
49.474664264842929
 20
82.500000000000014
 30
0.0
 11
50.824664264842951
 21
82.500000000000014
 31
0.0
  0
LINE
  5
EB
  8
DATA
  6
CONTINUOUS
 62
     7
 10
52.174664264842967
 20
82.500000000000014
 30
0.0
 11
53.52466426484294
 21
82.500000000000014
 31
0.0
  0
LINE
  5
EC
  8
DATA
  6
CONTINUOUS
 62
     7
 10
54.874664264842963
 20
82.500000000000014
 30
0.0
 11
56.224664264842971
 21
82.500000000000014
 31
0.0
  0
LINE
  5
ED
  8
DATA
  6
CONTINUOUS
 62
     7
 10
57.574664264842951
 20
82.500000000000014
 30
0.0
 11
58.924664264842967
 21
82.500000000000014
 31
0.0
  0
LINE
  5
EE
  8
DATA
  6
CONTINUOUS
 62
     7
 10
41.324664264842937
 20
92.0
 30
0.0
 11
42.724664264842922
 21
92.0
 31
0.0
  0
LINE
  5
EF
  8
DATA
  6
CONTINUOUS
 62
     7
 10
44.074664264842951
 20
92.0
 30
0.0
 11
45.424664264842967
 21
92.0
 31
0.0
  0
LINE
  5
F0
  8
DATA
  6
CONTINUOUS
 62
     7
 10
46.77466426484294
 20
92.0
 30
0.0
 11
48.124664264842949
 21
92.0
 31
0.0
  0
LINE
  5
F1
  8
DATA
  6
CONTINUOUS
 62
     7
 10
49.474664264842929
 20
92.0
 30
0.0
 11
50.824664264842951
 21
92.0
 31
0.0
  0
LINE
  5
F2
  8
DATA
  6
CONTINUOUS
 62
     7
 10
52.174664264842967
 20
92.0
 30
0.0
 11
53.52466426484294
 21
92.0
 31
0.0
  0
LINE
  5
F3
  8
DATA
  6
CONTINUOUS
 62
     7
 10
54.874664264842963
 20
92.0
 30
0.0
 11
56.224664264842971
 21
92.0
 31
0.0
  0
LINE
  5
F4
  8
DATA
  6
CONTINUOUS
 62
     7
 10
57.574664264842951
 20
92.0
 30
0.0
 11
58.924664264842967
 21
92.0
 31
0.0
  0
LINE
  5
F5
  8
DATA
  6
CONTINUOUS
 62
     7
 10
41.324664264842937
 20
95.25
 30
0.0
 11
42.724664264842922
 21
95.25
 31
0.0
  0
LINE
  5
F6
  8
DATA
  6
CONTINUOUS
 62
     7
 10
44.074664264842951
 20
95.25
 30
0.0
 11
45.424664264842967
 21
95.25
 31
0.0
  0
LINE
  5
F7
  8
DATA
  6
CONTINUOUS
 62
     7
 10
46.77466426484294
 20
95.25
 30
0.0
 11
48.124664264842949
 21
95.25
 31
0.0
  0
LINE
  5
F8
  8
DATA
  6
CONTINUOUS
 62
     7
 10
49.474664264842929
 20
95.25
 30
0.0
 11
50.824664264842951
 21
95.25
 31
0.0
  0
LINE
  5
F9
  8
DATA
  6
CONTINUOUS
 62
     7
 10
52.174664264842967
 20
95.25
 30
0.0
 11
53.52466426484294
 21
95.25
 31
0.0
  0
LINE
  5
FA
  8
DATA
  6
CONTINUOUS
 62
     7
 10
54.874664264842963
 20
95.25
 30
0.0
 11
56.224664264842971
 21
95.25
 31
0.0
  0
LINE
  5
FB
  8
DATA
  6
CONTINUOUS
 62
     7
 10
57.574664264842951
 20
95.25
 30
0.0
 11
58.924664264842967
 21
95.25
 31
0.0
  0
LINE
  5
FC
  8
DATA
  6
CONTINUOUS
 62
     7
 10
41.324664264842937
 20
104.75
 30
0.0
 11
42.724664264842922
 21
104.75
 31
0.0
  0
LINE
  5
FD
  8
DATA
  6
CONTINUOUS
 62
     7
 10
44.074664264842951
 20
104.75
 30
0.0
 11
45.424664264842967
 21
104.75
 31
0.0
  0
LINE
  5
FE
  8
DATA
  6
CONTINUOUS
 62
     7
 10
46.77466426484294
 20
104.75
 30
0.0
 11
48.124664264842949
 21
104.75
 31
0.0
  0
LINE
  5
FF
  8
DATA
  6
CONTINUOUS
 62
     7
 10
49.474664264842929
 20
104.75
 30
0.0
 11
50.824664264842951
 21
104.75
 31
0.0
  0
LINE
  5
100
  8
DATA
  6
CONTINUOUS
 62
     7
 10
52.174664264842967
 20
104.75
 30
0.0
 11
53.52466426484294
 21
104.75
 31
0.0
  0
LINE
  5
101
  8
DATA
  6
CONTINUOUS
 62
     7
 10
54.874664264842963
 20
104.75
 30
0.0
 11
56.224664264842971
 21
104.75
 31
0.0
  0
LINE
  5
102
  8
DATA
  6
CONTINUOUS
 62
     7
 10
57.574664264842951
 20
104.75
 30
0.0
 11
58.924664264842967
 21
104.75
 31
0.0
  0
LINE
  5
103
  8
DATA
  6
CONTINUOUS
 62
     7
 10
50.824664264842951
 20
104.75
 30
0.0
 11
50.824664264842951
 21
95.25
 31
0.0
  0
LINE
  5
104
  8
DATA
  6
CONTINUOUS
 62
     7
 10
50.824664264842951
 20
92.0
 30
0.0
 11
50.824664264842951
 21
82.500000000000014
 31
0.0
  0
LINE
  5
105
  8
DATA
  6
CONTINUOUS
 62
     7
 10
50.824664264842951
 20
79.250000000000014
 30
0.0
 11
50.824664264842951
 21
69.75
 31
0.0
  0
LINE
  5
106
  8
DATA
  6
CONTINUOUS
 62
     7
 10
52.174664264842967
 20
104.75
 30
0.0
 11
52.174664264842967
 21
95.25
 31
0.0
  0
LINE
  5
107
  8
DATA
  6
CONTINUOUS
 62
     7
 10
52.174664264842967
 20
92.0
 30
0.0
 11
52.174664264842967
 21
82.500000000000014
 31
0.0
  0
LINE
  5
108
  8
DATA
  6
CONTINUOUS
 62
     7
 10
52.174664264842967
 20
79.250000000000014
 30
0.0
 11
52.174664264842967
 21
69.75
 31
0.0
  0
LINE
  5
109
  8
DATA
  6
CONTINUOUS
 62
     7
 10
53.52466426484294
 20
104.75
 30
0.0
 11
53.52466426484294
 21
95.25
 31
0.0
  0
LINE
  5
10A
  8
DATA
  6
CONTINUOUS
 62
     7
 10
53.52466426484294
 20
92.0
 30
0.0
 11
53.52466426484294
 21
82.500000000000014
 31
0.0
  0
LINE
  5
10B
  8
DATA
  6
CONTINUOUS
 62
     7
 10
53.52466426484294
 20
79.250000000000014
 30
0.0
 11
53.52466426484294
 21
69.75
 31
0.0
  0
LINE
  5
10C
  8
DATA
  6
CONTINUOUS
 62
     7
 10
54.874664264842963
 20
104.75
 30
0.0
 11
54.874664264842963
 21
95.25
 31
0.0
  0
LINE
  5
10D
  8
DATA
  6
CONTINUOUS
 62
     7
 10
54.874664264842963
 20
92.0
 30
0.0
 11
54.874664264842963
 21
82.500000000000014
 31
0.0
  0
LINE
  5
10E
  8
DATA
  6
CONTINUOUS
 62
     7
 10
54.874664264842963
 20
79.250000000000014
 30
0.0
 11
54.874664264842963
 21
69.75
 31
0.0
  0
LINE
  5
10F
  8
DATA
  6
CONTINUOUS
 62
     7
 10
56.224664264842971
 20
104.75
 30
0.0
 11
56.224664264842971
 21
95.25
 31
0.0
  0
LINE
  5
110
  8
DATA
  6
CONTINUOUS
 62
     7
 10
56.224664264842971
 20
92.0
 30
0.0
 11
56.224664264842971
 21
82.500000000000014
 31
0.0
  0
LINE
  5
111
  8
DATA
  6
CONTINUOUS
 62
     7
 10
56.224664264842971
 20
79.250000000000014
 30
0.0
 11
56.224664264842971
 21
69.75
 31
0.0
  0
LINE
  5
112
  8
DATA
  6
CONTINUOUS
 62
     7
 10
57.574664264842951
 20
104.75
 30
0.0
 11
57.574664264842951
 21
95.25
 31
0.0
  0
LINE
  5
113
  8
DATA
  6
CONTINUOUS
 62
     7
 10
57.574664264842951
 20
92.0
 30
0.0
 11
57.574664264842951
 21
82.500000000000014
 31
0.0
  0
LINE
  5
114
  8
DATA
  6
CONTINUOUS
 62
     7
 10
57.574664264842951
 20
79.250000000000014
 30
0.0
 11
57.574664264842951
 21
69.75
 31
0.0
  0
LINE
  5
115
  8
DATA
  6
CONTINUOUS
 62
     7
 10
58.924664264842967
 20
104.75
 30
0.0
 11
58.924664264842967
 21
95.25
 31
0.0
  0
LINE
  5
116
  8
DATA
  6
CONTINUOUS
 62
     7
 10
58.924664264842967
 20
92.0
 30
0.0
 11
58.924664264842967
 21
82.500000000000014
 31
0.0
  0
LINE
  5
117
  8
DATA
  6
CONTINUOUS
 62
     7
 10
58.924664264842967
 20
79.250000000000014
 30
0.0
 11
58.924664264842967
 21
69.75
 31
0.0
  0
LINE
  5
118
  8
DATA
  6
CONTINUOUS
 62
     7
 10
49.474664264842929
 20
104.75
 30
0.0
 11
49.474664264842929
 21
95.25
 31
0.0
  0
LINE
  5
119
  8
DATA
  6
CONTINUOUS
 62
     7
 10
49.474664264842929
 20
92.0
 30
0.0
 11
49.474664264842929
 21
82.500000000000014
 31
0.0
  0
LINE
  5
11A
  8
DATA
  6
CONTINUOUS
 62
     7
 10
49.474664264842929
 20
79.250000000000014
 30
0.0
 11
49.474664264842929
 21
69.75
 31
0.0
  0
LINE
  5
11B
  8
DATA
  6
CONTINUOUS
 62
     7
 10
48.124664264842949
 20
104.75
 30
0.0
 11
48.124664264842949
 21
95.25
 31
0.0
  0
LINE
  5
11C
  8
DATA
  6
CONTINUOUS
 62
     7
 10
48.124664264842949
 20
92.0
 30
0.0
 11
48.124664264842949
 21
82.500000000000014
 31
0.0
  0
LINE
  5
11D
  8
DATA
  6
CONTINUOUS
 62
     7
 10
48.124664264842949
 20
79.250000000000014
 30
0.0
 11
48.124664264842949
 21
69.75
 31
0.0
  0
LINE
  5
11E
  8
DATA
  6
CONTINUOUS
 62
     7
 10
46.77466426484294
 20
104.75
 30
0.0
 11
46.77466426484294
 21
95.25
 31
0.0
  0
LINE
  5
11F
  8
DATA
  6
CONTINUOUS
 62
     7
 10
46.77466426484294
 20
92.0
 30
0.0
 11
46.77466426484294
 21
82.500000000000014
 31
0.0
  0
LINE
  5
120
  8
DATA
  6
CONTINUOUS
 62
     7
 10
46.77466426484294
 20
79.250000000000014
 30
0.0
 11
46.77466426484294
 21
69.75
 31
0.0
  0
LINE
  5
121
  8
DATA
  6
CONTINUOUS
 62
     7
 10
45.424664264842967
 20
104.75
 30
0.0
 11
45.424664264842967
 21
95.25
 31
0.0
  0
LINE
  5
122
  8
DATA
  6
CONTINUOUS
 62
     7
 10
45.424664264842967
 20
92.0
 30
0.0
 11
45.424664264842967
 21
82.500000000000014
 31
0.0
  0
LINE
  5
123
  8
DATA
  6
CONTINUOUS
 62
     7
 10
45.424664264842967
 20
79.250000000000014
 30
0.0
 11
45.424664264842967
 21
69.75
 31
0.0
  0
LINE
  5
124
  8
DATA
  6
CONTINUOUS
 62
     7
 10
44.074664264842951
 20
104.75
 30
0.0
 11
44.074664264842951
 21
95.25
 31
0.0
  0
LINE
  5
125
  8
DATA
  6
CONTINUOUS
 62
     7
 10
44.074664264842951
 20
92.0
 30
0.0
 11
44.074664264842951
 21
82.500000000000014
 31
0.0
  0
LINE
  5
126
  8
DATA
  6
CONTINUOUS
 62
     7
 10
44.074664264842951
 20
79.250000000000014
 30
0.0
 11
44.074664264842951
 21
69.75
 31
0.0
  0
LINE
  5
127
  8
DATA
  6
CONTINUOUS
 62
     7
 10
42.724664264842922
 20
104.75
 30
0.0
 11
42.724664264842922
 21
95.25
 31
0.0
  0
LINE
  5
128
  8
DATA
  6
CONTINUOUS
 62
     7
 10
42.724664264842922
 20
92.0
 30
0.0
 11
42.724664264842922
 21
82.500000000000014
 31
0.0
  0
LINE
  5
129
  8
DATA
  6
CONTINUOUS
 62
     7
 10
42.724664264842922
 20
79.250000000000014
 30
0.0
 11
42.724664264842922
 21
69.75
 31
0.0
  0
LINE
  5
12A
  8
DATA
  6
CONTINUOUS
 62
     7
 10
41.324664264842937
 20
95.25
 30
0.0
 11
41.324664264842937
 21
104.7600000003129
 31
0.0
  0
LINE
  5
12B
  8
DATA
  6
CONTINUOUS
 62
     7
 10
41.324664264842937
 20
69.75
 30
0.0
 11
41.324664264842937
 21
79.250000000312909
 31
0.0
  0
LINE
  5
12C
  8
DATA
  6
CONTINUOUS
 62
     7
 10
41.324664264842937
 20
82.500000000000014
 30
0.0
 11
41.324664264842937
 21
92.0
 31
0.0
  0
LINE
  5
12D
  8
DATA
  6
CONTINUOUS
 62
     7
 10
41.324664264842937
 20
107.75
 30
0.0
 11
42.724664264842922
 21
107.75
 31
0.0
  0
LINE
  5
12E
  8
DATA
  6
CONTINUOUS
 62
     7
 10
44.074664264842951
 20
107.75
 30
0.0
 11
45.424664264842967
 21
107.75
 31
0.0
  0
LINE
  5
12F
  8
DATA
  6
CONTINUOUS
 62
     7
 10
46.77466426484294
 20
107.75
 30
0.0
 11
48.124664264842949
 21
107.75
 31
0.0
  0
LINE
  5
130
  8
DATA
  6
CONTINUOUS
 62
     7
 10
49.474664264842929
 20
107.75
 30
0.0
 11
50.824664264842951
 21
107.75
 31
0.0
  0
LINE
  5
131
  8
DATA
  6
CONTINUOUS
 62
     7
 10
52.174664264842967
 20
107.75
 30
0.0
 11
53.52466426484294
 21
107.75
 31
0.0
  0
LINE
  5
132
  8
DATA
  6
CONTINUOUS
 62
     7
 10
54.874664264842963
 20
107.75
 30
0.0
 11
56.224664264842971
 21
107.75
 31
0.0
  0
LINE
  5
133
  8
DATA
  6
CONTINUOUS
 62
     7
 10
57.574664264842951
 20
107.75
 30
0.0
 11
58.924664264842967
 21
107.75
 31
0.0
  0
LINE
  5
134
  8
DATA
  6
CONTINUOUS
 62
     7
 10
41.324664264842937
 20
107.75
 30
0.0
 11
41.324664264842937
 21
110.7500000000004
 31
0.0
  0
LINE
  5
135
  8
DATA
  6
CONTINUOUS
 62
     7
 10
42.724664264842922
 20
107.75
 30
0.0
 11
42.724664264842922
 21
110.7500000000004
 31
0.0
  0
LINE
  5
136
  8
DATA
  6
CONTINUOUS
 62
     7
 10
44.074664264842951
 20
107.75
 30
0.0
 11
44.074664264842951
 21
110.7500000000004
 31
0.0
  0
LINE
  5
137
  8
DATA
  6
CONTINUOUS
 62
     7
 10
45.424664264842967
 20
107.75
 30
0.0
 11
45.424664264842967
 21
110.7500000000004
 31
0.0
  0
LINE
  5
138
  8
DATA
  6
CONTINUOUS
 62
     7
 10
46.77466426484294
 20
107.75
 30
0.0
 11
46.77466426484294
 21
110.7500000000004
 31
0.0
  0
LINE
  5
139
  8
DATA
  6
CONTINUOUS
 62
     7
 10
48.124664264842949
 20
107.75
 30
0.0
 11
48.124664264842949
 21
110.7500000000004
 31
0.0
  0
LINE
  5
13A
  8
DATA
  6
CONTINUOUS
 62
     7
 10
49.474664264842929
 20
107.75
 30
0.0
 11
49.474664264842929
 21
110.7500000000004
 31
0.0
  0
LINE
  5
13B
  8
DATA
  6
CONTINUOUS
 62
     7
 10
50.824664264842951
 20
107.75
 30
0.0
 11
50.824664264842951
 21
110.7500000000004
 31
0.0
  0
LINE
  5
13C
  8
DATA
  6
CONTINUOUS
 62
     7
 10
52.174664264842967
 20
107.75
 30
0.0
 11
52.174664264842967
 21
110.7500000000004
 31
0.0
  0
LINE
  5
13D
  8
DATA
  6
CONTINUOUS
 62
     7
 10
53.52466426484294
 20
107.75
 30
0.0
 11
53.52466426484294
 21
110.7500000000004
 31
0.0
  0
LINE
  5
13E
  8
DATA
  6
CONTINUOUS
 62
     7
 10
54.874664264842963
 20
107.75
 30
0.0
 11
54.874664264842963
 21
110.7500000000004
 31
0.0
  0
LINE
  5
13F
  8
DATA
  6
CONTINUOUS
 62
     7
 10
56.224664264842971
 20
107.75
 30
0.0
 11
56.224664264842971
 21
110.7500000000004
 31
0.0
  0
LINE
  5
140
  8
DATA
  6
CONTINUOUS
 62
     7
 10
57.574664264842951
 20
107.75
 30
0.0
 11
57.574664264842951
 21
110.7500000000004
 31
0.0
  0
LINE
  5
141
  8
DATA
  6
CONTINUOUS
 62
     7
 10
58.924664264842967
 20
107.75
 30
0.0
 11
58.924664264842967
 21
110.7500000000004
 31
0.0
  0
LINE
  5
142
  8
DATA
  6
CONTINUOUS
 62
     7
 10
41.324664264842937
 20
109.9500000000004
 30
0.0
 11
42.724664264842922
 21
109.9500000000004
 31
0.0
  0
LINE
  5
143
  8
DATA
  6
CONTINUOUS
 62
     7
 10
44.074664264842951
 20
109.9500000000004
 30
0.0
 11
45.424664264842967
 21
109.9500000000004
 31
0.0
  0
LINE
  5
144
  8
DATA
  6
CONTINUOUS
 62
     7
 10
46.77466426484294
 20
109.9500000000004
 30
0.0
 11
48.124664264842949
 21
109.9500000000004
 31
0.0
  0
LINE
  5
145
  8
DATA
  6
CONTINUOUS
 62
     7
 10
49.474664264842929
 20
109.9500000000004
 30
0.0
 11
50.824664264842951
 21
109.9500000000004
 31
0.0
  0
LINE
  5
146
  8
DATA
  6
CONTINUOUS
 62
     7
 10
52.174664264842967
 20
109.9500000000004
 30
0.0
 11
53.52466426484294
 21
109.9500000000004
 31
0.0
  0
LINE
  5
147
  8
DATA
  6
CONTINUOUS
 62
     7
 10
54.874664264842963
 20
109.9500000000004
 30
0.0
 11
56.224664264842971
 21
109.9500000000004
 31
0.0
  0
LINE
  5
148
  8
DATA
  6
CONTINUOUS
 62
     7
 10
57.574664264842951
 20
109.9500000000004
 30
0.0
 11
58.924664264842967
 21
109.9500000000004
 31
0.0
  0
LINE
  5
149
  8
DATA
  6
STYLE_01
 62
     7
 10
40.006792679100649
 20
80.63274009822004
 30
0.0
 11
60.456792679541579
 21
80.63274009822004
 31
0.0
  0
LINE
  5
14A
  8
DATA
  6
STYLE_01
 62
     7
 10
46.731792679321117
 20
135.63274009822001
 30
0.0
 11
53.731792679321117
 21
135.63274009822001
 31
0.0
  0
LINE
  5
14B
  8
DATA
  6
STYLE_01
 62
     7
 10
31.731792679321121
 20
93.41393888408264
 30
0.0
 11
31.731792679321121
 21
120.63274009822
 31
0.0
  0
LINE
  5
14C
  8
DATA
  6
STYLE_01
 62
     7
 10
68.731792679321117
 20
120.63274009822
 30
0.0
 11
68.731792679321117
 21
93.41393888408264
 31
0.0
  0
CIRCLE
  5
14D
  8
DATA
  6
STYLE_01
 62
     7
 10
50.231792679513077
 20
163.75
 30
0.0
 40
18.5
  0
ARC
  5
14E
  8
DATA
  6
STYLE_01
 62
     7
 10
46.44352202307833
 20
93.869469442197754
 30
0.0
 40
14.7187801251783
 50
178.2264734862791
 51
244.06736788149041
  0
ARC
  5
14F
  8
DATA
  6
STYLE_01
 62
     7
 10
54.02006333556389
 20
93.869469442197754
 30
0.0
 40
14.7187801251783
 50
295.93263211850962
 51
1.7735265137208669
  0
ARC
  5
150
  8
DATA
  6
STYLE_01
 62
     7
 10
46.731792679321117
 20
120.63274009822
 30
0.0
 40
15.0
 50
90.0
 51
180.0
  0
ARC
  5
151
  8
DATA
  6
STYLE_01
 62
     7
 10
53.731792679321117
 20
120.63274009822
 30
0.0
 40
15.0
 50
0.0
 51
90.0
  0
LINE
  5
152
  8
DATA
  6
CONTINUOUS
 62
     7
 10
96.981792679100636
 20
126.25000000031289
 30
0.0
 11
64.117014140031856
 21
151.5250000003129
 31
0.0
  0
LINE
  5
153
  8
DATA
  6
CONTINUOUS
 62
     7
 10
64.117014140031856
 20
151.5250000003129
 30
0.0
 11
70.212324272817483
 21
149.06233485206869
 31
0.0
  0
LINE
  5
154
  8
DATA
  6
CONTINUOUS
 62
     7
 10
64.117014140031856
 20
151.5250000003129
 30
0.0
 11
68.16437498484683
 21
146.3446143545261
 31
0.0
  0
LINE
  5
155
  8
DATA
  6
CONTINUOUS
 62
     7
 10
96.981792679100636
 20
126.25000000031289
 30
0.0
 11
68.731792679321117
 21
115.62500000031289
 31
0.0
  0
LINE
  5
156
  8
DATA
  6
CONTINUOUS
 62
     7
 10
68.731792679321117
 20
115.62500000031289
 30
0.0
 11
74.116901286696162
 21
119.3956936412748
 31
0.0
  0
LINE
  5
157
  8
DATA
  6
CONTINUOUS
 62
     7
 10
68.731792679321117
 20
115.62500000031289
 30
0.0
 11
75.280780355927121
 21
116.1979621795869
 31
0.0
  0
ENDSEC
  0
EOF
