  0
SECTION
  2
HEADER
  9
$ACADVER
  1
AC1009
  9
$INSBASE
 10
0.0
 20
0.0
 30
0.0
  9
$EXTMIN
 10
-170.0164782349211
 20
-265.74833863455001
 30
-0.0015258207003583
  9
$EXTMAX
 10
370.0164807494923
 20
537.09174839639525
 30
0.0000000349246037
  9
$LIMMIN
 10
0.0
 20
0.0
  9
$LIMMAX
 10
0.0
 20
0.0
  9
$ORTHOMODE
 70
     0
  9
$REGENMODE
 70
     1
  9
$FILLMODE
 70
     1
  9
$QTEXTMODE
 70
     0
  9
$MIRRTEXT
 70
     1
  9
$DRAGMODE
 70
     2
  9
$LTSCALE
 40
15.24
  9
$OSMODE
 70
   231
  9
$ATTMODE
 70
     1
  9
$TEXTSIZE
 40
0.0
  9
$TRACEWID
 40
1.0
  9
$TEXTSTYLE
  7
STANDARD
  9
$CLAYER
  8
DATA
  9
$CELTYPE
  6
BYLAYER
  9
$CECOLOR
 62
   256
  9
$DIMSCALE
 40
1.0
  9
$DIMASZ
 40
0.18
  9
$DIMEXO
 40
0.0625
  9
$DIMDLI
 40
0.38
  9
$DIMRND
 40
0.0
  9
$DIMDLE
 40
0.0
  9
$DIMEXE
 40
0.18
  9
$DIMTP
 40
0.0
  9
$DIMTM
 40
0.0
  9
$DIMTXT
 40
0.18
  9
$DIMCEN
 40
0.09
  9
$DIMTSZ
 40
0.0
  9
$DIMTOL
 70
     0
  9
$DIMLIM
 70
     0
  9
$DIMTIH
 70
     1
  9
$DIMTOH
 70
     1
  9
$DIMSE1
 70
     0
  9
$DIMSE2
 70
     0
  9
$DIMTAD
 70
     0
  9
$DIMZIN
 70
     0
  9
$DIMBLK
  1

  9
$DIMASO
 70
     1
  9
$DIMSHO
 70
     1
  9
$DIMPOST
  1

  9
$DIMAPOST
  1

  9
$DIMALT
 70
     0
  9
$DIMALTD
 70
     2
  9
$DIMALTF
 40
25.399999999999999
  9
$DIMLFAC
 40
1.0
  9
$DIMTOFL
 70
     0
  9
$DIMTVP
 40
0.0
  9
$DIMTIX
 70
     0
  9
$DIMSOXD
 70
     0
  9
$DIMSAH
 70
     0
  9
$DIMBLK1
  1

  9
$DIMBLK2
  1

  9
$DIMSTYLE
  2
STANDARD
  9
$DIMCLRD
 70
     0
  9
$DIMCLRE
 70
     0
  9
$DIMCLRT
 70
     0
  9
$DIMTFAC
 40
1.0
  9
$DIMGAP
 40
0.09
  9
$LUNITS
 70
     2
  9
$LUPREC
 70
     4
  9
$SKETCHINC
 40
0.1
  9
$FILLETRAD
 40
0.0
  9
$AUNITS
 70
     0
  9
$AUPREC
 70
     0
  9
$MENU
  1
acad
  9
$ELEVATION
 40
0.0
  9
$PELEVATION
 40
0.0
  9
$THICKNESS
 40
0.0
  9
$LIMCHECK
 70
     0
  9
$BLIPMODE
 70
     0
  9
$CHAMFERA
 40
0.0
  9
$CHAMFERB
 40
0.0
  9
$SKPOLY
 70
     0
  9
$TDCREATE
 40
2455618.5967476852
  9
$TDUPDATE
 40
2455618.615132662
  9
$TDINDWG
 40
0.0002466667
  9
$TDUSRTIMER
 40
0.0002466667
  9
$USRTIMER
 70
     1
  9
$ANGBASE
 50
0.0
  9
$ANGDIR
 70
     0
  9
$PDMODE
 70
     1
  9
$PDSIZE
 40
-2.0
  9
$PLINEWID
 40
0.0
  9
$COORDS
 70
     1
  9
$SPLFRAME
 70
     0
  9
$SPLINETYPE
 70
     6
  9
$SPLINESEGS
 70
     8
  9
$ATTDIA
 70
     0
  9
$ATTREQ
 70
     1
  9
$HANDLING
 70
     1
  9
$HANDSEED
  5
5F4
  9
$SURFTAB1
 70
     6
  9
$SURFTAB2
 70
     6
  9
$SURFTYPE
 70
     6
  9
$SURFU
 70
     6
  9
$SURFV
 70
     6
  9
$UCSNAME
  2

  9
$UCSORG
 10
0.0
 20
0.0
 30
0.0
  9
$UCSXDIR
 10
1.0
 20
0.0
 30
0.0
  9
$UCSYDIR
 10
0.0
 20
1.0
 30
0.0
  9
$PUCSNAME
  2

  9
$PUCSORG
 10
0.0
 20
0.0
 30
0.0
  9
$PUCSXDIR
 10
1.0
 20
0.0
 30
0.0
  9
$PUCSYDIR
 10
0.0
 20
1.0
 30
0.0
  9
$USERI1
 70
     0
  9
$USERI2
 70
     0
  9
$USERI3
 70
     0
  9
$USERI4
 70
     0
  9
$USERI5
 70
     0
  9
$USERR1
 40
0.0
  9
$USERR2
 40
0.0
  9
$USERR3
 40
0.0
  9
$USERR4
 40
0.0
  9
$USERR5
 40
0.0
  9
$WORLDVIEW
 70
     1
  9
$SHADEDGE
 70
     3
  9
$SHADEDIF
 70
    70
  9
$TILEMODE
 70
     1
  9
$MAXACTVP
 70
    64
  9
$PLIMCHECK
 70
     0
  9
$PEXTMIN
 10
1.0000000000000000E+020
 20
1.0000000000000000E+020
 30
1.0000000000000000E+020
  9
$PEXTMAX
 10
-1.0000000000000000E+020
 20
-1.0000000000000000E+020
 30
-1.0000000000000000E+020
  9
$PLIMMIN
 10
0.0
 20
0.0
  9
$PLIMMAX
 10
12.0
 20
9.0
  9
$UNITMODE
 70
     0
  9
$VISRETAIN
 70
     0
  9
$PLINEGEN
 70
     1
  9
$PSLTSCALE
 70
     0
  0
ENDSEC
  0
SECTION
  2
TABLES
  0
TABLE
  2
VPORT
 70
     1
  0
VPORT
  2
*ACTIVE
 70
     0
 10
0.0
 20
0.0
 11
1.0
 21
1.0
 12
100.0000012572856
 22
135.6717048809227
 13
0.0
 23
0.0
 14
1.0
 24
1.0
 15
0.0
 25
0.0
 16
0.0
 26
0.0
 36
1.0
 17
0.0
 27
0.0
 37
0.0
 40
808.75056619927125
 41
1.9619164619164611
 42
50.0
 43
0.0
 44
0.0
 50
0.0
 51
0.0
 71
     0
 72
  2000
 73
     1
 74
     1
 75
     0
 76
     0
 77
     0
 78
     0
  0
ENDTAB
  0
TABLE
  2
LTYPE
 70
    11
  0
LTYPE
  2
CONTINUOUS
 70
     0
  3
Solid line
 72
    65
 73
     0
 40
0.0
  0
LTYPE
  2
STYLE_01
 70
     0
  3

 72
    65
 73
     2
 40
0.4166412353515625
 49
0.208282470703125
 49
-0.2083587646484375
  0
ENDTAB
  0
TABLE
  2
LAYER
 70
     5
  0
LAYER
  2
0
 70
     0
 62
     7
  6
CONTINUOUS
  0
LAYER
  2
DATA
 70
     0
 62
     7
  6
CONTINUOUS
  0
LAYER
  2
HIBINO-BASE
 70
     0
 62
     7
  6
CONTINUOUS
  0
LAYER
  2
SPEC
 70
     0
 62
     7
  6
CONTINUOUS
  0
LAYER
  2
DIMNSIONS
 70
     0
 62
     7
  6
CONTINUOUS
  0
ENDTAB
  0
TABLE
  2
STYLE
 70
     3
  0
STYLE
  2
STANDARD
 70
     0
 40
0.0
 41
1.0
 50
0.0
 71
     0
 42
0.0
  3
txt
  4
BIGFONT.SHX
  0
ENDTAB
  0
TABLE
  2
VIEW
 70
     0
  0
ENDTAB
  0
TABLE
  2
UCS
 70
     0
  0
ENDTAB
  0
TABLE
  2
APPID
 70
     3
  0
APPID
  2
ACAD
 70
     0
  0
APPID
  2
ACADANNOTATIVE
 70
     0
  0
APPID
  2
ACAD_MLEADERVER
 70
     0
  0
ENDTAB
  0
TABLE
  2
DIMSTYLE
 70
     2
  0
DIMSTYLE
  2
STANDARD
 70
     0
  3

  4

  5

  6

  7

 40
1.0
 41
0.18
 42
0.0625
 43
0.38
 44
0.18
 45
0.0
 46
0.0
 47
0.0
 48
0.0
140
0.18
141
0.09
142
0.0
143
25.399999999999999
144
1.0
145
0.0
146
1.0
147
0.09
 71
     0
 72
     0
 73
     1
 74
     1
 75
     0
 76
     0
 77
     0
 78
     0
170
     0
171
     2
172
     0
173
     0
174
     0
175
     0
176
     0
177
     0
178
     0
  0
ENDTAB
  0
ENDSEC
  0
SECTION
  2
BLOCKS
  0
BLOCK
  8
0
  2
$MODEL_SPACE
 70
     0
 10
0.0
 20
0.0
 30
0.0
  3
$MODEL_SPACE
  1

  0
ENDBLK
  5
405
  8
0
  0
BLOCK
 67
     1
  8
0
  2
$PAPER_SPACE
 70
     0
 10
0.0
 20
0.0
 30
0.0
  3
$PAPER_SPACE
  1

  0
ENDBLK
  5
401
 67
     1
  8
0
  0
ENDSEC
  0
SECTION
  2
ENTITIES
  0
LINE
  5
2C
  8
HIBINO-BASE
  6
CONTINUOUS
 62
     7
 10
-169.99999999999989
 20
537.06729578973182
 30
0.0
 11
370.0
 21
537.06729578973182
 31
0.0
  0
LINE
  5
2D
  8
HIBINO-BASE
  6
CONTINUOUS
 62
     7
 10
370.0
 20
-242.93270421026821
 30
0.0
 11
-169.99999999999989
 21
-242.93270421026821
 31
0.0
  0
LINE
  5
2E
  8
HIBINO-BASE
  6
CONTINUOUS
 62
     7
 10
-169.99999999999989
 20
-242.93270421026821
 30
0.0
 11
-169.99999999999989
 21
537.06729578973182
 31
0.0
  0
LINE
  5
2F
  8
HIBINO-BASE
  6
CONTINUOUS
 62
     7
 10
370.0
 20
537.06729578973182
 30
0.0
 11
370.0
 21
-242.93270421026821
 31
0.0
  0
LINE
  5
30
  8
HIBINO-BASE
  6
CONTINUOUS
 62
     7
 10
100.0
 20
-175.4327042102681
 30
0.0
 11
370.0
 21
-175.4327042102681
 31
0.0
  0
LINE
  5
31
  8
HIBINO-BASE
  6
CONTINUOUS
 62
     7
 10
100.0
 20
-242.93270421026821
 30
0.0
 11
100.0
 21
-175.4327042102681
 31
0.0
  0
TEXT
  5
32
  8
HIBINO-BASE
 62
     7
 10
102.7
 20
-182.95878421026811
 30
0.0
 40
4.8865234374999993
  1
NOTE
 41
0.7
 11
102.7
 21
-178.0722607727682
 31
0.0
 73
     3
  0
LINE
  5
33
  8
HIBINO-BASE
  6
CONTINUOUS
 62
     7
 10
205.0
 20
-242.93270421026821
 30
0.0
 11
205.0
 21
-175.4327042102681
 31
0.0
  0
TEXT
  5
34
  8
HIBINO-BASE
 62
     7
 10
207.69999999999999
 20
-182.95878421026811
 30
0.0
 40
4.8865234374999993
  1
TITLE
 41
0.7
 11
207.69999999999999
 21
-178.0722607727682
 31
0.0
 73
     3
  0
LINE
  5
35
  8
HIBINO-BASE
  6
CONTINUOUS
 62
     7
 10
100.0
 20
-212.9327042102681
 30
0.0
 11
370.0
 21
-212.9327042102681
 31
0.0
  0
TEXT
  5
36
  8
HIBINO-BASE
 62
     7
 10
245.19999999999999
 20
-220.28982421026819
 30
0.0
 40
4.8865234374999993
  1
DRAWN
 41
0.7
 11
245.19999999999999
 21
-215.4033007727682
 31
0.0
 73
     3
  0
TEXT
  5
37
  8
HIBINO-BASE
 62
     7
 10
170.19999999999999
 20
-220.28982421026819
 30
0.0
 40
4.8865234374999993
  1
DATE
 41
0.7
 11
170.19999999999999
 21
-215.4033007727682
 31
0.0
 73
     3
  0
TEXT
  5
38
  8
HIBINO-BASE
 62
     7
 10
140.19999999999999
 20
-220.28982421026819
 30
0.0
 40
4.8865234374999993
  1
SCALE
 41
0.7
 11
140.19999999999999
 21
-215.4033007727682
 31
0.0
 73
     3
  0
TEXT
  5
39
  8
HIBINO-BASE
 62
     7
 10
207.69999999999999
 20
-220.28982421026819
 30
0.0
 40
4.8865234374999993
  1
DESIGN
 41
0.7
 11
207.69999999999999
 21
-215.4033007727682
 31
0.0
 73
     3
  0
TEXT
  5
3A
  8
HIBINO-BASE
 62
     7
 10
320.19999999999999
 20
-220.28982421026819
 30
0.0
 40
4.8865234374999993
  1
DRAWING NO.
 41
0.7
 11
320.19999999999999
 21
-215.4033007727682
 31
0.0
 73
     3
  0
TEXT
  5
3B
  8
HIBINO-BASE
 62
     7
 10
282.69999999999999
 20
-220.28982421026819
 30
0.0
 40
4.8865234374999993
  1
CHECK
 41
0.7
 11
282.69999999999999
 21
-215.4033007727682
 31
0.0
 73
     3
  0
LINE
  5
3C
  8
HIBINO-BASE
  6
CONTINUOUS
 62
     7
 10
143.12499999999989
 20
-239.18270421026821
 30
0.0
 11
154.375
 21
-227.9327042102681
 31
0.0
  0
TEXT
  5
3D
  8
HIBINO-BASE
 62
     7
 10
141.24999999999989
 20
-231.25953421026821
 30
0.0
 40
4.8865234374999993
  1
1
 41
0.7
 11
141.24999999999989
 21
-226.3730107727682
 31
0.0
 73
     3
  0
LINE
  5
3E
  8
HIBINO-BASE
  6
CONTINUOUS
 62
     7
 10
137.5
 20
-242.93270421026821
 30
0.0
 11
137.5
 21
-212.9327042102681
 31
0.0
  0
LINE
  5
3F
  8
HIBINO-BASE
  6
CONTINUOUS
 62
     7
 10
167.5
 20
-242.93270421026821
 30
0.0
 11
167.5
 21
-212.9327042102681
 31
0.0
  0
LINE
  5
40
  8
HIBINO-BASE
  6
CONTINUOUS
 62
     7
 10
242.5
 20
-212.9327042102681
 30
0.0
 11
242.5
 21
-242.93270421026821
 31
0.0
  0
LINE
  5
41
  8
HIBINO-BASE
  6
CONTINUOUS
 62
     7
 10
317.5
 20
-212.9327042102681
 30
0.0
 11
317.5
 21
-242.93270421026821
 31
0.0
  0
LINE
  5
42
  8
HIBINO-BASE
  6
CONTINUOUS
 62
     7
 10
279.99999999999989
 20
-242.93270421026821
 30
0.0
 11
279.99999999999989
 21
-212.9327042102681
 31
0.0
  0
TEXT
  5
43
  8
HIBINO-BASE
 62
     7
 10
170.06961999999999
 20
-234.3417642102682
 30
0.0
 40
4.8865234374999993
  1
'11.02.
 41
0.7
 11
170.06961999999999
 21
-229.45524077276821
 31
0.0
 73
     3
  0
TEXT
  5
44
  8
HIBINO-BASE
 62
     7
 10
152.5
 20
-236.88453421026821
 30
0.0
 40
4.8865234374999993
  1
3
 41
0.7
 11
152.5
 21
-231.9980107727682
 31
0.0
 73
     3
  0
TEXT
  5
45
  8
HIBINO-BASE
 62
     7
 10
247.01743003310389
 20
-234.3417642102682
 30
0.0
 40
4.8865234374999993
  1
T.Ootake
 41
0.7
 11
247.01743003310389
 21
-229.45524077276821
 31
0.0
 73
     3
  0
TEXT
  5
46
  8
HIBINO-BASE
 62
     7
 10
111.65000000000001
 20
-237.0047042102681
 30
0.0
 40
9.7730468749999986
  1
A4
 41
0.7
 11
111.65000000000001
 21
-227.2316573352681
 31
0.0
 73
     3
  0
TEXT
  5
47
  8
HIBINO-BASE
 62
     7
 10
102.875
 20
-220.79106921026809
 30
0.0
 40
4.8865234374999993
  1
PAPER SIZE
 41
0.7
 11
102.875
 21
-215.9045457727681
 31
0.0
 73
     3
  0
TEXT
  5
48
  8
HIBINO-BASE
 62
     7
 10
-161.7210942293294
 20
-262.20842491279689
 30
0.0
 40
10.58746744791666
  1
Hibino-Intersound Corporation
 41
0.7
 11
-161.7210942293294
 21
-251.62095746488029
 31
0.0
 73
     3
  0
TEXT
  5
49
  8
HIBINO-BASE
 62
     7
 10
160.54182904064169
 20
-261.15516015292872
 30
0.0
 40
10.58746744791666
  1
ヒビノインターサウンド株式会社
 41
0.7
 11
160.54182904064169
 21
-250.56769270501201
 31
0.0
 73
     3
  0
LINE
  5
4A
  8
SPEC
  6
CONTINUOUS
 62
     7
 10
-147.49999999999989
 20
507.0672957897317
 30
0.0
 11
295.0
 21
507.0672957897317
 31
0.0
  0
LINE
  5
4B
  8
SPEC
  6
CONTINUOUS
 62
     7
 10
-147.49999999999989
 20
495.8172957897317
 30
0.0
 11
295.0
 21
495.8172957897317
 31
0.0
  0
LINE
  5
4C
  8
SPEC
  6
CONTINUOUS
 62
     7
 10
-147.49999999999989
 20
473.3172957897317
 30
0.0
 11
295.0
 21
473.3172957897317
 31
0.0
  0
LINE
  5
4D
  8
SPEC
  6
CONTINUOUS
 62
     7
 10
-147.49999999999989
 20
484.5672957897317
 30
0.0
 11
295.0
 21
484.5672957897317
 31
0.0
  0
LINE
  5
4E
  8
SPEC
  6
CONTINUOUS
 62
     7
 10
-147.49999999999989
 20
507.0672957897317
 30
0.0
 11
-147.5
 21
304.56729578973182
 31
0.0
  0
TEXT
  5
4F
  8
SPEC
 62
     7
 10
-143.74999999999989
 20
511.24710578973179
 30
0.0
 40
7.3297851562499989
  1
仕様
 41
0.7
 11
-143.74999999999989
 21
518.57689094598175
 31
0.0
 73
     3
  0
LINE
  5
50
  8
SPEC
  6
CONTINUOUS
 62
     7
 10
295.0
 20
507.0672957897317
 30
0.0
 11
295.0
 21
304.56729578973182
 31
0.0
  0
LINE
  5
51
  8
SPEC
  6
CONTINUOUS
 62
     7
 10
-147.49999999999989
 20
462.0672957897317
 30
0.0
 11
295.0
 21
462.0672957897317
 31
0.0
  0
LINE
  5
52
  8
SPEC
  6
CONTINUOUS
 62
     7
 10
-147.49999999999989
 20
450.8172957897317
 30
0.0
 11
295.0
 21
450.8172957897317
 31
0.0
  0
LINE
  5
53
  8
SPEC
  6
CONTINUOUS
 62
     7
 10
-147.49999999999989
 20
439.5672957897317
 30
0.0
 11
295.0
 21
439.5672957897317
 31
0.0
  0
LINE
  5
54
  8
SPEC
  6
CONTINUOUS
 62
     7
 10
-147.49999999999989
 20
428.3172957897317
 30
0.0
 11
295.0
 21
428.3172957897317
 31
0.0
  0
LINE
  5
55
  8
SPEC
  6
CONTINUOUS
 62
     7
 10
-147.49999999999989
 20
417.0672957897317
 30
0.0
 11
295.0
 21
417.0672957897317
 31
0.0
  0
LINE
  5
56
  8
SPEC
  6
CONTINUOUS
 62
     7
 10
-147.49999999999989
 20
405.8172957897317
 30
0.0
 11
295.0
 21
405.8172957897317
 31
0.0
  0
LINE
  5
57
  8
SPEC
  6
CONTINUOUS
 62
     7
 10
-147.49999999999989
 20
394.5672957897317
 30
0.0
 11
295.0
 21
394.5672957897317
 31
0.0
  0
LINE
  5
58
  8
SPEC
  6
CONTINUOUS
 62
     7
 10
-147.49999999999989
 20
383.31729578973182
 30
0.0
 11
295.0
 21
383.31729578973182
 31
0.0
  0
LINE
  5
59
  8
SPEC
  6
CONTINUOUS
 62
     7
 10
-147.49999999999989
 20
372.0672957897317
 30
0.0
 11
295.0
 21
372.0672957897317
 31
0.0
  0
LINE
  5
5A
  8
SPEC
  6
CONTINUOUS
 62
     7
 10
-147.49999999999989
 20
360.81729578973182
 30
0.0
 11
295.0
 21
360.81729578973182
 31
0.0
  0
LINE
  5
5B
  8
SPEC
  6
CONTINUOUS
 62
     7
 10
-147.49999999999989
 20
349.56729578973182
 30
0.0
 11
295.0
 21
349.56729578973182
 31
0.0
  0
LINE
  5
5C
  8
SPEC
  6
CONTINUOUS
 62
     7
 10
-147.49999999999989
 20
338.3172957897317
 30
0.0
 11
295.0
 21
338.3172957897317
 31
0.0
  0
LINE
  5
5D
  8
SPEC
  6
CONTINUOUS
 62
     7
 10
-147.49999999999989
 20
327.06729578973182
 30
0.0
 11
295.0
 21
327.06729578973182
 31
0.0
  0
LINE
  5
5E
  8
SPEC
  6
CONTINUOUS
 62
     7
 10
-147.49999999999989
 20
315.8172957897317
 30
0.0
 11
295.0
 21
315.8172957897317
 31
0.0
  0
LINE
  5
5F
  8
SPEC
  6
CONTINUOUS
 62
     7
 10
-147.49999999999989
 20
304.56729578973182
 30
0.0
 11
295.0
 21
304.56729578973182
 31
0.0
  0
TEXT
  5
60
  8
SPEC
 62
     7
 10
-145.12777515885341
 20
330.29504756263952
 30
0.0
 40
5.7009440104166673
  1
寸法
 41
0.7
 11
-145.12777515885341
 21
335.99599157305619
 31
0.0
 73
     3
  0
TEXT
  5
61
  8
SPEC
 62
     7
 10
-5.504772226114155
 20
329.73800415130648
 30
0.0
 40
5.7009440104166673
  1
\U+03A619\U+00D7212mm(突起部含まず）
 41
0.7
 11
-5.504772226114155
 21
335.4389481617232
 31
0.0
 73
     3
  0
TEXT
  5
62
  8
SPEC
 62
     7
 10
-4.9203634773964628
 20
341.56798037995168
 30
0.0
 40
5.7009440104166673
  1
約70g
 41
0.7
 11
-4.9203634773964628
 21
347.26892439036828
 31
0.0
 73
     3
  0
TEXT
  5
63
  8
SPEC
 62
     7
 10
-144.9839112524219
 20
341.1242312887631
 30
0.0
 40
5.7009440104166673
  1
重量
 41
0.7
 11
-144.9839112524219
 21
346.8251752991797
 31
0.0
 73
     3
  0
TEXT
  5
64
  8
SPEC
 62
     7
 10
-144.934552547522
 20
498.44361130047253
 30
0.0
 40
5.7009440104166647
  1
指向性
 41
0.7
 11
-144.934552547522
 21
504.14455531088919
 31
0.0
 73
     3
  0
TEXT
  5
65
  8
SPEC
 62
     7
 10
-4.8007437603016001
 20
498.31346385165301
 30
0.0
 40
5.7009440104166647
  1
超単一指向性
 41
0.7
 11
-4.8007437603016001
 21
504.01440786206967
 31
0.0
 73
     3
  0
TEXT
  5
66
  8
SPEC
 62
     7
 10
-144.94320705393571
 20
453.7976477617234
 30
0.0
 40
5.7009440104166647
  1
等価雑音レベル(Aウェイト、代表値)
 41
0.7
 11
-144.94320705393571
 21
459.49859177214
 31
0.0
 73
     3
  0
TEXT
  5
67
  8
SPEC
 62
     7
 10
-5.162448397260774
 20
453.3003566605625
 30
0.0
 40
5.7009440104166647
  1
14dB SPL
 41
0.7
 11
-5.162448397260774
 21
459.00130067097911
 31
0.0
 73
     3
  0
TEXT
  5
68
  8
SPEC
 62
     7
 10
-144.86531628046109
 20
465.15521858724389
 30
0.0
 40
5.7009440104166647
  1
感度(\U+00B12dB@250Hz、公称値）
 41
0.7
 11
-144.86531628046109
 21
470.85616259766061
 31
0.0
 73
     3
  0
TEXT
  5
69
  8
SPEC
 62
     7
 10
-4.5686163264648911
 20
464.70661154403012
 30
0.0
 40
5.7009440104166647
  1
-34.4dB re、1V/Pa
 41
0.7
 11
-4.5686163264648911
 21
470.40755555444667
 31
0.0
 73
     3
  0
TEXT
  5
6A
  8
SPEC
 62
     7
 10
-144.8183694958081
 20
476.1438137137846
 30
0.0
 40
5.7009440104166647
  1
周波数レンジ(\U+00B12dB)
 41
0.7
 11
-144.8183694958081
 21
481.8447577242012
 31
0.0
 73
     3
  0
TEXT
  5
6B
  8
SPEC
 62
     7
 10
-144.9438754436591
 20
442.4313101643325
 30
0.0
 40
5.7009440104166647
  1
全高調波歪み(THD)
 41
0.7
 11
-144.9438754436591
 21
448.13225417474922
 31
0.0
 73
     3
  0
TEXT
  5
6C
  8
SPEC
 62
     7
 10
-5.3230642677377054
 20
442.0726377855193
 30
0.0
 40
5.7009440104166647
  1
1%%%以下(133dB SPL)
 41
0.7
 11
-5.3230642677377054
 21
447.77358179593591
 31
0.0
 73
     3
  0
TEXT
  5
6D
  8
SPEC
 62
     7
 10
-145.64844612683859
 20
363.84237761973532
 30
0.0
 40
5.7009440104166647
  1
コネクター
 41
0.7
 11
-145.64844612683859
 21
369.54332163015192
 31
0.0
 73
     3
  0
TEXT
  5
6E
  8
SPEC
 62
     7
 10
-4.6703566774396412
 20
363.92634517387938
 30
0.0
 40
5.7009440104166647
  1
XLR3ピン(オス)
 41
0.7
 11
-4.6703566774396412
 21
369.62728918429599
 31
0.0
 73
     3
  0
TEXT
  5
6F
  8
SPEC
 62
     7
 10
-144.9956393625832
 20
386.23287426468482
 30
0.0
 40
5.7009440104166647
  1
ケーブル引き伸ばし可能距離
 41
0.7
 11
-144.9956393625832
 21
391.93381827510149
 31
0.0
 73
     3
  0
TEXT
  5
70
  8
SPEC
 62
     7
 10
-4.7969575115212839
 20
386.57115368506999
 30
0.0
 40
5.7009440104166647
  1
最大100m
 41
0.7
 11
-4.7969575115212839
 21
392.27209769548659
 31
0.0
 73
     3
  0
TEXT
  5
71
  8
SPEC
 62
     7
 10
-145.1114131250379
 20
397.50821994854221
 30
0.0
 40
5.7009440104166647
  1
インピーダンス
 41
0.7
 11
-145.1114131250379
 21
403.20916395895881
 31
0.0
 73
     3
  0
TEXT
  5
72
  8
SPEC
 62
     7
 10
-5.075992534149619
 20
397.31948759324899
 30
0.0
 40
5.7009440104166647
  1
150\U+03A9以下
 41
0.7
 11
-5.075992534149619
 21
403.02043160366549
 31
0.0
 73
     3
  0
TEXT
  5
73
  8
SPEC
 62
     7
 10
-145.43543164101681
 20
431.17568208669729
 30
0.0
 40
5.7009440104166647
  1
ダイナミックレンジ(代表値)
 41
0.7
 11
-145.43543164101681
 21
436.87662609711401
 31
0.0
 73
     3
  0
TEXT
  5
74
  8
SPEC
 62
     7
 10
-5.067508834297584
 20
430.98470793687528
 30
0.0
 40
5.7009440104166647
  1
116dB
 41
0.7
 11
-5.067508834297584
 21
436.685651947292
 31
0.0
 73
     3
  0
TEXT
  5
75
  8
SPEC
 62
     7
 10
-144.74014899409809
 20
419.81758472968608
 30
0.0
 40
5.7009440104166647
  1
最大音圧レベル
 41
0.7
 11
-144.74014899409809
 21
425.51852874010279
 31
0.0
 73
     3
  0
TEXT
  5
76
  8
SPEC
 62
     7
 10
-5.2156738231522004
 20
419.6918311638056
 30
0.0
 40
5.7009440104166647
  1
152dB SPL
 41
0.7
 11
-5.2156738231522004
 21
425.39277517422232
 31
0.0
 73
     3
  0
TEXT
  5
77
  8
SPEC
 62
     7
 10
-145.04036864263571
 20
374.92044602480593
 30
0.0
 40
5.7009440104166647
  1
電源
 41
0.7
 11
-145.04036864263571
 21
380.62139003522248
 31
0.0
 73
     3
  0
TEXT
  5
78
  8
SPEC
 62
     7
 10
-5.413458704545917
 20
375.24265215932081
 30
0.0
 40
5.7009440104166647
  1
ファンタムDC48V/4.5mA
 41
0.7
 11
-5.413458704545917
 21
380.94359616973748
 31
0.0
 73
     3
  0
TEXT
  5
79
  8
SPEC
 62
     7
 10
-144.75854648152281
 20
352.61456972228422
 30
0.0
 40
5.7009440104166647
  1
色
 41
0.7
 11
-144.75854648152281
 21
358.31551373270088
 31
0.0
 73
     3
  0
TEXT
  5
7A
  8
SPEC
 62
     7
 10
-5.1268899423022267
 20
352.95539019220939
 30
0.0
 40
5.7009440104166647
  1
マットブラック
 41
0.7
 11
-5.1268899423022267
 21
358.65633420262611
 31
0.0
 73
     3
  0
TEXT
  5
7B
  8
SPEC
 62
     7
 10
-144.8420818275095
 20
307.82159394384757
 30
0.0
 40
5.7009440104166647
  1
使用湿度範囲
 41
0.7
 11
-144.8420818275095
 21
313.52253795426418
 31
0.0
 73
     3
  0
TEXT
  5
7C
  8
SPEC
 62
     7
 10
-4.6838400925985288
 20
307.54189346490341
 30
0.0
 40
5.7009440104166647
  1
90%%%以下
 41
0.7
 11
-4.6838400925985288
 21
313.24283747532002
 31
0.0
 73
     3
  0
TEXT
  5
7D
  8
SPEC
 62
     7
 10
-144.59015007166681
 20
318.6381574270676
 30
0.0
 40
5.7009440104166647
  1
使用温度範囲
 41
0.7
 11
-144.59015007166681
 21
324.33910143748432
 31
0.0
 73
     3
  0
TEXT
  5
7E
  8
SPEC
 62
     7
 10
-4.3261673995621521
 20
318.54719129488262
 30
0.0
 40
5.7009440104166647
  1
-40℃～45℃
 41
0.7
 11
-4.3261673995621521
 21
324.24813530529929
 31
0.0
 73
     3
  0
TEXT
  5
7F
  8
SPEC
 62
     7
 10
-145.42416443492789
 20
487.66163206845113
 30
0.0
 40
5.7009440104166647
  1
カートリッチ
 41
0.7
 11
-145.42416443492789
 21
493.36257607886768
 31
0.0
 73
     3
  0
TEXT
  5
80
  8
SPEC
 62
     7
 10
-5.6665470318635442
 20
487.29955371100817
 30
0.0
 40
5.7009440104166647
  1
プリポラライズド・コンデンサー
 41
0.7
 11
-5.6665470318635442
 21
493.00049772142489
 31
0.0
 73
     3
  0
TEXT
  5
81
  8
SPEC
 62
     7
 10
-4.776616289710617
 20
476.14661893578568
 30
0.0
 40
5.7009440104166647
  1
70Hz～20kHz(50Hz以下はロールオフされています)
 41
0.7
 11
-4.776616289710617
 21
481.8475629462024
 31
0.0
 73
     3
  0
TEXT
  5
82
  8
SPEC
 62
     7
 10
-145.7344581722536
 20
408.93498355091731
 30
0.0
 40
5.7009440104166647
  1
フィルター(スイッチ式)
 41
0.7
 11
-145.7344581722536
 21
414.63592756133392
 31
0.0
 73
     3
  0
TEXT
  5
83
  8
SPEC
 62
     7
 10
-4.8814336696347604
 20
408.83465788239738
 30
0.0
 40
5.7009440104166647
  1
ハイブースト：+4dB at 8kHz/ローカット：120Hz
 41
0.7
 11
-4.8814336696347604
 21
414.53560189281399
 31
0.0
 73
     3
  0
LINE
  5
84
  8
SPEC
  6
CONTINUOUS
 62
     7
 10
-7.4999999999999556
 20
507.0672957897317
 30
0.0
 11
-7.4999999999999867
 21
304.56729578973182
 31
0.0
  0
TEXT
  5
85
  8
DIMNSIONS
 62
     7
 10
40.0
 20
-206.12423421026821
 30
0.0
 40
7.3297851562499989
  1
(単位：mm)
 41
0.7
 11
40.0
 21
-198.79444905401809
 31
0.0
 73
     3
  0
LINE
  5
86
  8
DIMNSIONS
  6
CONTINUOUS
 62
     7
 10
-10.31620028259877
 20
189.2575696587601
 30
0.0
 11
12.49999999999998
 21
225.0
 31
0.0
  0
LINE
  5
87
  8
DIMNSIONS
  6
CONTINUOUS
 62
     7
 10
-10.31620028259877
 20
189.2575696587601
 30
0.0
 11
-7.9162182774849139
 21
196.64395476541591
 31
0.0
  0
LINE
  5
88
  8
DIMNSIONS
  6
CONTINUOUS
 62
     7
 10
-10.31620028259877
 20
189.2575696587601
 30
0.0
 11
-4.5445623442167724
 21
194.45437580070211
 31
0.0
  0
LINE
  5
89
  8
DIMNSIONS
  6
CONTINUOUS
 62
     7
 10
12.49999999999998
 20
225.0
 30
0.0
 11
39.66666666666665
 21
225.0
 31
0.0
  0
TEXT
  5
8A
  8
DIMNSIONS
 62
     7
 10
18.499999999999979
 20
227.9816666666666
 30
0.0
 40
8.1442057291666661
  1
\U+03C619
 41
0.7
 11
18.499999999999979
 21
236.12587239583331
 31
0.0
 73
     3
  0
LINE
  5
8B
  8
DIMNSIONS
  6
CONTINUOUS
 62
     7
 10
-30.999999999999989
 20
-118.75
 30
0.0
 11
-62.250000000000021
 21
-118.75
 31
0.0
  0
LINE
  5
8C
  8
DIMNSIONS
  6
CONTINUOUS
 62
     7
 10
-30.999999999999989
 20
93.250000000000014
 30
0.0
 11
-62.250000000000021
 21
93.250000000000014
 31
0.0
  0
LINE
  5
8D
  8
DIMNSIONS
  6
CONTINUOUS
 62
     7
 10
-56.250000000000021
 20
-118.75
 30
0.0
 11
-56.250000000000021
 21
93.250000000000014
 31
0.0
  0
LINE
  5
8E
  8
DIMNSIONS
  6
CONTINUOUS
 62
     7
 10
-56.250000000000021
 20
-118.75
 30
0.0
 11
-58.26011938545075
 21
-111.2481323242187
 31
0.0
  0
LINE
  5
8F
  8
DIMNSIONS
  6
CONTINUOUS
 62
     7
 10
-56.250000000000021
 20
-118.75
 30
0.0
 11
-54.239880614549278
 21
-111.2481323242187
 31
0.0
  0
LINE
  5
90
  8
DIMNSIONS
  6
CONTINUOUS
 62
     7
 10
-56.250000000000021
 20
93.250000000000014
 30
0.0
 11
-54.239880614549278
 21
85.748132324218716
 31
0.0
  0
LINE
  5
91
  8
DIMNSIONS
  6
CONTINUOUS
 62
     7
 10
-56.250000000000021
 20
93.250000000000014
 30
0.0
 11
-58.26011938545075
 21
85.748132324218716
 31
0.0
  0
TEXT
  5
92
  8
DIMNSIONS
 62
     7
 10
-59.231666666666662
 20
-17.4375
 30
0.0
 40
8.1442057291666661
  1
212
 50
90.0
 41
0.7
 11
-67.375872395833326
 21
-17.4375
 31
0.0
 73
     3
  0
TEXT
  5
93
  8
DATA
 62
     7
 10
253.42385115821779
 20
-209.66895544315889
 30
0.0
 40
7.3297851562499989
  1
4017B
 41
0.7
 11
253.42385115821779
 21
-202.33917028690891
 31
0.0
 73
     3
  0
TEXT
  5
94
  8
DATA
 62
     7
 10
253.79542575587911
 20
-186.42759401884351
 30
0.0
 40
7.3297851562499989
  1
DPA
 41
0.7
 11
253.79542575587911
 21
-179.0978088625935
 31
0.0
 73
     3
  0
TEXT
  5
95
  8
DATA
 62
     7
 10
241.88208415009251
 20
-197.0030420309717
 30
0.0
 40
4.8865311328124994
  1
超単一指向性マイクロホン
 41
0.7
 11
241.88208415009251
 21
-192.11651089815919
 31
0.0
 73
     3
  0
TEXT
  5
96
  8
DATA
 62
     7
 10
-139.99999999999989
 20
-230.21870421026821
 30
0.0
 40
4.8865234374999993
  1
仕様および外観は予告なく変更されることがありますので、ご了承ください。
 41
0.7
 11
-139.99999999999989
 21
-225.3321807727682
 31
0.0
 73
     3
  0
TEXT
  5
97
  8
DATA
 62
     7
 10
-21.030914909985079
 20
-115.84066666666661
 30
0.0
 40
3.2576822916666659
  1
MMP-B
 41
0.7
 11
-21.030914909985079
 21
-112.582984375
 31
0.0
 73
     3
  0
LINE
  5
98
  8
DATA
  6
CONTINUOUS
 62
     7
 10
-24.999999999999989
 20
93.049999999999983
 30
0.0
 11
-24.249999999999989
 21
93.049999999999983
 31
0.0
  0
LINE
  5
99
  8
DATA
  6
CONTINUOUS
 62
     7
 10
-23.549999999999962
 20
93.049999999999983
 30
0.0
 11
-22.84999999999998
 21
93.049999999999983
 31
0.0
  0
LINE
  5
9A
  8
DATA
  6
CONTINUOUS
 62
     7
 10
-22.149999999999991
 20
93.049999999999983
 30
0.0
 11
-21.449999999999971
 21
93.049999999999983
 31
0.0
  0
LINE
  5
9B
  8
DATA
  6
CONTINUOUS
 62
     7
 10
-20.749999999999979
 20
93.049999999999983
 30
0.0
 11
-20.049999999999969
 21
93.049999999999983
 31
0.0
  0
LINE
  5
9C
  8
DATA
  6
CONTINUOUS
 62
     7
 10
-19.34999999999998
 20
93.049999999999983
 30
0.0
 11
-18.649999999999991
 21
93.049999999999983
 31
0.0
  0
LINE
  5
9D
  8
DATA
  6
CONTINUOUS
 62
     7
 10
-17.949999999999971
 20
93.049999999999983
 30
0.0
 11
-17.249999999999979
 21
93.049999999999983
 31
0.0
  0
LINE
  5
9E
  8
DATA
  6
CONTINUOUS
 62
     7
 10
-16.549999999999962
 20
93.049999999999983
 30
0.0
 11
-15.84999999999998
 21
93.049999999999983
 31
0.0
  0
LINE
  5
9F
  8
DATA
  6
CONTINUOUS
 62
     7
 10
-15.14999999999997
 20
93.049999999999983
 30
0.0
 11
-14.449999999999971
 21
93.049999999999983
 31
0.0
  0
LINE
  5
A0
  8
DATA
  6
CONTINUOUS
 62
     7
 10
-13.74999999999998
 20
93.049999999999983
 30
0.0
 11
-13.049999999999979
 21
93.049999999999983
 31
0.0
  0
LINE
  5
A1
  8
DATA
  6
CONTINUOUS
 62
     7
 10
-12.34999999999998
 20
93.049999999999983
 30
0.0
 11
-11.64999999999997
 21
93.049999999999983
 31
0.0
  0
LINE
  5
A2
  8
DATA
  6
CONTINUOUS
 62
     7
 10
-10.949999999999971
 20
93.049999999999983
 30
0.0
 11
-10.249999999999989
 21
93.049999999999983
 31
0.0
  0
LINE
  5
A3
  8
DATA
  6
CONTINUOUS
 62
     7
 10
-9.5499999999999847
 20
93.049999999999983
 30
0.0
 11
-8.8499999999999801
 21
93.049999999999983
 31
0.0
  0
LINE
  5
A4
  8
DATA
  6
CONTINUOUS
 62
     7
 10
-8.1499999999999773
 20
93.049999999999983
 30
0.0
 11
-7.449999999999986
 21
93.049999999999983
 31
0.0
  0
LINE
  5
A5
  8
DATA
  6
CONTINUOUS
 62
     7
 10
-6.7499999999999849
 20
93.049999999999983
 30
0.0
 11
-5.9999999999999849
 21
93.049999999999983
 31
0.0
  0
TEXT
  5
A6
  8
DATA
 62
     7
 10
-18.222222222222179
 20
87.633960074570155
 30
0.0
 40
1.900314670138888
  1
4017
 41
0.7
 11
-18.222222222222179
 21
89.534274744709037
 31
0.0
 73
     3
  0
POLYLINE
  5
A7
  8
DATA
  6
CONTINUOUS
 62
     7
 66
     1
 10
0.0
 20
0.0
 30
0.0
 70
     1
  0
VERTEX
  5
431
  8
DATA
  6
CONTINUOUS
 62
     7
 10
-24.249999999999989
 20
80.158341086150514
 30
0.0
  0
VERTEX
  5
432
  8
DATA
  6
CONTINUOUS
 62
     7
 10
-23.549999999999962
 20
80.158341086150514
 30
0.0
  0
VERTEX
  5
433
  8
DATA
  6
CONTINUOUS
 62
     7
 10
-23.549999999999962
 20
66.1583410861505
 30
0.0
  0
VERTEX
  5
434
  8
DATA
  6
CONTINUOUS
 62
     7
 10
-24.249999999999989
 20
66.1583410861505
 30
0.0
  0
SEQEND
  5
435
  8
DATA
  6
CONTINUOUS
 62
     7
  0
LINE
  5
AE
  8
DATA
  6
CONTINUOUS
 62
     7
 10
-15.84999999999998
 20
91.25
 30
0.0
 11
-15.84999999999998
 21
93.250000000000014
 31
0.0
  0
LINE
  5
AF
  8
DATA
  6
CONTINUOUS
 62
     7
 10
-15.14999999999997
 20
93.250000000000014
 30
0.0
 11
-15.14999999999997
 21
91.25
 31
0.0
  0
LINE
  5
B0
  8
DATA
  6
CONTINUOUS
 62
     7
 10
-15.84999999999998
 20
93.250000000000014
 30
0.0
 11
-15.14999999999997
 21
93.250000000000014
 31
0.0
  0
LINE
  5
B1
  8
DATA
  6
CONTINUOUS
 62
     7
 10
-17.249999999999979
 20
91.25
 30
0.0
 11
-17.249999999999979
 21
93.250000000000014
 31
0.0
  0
LINE
  5
B2
  8
DATA
  6
CONTINUOUS
 62
     7
 10
-16.549999999999962
 20
93.250000000000014
 30
0.0
 11
-16.549999999999962
 21
91.25
 31
0.0
  0
LINE
  5
B3
  8
DATA
  6
CONTINUOUS
 62
     7
 10
-17.249999999999979
 20
93.250000000000014
 30
0.0
 11
-16.549999999999962
 21
93.250000000000014
 31
0.0
  0
LINE
  5
B4
  8
DATA
  6
CONTINUOUS
 62
     7
 10
-18.649999999999991
 20
91.25
 30
0.0
 11
-18.649999999999991
 21
93.250000000000014
 31
0.0
  0
LINE
  5
B5
  8
DATA
  6
CONTINUOUS
 62
     7
 10
-17.949999999999971
 20
93.250000000000014
 30
0.0
 11
-17.949999999999971
 21
91.25
 31
0.0
  0
LINE
  5
B6
  8
DATA
  6
CONTINUOUS
 62
     7
 10
-18.649999999999991
 20
93.250000000000014
 30
0.0
 11
-17.949999999999971
 21
93.250000000000014
 31
0.0
  0
LINE
  5
B7
  8
DATA
  6
CONTINUOUS
 62
     7
 10
-20.049999999999969
 20
91.25
 30
0.0
 11
-20.049999999999969
 21
93.250000000000014
 31
0.0
  0
LINE
  5
B8
  8
DATA
  6
CONTINUOUS
 62
     7
 10
-19.34999999999998
 20
93.250000000000014
 30
0.0
 11
-19.34999999999998
 21
91.25
 31
0.0
  0
LINE
  5
B9
  8
DATA
  6
CONTINUOUS
 62
     7
 10
-20.049999999999969
 20
93.250000000000014
 30
0.0
 11
-19.34999999999998
 21
93.250000000000014
 31
0.0
  0
LINE
  5
BA
  8
DATA
  6
CONTINUOUS
 62
     7
 10
-21.449999999999971
 20
91.25
 30
0.0
 11
-21.449999999999971
 21
93.250000000000014
 31
0.0
  0
LINE
  5
BB
  8
DATA
  6
CONTINUOUS
 62
     7
 10
-20.749999999999979
 20
93.250000000000014
 30
0.0
 11
-20.749999999999979
 21
91.25
 31
0.0
  0
LINE
  5
BC
  8
DATA
  6
CONTINUOUS
 62
     7
 10
-21.449999999999971
 20
93.250000000000014
 30
0.0
 11
-20.749999999999979
 21
93.250000000000014
 31
0.0
  0
LINE
  5
BD
  8
DATA
  6
CONTINUOUS
 62
     7
 10
-22.84999999999998
 20
91.25
 30
0.0
 11
-22.84999999999998
 21
93.250000000000014
 31
0.0
  0
LINE
  5
BE
  8
DATA
  6
CONTINUOUS
 62
     7
 10
-22.149999999999991
 20
93.250000000000014
 30
0.0
 11
-22.149999999999991
 21
91.25
 31
0.0
  0
LINE
  5
BF
  8
DATA
  6
CONTINUOUS
 62
     7
 10
-22.84999999999998
 20
93.250000000000014
 30
0.0
 11
-22.149999999999991
 21
93.250000000000014
 31
0.0
  0
LINE
  5
C0
  8
DATA
  6
CONTINUOUS
 62
     7
 10
-24.249999999999989
 20
91.25
 30
0.0
 11
-24.249999999999989
 21
93.250000000000014
 31
0.0
  0
LINE
  5
C1
  8
DATA
  6
CONTINUOUS
 62
     7
 10
-23.549999999999962
 20
93.250000000000014
 30
0.0
 11
-23.549999999999962
 21
91.25
 31
0.0
  0
LINE
  5
C2
  8
DATA
  6
CONTINUOUS
 62
     7
 10
-24.249999999999989
 20
93.250000000000014
 30
0.0
 11
-23.549999999999962
 21
93.250000000000014
 31
0.0
  0
LINE
  5
C3
  8
DATA
  6
CONTINUOUS
 62
     7
 10
-14.449999999999971
 20
91.25
 30
0.0
 11
-14.449999999999971
 21
93.250000000000014
 31
0.0
  0
LINE
  5
C4
  8
DATA
  6
CONTINUOUS
 62
     7
 10
-13.74999999999998
 20
93.250000000000014
 30
0.0
 11
-13.74999999999998
 21
91.25
 31
0.0
  0
LINE
  5
C5
  8
DATA
  6
CONTINUOUS
 62
     7
 10
-14.449999999999971
 20
93.250000000000014
 30
0.0
 11
-13.74999999999998
 21
93.250000000000014
 31
0.0
  0
LINE
  5
C6
  8
DATA
  6
CONTINUOUS
 62
     7
 10
-13.049999999999979
 20
91.25
 30
0.0
 11
-13.049999999999979
 21
93.250000000000014
 31
0.0
  0
LINE
  5
C7
  8
DATA
  6
CONTINUOUS
 62
     7
 10
-12.34999999999998
 20
93.250000000000014
 30
0.0
 11
-12.34999999999998
 21
91.25
 31
0.0
  0
LINE
  5
C8
  8
DATA
  6
CONTINUOUS
 62
     7
 10
-13.049999999999979
 20
93.250000000000014
 30
0.0
 11
-12.34999999999998
 21
93.250000000000014
 31
0.0
  0
LINE
  5
C9
  8
DATA
  6
CONTINUOUS
 62
     7
 10
-11.64999999999997
 20
91.25
 30
0.0
 11
-11.64999999999997
 21
93.250000000000014
 31
0.0
  0
LINE
  5
CA
  8
DATA
  6
CONTINUOUS
 62
     7
 10
-10.949999999999971
 20
93.250000000000014
 30
0.0
 11
-10.949999999999971
 21
91.25
 31
0.0
  0
LINE
  5
CB
  8
DATA
  6
CONTINUOUS
 62
     7
 10
-11.64999999999997
 20
93.250000000000014
 30
0.0
 11
-10.949999999999971
 21
93.250000000000014
 31
0.0
  0
LINE
  5
CC
  8
DATA
  6
CONTINUOUS
 62
     7
 10
-10.249999999999989
 20
91.25
 30
0.0
 11
-10.249999999999989
 21
93.250000000000014
 31
0.0
  0
LINE
  5
CD
  8
DATA
  6
CONTINUOUS
 62
     7
 10
-9.5499999999999847
 20
93.250000000000014
 30
0.0
 11
-9.5499999999999847
 21
91.25
 31
0.0
  0
LINE
  5
CE
  8
DATA
  6
CONTINUOUS
 62
     7
 10
-10.249999999999989
 20
93.250000000000014
 30
0.0
 11
-9.5499999999999847
 21
93.250000000000014
 31
0.0
  0
LINE
  5
CF
  8
DATA
  6
CONTINUOUS
 62
     7
 10
-8.8499999999999801
 20
91.25
 30
0.0
 11
-8.8499999999999801
 21
93.250000000000014
 31
0.0
  0
LINE
  5
D0
  8
DATA
  6
CONTINUOUS
 62
     7
 10
-8.1499999999999773
 20
93.250000000000014
 30
0.0
 11
-8.1499999999999773
 21
91.25
 31
0.0
  0
LINE
  5
D1
  8
DATA
  6
CONTINUOUS
 62
     7
 10
-8.8499999999999801
 20
93.250000000000014
 30
0.0
 11
-8.1499999999999773
 21
93.250000000000014
 31
0.0
  0
LINE
  5
D2
  8
DATA
  6
CONTINUOUS
 62
     7
 10
-7.449999999999986
 20
91.25
 30
0.0
 11
-7.449999999999986
 21
93.250000000000014
 31
0.0
  0
LINE
  5
D3
  8
DATA
  6
CONTINUOUS
 62
     7
 10
-6.7499999999999849
 20
93.250000000000014
 30
0.0
 11
-6.7499999999999849
 21
91.25
 31
0.0
  0
LINE
  5
D4
  8
DATA
  6
CONTINUOUS
 62
     7
 10
-7.449999999999986
 20
93.250000000000014
 30
0.0
 11
-6.7499999999999849
 21
93.250000000000014
 31
0.0
  0
LINE
  5
D5
  8
DATA
  6
CONTINUOUS
 62
     7
 10
-23.549999999999962
 20
91.25
 30
0.0
 11
-22.84999999999998
 21
91.25
 31
0.0
  0
LINE
  5
D6
  8
DATA
  6
CONTINUOUS
 62
     7
 10
-22.149999999999991
 20
91.25
 30
0.0
 11
-21.449999999999971
 21
91.25
 31
0.0
  0
LINE
  5
D7
  8
DATA
  6
CONTINUOUS
 62
     7
 10
-20.749999999999979
 20
91.25
 30
0.0
 11
-20.049999999999969
 21
91.25
 31
0.0
  0
LINE
  5
D8
  8
DATA
  6
CONTINUOUS
 62
     7
 10
-19.34999999999998
 20
91.25
 30
0.0
 11
-18.649999999999991
 21
91.25
 31
0.0
  0
LINE
  5
D9
  8
DATA
  6
CONTINUOUS
 62
     7
 10
-17.949999999999971
 20
91.25
 30
0.0
 11
-17.249999999999979
 21
91.25
 31
0.0
  0
LINE
  5
DA
  8
DATA
  6
CONTINUOUS
 62
     7
 10
-16.549999999999962
 20
91.25
 30
0.0
 11
-15.84999999999998
 21
91.25
 31
0.0
  0
LINE
  5
DB
  8
DATA
  6
CONTINUOUS
 62
     7
 10
-15.14999999999997
 20
91.25
 30
0.0
 11
-14.449999999999971
 21
91.25
 31
0.0
  0
LINE
  5
DC
  8
DATA
  6
CONTINUOUS
 62
     7
 10
-13.74999999999998
 20
91.25
 30
0.0
 11
-13.049999999999979
 21
91.25
 31
0.0
  0
LINE
  5
DD
  8
DATA
  6
CONTINUOUS
 62
     7
 10
-12.34999999999998
 20
91.25
 30
0.0
 11
-11.64999999999997
 21
91.25
 31
0.0
  0
LINE
  5
DE
  8
DATA
  6
CONTINUOUS
 62
     7
 10
-10.949999999999971
 20
91.25
 30
0.0
 11
-10.249999999999989
 21
91.25
 31
0.0
  0
LINE
  5
DF
  8
DATA
  6
CONTINUOUS
 62
     7
 10
-9.5499999999999847
 20
91.25
 30
0.0
 11
-8.8499999999999801
 21
91.25
 31
0.0
  0
LINE
  5
E0
  8
DATA
  6
CONTINUOUS
 62
     7
 10
-8.1499999999999773
 20
91.25
 30
0.0
 11
-7.449999999999986
 21
91.25
 31
0.0
  0
LINE
  5
E1
  8
DATA
  6
CONTINUOUS
 62
     7
 10
-6.7499999999999849
 20
91.25
 30
0.0
 11
-5.9999999999999849
 21
91.25
 31
0.0
  0
LINE
  5
E2
  8
DATA
  6
CONTINUOUS
 62
     7
 10
-25.0
 20
86.25
 30
0.0
 11
-5.9999999999999849
 21
86.25
 31
0.0
  0
POLYLINE
  5
E3
  8
DATA
  6
CONTINUOUS
 62
     7
 66
     1
 10
0.0
 20
0.0
 30
0.0
 70
     1
  0
VERTEX
  5
436
  8
DATA
  6
CONTINUOUS
 62
     7
 10
-22.84999999999998
 20
80.158341086150514
 30
0.0
  0
VERTEX
  5
437
  8
DATA
  6
CONTINUOUS
 62
     7
 10
-22.14999999999997
 20
80.158341086150514
 30
0.0
  0
VERTEX
  5
438
  8
DATA
  6
CONTINUOUS
 62
     7
 10
-22.14999999999997
 20
66.1583410861505
 30
0.0
  0
VERTEX
  5
439
  8
DATA
  6
CONTINUOUS
 62
     7
 10
-22.84999999999998
 20
66.1583410861505
 30
0.0
  0
SEQEND
  5
43A
  8
DATA
  6
CONTINUOUS
 62
     7
  0
POLYLINE
  5
EA
  8
DATA
  6
CONTINUOUS
 62
     7
 66
     1
 10
0.0
 20
0.0
 30
0.0
 70
     1
  0
VERTEX
  5
43B
  8
DATA
  6
CONTINUOUS
 62
     7
 10
-21.449999999999989
 20
80.158341086150514
 30
0.0
  0
VERTEX
  5
43C
  8
DATA
  6
CONTINUOUS
 62
     7
 10
-20.749999999999972
 20
80.158341086150514
 30
0.0
  0
VERTEX
  5
43D
  8
DATA
  6
CONTINUOUS
 62
     7
 10
-20.749999999999972
 20
66.1583410861505
 30
0.0
  0
VERTEX
  5
43E
  8
DATA
  6
CONTINUOUS
 62
     7
 10
-21.449999999999989
 20
66.1583410861505
 30
0.0
  0
SEQEND
  5
43F
  8
DATA
  6
CONTINUOUS
 62
     7
  0
POLYLINE
  5
F1
  8
DATA
  6
CONTINUOUS
 62
     7
 66
     1
 10
0.0
 20
0.0
 30
0.0
 70
     1
  0
VERTEX
  5
440
  8
DATA
  6
CONTINUOUS
 62
     7
 10
-20.04999999999999
 20
80.158341086150514
 30
0.0
  0
VERTEX
  5
441
  8
DATA
  6
CONTINUOUS
 62
     7
 10
-19.349999999999969
 20
80.158341086150514
 30
0.0
  0
VERTEX
  5
442
  8
DATA
  6
CONTINUOUS
 62
     7
 10
-19.349999999999969
 20
66.1583410861505
 30
0.0
  0
VERTEX
  5
443
  8
DATA
  6
CONTINUOUS
 62
     7
 10
-20.04999999999999
 20
66.1583410861505
 30
0.0
  0
SEQEND
  5
444
  8
DATA
  6
CONTINUOUS
 62
     7
  0
POLYLINE
  5
F8
  8
DATA
  6
CONTINUOUS
 62
     7
 66
     1
 10
0.0
 20
0.0
 30
0.0
 70
     1
  0
VERTEX
  5
445
  8
DATA
  6
CONTINUOUS
 62
     7
 10
-18.649999999999991
 20
80.158341086150514
 30
0.0
  0
VERTEX
  5
446
  8
DATA
  6
CONTINUOUS
 62
     7
 10
-17.949999999999971
 20
80.158341086150514
 30
0.0
  0
VERTEX
  5
447
  8
DATA
  6
CONTINUOUS
 62
     7
 10
-17.949999999999971
 20
66.1583410861505
 30
0.0
  0
VERTEX
  5
448
  8
DATA
  6
CONTINUOUS
 62
     7
 10
-18.649999999999991
 20
66.1583410861505
 30
0.0
  0
SEQEND
  5
449
  8
DATA
  6
CONTINUOUS
 62
     7
  0
POLYLINE
  5
FF
  8
DATA
  6
CONTINUOUS
 62
     7
 66
     1
 10
0.0
 20
0.0
 30
0.0
 70
     1
  0
VERTEX
  5
44A
  8
DATA
  6
CONTINUOUS
 62
     7
 10
-17.249999999999979
 20
80.158341086150514
 30
0.0
  0
VERTEX
  5
44B
  8
DATA
  6
CONTINUOUS
 62
     7
 10
-16.549999999999962
 20
80.158341086150514
 30
0.0
  0
VERTEX
  5
44C
  8
DATA
  6
CONTINUOUS
 62
     7
 10
-16.549999999999962
 20
66.1583410861505
 30
0.0
  0
VERTEX
  5
44D
  8
DATA
  6
CONTINUOUS
 62
     7
 10
-17.249999999999979
 20
66.1583410861505
 30
0.0
  0
SEQEND
  5
44E
  8
DATA
  6
CONTINUOUS
 62
     7
  0
POLYLINE
  5
106
  8
DATA
  6
CONTINUOUS
 62
     7
 66
     1
 10
0.0
 20
0.0
 30
0.0
 70
     1
  0
VERTEX
  5
44F
  8
DATA
  6
CONTINUOUS
 62
     7
 10
-15.84999999999998
 20
80.158341086150514
 30
0.0
  0
VERTEX
  5
450
  8
DATA
  6
CONTINUOUS
 62
     7
 10
-15.149999999999959
 20
80.158341086150514
 30
0.0
  0
VERTEX
  5
451
  8
DATA
  6
CONTINUOUS
 62
     7
 10
-15.149999999999959
 20
66.1583410861505
 30
0.0
  0
VERTEX
  5
452
  8
DATA
  6
CONTINUOUS
 62
     7
 10
-15.84999999999998
 20
66.1583410861505
 30
0.0
  0
SEQEND
  5
453
  8
DATA
  6
CONTINUOUS
 62
     7
  0
POLYLINE
  5
10D
  8
DATA
  6
CONTINUOUS
 62
     7
 66
     1
 10
0.0
 20
0.0
 30
0.0
 70
     1
  0
VERTEX
  5
454
  8
DATA
  6
CONTINUOUS
 62
     7
 10
-14.44999999999999
 20
80.158341086150514
 30
0.0
  0
VERTEX
  5
455
  8
DATA
  6
CONTINUOUS
 62
     7
 10
-13.74999999999997
 20
80.158341086150514
 30
0.0
  0
VERTEX
  5
456
  8
DATA
  6
CONTINUOUS
 62
     7
 10
-13.74999999999997
 20
66.1583410861505
 30
0.0
  0
VERTEX
  5
457
  8
DATA
  6
CONTINUOUS
 62
     7
 10
-14.44999999999999
 20
66.1583410861505
 30
0.0
  0
SEQEND
  5
458
  8
DATA
  6
CONTINUOUS
 62
     7
  0
POLYLINE
  5
114
  8
DATA
  6
CONTINUOUS
 62
     7
 66
     1
 10
0.0
 20
0.0
 30
0.0
 70
     1
  0
VERTEX
  5
459
  8
DATA
  6
CONTINUOUS
 62
     7
 10
-13.049999999999979
 20
80.158341086150514
 30
0.0
  0
VERTEX
  5
45A
  8
DATA
  6
CONTINUOUS
 62
     7
 10
-12.349999999999961
 20
80.158341086150514
 30
0.0
  0
VERTEX
  5
45B
  8
DATA
  6
CONTINUOUS
 62
     7
 10
-12.349999999999961
 20
66.1583410861505
 30
0.0
  0
VERTEX
  5
45C
  8
DATA
  6
CONTINUOUS
 62
     7
 10
-13.049999999999979
 20
66.1583410861505
 30
0.0
  0
SEQEND
  5
45D
  8
DATA
  6
CONTINUOUS
 62
     7
  0
POLYLINE
  5
11B
  8
DATA
  6
CONTINUOUS
 62
     7
 66
     1
 10
0.0
 20
0.0
 30
0.0
 70
     1
  0
VERTEX
  5
45E
  8
DATA
  6
CONTINUOUS
 62
     7
 10
-11.64999999999999
 20
80.158341086150514
 30
0.0
  0
VERTEX
  5
45F
  8
DATA
  6
CONTINUOUS
 62
     7
 10
-10.949999999999971
 20
80.158341086150514
 30
0.0
  0
VERTEX
  5
460
  8
DATA
  6
CONTINUOUS
 62
     7
 10
-10.949999999999971
 20
66.1583410861505
 30
0.0
  0
VERTEX
  5
461
  8
DATA
  6
CONTINUOUS
 62
     7
 10
-11.64999999999999
 20
66.1583410861505
 30
0.0
  0
SEQEND
  5
462
  8
DATA
  6
CONTINUOUS
 62
     7
  0
POLYLINE
  5
122
  8
DATA
  6
CONTINUOUS
 62
     7
 66
     1
 10
0.0
 20
0.0
 30
0.0
 70
     1
  0
VERTEX
  5
463
  8
DATA
  6
CONTINUOUS
 62
     7
 10
-10.249999999999989
 20
80.158341086150514
 30
0.0
  0
VERTEX
  5
464
  8
DATA
  6
CONTINUOUS
 62
     7
 10
-9.5499999999999687
 20
80.158341086150514
 30
0.0
  0
VERTEX
  5
465
  8
DATA
  6
CONTINUOUS
 62
     7
 10
-9.5499999999999687
 20
66.1583410861505
 30
0.0
  0
VERTEX
  5
466
  8
DATA
  6
CONTINUOUS
 62
     7
 10
-10.249999999999989
 20
66.1583410861505
 30
0.0
  0
SEQEND
  5
467
  8
DATA
  6
CONTINUOUS
 62
     7
  0
POLYLINE
  5
129
  8
DATA
  6
CONTINUOUS
 62
     7
 66
     1
 10
0.0
 20
0.0
 30
0.0
 70
     1
  0
VERTEX
  5
468
  8
DATA
  6
CONTINUOUS
 62
     7
 10
-8.8499999999999801
 20
80.158341086150514
 30
0.0
  0
VERTEX
  5
469
  8
DATA
  6
CONTINUOUS
 62
     7
 10
-8.1499999999999631
 20
80.158341086150514
 30
0.0
  0
VERTEX
  5
46A
  8
DATA
  6
CONTINUOUS
 62
     7
 10
-8.1499999999999631
 20
66.1583410861505
 30
0.0
  0
VERTEX
  5
46B
  8
DATA
  6
CONTINUOUS
 62
     7
 10
-8.8499999999999801
 20
66.1583410861505
 30
0.0
  0
SEQEND
  5
46C
  8
DATA
  6
CONTINUOUS
 62
     7
  0
POLYLINE
  5
130
  8
DATA
  6
CONTINUOUS
 62
     7
 66
     1
 10
0.0
 20
0.0
 30
0.0
 70
     1
  0
VERTEX
  5
46D
  8
DATA
  6
CONTINUOUS
 62
     7
 10
-7.449999999999986
 20
80.158341086150514
 30
0.0
  0
VERTEX
  5
46E
  8
DATA
  6
CONTINUOUS
 62
     7
 10
-6.7499999999999707
 20
80.158341086150514
 30
0.0
  0
VERTEX
  5
46F
  8
DATA
  6
CONTINUOUS
 62
     7
 10
-6.7499999999999707
 20
66.1583410861505
 30
0.0
  0
VERTEX
  5
470
  8
DATA
  6
CONTINUOUS
 62
     7
 10
-7.449999999999986
 20
66.1583410861505
 30
0.0
  0
SEQEND
  5
471
  8
DATA
  6
CONTINUOUS
 62
     7
  0
POLYLINE
  5
137
  8
DATA
  6
CONTINUOUS
 62
     7
 66
     1
 10
0.0
 20
0.0
 30
0.0
 70
     1
  0
VERTEX
  5
472
  8
DATA
  6
CONTINUOUS
 62
     7
 10
-24.249999999999989
 20
64.1583410861505
 30
0.0
  0
VERTEX
  5
473
  8
DATA
  6
CONTINUOUS
 62
     7
 10
-23.549999999999962
 20
64.1583410861505
 30
0.0
  0
VERTEX
  5
474
  8
DATA
  6
CONTINUOUS
 62
     7
 10
-23.549999999999962
 20
50.1583410861505
 30
0.0
  0
VERTEX
  5
475
  8
DATA
  6
CONTINUOUS
 62
     7
 10
-24.249999999999989
 20
50.1583410861505
 30
0.0
  0
SEQEND
  5
476
  8
DATA
  6
CONTINUOUS
 62
     7
  0
POLYLINE
  5
13E
  8
DATA
  6
CONTINUOUS
 62
     7
 66
     1
 10
0.0
 20
0.0
 30
0.0
 70
     1
  0
VERTEX
  5
477
  8
DATA
  6
CONTINUOUS
 62
     7
 10
-22.84999999999998
 20
64.1583410861505
 30
0.0
  0
VERTEX
  5
478
  8
DATA
  6
CONTINUOUS
 62
     7
 10
-22.14999999999997
 20
64.1583410861505
 30
0.0
  0
VERTEX
  5
479
  8
DATA
  6
CONTINUOUS
 62
     7
 10
-22.14999999999997
 20
50.1583410861505
 30
0.0
  0
VERTEX
  5
47A
  8
DATA
  6
CONTINUOUS
 62
     7
 10
-22.84999999999998
 20
50.1583410861505
 30
0.0
  0
SEQEND
  5
47B
  8
DATA
  6
CONTINUOUS
 62
     7
  0
POLYLINE
  5
145
  8
DATA
  6
CONTINUOUS
 62
     7
 66
     1
 10
0.0
 20
0.0
 30
0.0
 70
     1
  0
VERTEX
  5
47C
  8
DATA
  6
CONTINUOUS
 62
     7
 10
-21.449999999999989
 20
64.1583410861505
 30
0.0
  0
VERTEX
  5
47D
  8
DATA
  6
CONTINUOUS
 62
     7
 10
-20.749999999999972
 20
64.1583410861505
 30
0.0
  0
VERTEX
  5
47E
  8
DATA
  6
CONTINUOUS
 62
     7
 10
-20.749999999999972
 20
50.1583410861505
 30
0.0
  0
VERTEX
  5
47F
  8
DATA
  6
CONTINUOUS
 62
     7
 10
-21.449999999999989
 20
50.1583410861505
 30
0.0
  0
SEQEND
  5
480
  8
DATA
  6
CONTINUOUS
 62
     7
  0
POLYLINE
  5
14C
  8
DATA
  6
CONTINUOUS
 62
     7
 66
     1
 10
0.0
 20
0.0
 30
0.0
 70
     1
  0
VERTEX
  5
481
  8
DATA
  6
CONTINUOUS
 62
     7
 10
-20.04999999999999
 20
64.1583410861505
 30
0.0
  0
VERTEX
  5
482
  8
DATA
  6
CONTINUOUS
 62
     7
 10
-19.349999999999969
 20
64.1583410861505
 30
0.0
  0
VERTEX
  5
483
  8
DATA
  6
CONTINUOUS
 62
     7
 10
-19.349999999999969
 20
50.1583410861505
 30
0.0
  0
VERTEX
  5
484
  8
DATA
  6
CONTINUOUS
 62
     7
 10
-20.04999999999999
 20
50.1583410861505
 30
0.0
  0
SEQEND
  5
485
  8
DATA
  6
CONTINUOUS
 62
     7
  0
POLYLINE
  5
153
  8
DATA
  6
CONTINUOUS
 62
     7
 66
     1
 10
0.0
 20
0.0
 30
0.0
 70
     1
  0
VERTEX
  5
486
  8
DATA
  6
CONTINUOUS
 62
     7
 10
-18.649999999999991
 20
64.1583410861505
 30
0.0
  0
VERTEX
  5
487
  8
DATA
  6
CONTINUOUS
 62
     7
 10
-17.949999999999971
 20
64.1583410861505
 30
0.0
  0
VERTEX
  5
488
  8
DATA
  6
CONTINUOUS
 62
     7
 10
-17.949999999999971
 20
50.1583410861505
 30
0.0
  0
VERTEX
  5
489
  8
DATA
  6
CONTINUOUS
 62
     7
 10
-18.649999999999991
 20
50.1583410861505
 30
0.0
  0
SEQEND
  5
48A
  8
DATA
  6
CONTINUOUS
 62
     7
  0
POLYLINE
  5
15A
  8
DATA
  6
CONTINUOUS
 62
     7
 66
     1
 10
0.0
 20
0.0
 30
0.0
 70
     1
  0
VERTEX
  5
48B
  8
DATA
  6
CONTINUOUS
 62
     7
 10
-17.249999999999979
 20
64.1583410861505
 30
0.0
  0
VERTEX
  5
48C
  8
DATA
  6
CONTINUOUS
 62
     7
 10
-16.549999999999962
 20
64.1583410861505
 30
0.0
  0
VERTEX
  5
48D
  8
DATA
  6
CONTINUOUS
 62
     7
 10
-16.549999999999962
 20
50.1583410861505
 30
0.0
  0
VERTEX
  5
48E
  8
DATA
  6
CONTINUOUS
 62
     7
 10
-17.249999999999979
 20
50.1583410861505
 30
0.0
  0
SEQEND
  5
48F
  8
DATA
  6
CONTINUOUS
 62
     7
  0
POLYLINE
  5
161
  8
DATA
  6
CONTINUOUS
 62
     7
 66
     1
 10
0.0
 20
0.0
 30
0.0
 70
     1
  0
VERTEX
  5
490
  8
DATA
  6
CONTINUOUS
 62
     7
 10
-15.84999999999998
 20
64.1583410861505
 30
0.0
  0
VERTEX
  5
491
  8
DATA
  6
CONTINUOUS
 62
     7
 10
-15.149999999999959
 20
64.1583410861505
 30
0.0
  0
VERTEX
  5
492
  8
DATA
  6
CONTINUOUS
 62
     7
 10
-15.149999999999959
 20
50.1583410861505
 30
0.0
  0
VERTEX
  5
493
  8
DATA
  6
CONTINUOUS
 62
     7
 10
-15.84999999999998
 20
50.1583410861505
 30
0.0
  0
SEQEND
  5
494
  8
DATA
  6
CONTINUOUS
 62
     7
  0
POLYLINE
  5
168
  8
DATA
  6
CONTINUOUS
 62
     7
 66
     1
 10
0.0
 20
0.0
 30
0.0
 70
     1
  0
VERTEX
  5
495
  8
DATA
  6
CONTINUOUS
 62
     7
 10
-14.44999999999999
 20
64.1583410861505
 30
0.0
  0
VERTEX
  5
496
  8
DATA
  6
CONTINUOUS
 62
     7
 10
-13.74999999999997
 20
64.1583410861505
 30
0.0
  0
VERTEX
  5
497
  8
DATA
  6
CONTINUOUS
 62
     7
 10
-13.74999999999997
 20
50.1583410861505
 30
0.0
  0
VERTEX
  5
498
  8
DATA
  6
CONTINUOUS
 62
     7
 10
-14.44999999999999
 20
50.1583410861505
 30
0.0
  0
SEQEND
  5
499
  8
DATA
  6
CONTINUOUS
 62
     7
  0
POLYLINE
  5
16F
  8
DATA
  6
CONTINUOUS
 62
     7
 66
     1
 10
0.0
 20
0.0
 30
0.0
 70
     1
  0
VERTEX
  5
49A
  8
DATA
  6
CONTINUOUS
 62
     7
 10
-13.049999999999979
 20
64.1583410861505
 30
0.0
  0
VERTEX
  5
49B
  8
DATA
  6
CONTINUOUS
 62
     7
 10
-12.349999999999961
 20
64.1583410861505
 30
0.0
  0
VERTEX
  5
49C
  8
DATA
  6
CONTINUOUS
 62
     7
 10
-12.349999999999961
 20
50.1583410861505
 30
0.0
  0
VERTEX
  5
49D
  8
DATA
  6
CONTINUOUS
 62
     7
 10
-13.049999999999979
 20
50.1583410861505
 30
0.0
  0
SEQEND
  5
49E
  8
DATA
  6
CONTINUOUS
 62
     7
  0
POLYLINE
  5
176
  8
DATA
  6
CONTINUOUS
 62
     7
 66
     1
 10
0.0
 20
0.0
 30
0.0
 70
     1
  0
VERTEX
  5
49F
  8
DATA
  6
CONTINUOUS
 62
     7
 10
-11.64999999999999
 20
64.1583410861505
 30
0.0
  0
VERTEX
  5
4A0
  8
DATA
  6
CONTINUOUS
 62
     7
 10
-10.949999999999971
 20
64.1583410861505
 30
0.0
  0
VERTEX
  5
4A1
  8
DATA
  6
CONTINUOUS
 62
     7
 10
-10.949999999999971
 20
50.1583410861505
 30
0.0
  0
VERTEX
  5
4A2
  8
DATA
  6
CONTINUOUS
 62
     7
 10
-11.64999999999999
 20
50.1583410861505
 30
0.0
  0
SEQEND
  5
4A3
  8
DATA
  6
CONTINUOUS
 62
     7
  0
POLYLINE
  5
17D
  8
DATA
  6
CONTINUOUS
 62
     7
 66
     1
 10
0.0
 20
0.0
 30
0.0
 70
     1
  0
VERTEX
  5
4A4
  8
DATA
  6
CONTINUOUS
 62
     7
 10
-10.249999999999989
 20
64.1583410861505
 30
0.0
  0
VERTEX
  5
4A5
  8
DATA
  6
CONTINUOUS
 62
     7
 10
-9.5499999999999687
 20
64.1583410861505
 30
0.0
  0
VERTEX
  5
4A6
  8
DATA
  6
CONTINUOUS
 62
     7
 10
-9.5499999999999687
 20
50.1583410861505
 30
0.0
  0
VERTEX
  5
4A7
  8
DATA
  6
CONTINUOUS
 62
     7
 10
-10.249999999999989
 20
50.1583410861505
 30
0.0
  0
SEQEND
  5
4A8
  8
DATA
  6
CONTINUOUS
 62
     7
  0
POLYLINE
  5
184
  8
DATA
  6
CONTINUOUS
 62
     7
 66
     1
 10
0.0
 20
0.0
 30
0.0
 70
     1
  0
VERTEX
  5
4A9
  8
DATA
  6
CONTINUOUS
 62
     7
 10
-8.8499999999999801
 20
64.1583410861505
 30
0.0
  0
VERTEX
  5
4AA
  8
DATA
  6
CONTINUOUS
 62
     7
 10
-8.1499999999999631
 20
64.1583410861505
 30
0.0
  0
VERTEX
  5
4AB
  8
DATA
  6
CONTINUOUS
 62
     7
 10
-8.1499999999999631
 20
50.1583410861505
 30
0.0
  0
VERTEX
  5
4AC
  8
DATA
  6
CONTINUOUS
 62
     7
 10
-8.8499999999999801
 20
50.1583410861505
 30
0.0
  0
SEQEND
  5
4AD
  8
DATA
  6
CONTINUOUS
 62
     7
  0
POLYLINE
  5
18B
  8
DATA
  6
CONTINUOUS
 62
     7
 66
     1
 10
0.0
 20
0.0
 30
0.0
 70
     1
  0
VERTEX
  5
4AE
  8
DATA
  6
CONTINUOUS
 62
     7
 10
-7.449999999999986
 20
64.1583410861505
 30
0.0
  0
VERTEX
  5
4AF
  8
DATA
  6
CONTINUOUS
 62
     7
 10
-6.7499999999999707
 20
64.1583410861505
 30
0.0
  0
VERTEX
  5
4B0
  8
DATA
  6
CONTINUOUS
 62
     7
 10
-6.7499999999999707
 20
50.1583410861505
 30
0.0
  0
VERTEX
  5
4B1
  8
DATA
  6
CONTINUOUS
 62
     7
 10
-7.449999999999986
 20
50.1583410861505
 30
0.0
  0
SEQEND
  5
4B2
  8
DATA
  6
CONTINUOUS
 62
     7
  0
POLYLINE
  5
192
  8
DATA
  6
CONTINUOUS
 62
     7
 66
     1
 10
0.0
 20
0.0
 30
0.0
 70
     1
  0
VERTEX
  5
4B3
  8
DATA
  6
CONTINUOUS
 62
     7
 10
-24.249999999999989
 20
48.1583410861505
 30
0.0
  0
VERTEX
  5
4B4
  8
DATA
  6
CONTINUOUS
 62
     7
 10
-23.549999999999962
 20
48.1583410861505
 30
0.0
  0
VERTEX
  5
4B5
  8
DATA
  6
CONTINUOUS
 62
     7
 10
-23.549999999999962
 20
34.158341086150529
 30
0.0
  0
VERTEX
  5
4B6
  8
DATA
  6
CONTINUOUS
 62
     7
 10
-24.249999999999989
 20
34.158341086150529
 30
0.0
  0
SEQEND
  5
4B7
  8
DATA
  6
CONTINUOUS
 62
     7
  0
POLYLINE
  5
199
  8
DATA
  6
CONTINUOUS
 62
     7
 66
     1
 10
0.0
 20
0.0
 30
0.0
 70
     1
  0
VERTEX
  5
4B8
  8
DATA
  6
CONTINUOUS
 62
     7
 10
-22.84999999999998
 20
48.1583410861505
 30
0.0
  0
VERTEX
  5
4B9
  8
DATA
  6
CONTINUOUS
 62
     7
 10
-22.14999999999997
 20
48.1583410861505
 30
0.0
  0
VERTEX
  5
4BA
  8
DATA
  6
CONTINUOUS
 62
     7
 10
-22.14999999999997
 20
34.158341086150529
 30
0.0
  0
VERTEX
  5
4BB
  8
DATA
  6
CONTINUOUS
 62
     7
 10
-22.84999999999998
 20
34.158341086150529
 30
0.0
  0
SEQEND
  5
4BC
  8
DATA
  6
CONTINUOUS
 62
     7
  0
POLYLINE
  5
1A0
  8
DATA
  6
CONTINUOUS
 62
     7
 66
     1
 10
0.0
 20
0.0
 30
0.0
 70
     1
  0
VERTEX
  5
4BD
  8
DATA
  6
CONTINUOUS
 62
     7
 10
-21.449999999999989
 20
48.1583410861505
 30
0.0
  0
VERTEX
  5
4BE
  8
DATA
  6
CONTINUOUS
 62
     7
 10
-20.749999999999972
 20
48.1583410861505
 30
0.0
  0
VERTEX
  5
4BF
  8
DATA
  6
CONTINUOUS
 62
     7
 10
-20.749999999999972
 20
34.158341086150529
 30
0.0
  0
VERTEX
  5
4C0
  8
DATA
  6
CONTINUOUS
 62
     7
 10
-21.449999999999989
 20
34.158341086150529
 30
0.0
  0
SEQEND
  5
4C1
  8
DATA
  6
CONTINUOUS
 62
     7
  0
POLYLINE
  5
1A7
  8
DATA
  6
CONTINUOUS
 62
     7
 66
     1
 10
0.0
 20
0.0
 30
0.0
 70
     1
  0
VERTEX
  5
4C2
  8
DATA
  6
CONTINUOUS
 62
     7
 10
-20.04999999999999
 20
48.1583410861505
 30
0.0
  0
VERTEX
  5
4C3
  8
DATA
  6
CONTINUOUS
 62
     7
 10
-19.349999999999969
 20
48.1583410861505
 30
0.0
  0
VERTEX
  5
4C4
  8
DATA
  6
CONTINUOUS
 62
     7
 10
-19.349999999999969
 20
34.158341086150529
 30
0.0
  0
VERTEX
  5
4C5
  8
DATA
  6
CONTINUOUS
 62
     7
 10
-20.04999999999999
 20
34.158341086150529
 30
0.0
  0
SEQEND
  5
4C6
  8
DATA
  6
CONTINUOUS
 62
     7
  0
POLYLINE
  5
1AE
  8
DATA
  6
CONTINUOUS
 62
     7
 66
     1
 10
0.0
 20
0.0
 30
0.0
 70
     1
  0
VERTEX
  5
4C7
  8
DATA
  6
CONTINUOUS
 62
     7
 10
-18.649999999999991
 20
48.1583410861505
 30
0.0
  0
VERTEX
  5
4C8
  8
DATA
  6
CONTINUOUS
 62
     7
 10
-17.949999999999971
 20
48.1583410861505
 30
0.0
  0
VERTEX
  5
4C9
  8
DATA
  6
CONTINUOUS
 62
     7
 10
-17.949999999999971
 20
34.158341086150529
 30
0.0
  0
VERTEX
  5
4CA
  8
DATA
  6
CONTINUOUS
 62
     7
 10
-18.649999999999991
 20
34.158341086150529
 30
0.0
  0
SEQEND
  5
4CB
  8
DATA
  6
CONTINUOUS
 62
     7
  0
POLYLINE
  5
1B5
  8
DATA
  6
CONTINUOUS
 62
     7
 66
     1
 10
0.0
 20
0.0
 30
0.0
 70
     1
  0
VERTEX
  5
4CC
  8
DATA
  6
CONTINUOUS
 62
     7
 10
-17.249999999999979
 20
48.1583410861505
 30
0.0
  0
VERTEX
  5
4CD
  8
DATA
  6
CONTINUOUS
 62
     7
 10
-16.549999999999962
 20
48.1583410861505
 30
0.0
  0
VERTEX
  5
4CE
  8
DATA
  6
CONTINUOUS
 62
     7
 10
-16.549999999999962
 20
34.158341086150529
 30
0.0
  0
VERTEX
  5
4CF
  8
DATA
  6
CONTINUOUS
 62
     7
 10
-17.249999999999979
 20
34.158341086150529
 30
0.0
  0
SEQEND
  5
4D0
  8
DATA
  6
CONTINUOUS
 62
     7
  0
POLYLINE
  5
1BC
  8
DATA
  6
CONTINUOUS
 62
     7
 66
     1
 10
0.0
 20
0.0
 30
0.0
 70
     1
  0
VERTEX
  5
4D1
  8
DATA
  6
CONTINUOUS
 62
     7
 10
-15.84999999999998
 20
48.1583410861505
 30
0.0
  0
VERTEX
  5
4D2
  8
DATA
  6
CONTINUOUS
 62
     7
 10
-15.149999999999959
 20
48.1583410861505
 30
0.0
  0
VERTEX
  5
4D3
  8
DATA
  6
CONTINUOUS
 62
     7
 10
-15.149999999999959
 20
34.158341086150529
 30
0.0
  0
VERTEX
  5
4D4
  8
DATA
  6
CONTINUOUS
 62
     7
 10
-15.84999999999998
 20
34.158341086150529
 30
0.0
  0
SEQEND
  5
4D5
  8
DATA
  6
CONTINUOUS
 62
     7
  0
POLYLINE
  5
1C3
  8
DATA
  6
CONTINUOUS
 62
     7
 66
     1
 10
0.0
 20
0.0
 30
0.0
 70
     1
  0
VERTEX
  5
4D6
  8
DATA
  6
CONTINUOUS
 62
     7
 10
-14.44999999999999
 20
48.1583410861505
 30
0.0
  0
VERTEX
  5
4D7
  8
DATA
  6
CONTINUOUS
 62
     7
 10
-13.74999999999997
 20
48.1583410861505
 30
0.0
  0
VERTEX
  5
4D8
  8
DATA
  6
CONTINUOUS
 62
     7
 10
-13.74999999999997
 20
34.158341086150529
 30
0.0
  0
VERTEX
  5
4D9
  8
DATA
  6
CONTINUOUS
 62
     7
 10
-14.44999999999999
 20
34.158341086150529
 30
0.0
  0
SEQEND
  5
4DA
  8
DATA
  6
CONTINUOUS
 62
     7
  0
POLYLINE
  5
1CA
  8
DATA
  6
CONTINUOUS
 62
     7
 66
     1
 10
0.0
 20
0.0
 30
0.0
 70
     1
  0
VERTEX
  5
4DB
  8
DATA
  6
CONTINUOUS
 62
     7
 10
-13.049999999999979
 20
48.1583410861505
 30
0.0
  0
VERTEX
  5
4DC
  8
DATA
  6
CONTINUOUS
 62
     7
 10
-12.349999999999961
 20
48.1583410861505
 30
0.0
  0
VERTEX
  5
4DD
  8
DATA
  6
CONTINUOUS
 62
     7
 10
-12.349999999999961
 20
34.158341086150529
 30
0.0
  0
VERTEX
  5
4DE
  8
DATA
  6
CONTINUOUS
 62
     7
 10
-13.049999999999979
 20
34.158341086150529
 30
0.0
  0
SEQEND
  5
4DF
  8
DATA
  6
CONTINUOUS
 62
     7
  0
POLYLINE
  5
1D1
  8
DATA
  6
CONTINUOUS
 62
     7
 66
     1
 10
0.0
 20
0.0
 30
0.0
 70
     1
  0
VERTEX
  5
4E0
  8
DATA
  6
CONTINUOUS
 62
     7
 10
-11.64999999999999
 20
48.1583410861505
 30
0.0
  0
VERTEX
  5
4E1
  8
DATA
  6
CONTINUOUS
 62
     7
 10
-10.949999999999971
 20
48.1583410861505
 30
0.0
  0
VERTEX
  5
4E2
  8
DATA
  6
CONTINUOUS
 62
     7
 10
-10.949999999999971
 20
34.158341086150529
 30
0.0
  0
VERTEX
  5
4E3
  8
DATA
  6
CONTINUOUS
 62
     7
 10
-11.64999999999999
 20
34.158341086150529
 30
0.0
  0
SEQEND
  5
4E4
  8
DATA
  6
CONTINUOUS
 62
     7
  0
POLYLINE
  5
1D8
  8
DATA
  6
CONTINUOUS
 62
     7
 66
     1
 10
0.0
 20
0.0
 30
0.0
 70
     1
  0
VERTEX
  5
4E5
  8
DATA
  6
CONTINUOUS
 62
     7
 10
-10.249999999999989
 20
48.1583410861505
 30
0.0
  0
VERTEX
  5
4E6
  8
DATA
  6
CONTINUOUS
 62
     7
 10
-9.5499999999999687
 20
48.1583410861505
 30
0.0
  0
VERTEX
  5
4E7
  8
DATA
  6
CONTINUOUS
 62
     7
 10
-9.5499999999999687
 20
34.158341086150529
 30
0.0
  0
VERTEX
  5
4E8
  8
DATA
  6
CONTINUOUS
 62
     7
 10
-10.249999999999989
 20
34.158341086150529
 30
0.0
  0
SEQEND
  5
4E9
  8
DATA
  6
CONTINUOUS
 62
     7
  0
POLYLINE
  5
1DF
  8
DATA
  6
CONTINUOUS
 62
     7
 66
     1
 10
0.0
 20
0.0
 30
0.0
 70
     1
  0
VERTEX
  5
4EA
  8
DATA
  6
CONTINUOUS
 62
     7
 10
-8.8499999999999801
 20
48.1583410861505
 30
0.0
  0
VERTEX
  5
4EB
  8
DATA
  6
CONTINUOUS
 62
     7
 10
-8.1499999999999631
 20
48.1583410861505
 30
0.0
  0
VERTEX
  5
4EC
  8
DATA
  6
CONTINUOUS
 62
     7
 10
-8.1499999999999631
 20
34.158341086150529
 30
0.0
  0
VERTEX
  5
4ED
  8
DATA
  6
CONTINUOUS
 62
     7
 10
-8.8499999999999801
 20
34.158341086150529
 30
0.0
  0
SEQEND
  5
4EE
  8
DATA
  6
CONTINUOUS
 62
     7
  0
POLYLINE
  5
1E6
  8
DATA
  6
CONTINUOUS
 62
     7
 66
     1
 10
0.0
 20
0.0
 30
0.0
 70
     1
  0
VERTEX
  5
4EF
  8
DATA
  6
CONTINUOUS
 62
     7
 10
-7.449999999999986
 20
48.1583410861505
 30
0.0
  0
VERTEX
  5
4F0
  8
DATA
  6
CONTINUOUS
 62
     7
 10
-6.7499999999999707
 20
48.1583410861505
 30
0.0
  0
VERTEX
  5
4F1
  8
DATA
  6
CONTINUOUS
 62
     7
 10
-6.7499999999999707
 20
34.158341086150529
 30
0.0
  0
VERTEX
  5
4F2
  8
DATA
  6
CONTINUOUS
 62
     7
 10
-7.449999999999986
 20
34.158341086150529
 30
0.0
  0
SEQEND
  5
4F3
  8
DATA
  6
CONTINUOUS
 62
     7
  0
POLYLINE
  5
1ED
  8
DATA
  6
CONTINUOUS
 62
     7
 66
     1
 10
0.0
 20
0.0
 30
0.0
 70
     1
  0
VERTEX
  5
4F4
  8
DATA
  6
CONTINUOUS
 62
     7
 10
-24.249999999999989
 20
32.158341086150529
 30
0.0
  0
VERTEX
  5
4F5
  8
DATA
  6
CONTINUOUS
 62
     7
 10
-23.549999999999962
 20
32.158341086150529
 30
0.0
  0
VERTEX
  5
4F6
  8
DATA
  6
CONTINUOUS
 62
     7
 10
-23.549999999999962
 20
18.158341086150529
 30
0.0
  0
VERTEX
  5
4F7
  8
DATA
  6
CONTINUOUS
 62
     7
 10
-24.249999999999989
 20
18.158341086150529
 30
0.0
  0
SEQEND
  5
4F8
  8
DATA
  6
CONTINUOUS
 62
     7
  0
POLYLINE
  5
1F4
  8
DATA
  6
CONTINUOUS
 62
     7
 66
     1
 10
0.0
 20
0.0
 30
0.0
 70
     1
  0
VERTEX
  5
4F9
  8
DATA
  6
CONTINUOUS
 62
     7
 10
-22.84999999999998
 20
32.158341086150529
 30
0.0
  0
VERTEX
  5
4FA
  8
DATA
  6
CONTINUOUS
 62
     7
 10
-22.14999999999997
 20
32.158341086150529
 30
0.0
  0
VERTEX
  5
4FB
  8
DATA
  6
CONTINUOUS
 62
     7
 10
-22.14999999999997
 20
18.158341086150529
 30
0.0
  0
VERTEX
  5
4FC
  8
DATA
  6
CONTINUOUS
 62
     7
 10
-22.84999999999998
 20
18.158341086150529
 30
0.0
  0
SEQEND
  5
4FD
  8
DATA
  6
CONTINUOUS
 62
     7
  0
POLYLINE
  5
1FB
  8
DATA
  6
CONTINUOUS
 62
     7
 66
     1
 10
0.0
 20
0.0
 30
0.0
 70
     1
  0
VERTEX
  5
4FE
  8
DATA
  6
CONTINUOUS
 62
     7
 10
-21.449999999999989
 20
32.158341086150529
 30
0.0
  0
VERTEX
  5
4FF
  8
DATA
  6
CONTINUOUS
 62
     7
 10
-20.749999999999972
 20
32.158341086150529
 30
0.0
  0
VERTEX
  5
500
  8
DATA
  6
CONTINUOUS
 62
     7
 10
-20.749999999999972
 20
18.158341086150529
 30
0.0
  0
VERTEX
  5
501
  8
DATA
  6
CONTINUOUS
 62
     7
 10
-21.449999999999989
 20
18.158341086150529
 30
0.0
  0
SEQEND
  5
502
  8
DATA
  6
CONTINUOUS
 62
     7
  0
POLYLINE
  5
202
  8
DATA
  6
CONTINUOUS
 62
     7
 66
     1
 10
0.0
 20
0.0
 30
0.0
 70
     1
  0
VERTEX
  5
503
  8
DATA
  6
CONTINUOUS
 62
     7
 10
-20.04999999999999
 20
32.158341086150529
 30
0.0
  0
VERTEX
  5
504
  8
DATA
  6
CONTINUOUS
 62
     7
 10
-19.349999999999969
 20
32.158341086150529
 30
0.0
  0
VERTEX
  5
505
  8
DATA
  6
CONTINUOUS
 62
     7
 10
-19.349999999999969
 20
18.158341086150529
 30
0.0
  0
VERTEX
  5
506
  8
DATA
  6
CONTINUOUS
 62
     7
 10
-20.04999999999999
 20
18.158341086150529
 30
0.0
  0
SEQEND
  5
507
  8
DATA
  6
CONTINUOUS
 62
     7
  0
POLYLINE
  5
209
  8
DATA
  6
CONTINUOUS
 62
     7
 66
     1
 10
0.0
 20
0.0
 30
0.0
 70
     1
  0
VERTEX
  5
508
  8
DATA
  6
CONTINUOUS
 62
     7
 10
-18.649999999999991
 20
32.158341086150529
 30
0.0
  0
VERTEX
  5
509
  8
DATA
  6
CONTINUOUS
 62
     7
 10
-17.949999999999971
 20
32.158341086150529
 30
0.0
  0
VERTEX
  5
50A
  8
DATA
  6
CONTINUOUS
 62
     7
 10
-17.949999999999971
 20
18.158341086150529
 30
0.0
  0
VERTEX
  5
50B
  8
DATA
  6
CONTINUOUS
 62
     7
 10
-18.649999999999991
 20
18.158341086150529
 30
0.0
  0
SEQEND
  5
50C
  8
DATA
  6
CONTINUOUS
 62
     7
  0
POLYLINE
  5
210
  8
DATA
  6
CONTINUOUS
 62
     7
 66
     1
 10
0.0
 20
0.0
 30
0.0
 70
     1
  0
VERTEX
  5
50D
  8
DATA
  6
CONTINUOUS
 62
     7
 10
-17.249999999999979
 20
32.158341086150529
 30
0.0
  0
VERTEX
  5
50E
  8
DATA
  6
CONTINUOUS
 62
     7
 10
-16.549999999999962
 20
32.158341086150529
 30
0.0
  0
VERTEX
  5
50F
  8
DATA
  6
CONTINUOUS
 62
     7
 10
-16.549999999999962
 20
18.158341086150529
 30
0.0
  0
VERTEX
  5
510
  8
DATA
  6
CONTINUOUS
 62
     7
 10
-17.249999999999979
 20
18.158341086150529
 30
0.0
  0
SEQEND
  5
511
  8
DATA
  6
CONTINUOUS
 62
     7
  0
POLYLINE
  5
217
  8
DATA
  6
CONTINUOUS
 62
     7
 66
     1
 10
0.0
 20
0.0
 30
0.0
 70
     1
  0
VERTEX
  5
512
  8
DATA
  6
CONTINUOUS
 62
     7
 10
-15.84999999999998
 20
32.158341086150529
 30
0.0
  0
VERTEX
  5
513
  8
DATA
  6
CONTINUOUS
 62
     7
 10
-15.149999999999959
 20
32.158341086150529
 30
0.0
  0
VERTEX
  5
514
  8
DATA
  6
CONTINUOUS
 62
     7
 10
-15.149999999999959
 20
18.158341086150529
 30
0.0
  0
VERTEX
  5
515
  8
DATA
  6
CONTINUOUS
 62
     7
 10
-15.84999999999998
 20
18.158341086150529
 30
0.0
  0
SEQEND
  5
516
  8
DATA
  6
CONTINUOUS
 62
     7
  0
POLYLINE
  5
21E
  8
DATA
  6
CONTINUOUS
 62
     7
 66
     1
 10
0.0
 20
0.0
 30
0.0
 70
     1
  0
VERTEX
  5
517
  8
DATA
  6
CONTINUOUS
 62
     7
 10
-14.44999999999999
 20
32.158341086150529
 30
0.0
  0
VERTEX
  5
518
  8
DATA
  6
CONTINUOUS
 62
     7
 10
-13.74999999999997
 20
32.158341086150529
 30
0.0
  0
VERTEX
  5
519
  8
DATA
  6
CONTINUOUS
 62
     7
 10
-13.74999999999997
 20
18.158341086150529
 30
0.0
  0
VERTEX
  5
51A
  8
DATA
  6
CONTINUOUS
 62
     7
 10
-14.44999999999999
 20
18.158341086150529
 30
0.0
  0
SEQEND
  5
51B
  8
DATA
  6
CONTINUOUS
 62
     7
  0
POLYLINE
  5
225
  8
DATA
  6
CONTINUOUS
 62
     7
 66
     1
 10
0.0
 20
0.0
 30
0.0
 70
     1
  0
VERTEX
  5
51C
  8
DATA
  6
CONTINUOUS
 62
     7
 10
-13.049999999999979
 20
32.158341086150529
 30
0.0
  0
VERTEX
  5
51D
  8
DATA
  6
CONTINUOUS
 62
     7
 10
-12.349999999999961
 20
32.158341086150529
 30
0.0
  0
VERTEX
  5
51E
  8
DATA
  6
CONTINUOUS
 62
     7
 10
-12.349999999999961
 20
18.158341086150529
 30
0.0
  0
VERTEX
  5
51F
  8
DATA
  6
CONTINUOUS
 62
     7
 10
-13.049999999999979
 20
18.158341086150529
 30
0.0
  0
SEQEND
  5
520
  8
DATA
  6
CONTINUOUS
 62
     7
  0
POLYLINE
  5
22C
  8
DATA
  6
CONTINUOUS
 62
     7
 66
     1
 10
0.0
 20
0.0
 30
0.0
 70
     1
  0
VERTEX
  5
521
  8
DATA
  6
CONTINUOUS
 62
     7
 10
-11.64999999999999
 20
32.158341086150529
 30
0.0
  0
VERTEX
  5
522
  8
DATA
  6
CONTINUOUS
 62
     7
 10
-10.949999999999971
 20
32.158341086150529
 30
0.0
  0
VERTEX
  5
523
  8
DATA
  6
CONTINUOUS
 62
     7
 10
-10.949999999999971
 20
18.158341086150529
 30
0.0
  0
VERTEX
  5
524
  8
DATA
  6
CONTINUOUS
 62
     7
 10
-11.64999999999999
 20
18.158341086150529
 30
0.0
  0
SEQEND
  5
525
  8
DATA
  6
CONTINUOUS
 62
     7
  0
POLYLINE
  5
233
  8
DATA
  6
CONTINUOUS
 62
     7
 66
     1
 10
0.0
 20
0.0
 30
0.0
 70
     1
  0
VERTEX
  5
526
  8
DATA
  6
CONTINUOUS
 62
     7
 10
-10.249999999999989
 20
32.158341086150529
 30
0.0
  0
VERTEX
  5
527
  8
DATA
  6
CONTINUOUS
 62
     7
 10
-9.5499999999999687
 20
32.158341086150529
 30
0.0
  0
VERTEX
  5
528
  8
DATA
  6
CONTINUOUS
 62
     7
 10
-9.5499999999999687
 20
18.158341086150529
 30
0.0
  0
VERTEX
  5
529
  8
DATA
  6
CONTINUOUS
 62
     7
 10
-10.249999999999989
 20
18.158341086150529
 30
0.0
  0
SEQEND
  5
52A
  8
DATA
  6
CONTINUOUS
 62
     7
  0
POLYLINE
  5
23A
  8
DATA
  6
CONTINUOUS
 62
     7
 66
     1
 10
0.0
 20
0.0
 30
0.0
 70
     1
  0
VERTEX
  5
52B
  8
DATA
  6
CONTINUOUS
 62
     7
 10
-8.8499999999999801
 20
32.158341086150529
 30
0.0
  0
VERTEX
  5
52C
  8
DATA
  6
CONTINUOUS
 62
     7
 10
-8.1499999999999631
 20
32.158341086150529
 30
0.0
  0
VERTEX
  5
52D
  8
DATA
  6
CONTINUOUS
 62
     7
 10
-8.1499999999999631
 20
18.158341086150529
 30
0.0
  0
VERTEX
  5
52E
  8
DATA
  6
CONTINUOUS
 62
     7
 10
-8.8499999999999801
 20
18.158341086150529
 30
0.0
  0
SEQEND
  5
52F
  8
DATA
  6
CONTINUOUS
 62
     7
  0
POLYLINE
  5
241
  8
DATA
  6
CONTINUOUS
 62
     7
 66
     1
 10
0.0
 20
0.0
 30
0.0
 70
     1
  0
VERTEX
  5
530
  8
DATA
  6
CONTINUOUS
 62
     7
 10
-7.449999999999986
 20
32.158341086150529
 30
0.0
  0
VERTEX
  5
531
  8
DATA
  6
CONTINUOUS
 62
     7
 10
-6.7499999999999707
 20
32.158341086150529
 30
0.0
  0
VERTEX
  5
532
  8
DATA
  6
CONTINUOUS
 62
     7
 10
-6.7499999999999707
 20
18.158341086150529
 30
0.0
  0
VERTEX
  5
533
  8
DATA
  6
CONTINUOUS
 62
     7
 10
-7.449999999999986
 20
18.158341086150529
 30
0.0
  0
SEQEND
  5
534
  8
DATA
  6
CONTINUOUS
 62
     7
  0
POLYLINE
  5
248
  8
DATA
  6
CONTINUOUS
 62
     7
 66
     1
 10
0.0
 20
0.0
 30
0.0
 70
     1
  0
VERTEX
  5
535
  8
DATA
  6
CONTINUOUS
 62
     7
 10
-24.249999999999989
 20
16.158341086150529
 30
0.0
  0
VERTEX
  5
536
  8
DATA
  6
CONTINUOUS
 62
     7
 10
-23.549999999999962
 20
16.158341086150529
 30
0.0
  0
VERTEX
  5
537
  8
DATA
  6
CONTINUOUS
 62
     7
 10
-23.549999999999962
 20
2.1583410861505281
 30
0.0
  0
VERTEX
  5
538
  8
DATA
  6
CONTINUOUS
 62
     7
 10
-24.249999999999989
 20
2.1583410861505281
 30
0.0
  0
SEQEND
  5
539
  8
DATA
  6
CONTINUOUS
 62
     7
  0
POLYLINE
  5
24F
  8
DATA
  6
CONTINUOUS
 62
     7
 66
     1
 10
0.0
 20
0.0
 30
0.0
 70
     1
  0
VERTEX
  5
53A
  8
DATA
  6
CONTINUOUS
 62
     7
 10
-22.84999999999998
 20
16.158341086150529
 30
0.0
  0
VERTEX
  5
53B
  8
DATA
  6
CONTINUOUS
 62
     7
 10
-22.14999999999997
 20
16.158341086150529
 30
0.0
  0
VERTEX
  5
53C
  8
DATA
  6
CONTINUOUS
 62
     7
 10
-22.14999999999997
 20
2.1583410861505281
 30
0.0
  0
VERTEX
  5
53D
  8
DATA
  6
CONTINUOUS
 62
     7
 10
-22.84999999999998
 20
2.1583410861505281
 30
0.0
  0
SEQEND
  5
53E
  8
DATA
  6
CONTINUOUS
 62
     7
  0
POLYLINE
  5
256
  8
DATA
  6
CONTINUOUS
 62
     7
 66
     1
 10
0.0
 20
0.0
 30
0.0
 70
     1
  0
VERTEX
  5
53F
  8
DATA
  6
CONTINUOUS
 62
     7
 10
-21.449999999999989
 20
16.158341086150529
 30
0.0
  0
VERTEX
  5
540
  8
DATA
  6
CONTINUOUS
 62
     7
 10
-20.749999999999972
 20
16.158341086150529
 30
0.0
  0
VERTEX
  5
541
  8
DATA
  6
CONTINUOUS
 62
     7
 10
-20.749999999999972
 20
2.1583410861505281
 30
0.0
  0
VERTEX
  5
542
  8
DATA
  6
CONTINUOUS
 62
     7
 10
-21.449999999999989
 20
2.1583410861505281
 30
0.0
  0
SEQEND
  5
543
  8
DATA
  6
CONTINUOUS
 62
     7
  0
POLYLINE
  5
25D
  8
DATA
  6
CONTINUOUS
 62
     7
 66
     1
 10
0.0
 20
0.0
 30
0.0
 70
     1
  0
VERTEX
  5
544
  8
DATA
  6
CONTINUOUS
 62
     7
 10
-20.04999999999999
 20
16.158341086150529
 30
0.0
  0
VERTEX
  5
545
  8
DATA
  6
CONTINUOUS
 62
     7
 10
-19.349999999999969
 20
16.158341086150529
 30
0.0
  0
VERTEX
  5
546
  8
DATA
  6
CONTINUOUS
 62
     7
 10
-19.349999999999969
 20
2.1583410861505281
 30
0.0
  0
VERTEX
  5
547
  8
DATA
  6
CONTINUOUS
 62
     7
 10
-20.04999999999999
 20
2.1583410861505281
 30
0.0
  0
SEQEND
  5
548
  8
DATA
  6
CONTINUOUS
 62
     7
  0
POLYLINE
  5
264
  8
DATA
  6
CONTINUOUS
 62
     7
 66
     1
 10
0.0
 20
0.0
 30
0.0
 70
     1
  0
VERTEX
  5
549
  8
DATA
  6
CONTINUOUS
 62
     7
 10
-18.649999999999991
 20
16.158341086150529
 30
0.0
  0
VERTEX
  5
54A
  8
DATA
  6
CONTINUOUS
 62
     7
 10
-17.949999999999971
 20
16.158341086150529
 30
0.0
  0
VERTEX
  5
54B
  8
DATA
  6
CONTINUOUS
 62
     7
 10
-17.949999999999971
 20
2.1583410861505281
 30
0.0
  0
VERTEX
  5
54C
  8
DATA
  6
CONTINUOUS
 62
     7
 10
-18.649999999999991
 20
2.1583410861505281
 30
0.0
  0
SEQEND
  5
54D
  8
DATA
  6
CONTINUOUS
 62
     7
  0
POLYLINE
  5
26B
  8
DATA
  6
CONTINUOUS
 62
     7
 66
     1
 10
0.0
 20
0.0
 30
0.0
 70
     1
  0
VERTEX
  5
54E
  8
DATA
  6
CONTINUOUS
 62
     7
 10
-17.249999999999979
 20
16.158341086150529
 30
0.0
  0
VERTEX
  5
54F
  8
DATA
  6
CONTINUOUS
 62
     7
 10
-16.549999999999962
 20
16.158341086150529
 30
0.0
  0
VERTEX
  5
550
  8
DATA
  6
CONTINUOUS
 62
     7
 10
-16.549999999999962
 20
2.1583410861505281
 30
0.0
  0
VERTEX
  5
551
  8
DATA
  6
CONTINUOUS
 62
     7
 10
-17.249999999999979
 20
2.1583410861505281
 30
0.0
  0
SEQEND
  5
552
  8
DATA
  6
CONTINUOUS
 62
     7
  0
POLYLINE
  5
272
  8
DATA
  6
CONTINUOUS
 62
     7
 66
     1
 10
0.0
 20
0.0
 30
0.0
 70
     1
  0
VERTEX
  5
553
  8
DATA
  6
CONTINUOUS
 62
     7
 10
-15.84999999999998
 20
16.158341086150529
 30
0.0
  0
VERTEX
  5
554
  8
DATA
  6
CONTINUOUS
 62
     7
 10
-15.149999999999959
 20
16.158341086150529
 30
0.0
  0
VERTEX
  5
555
  8
DATA
  6
CONTINUOUS
 62
     7
 10
-15.149999999999959
 20
2.1583410861505281
 30
0.0
  0
VERTEX
  5
556
  8
DATA
  6
CONTINUOUS
 62
     7
 10
-15.84999999999998
 20
2.1583410861505281
 30
0.0
  0
SEQEND
  5
557
  8
DATA
  6
CONTINUOUS
 62
     7
  0
POLYLINE
  5
279
  8
DATA
  6
CONTINUOUS
 62
     7
 66
     1
 10
0.0
 20
0.0
 30
0.0
 70
     1
  0
VERTEX
  5
558
  8
DATA
  6
CONTINUOUS
 62
     7
 10
-14.44999999999999
 20
16.158341086150529
 30
0.0
  0
VERTEX
  5
559
  8
DATA
  6
CONTINUOUS
 62
     7
 10
-13.74999999999997
 20
16.158341086150529
 30
0.0
  0
VERTEX
  5
55A
  8
DATA
  6
CONTINUOUS
 62
     7
 10
-13.74999999999997
 20
2.1583410861505281
 30
0.0
  0
VERTEX
  5
55B
  8
DATA
  6
CONTINUOUS
 62
     7
 10
-14.44999999999999
 20
2.1583410861505281
 30
0.0
  0
SEQEND
  5
55C
  8
DATA
  6
CONTINUOUS
 62
     7
  0
POLYLINE
  5
280
  8
DATA
  6
CONTINUOUS
 62
     7
 66
     1
 10
0.0
 20
0.0
 30
0.0
 70
     1
  0
VERTEX
  5
55D
  8
DATA
  6
CONTINUOUS
 62
     7
 10
-13.049999999999979
 20
16.158341086150529
 30
0.0
  0
VERTEX
  5
55E
  8
DATA
  6
CONTINUOUS
 62
     7
 10
-12.349999999999961
 20
16.158341086150529
 30
0.0
  0
VERTEX
  5
55F
  8
DATA
  6
CONTINUOUS
 62
     7
 10
-12.349999999999961
 20
2.1583410861505281
 30
0.0
  0
VERTEX
  5
560
  8
DATA
  6
CONTINUOUS
 62
     7
 10
-13.049999999999979
 20
2.1583410861505281
 30
0.0
  0
SEQEND
  5
561
  8
DATA
  6
CONTINUOUS
 62
     7
  0
POLYLINE
  5
287
  8
DATA
  6
CONTINUOUS
 62
     7
 66
     1
 10
0.0
 20
0.0
 30
0.0
 70
     1
  0
VERTEX
  5
562
  8
DATA
  6
CONTINUOUS
 62
     7
 10
-11.64999999999999
 20
16.158341086150529
 30
0.0
  0
VERTEX
  5
563
  8
DATA
  6
CONTINUOUS
 62
     7
 10
-10.949999999999971
 20
16.158341086150529
 30
0.0
  0
VERTEX
  5
564
  8
DATA
  6
CONTINUOUS
 62
     7
 10
-10.949999999999971
 20
2.1583410861505281
 30
0.0
  0
VERTEX
  5
565
  8
DATA
  6
CONTINUOUS
 62
     7
 10
-11.64999999999999
 20
2.1583410861505281
 30
0.0
  0
SEQEND
  5
566
  8
DATA
  6
CONTINUOUS
 62
     7
  0
POLYLINE
  5
28E
  8
DATA
  6
CONTINUOUS
 62
     7
 66
     1
 10
0.0
 20
0.0
 30
0.0
 70
     1
  0
VERTEX
  5
567
  8
DATA
  6
CONTINUOUS
 62
     7
 10
-10.249999999999989
 20
16.158341086150529
 30
0.0
  0
VERTEX
  5
568
  8
DATA
  6
CONTINUOUS
 62
     7
 10
-9.5499999999999687
 20
16.158341086150529
 30
0.0
  0
VERTEX
  5
569
  8
DATA
  6
CONTINUOUS
 62
     7
 10
-9.5499999999999687
 20
2.1583410861505281
 30
0.0
  0
VERTEX
  5
56A
  8
DATA
  6
CONTINUOUS
 62
     7
 10
-10.249999999999989
 20
2.1583410861505281
 30
0.0
  0
SEQEND
  5
56B
  8
DATA
  6
CONTINUOUS
 62
     7
  0
POLYLINE
  5
295
  8
DATA
  6
CONTINUOUS
 62
     7
 66
     1
 10
0.0
 20
0.0
 30
0.0
 70
     1
  0
VERTEX
  5
56C
  8
DATA
  6
CONTINUOUS
 62
     7
 10
-8.8499999999999801
 20
16.158341086150529
 30
0.0
  0
VERTEX
  5
56D
  8
DATA
  6
CONTINUOUS
 62
     7
 10
-8.1499999999999631
 20
16.158341086150529
 30
0.0
  0
VERTEX
  5
56E
  8
DATA
  6
CONTINUOUS
 62
     7
 10
-8.1499999999999631
 20
2.1583410861505281
 30
0.0
  0
VERTEX
  5
56F
  8
DATA
  6
CONTINUOUS
 62
     7
 10
-8.8499999999999801
 20
2.1583410861505281
 30
0.0
  0
SEQEND
  5
570
  8
DATA
  6
CONTINUOUS
 62
     7
  0
POLYLINE
  5
29C
  8
DATA
  6
CONTINUOUS
 62
     7
 66
     1
 10
0.0
 20
0.0
 30
0.0
 70
     1
  0
VERTEX
  5
571
  8
DATA
  6
CONTINUOUS
 62
     7
 10
-7.449999999999986
 20
16.158341086150529
 30
0.0
  0
VERTEX
  5
572
  8
DATA
  6
CONTINUOUS
 62
     7
 10
-6.7499999999999707
 20
16.158341086150529
 30
0.0
  0
VERTEX
  5
573
  8
DATA
  6
CONTINUOUS
 62
     7
 10
-6.7499999999999707
 20
2.1583410861505281
 30
0.0
  0
VERTEX
  5
574
  8
DATA
  6
CONTINUOUS
 62
     7
 10
-7.449999999999986
 20
2.1583410861505281
 30
0.0
  0
SEQEND
  5
575
  8
DATA
  6
CONTINUOUS
 62
     7
  0
POLYLINE
  5
2A3
  8
DATA
  6
CONTINUOUS
 62
     7
 66
     1
 10
0.0
 20
0.0
 30
0.0
 70
     1
  0
VERTEX
  5
576
  8
DATA
  6
CONTINUOUS
 62
     7
 10
-24.249999999999989
 20
-3.841658913849471
 30
0.0
  0
VERTEX
  5
577
  8
DATA
  6
CONTINUOUS
 62
     7
 10
-23.549999999999962
 20
-3.841658913849471
 30
0.0
  0
VERTEX
  5
578
  8
DATA
  6
CONTINUOUS
 62
     7
 10
-23.549999999999962
 20
-11.84165891384947
 30
0.0
  0
VERTEX
  5
579
  8
DATA
  6
CONTINUOUS
 62
     7
 10
-24.249999999999989
 20
-11.84165891384947
 30
0.0
  0
SEQEND
  5
57A
  8
DATA
  6
CONTINUOUS
 62
     7
  0
POLYLINE
  5
2AA
  8
DATA
  6
CONTINUOUS
 62
     7
 66
     1
 10
0.0
 20
0.0
 30
0.0
 70
     1
  0
VERTEX
  5
57B
  8
DATA
  6
CONTINUOUS
 62
     7
 10
-22.84999999999998
 20
-3.841658913849471
 30
0.0
  0
VERTEX
  5
57C
  8
DATA
  6
CONTINUOUS
 62
     7
 10
-22.14999999999997
 20
-3.841658913849471
 30
0.0
  0
VERTEX
  5
57D
  8
DATA
  6
CONTINUOUS
 62
     7
 10
-22.14999999999997
 20
-11.84165891384947
 30
0.0
  0
VERTEX
  5
57E
  8
DATA
  6
CONTINUOUS
 62
     7
 10
-22.84999999999998
 20
-11.84165891384947
 30
0.0
  0
SEQEND
  5
57F
  8
DATA
  6
CONTINUOUS
 62
     7
  0
POLYLINE
  5
2B1
  8
DATA
  6
CONTINUOUS
 62
     7
 66
     1
 10
0.0
 20
0.0
 30
0.0
 70
     1
  0
VERTEX
  5
580
  8
DATA
  6
CONTINUOUS
 62
     7
 10
-21.449999999999989
 20
-3.841658913849471
 30
0.0
  0
VERTEX
  5
581
  8
DATA
  6
CONTINUOUS
 62
     7
 10
-20.749999999999972
 20
-3.841658913849471
 30
0.0
  0
VERTEX
  5
582
  8
DATA
  6
CONTINUOUS
 62
     7
 10
-20.749999999999972
 20
-11.84165891384947
 30
0.0
  0
VERTEX
  5
583
  8
DATA
  6
CONTINUOUS
 62
     7
 10
-21.449999999999989
 20
-11.84165891384947
 30
0.0
  0
SEQEND
  5
584
  8
DATA
  6
CONTINUOUS
 62
     7
  0
POLYLINE
  5
2B8
  8
DATA
  6
CONTINUOUS
 62
     7
 66
     1
 10
0.0
 20
0.0
 30
0.0
 70
     1
  0
VERTEX
  5
585
  8
DATA
  6
CONTINUOUS
 62
     7
 10
-20.04999999999999
 20
-3.841658913849471
 30
0.0
  0
VERTEX
  5
586
  8
DATA
  6
CONTINUOUS
 62
     7
 10
-19.349999999999969
 20
-3.841658913849471
 30
0.0
  0
VERTEX
  5
587
  8
DATA
  6
CONTINUOUS
 62
     7
 10
-19.349999999999969
 20
-11.84165891384947
 30
0.0
  0
VERTEX
  5
588
  8
DATA
  6
CONTINUOUS
 62
     7
 10
-20.04999999999999
 20
-11.84165891384947
 30
0.0
  0
SEQEND
  5
589
  8
DATA
  6
CONTINUOUS
 62
     7
  0
POLYLINE
  5
2BF
  8
DATA
  6
CONTINUOUS
 62
     7
 66
     1
 10
0.0
 20
0.0
 30
0.0
 70
     1
  0
VERTEX
  5
58A
  8
DATA
  6
CONTINUOUS
 62
     7
 10
-18.649999999999991
 20
-3.841658913849471
 30
0.0
  0
VERTEX
  5
58B
  8
DATA
  6
CONTINUOUS
 62
     7
 10
-17.949999999999971
 20
-3.841658913849471
 30
0.0
  0
VERTEX
  5
58C
  8
DATA
  6
CONTINUOUS
 62
     7
 10
-17.949999999999971
 20
-11.84165891384947
 30
0.0
  0
VERTEX
  5
58D
  8
DATA
  6
CONTINUOUS
 62
     7
 10
-18.649999999999991
 20
-11.84165891384947
 30
0.0
  0
SEQEND
  5
58E
  8
DATA
  6
CONTINUOUS
 62
     7
  0
POLYLINE
  5
2C6
  8
DATA
  6
CONTINUOUS
 62
     7
 66
     1
 10
0.0
 20
0.0
 30
0.0
 70
     1
  0
VERTEX
  5
58F
  8
DATA
  6
CONTINUOUS
 62
     7
 10
-17.249999999999979
 20
-3.841658913849471
 30
0.0
  0
VERTEX
  5
590
  8
DATA
  6
CONTINUOUS
 62
     7
 10
-16.549999999999962
 20
-3.841658913849471
 30
0.0
  0
VERTEX
  5
591
  8
DATA
  6
CONTINUOUS
 62
     7
 10
-16.549999999999962
 20
-11.84165891384947
 30
0.0
  0
VERTEX
  5
592
  8
DATA
  6
CONTINUOUS
 62
     7
 10
-17.249999999999979
 20
-11.84165891384947
 30
0.0
  0
SEQEND
  5
593
  8
DATA
  6
CONTINUOUS
 62
     7
  0
POLYLINE
  5
2CD
  8
DATA
  6
CONTINUOUS
 62
     7
 66
     1
 10
0.0
 20
0.0
 30
0.0
 70
     1
  0
VERTEX
  5
594
  8
DATA
  6
CONTINUOUS
 62
     7
 10
-15.84999999999998
 20
-3.841658913849471
 30
0.0
  0
VERTEX
  5
595
  8
DATA
  6
CONTINUOUS
 62
     7
 10
-15.149999999999959
 20
-3.841658913849471
 30
0.0
  0
VERTEX
  5
596
  8
DATA
  6
CONTINUOUS
 62
     7
 10
-15.149999999999959
 20
-11.84165891384947
 30
0.0
  0
VERTEX
  5
597
  8
DATA
  6
CONTINUOUS
 62
     7
 10
-15.84999999999998
 20
-11.84165891384947
 30
0.0
  0
SEQEND
  5
598
  8
DATA
  6
CONTINUOUS
 62
     7
  0
POLYLINE
  5
2D4
  8
DATA
  6
CONTINUOUS
 62
     7
 66
     1
 10
0.0
 20
0.0
 30
0.0
 70
     1
  0
VERTEX
  5
599
  8
DATA
  6
CONTINUOUS
 62
     7
 10
-14.44999999999999
 20
-3.841658913849471
 30
0.0
  0
VERTEX
  5
59A
  8
DATA
  6
CONTINUOUS
 62
     7
 10
-13.74999999999997
 20
-3.841658913849471
 30
0.0
  0
VERTEX
  5
59B
  8
DATA
  6
CONTINUOUS
 62
     7
 10
-13.74999999999997
 20
-11.84165891384947
 30
0.0
  0
VERTEX
  5
59C
  8
DATA
  6
CONTINUOUS
 62
     7
 10
-14.44999999999999
 20
-11.84165891384947
 30
0.0
  0
SEQEND
  5
59D
  8
DATA
  6
CONTINUOUS
 62
     7
  0
POLYLINE
  5
2DB
  8
DATA
  6
CONTINUOUS
 62
     7
 66
     1
 10
0.0
 20
0.0
 30
0.0
 70
     1
  0
VERTEX
  5
59E
  8
DATA
  6
CONTINUOUS
 62
     7
 10
-13.049999999999979
 20
-3.841658913849471
 30
0.0
  0
VERTEX
  5
59F
  8
DATA
  6
CONTINUOUS
 62
     7
 10
-12.349999999999961
 20
-3.841658913849471
 30
0.0
  0
VERTEX
  5
5A0
  8
DATA
  6
CONTINUOUS
 62
     7
 10
-12.349999999999961
 20
-11.84165891384947
 30
0.0
  0
VERTEX
  5
5A1
  8
DATA
  6
CONTINUOUS
 62
     7
 10
-13.049999999999979
 20
-11.84165891384947
 30
0.0
  0
SEQEND
  5
5A2
  8
DATA
  6
CONTINUOUS
 62
     7
  0
POLYLINE
  5
2E2
  8
DATA
  6
CONTINUOUS
 62
     7
 66
     1
 10
0.0
 20
0.0
 30
0.0
 70
     1
  0
VERTEX
  5
5A3
  8
DATA
  6
CONTINUOUS
 62
     7
 10
-11.64999999999999
 20
-3.841658913849471
 30
0.0
  0
VERTEX
  5
5A4
  8
DATA
  6
CONTINUOUS
 62
     7
 10
-10.949999999999971
 20
-3.841658913849471
 30
0.0
  0
VERTEX
  5
5A5
  8
DATA
  6
CONTINUOUS
 62
     7
 10
-10.949999999999971
 20
-11.84165891384947
 30
0.0
  0
VERTEX
  5
5A6
  8
DATA
  6
CONTINUOUS
 62
     7
 10
-11.64999999999999
 20
-11.84165891384947
 30
0.0
  0
SEQEND
  5
5A7
  8
DATA
  6
CONTINUOUS
 62
     7
  0
POLYLINE
  5
2E9
  8
DATA
  6
CONTINUOUS
 62
     7
 66
     1
 10
0.0
 20
0.0
 30
0.0
 70
     1
  0
VERTEX
  5
5A8
  8
DATA
  6
CONTINUOUS
 62
     7
 10
-10.249999999999989
 20
-3.841658913849471
 30
0.0
  0
VERTEX
  5
5A9
  8
DATA
  6
CONTINUOUS
 62
     7
 10
-9.5499999999999687
 20
-3.841658913849471
 30
0.0
  0
VERTEX
  5
5AA
  8
DATA
  6
CONTINUOUS
 62
     7
 10
-9.5499999999999687
 20
-11.84165891384947
 30
0.0
  0
VERTEX
  5
5AB
  8
DATA
  6
CONTINUOUS
 62
     7
 10
-10.249999999999989
 20
-11.84165891384947
 30
0.0
  0
SEQEND
  5
5AC
  8
DATA
  6
CONTINUOUS
 62
     7
  0
POLYLINE
  5
2F0
  8
DATA
  6
CONTINUOUS
 62
     7
 66
     1
 10
0.0
 20
0.0
 30
0.0
 70
     1
  0
VERTEX
  5
5AD
  8
DATA
  6
CONTINUOUS
 62
     7
 10
-8.8499999999999801
 20
-3.841658913849471
 30
0.0
  0
VERTEX
  5
5AE
  8
DATA
  6
CONTINUOUS
 62
     7
 10
-8.1499999999999631
 20
-3.841658913849471
 30
0.0
  0
VERTEX
  5
5AF
  8
DATA
  6
CONTINUOUS
 62
     7
 10
-8.1499999999999631
 20
-11.84165891384947
 30
0.0
  0
VERTEX
  5
5B0
  8
DATA
  6
CONTINUOUS
 62
     7
 10
-8.8499999999999801
 20
-11.84165891384947
 30
0.0
  0
SEQEND
  5
5B1
  8
DATA
  6
CONTINUOUS
 62
     7
  0
POLYLINE
  5
2F7
  8
DATA
  6
CONTINUOUS
 62
     7
 66
     1
 10
0.0
 20
0.0
 30
0.0
 70
     1
  0
VERTEX
  5
5B2
  8
DATA
  6
CONTINUOUS
 62
     7
 10
-7.449999999999986
 20
-3.841658913849471
 30
0.0
  0
VERTEX
  5
5B3
  8
DATA
  6
CONTINUOUS
 62
     7
 10
-6.7499999999999707
 20
-3.841658913849471
 30
0.0
  0
VERTEX
  5
5B4
  8
DATA
  6
CONTINUOUS
 62
     7
 10
-6.7499999999999707
 20
-11.84165891384947
 30
0.0
  0
VERTEX
  5
5B5
  8
DATA
  6
CONTINUOUS
 62
     7
 10
-7.449999999999986
 20
-11.84165891384947
 30
0.0
  0
SEQEND
  5
5B6
  8
DATA
  6
CONTINUOUS
 62
     7
  0
LINE
  5
2FE
  8
DATA
  6
STYLE_01
 62
     7
 10
-28.386952945777509
 20
-21.779317830555161
 30
0.0
 11
-2.613047054222434
 21
-21.779317830555161
 31
0.0
  0
LINE
  5
2FF
  8
DATA
  6
STYLE_01
 62
     7
 10
-46.954387204777568
 20
23.599516157278249
 30
0.0
 11
-36.853933545600754
 21
102.49224879246999
 31
0.0
  0
LINE
  5
300
  8
DATA
  6
STYLE_01
 62
     7
 10
-37.709214620299221
 20
-9.9091940220787915
 30
0.0
 11
-28.386952945777509
 21
-21.779317830555161
 31
0.0
  0
LINE
  5
301
  8
DATA
  6
STYLE_01
 62
     7
 10
15.95438720477757
 20
23.599516157278231
 30
0.0
 11
5.8539335455826196
 21
102.4922487926119
 31
0.0
  0
LINE
  5
302
  8
DATA
  6
STYLE_01
 62
     7
 10
6.7092146202992486
 20
-9.9091940220787915
 30
0.0
 11
-2.613047054222434
 21
-21.779317830555161
 31
0.0
  0
ARC
  5
303
  8
DATA
  6
STYLE_01
 62
     7
 10
-2.318713952791895
 20
17.884914391453091
 30
0.0
 40
45.000000000000021
 50
172.70424322139081
 51
218.14449815252439
  0
ARC
  5
304
  8
DATA
  6
STYLE_01
 62
     7
 10
-28.681286047208079
 20
17.884914391453059
 30
0.0
 40
44.999999999999993
 50
321.85550184747581
 51
7.2957567786092428
  0
ARC
  5
305
  8
DATA
  6
STYLE_01
 62
     7
 10
-15.49999999999997
 20
99.0
 30
0.0
 40
21.637612610881352
 50
9.2880005253835982
 51
170.71199947398509
  0
ARC
  5
306
  8
DATA
  6
CONTINUOUS
 62
     7
 10
-15.49999999999997
 20
99.0
 30
0.0
 40
21.637612610881341
 50
243.95669867471199
 51
296.04330132528793
  0
CIRCLE
  5
307
  8
DATA
  6
STYLE_01
 62
     7
 10
-15.49999999999997
 20
181.25
 30
0.0
 40
31.600000000000009
  0
CIRCLE
  5
308
  8
DATA
  6
CONTINUOUS
 62
     7
 10
-15.427836826807949
 20
181.25
 30
0.0
 40
3.8000000000000109
  0
ARC
  5
309
  8
DATA
  6
CONTINUOUS
 62
     7
 10
-15.427836826807949
 20
181.25
 30
0.0
 40
9.5
 50
90.000000000007745
 51
109.9999999999999
  0
ARC
  5
30A
  8
DATA
  6
CONTINUOUS
 62
     7
 10
-15.427836826807949
 20
181.25
 30
0.0
 40
9.5000000000000089
 50
129.9999999999998
 51
149.99999999999969
  0
ARC
  5
30B
  8
DATA
  6
CONTINUOUS
 62
     7
 10
-15.427836826807949
 20
181.25
 30
0.0
 40
9.5000000000000142
 50
169.9999999999996
 51
189.99999999999949
  0
ARC
  5
30C
  8
DATA
  6
CONTINUOUS
 62
     7
 10
-15.427836826807949
 20
181.25
 30
0.0
 40
9.5000000000000036
 50
209.9999999999994
 51
229.9999999999994
  0
ARC
  5
30D
  8
DATA
  6
CONTINUOUS
 62
     7
 10
-15.427836826807949
 20
181.25
 30
0.0
 40
9.5000000000000124
 50
249.9999999999996
 51
270.00000000000767
  0
ARC
  5
30E
  8
DATA
  6
CONTINUOUS
 62
     7
 10
-15.427836826807949
 20
181.25
 30
0.0
 40
9.5000000000000089
 50
289.99999999999972
 51
309.9999999999996
  0
ARC
  5
30F
  8
DATA
  6
CONTINUOUS
 62
     7
 10
-15.427836826807949
 20
181.25
 30
0.0
 40
9.5000000000000195
 50
329.99999999999972
 51
349.99999999999977
  0
ARC
  5
310
  8
DATA
  6
CONTINUOUS
 62
     7
 10
-15.427836826807949
 20
181.25
 30
0.0
 40
9.5
 50
9.9999999999999272
 51
29.99999999999994
  0
ARC
  5
311
  8
DATA
  6
CONTINUOUS
 62
     7
 10
-15.427836826807949
 20
181.25
 30
0.0
 40
9.4999999999999964
 50
50.0
 51
70.0
  0
CIRCLE
  5
312
  8
DATA
  6
CONTINUOUS
 62
     7
 10
-15.427836826807949
 20
181.25
 30
0.0
 40
1.0
  0
ARC
  5
313
  8
DATA
  6
CONTINUOUS
 62
     7
 10
-15.427836826807919
 20
181.25
 30
0.0
 40
9.2499999999999716
 50
70.007125127731982
 51
90.007125127722915
  0
ARC
  5
314
  8
DATA
  6
CONTINUOUS
 62
     7
 10
-15.427836826807919
 20
181.25
 30
0.0
 40
9.2499999999999751
 50
110.007125127732
 51
130.00712512773211
  0
ARC
  5
315
  8
DATA
  6
CONTINUOUS
 62
     7
 10
-15.427836826807919
 20
181.25
 30
0.0
 40
9.2499999999999751
 50
150.0071251277318
 51
170.0071251277318
  0
ARC
  5
316
  8
DATA
  6
CONTINUOUS
 62
     7
 10
-15.427836826807919
 20
181.25
 30
0.0
 40
9.2499999999999822
 50
190.00712512773151
 51
210.0071251277316
  0
ARC
  5
317
  8
DATA
  6
CONTINUOUS
 62
     7
 10
-15.427836826807919
 20
181.25
 30
0.0
 40
9.249999999999984
 50
230.0071251277314
 51
250.00712512773131
  0
ARC
  5
318
  8
DATA
  6
CONTINUOUS
 62
     7
 10
-15.427836826807919
 20
181.25
 30
0.0
 40
9.249999999999984
 50
270.00712512772259
 51
290.0071251277314
  0
ARC
  5
319
  8
DATA
  6
CONTINUOUS
 62
     7
 10
-15.427836826807919
 20
181.25
 30
0.0
 40
9.249999999999984
 50
310.00712512773129
 51
330.0071251277314
  0
ARC
  5
31A
  8
DATA
  6
CONTINUOUS
 62
     7
 10
-15.427836826807919
 20
181.25
 30
0.0
 40
9.249999999999984
 50
350.00712512773163
 51
10.00712598150511
  0
ARC
  5
31B
  8
DATA
  6
CONTINUOUS
 62
     7
 10
-15.427836826807919
 20
181.25
 30
0.0
 40
9.2499999999999876
 50
30.007125127731719
 51
50.007125127731953
  0
LINE
  5
31C
  8
DATA
  6
CONTINUOUS
 62
     7
 10
-15.45406411403331
 20
185.04990948963319
 30
0.0
 11
-15.427836826807949
 21
190.75
 31
0.0
  0
LINE
  5
31D
  8
DATA
  6
CONTINUOUS
 62
     7
 10
-14.15283682680794
 20
184.82971716759849
 30
0.0
 11
-12.178645465214091
 21
190.17707989746609
 31
0.0
  0
LINE
  5
31E
  8
DATA
  6
CONTINUOUS
 62
     7
 10
-13.00539335657848
 20
184.1777581241528
 30
0.0
 11
-9.3213545347858222
 21
188.52742220963029
 31
0.0
  0
LINE
  5
31F
  8
DATA
  6
CONTINUOUS
 62
     7
 10
-12.150132320316679
 20
183.1726682418261
 30
0.0
 11
-7.2005954908557888
 21
186.0
 31
0.0
  0
LINE
  5
320
  8
DATA
  6
CONTINUOUS
 62
     7
 10
-11.6902108213043
 20
181.9356761939741
 30
0.0
 11
-6.0721631731919947
 21
182.8996576878358
 31
0.0
  0
LINE
  5
321
  8
DATA
  6
CONTINUOUS
 62
     7
 10
-11.68110218004062
 20
180.61598147762589
 30
0.0
 11
-6.0721631731920231
 21
179.60034231216409
 31
0.0
  0
LINE
  5
322
  8
DATA
  6
CONTINUOUS
 62
     7
 10
-12.123905033091321
 20
179.37275875219291
 30
0.0
 11
-7.2005954908558474
 21
176.5
 31
0.0
  0
LINE
  5
323
  8
DATA
  6
CONTINUOUS
 62
     7
 10
-12.965210821304311
 20
178.35595902637559
 30
0.0
 11
-9.3213545347859128
 21
173.97257779036971
 31
0.0
  0
LINE
  5
324
  8
DATA
  6
CONTINUOUS
 62
     7
 10
-14.103545650270091
 20
177.68822335347321
 30
0.0
 11
-12.178645465214171
 21
172.32292010253391
 31
0.0
  0
LINE
  5
325
  8
DATA
  6
CONTINUOUS
 62
     7
 10
-15.40160953958255
 20
177.45009051036681
 30
0.0
 11
-15.427836826807949
 21
171.75
 31
0.0
  0
LINE
  5
326
  8
DATA
  6
CONTINUOUS
 62
     7
 10
-16.70283682680795
 20
177.6702828324014
 30
0.0
 11
-18.677028188401881
 21
172.32292010253391
 31
0.0
  0
LINE
  5
327
  8
DATA
  6
CONTINUOUS
 62
     7
 10
-17.85028029703739
 20
178.3222418758472
 30
0.0
 11
-21.534319118830119
 21
173.97257779036971
 31
0.0
  0
LINE
  5
328
  8
DATA
  6
CONTINUOUS
 62
     7
 10
-18.705541333299191
 20
179.32733175817381
 30
0.0
 11
-23.655078162760159
 21
176.50000000000011
 31
0.0
  0
LINE
  5
329
  8
DATA
  6
CONTINUOUS
 62
     7
 10
-19.16546283231159
 20
180.5643238060259
 30
0.0
 11
-24.78351048042396
 21
179.6003423121642
 31
0.0
  0
LINE
  5
32A
  8
DATA
  6
CONTINUOUS
 62
     7
 10
-19.174571473575241
 20
181.88401852237399
 30
0.0
 11
-24.783510480423931
 21
182.89965768783591
 31
0.0
  0
LINE
  5
32B
  8
DATA
  6
CONTINUOUS
 62
     7
 10
-18.731768620524569
 20
183.12724124780709
 30
0.0
 11
-23.655078162760109
 21
186.00000000000011
 31
0.0
  0
LINE
  5
32C
  8
DATA
  6
CONTINUOUS
 62
     7
 10
-17.89046283231157
 20
184.14404097362441
 30
0.0
 11
-21.534319118830069
 21
188.5274222096304
 31
0.0
  0
LINE
  5
32D
  8
DATA
  6
CONTINUOUS
 62
     7
 10
-16.752128003345788
 20
184.81177664652679
 30
0.0
 11
-18.677028188401788
 21
190.17707989746609
 31
0.0
  0
TEXT
  5
32E
  8
DATA
 62
     7
 10
61.208781483878177
 20
141.1027142333148
 30
0.0
 40
8.1442057291666661
  1
ウインドスクリーン
 41
0.7
 11
61.208781483878177
 21
149.2469199624814
 31
0.0
 73
     3
  0
LINE
  5
32F
  8
DATA
  6
CONTINUOUS
 62
     7
 10
2.5051736869871202
 20
111.0
 30
0.0
 11
43.75
 21
137.5
 31
0.0
  0
LINE
  5
330
  8
DATA
  6
CONTINUOUS
 62
     7
 10
2.5051736869871202
 20
111.0
 30
0.0
 11
9.2303633473071187
 21
118.21188296070871
 31
0.0
  0
LINE
  5
331
  8
DATA
  6
CONTINUOUS
 62
     7
 10
2.5051736869871202
 20
111.0
 30
0.0
 11
11.935300258447031
 21
113.8830790229338
 31
0.0
  0
LINE
  5
332
  8
DATA
  6
CONTINUOUS
 62
     7
 10
43.75
 20
137.5
 30
0.0
 11
5.5702990012007367
 21
157.69999999999999
 31
0.0
  0
LINE
  5
333
  8
DATA
  6
CONTINUOUS
 62
     7
 10
5.5702990012007367
 20
157.69999999999999
 30
0.0
 11
15.21581798766718
 21
155.6497816487138
 31
0.0
  0
LINE
  5
334
  8
DATA
  6
CONTINUOUS
 62
     7
 10
5.5702990012007367
 20
157.69999999999999
 30
0.0
 11
12.898454300522699
 21
151.10169933124789
 31
0.0
  0
LINE
  5
335
  8
DATA
  6
CONTINUOUS
 62
     7
 10
43.75
 20
137.5
 30
0.0
 11
169.0
 21
137.5
 31
0.0
  0
LINE
  5
336
  8
DATA
  6
CONTINUOUS
 62
     7
 10
-25.0
 20
-118.75
 30
0.0
 11
-24.999999999999989
 21
93.250000000000014
 31
0.0
  0
LINE
  5
337
  8
DATA
  6
CONTINUOUS
 62
     7
 10
-6.0
 20
-118.75
 30
0.0
 11
-25.0
 21
-118.75
 31
0.0
  0
LINE
  5
338
  8
DATA
  6
CONTINUOUS
 62
     7
 10
-5.9999999999999849
 20
93.250000000000014
 30
0.0
 11
-6.0
 21
-118.75
 31
0.0
  0
LINE
  5
339
  8
DATA
  6
CONTINUOUS
 62
     7
 10
-6.0
 20
-19.75
 30
0.0
 11
-25.0
 21
-19.75
 31
0.0
  0
CIRCLE
  5
33A
  8
DATA
  6
CONTINUOUS
 62
     7
 10
-15.5
 20
-150.0
 30
0.0
 40
9.5
  0
ARC
  5
33B
  8
DATA
  6
CONTINUOUS
 62
     7
 10
-15.500000000000069
 20
-150.0
 30
0.0
 40
8.0000000000000302
 50
52.793688021979563
 51
38.897425550919401
  0
CIRCLE
  5
33C
  8
DATA
  6
CONTINUOUS
 62
     7
 10
-15.5
 20
-154.0
 30
0.0
 40
1.150000000000005
  0
CIRCLE
  5
33D
  8
DATA
  6
CONTINUOUS
 62
     7
 10
-19.5
 20
-150.0
 30
0.0
 40
1.150000000000005
  0
CIRCLE
  5
33E
  8
DATA
  6
CONTINUOUS
 62
     7
 10
-11.5
 20
-150.0
 30
0.0
 40
1.150000000000005
  0
ARC
  5
33F
  8
DATA
  6
CONTINUOUS
 62
     7
 10
-10.400913896208619
 20
-144.74814622320179
 30
0.0
 40
1.150000000000003
 50
348.54291116051758
 51
103.1482024123824
  0
LINE
  5
340
  8
DATA
  6
CONTINUOUS
 62
     7
 10
-6.0
 20
-19.449999999999989
 30
0.0
 11
-25.0
 21
-19.449999999999989
 31
0.0
  0
LINE
  5
341
  8
DATA
  6
CONTINUOUS
 62
     7
 10
-6.0
 20
-66.75
 30
0.0
 11
-25.0
 21
-66.75
 31
0.0
  0
LINE
  5
342
  8
DATA
  6
CONTINUOUS
 62
     7
 10
-6.0
 20
-60.75
 30
0.0
 11
-25.0
 21
-60.75
 31
0.0
  0
LINE
  5
343
  8
DATA
  6
CONTINUOUS
 62
     7
 10
-6.0
 20
-51.949999999999989
 30
0.0
 11
-25.0
 21
-51.949999999999989
 31
0.0
  0
LINE
  5
344
  8
DATA
  6
CONTINUOUS
 62
     7
 10
-6.0
 20
-45.949999999999982
 30
0.0
 11
-25.0
 21
-45.949999999999982
 31
0.0
  0
CIRCLE
  5
345
  8
DATA
  6
CONTINUOUS
 62
     7
 10
-15.49999999999998
 20
-48.949999999999989
 30
0.0
 40
0.25
  0
CIRCLE
  5
346
  8
DATA
  6
CONTINUOUS
 62
     7
 10
-15.49999999999998
 20
-63.75
 30
0.0
 40
0.25
  0
TEXT
  5
347
  8
DATA
 62
     7
 10
-22.874126286971119
 20
-57.232967696243549
 30
0.0
 40
1.6288411458333329
  1
Off
 41
0.7
 11
-22.874126286971119
 21
-55.604126550410221
 31
0.0
 73
     3
  0
TEXT
  5
348
  8
DATA
 62
     7
 10
-11.39489279296177
 20
-57.232967696243549
 30
0.0
 40
1.6288411458333329
  1
On
 41
0.7
 11
-11.39489279296177
 21
-55.604126550410221
 31
0.0
 73
     3
  0
LINE
  5
349
  8
DATA
  6
CONTINUOUS
 62
     7
 10
-19.25
 20
-54.850000000000023
 30
0.0
 11
-19.25
 21
-51.949999999999989
 31
0.0
  0
LINE
  5
34A
  8
DATA
  6
CONTINUOUS
 62
     7
 10
-11.75
 20
-54.850000000000023
 30
0.0
 11
-11.75
 21
-51.949999999999989
 31
0.0
  0
LINE
  5
34B
  8
DATA
  6
CONTINUOUS
 62
     7
 10
-19.25
 20
-57.850000000000009
 30
0.0
 11
-19.25
 21
-60.75
 31
0.0
  0
LINE
  5
34C
  8
DATA
  6
CONTINUOUS
 62
     7
 10
-11.75
 20
-57.850000000000009
 30
0.0
 11
-11.75
 21
-60.75
 31
0.0
  0
LINE
  5
34D
  8
DATA
  6
CONTINUOUS
 62
     7
 10
-12.699999999999999
 20
-58.350000000000009
 30
0.0
 11
-16.899999999999999
 21
-58.350000000000009
 31
0.0
  0
LINE
  5
34E
  8
DATA
  6
CONTINUOUS
 62
     7
 10
-16.899999999999999
 20
-58.350000000000009
 30
0.0
 11
-18.600000000000009
 21
-59.75
 31
0.0
  0
LINE
  5
34F
  8
DATA
  6
CONTINUOUS
 62
     7
 10
-18.800000000000001
 20
-54.450000000000017
 30
0.0
 11
-16.600000000000009
 21
-54.450000000000017
 31
0.0
  0
LINE
  5
350
  8
DATA
  6
CONTINUOUS
 62
     7
 10
-16.600000000000009
 20
-54.450000000000017
 30
0.0
 11
-14.699999999999999
 21
-53.353034488539713
 31
0.0
  0
LINE
  5
351
  8
DATA
  6
CONTINUOUS
 62
     7
 10
-14.699999999999999
 20
-53.353034488539713
 30
0.0
 11
-12.699999999999999
 21
-53.353034488539713
 31
0.0
  0
LINE
  5
352
  8
DATA
  6
CONTINUOUS
 62
     7
 10
-24.20000000000001
 20
-66.75
 30
0.0
 11
-24.20000000000001
 21
-60.700000000000017
 31
0.0
  0
LINE
  5
353
  8
DATA
  6
CONTINUOUS
 62
     7
 10
-24.20000000000001
 20
-66.75
 30
0.0
 11
-24.20000000000001
 21
-60.75
 31
0.0
  0
LINE
  5
354
  8
DATA
  6
CONTINUOUS
 62
     7
 10
-24.20000000000001
 20
-51.949999999999989
 30
0.0
 11
-24.20000000000001
 21
-45.949999999999982
 31
0.0
  0
LINE
  5
355
  8
DATA
  6
CONTINUOUS
 62
     7
 10
-23.400000000000009
 20
-66.75
 30
0.0
 11
-23.400000000000009
 21
-60.700000000000017
 31
0.0
  0
LINE
  5
356
  8
DATA
  6
CONTINUOUS
 62
     7
 10
-23.400000000000009
 20
-66.75
 30
0.0
 11
-23.400000000000009
 21
-60.75
 31
0.0
  0
LINE
  5
357
  8
DATA
  6
CONTINUOUS
 62
     7
 10
-23.400000000000009
 20
-51.949999999999989
 30
0.0
 11
-23.400000000000009
 21
-45.949999999999982
 31
0.0
  0
LINE
  5
358
  8
DATA
  6
CONTINUOUS
 62
     7
 10
-22.599999999999991
 20
-66.75
 30
0.0
 11
-22.599999999999991
 21
-60.700000000000017
 31
0.0
  0
LINE
  5
359
  8
DATA
  6
CONTINUOUS
 62
     7
 10
-22.599999999999991
 20
-66.75
 30
0.0
 11
-22.599999999999991
 21
-60.75
 31
0.0
  0
LINE
  5
35A
  8
DATA
  6
CONTINUOUS
 62
     7
 10
-22.599999999999991
 20
-51.949999999999989
 30
0.0
 11
-22.599999999999991
 21
-45.949999999999982
 31
0.0
  0
LINE
  5
35B
  8
DATA
  6
CONTINUOUS
 62
     7
 10
-21.800000000000001
 20
-66.75
 30
0.0
 11
-21.800000000000001
 21
-60.700000000000017
 31
0.0
  0
LINE
  5
35C
  8
DATA
  6
CONTINUOUS
 62
     7
 10
-21.800000000000001
 20
-66.75
 30
0.0
 11
-21.800000000000001
 21
-60.75
 31
0.0
  0
LINE
  5
35D
  8
DATA
  6
CONTINUOUS
 62
     7
 10
-21.800000000000001
 20
-51.949999999999989
 30
0.0
 11
-21.800000000000001
 21
-45.949999999999982
 31
0.0
  0
LINE
  5
35E
  8
DATA
  6
CONTINUOUS
 62
     7
 10
-21.0
 20
-66.75
 30
0.0
 11
-21.0
 21
-60.700000000000017
 31
0.0
  0
LINE
  5
35F
  8
DATA
  6
CONTINUOUS
 62
     7
 10
-21.0
 20
-66.75
 30
0.0
 11
-21.0
 21
-60.75
 31
0.0
  0
LINE
  5
360
  8
DATA
  6
CONTINUOUS
 62
     7
 10
-21.0
 20
-51.949999999999989
 30
0.0
 11
-21.0
 21
-45.949999999999982
 31
0.0
  0
LINE
  5
361
  8
DATA
  6
CONTINUOUS
 62
     7
 10
-20.20000000000001
 20
-66.75
 30
0.0
 11
-20.20000000000001
 21
-60.700000000000017
 31
0.0
  0
LINE
  5
362
  8
DATA
  6
CONTINUOUS
 62
     7
 10
-20.20000000000001
 20
-66.75
 30
0.0
 11
-20.20000000000001
 21
-60.75
 31
0.0
  0
LINE
  5
363
  8
DATA
  6
CONTINUOUS
 62
     7
 10
-20.20000000000001
 20
-51.949999999999989
 30
0.0
 11
-20.20000000000001
 21
-45.949999999999982
 31
0.0
  0
LINE
  5
364
  8
DATA
  6
CONTINUOUS
 62
     7
 10
-19.399999999999999
 20
-66.75
 30
0.0
 11
-19.399999999999999
 21
-60.700000000000017
 31
0.0
  0
LINE
  5
365
  8
DATA
  6
CONTINUOUS
 62
     7
 10
-19.399999999999999
 20
-66.75
 30
0.0
 11
-19.399999999999999
 21
-60.75
 31
0.0
  0
LINE
  5
366
  8
DATA
  6
CONTINUOUS
 62
     7
 10
-19.399999999999999
 20
-51.949999999999989
 30
0.0
 11
-19.399999999999999
 21
-45.949999999999982
 31
0.0
  0
LINE
  5
367
  8
DATA
  6
CONTINUOUS
 62
     7
 10
-18.599999999999991
 20
-66.75
 30
0.0
 11
-18.599999999999991
 21
-60.700000000000017
 31
0.0
  0
LINE
  5
368
  8
DATA
  6
CONTINUOUS
 62
     7
 10
-18.599999999999991
 20
-66.75
 30
0.0
 11
-18.599999999999991
 21
-60.75
 31
0.0
  0
LINE
  5
369
  8
DATA
  6
CONTINUOUS
 62
     7
 10
-18.599999999999991
 20
-51.949999999999989
 30
0.0
 11
-18.599999999999991
 21
-45.949999999999982
 31
0.0
  0
LINE
  5
36A
  8
DATA
  6
CONTINUOUS
 62
     7
 10
-17.79999999999999
 20
-66.75
 30
0.0
 11
-17.79999999999999
 21
-60.700000000000017
 31
0.0
  0
LINE
  5
36B
  8
DATA
  6
CONTINUOUS
 62
     7
 10
-17.79999999999999
 20
-66.75
 30
0.0
 11
-17.79999999999999
 21
-60.75
 31
0.0
  0
LINE
  5
36C
  8
DATA
  6
CONTINUOUS
 62
     7
 10
-17.79999999999999
 20
-51.949999999999989
 30
0.0
 11
-17.79999999999999
 21
-45.949999999999982
 31
0.0
  0
LINE
  5
36D
  8
DATA
  6
CONTINUOUS
 62
     7
 10
-17.0
 20
-66.75
 30
0.0
 11
-17.0
 21
-60.700000000000017
 31
0.0
  0
LINE
  5
36E
  8
DATA
  6
CONTINUOUS
 62
     7
 10
-17.0
 20
-66.75
 30
0.0
 11
-17.0
 21
-60.75
 31
0.0
  0
LINE
  5
36F
  8
DATA
  6
CONTINUOUS
 62
     7
 10
-17.0
 20
-51.949999999999989
 30
0.0
 11
-17.0
 21
-45.949999999999982
 31
0.0
  0
LINE
  5
370
  8
DATA
  6
CONTINUOUS
 62
     7
 10
-16.199999999999999
 20
-66.75
 30
0.0
 11
-16.199999999999999
 21
-60.700000000000017
 31
0.0
  0
LINE
  5
371
  8
DATA
  6
CONTINUOUS
 62
     7
 10
-16.199999999999999
 20
-66.75
 30
0.0
 11
-16.199999999999999
 21
-60.75
 31
0.0
  0
LINE
  5
372
  8
DATA
  6
CONTINUOUS
 62
     7
 10
-16.199999999999999
 20
-51.949999999999989
 30
0.0
 11
-16.199999999999999
 21
-45.949999999999982
 31
0.0
  0
LINE
  5
373
  8
DATA
  6
CONTINUOUS
 62
     7
 10
-15.4
 20
-66.75
 30
0.0
 11
-15.4
 21
-60.700000000000017
 31
0.0
  0
LINE
  5
374
  8
DATA
  6
CONTINUOUS
 62
     7
 10
-15.4
 20
-66.75
 30
0.0
 11
-15.4
 21
-60.75
 31
0.0
  0
LINE
  5
375
  8
DATA
  6
CONTINUOUS
 62
     7
 10
-15.4
 20
-51.949999999999989
 30
0.0
 11
-15.4
 21
-45.949999999999982
 31
0.0
  0
LINE
  5
376
  8
DATA
  6
CONTINUOUS
 62
     7
 10
-14.599999999999991
 20
-66.75
 30
0.0
 11
-14.599999999999991
 21
-60.700000000000017
 31
0.0
  0
LINE
  5
377
  8
DATA
  6
CONTINUOUS
 62
     7
 10
-14.599999999999991
 20
-66.75
 30
0.0
 11
-14.599999999999991
 21
-60.75
 31
0.0
  0
LINE
  5
378
  8
DATA
  6
CONTINUOUS
 62
     7
 10
-14.599999999999991
 20
-51.949999999999989
 30
0.0
 11
-14.599999999999991
 21
-45.949999999999982
 31
0.0
  0
LINE
  5
379
  8
DATA
  6
CONTINUOUS
 62
     7
 10
-13.79999999999999
 20
-66.75
 30
0.0
 11
-13.79999999999999
 21
-60.700000000000017
 31
0.0
  0
LINE
  5
37A
  8
DATA
  6
CONTINUOUS
 62
     7
 10
-13.79999999999999
 20
-66.75
 30
0.0
 11
-13.79999999999999
 21
-60.75
 31
0.0
  0
LINE
  5
37B
  8
DATA
  6
CONTINUOUS
 62
     7
 10
-13.79999999999999
 20
-51.949999999999989
 30
0.0
 11
-13.79999999999999
 21
-45.949999999999982
 31
0.0
  0
LINE
  5
37C
  8
DATA
  6
CONTINUOUS
 62
     7
 10
-13.0
 20
-66.75
 30
0.0
 11
-13.0
 21
-60.700000000000017
 31
0.0
  0
LINE
  5
37D
  8
DATA
  6
CONTINUOUS
 62
     7
 10
-13.0
 20
-66.75
 30
0.0
 11
-13.0
 21
-60.75
 31
0.0
  0
LINE
  5
37E
  8
DATA
  6
CONTINUOUS
 62
     7
 10
-13.0
 20
-51.949999999999989
 30
0.0
 11
-13.0
 21
-45.949999999999982
 31
0.0
  0
LINE
  5
37F
  8
DATA
  6
CONTINUOUS
 62
     7
 10
-12.199999999999999
 20
-66.75
 30
0.0
 11
-12.199999999999999
 21
-60.700000000000017
 31
0.0
  0
LINE
  5
380
  8
DATA
  6
CONTINUOUS
 62
     7
 10
-12.199999999999999
 20
-66.75
 30
0.0
 11
-12.199999999999999
 21
-60.75
 31
0.0
  0
LINE
  5
381
  8
DATA
  6
CONTINUOUS
 62
     7
 10
-12.199999999999999
 20
-51.949999999999989
 30
0.0
 11
-12.199999999999999
 21
-45.949999999999982
 31
0.0
  0
LINE
  5
382
  8
DATA
  6
CONTINUOUS
 62
     7
 10
-11.39999999999999
 20
-66.75
 30
0.0
 11
-11.39999999999999
 21
-60.700000000000017
 31
0.0
  0
LINE
  5
383
  8
DATA
  6
CONTINUOUS
 62
     7
 10
-11.39999999999999
 20
-66.75
 30
0.0
 11
-11.39999999999999
 21
-60.75
 31
0.0
  0
LINE
  5
384
  8
DATA
  6
CONTINUOUS
 62
     7
 10
-11.39999999999999
 20
-51.949999999999989
 30
0.0
 11
-11.39999999999999
 21
-45.949999999999982
 31
0.0
  0
LINE
  5
385
  8
DATA
  6
CONTINUOUS
 62
     7
 10
-10.599999999999991
 20
-66.75
 30
0.0
 11
-10.599999999999991
 21
-60.700000000000017
 31
0.0
  0
LINE
  5
386
  8
DATA
  6
CONTINUOUS
 62
     7
 10
-10.599999999999991
 20
-66.75
 30
0.0
 11
-10.599999999999991
 21
-60.75
 31
0.0
  0
LINE
  5
387
  8
DATA
  6
CONTINUOUS
 62
     7
 10
-10.599999999999991
 20
-51.949999999999989
 30
0.0
 11
-10.599999999999991
 21
-45.949999999999982
 31
0.0
  0
LINE
  5
388
  8
DATA
  6
CONTINUOUS
 62
     7
 10
-9.7999999999999972
 20
-66.75
 30
0.0
 11
-9.7999999999999972
 21
-60.700000000000017
 31
0.0
  0
LINE
  5
389
  8
DATA
  6
CONTINUOUS
 62
     7
 10
-9.7999999999999972
 20
-66.75
 30
0.0
 11
-9.7999999999999972
 21
-60.75
 31
0.0
  0
LINE
  5
38A
  8
DATA
  6
CONTINUOUS
 62
     7
 10
-9.7999999999999972
 20
-51.949999999999989
 30
0.0
 11
-9.7999999999999972
 21
-45.949999999999982
 31
0.0
  0
LINE
  5
38B
  8
DATA
  6
CONTINUOUS
 62
     7
 10
-9.0
 20
-66.75
 30
0.0
 11
-9.0
 21
-60.700000000000017
 31
0.0
  0
LINE
  5
38C
  8
DATA
  6
CONTINUOUS
 62
     7
 10
-9.0
 20
-66.75
 30
0.0
 11
-9.0
 21
-60.75
 31
0.0
  0
LINE
  5
38D
  8
DATA
  6
CONTINUOUS
 62
     7
 10
-9.0
 20
-51.949999999999989
 30
0.0
 11
-9.0
 21
-45.949999999999982
 31
0.0
  0
LINE
  5
38E
  8
DATA
  6
CONTINUOUS
 62
     7
 10
-8.2000000000000028
 20
-66.75
 30
0.0
 11
-8.2000000000000028
 21
-60.700000000000017
 31
0.0
  0
LINE
  5
38F
  8
DATA
  6
CONTINUOUS
 62
     7
 10
-8.2000000000000028
 20
-66.75
 30
0.0
 11
-8.2000000000000028
 21
-60.75
 31
0.0
  0
LINE
  5
390
  8
DATA
  6
CONTINUOUS
 62
     7
 10
-8.2000000000000028
 20
-51.949999999999989
 30
0.0
 11
-8.2000000000000028
 21
-45.949999999999982
 31
0.0
  0
LINE
  5
391
  8
DATA
  6
CONTINUOUS
 62
     7
 10
-7.3999999999999897
 20
-66.75
 30
0.0
 11
-7.3999999999999897
 21
-60.700000000000017
 31
0.0
  0
LINE
  5
392
  8
DATA
  6
CONTINUOUS
 62
     7
 10
-7.3999999999999897
 20
-66.75
 30
0.0
 11
-7.3999999999999897
 21
-60.75
 31
0.0
  0
LINE
  5
393
  8
DATA
  6
CONTINUOUS
 62
     7
 10
-7.3999999999999897
 20
-51.949999999999989
 30
0.0
 11
-7.3999999999999897
 21
-45.949999999999982
 31
0.0
  0
LINE
  5
394
  8
DATA
  6
CONTINUOUS
 62
     7
 10
-6.5999999999999934
 20
-66.75
 30
0.0
 11
-6.5999999999999934
 21
-60.700000000000017
 31
0.0
  0
LINE
  5
395
  8
DATA
  6
CONTINUOUS
 62
     7
 10
-6.5999999999999934
 20
-66.75
 30
0.0
 11
-6.5999999999999934
 21
-60.75
 31
0.0
  0
LINE
  5
396
  8
DATA
  6
CONTINUOUS
 62
     7
 10
-6.5999999999999934
 20
-51.949999999999989
 30
0.0
 11
-6.5999999999999934
 21
-45.949999999999982
 31
0.0
  0
ENDSEC
  0
EOF
