  0
SECTION
  2
HEADER
  9
$ACADVER
  1
AC1009
  9
$INSBASE
 10
0.0
 20
0.0
 30
0.0
  9
$EXTMIN
 10
-80.010985489947416
 20
-131.67677505465531
 30
-0.0015258207003583
  9
$EXTMAX
 10
280.01098716632811
 20
403.54994963264153
 30
0.0000000349246037
  9
$LIMMIN
 10
0.0
 20
0.0
  9
$LIMMAX
 10
12.0
 20
9.0
  9
$ORTHOMODE
 70
     0
  9
$REGENMODE
 70
     1
  9
$FILLMODE
 70
     1
  9
$QTEXTMODE
 70
     0
  9
$MIRRTEXT
 70
     1
  9
$DRAGMODE
 70
     2
  9
$LTSCALE
 40
10.16
  9
$OSMODE
 70
   231
  9
$ATTMODE
 70
     1
  9
$TEXTSIZE
 40
0.2
  9
$TRACEWID
 40
1.0
  9
$TEXTSTYLE
  7
STANDARD
  9
$CLAYER
  8
DATA
  9
$CELTYPE
  6
BYLAYER
  9
$CECOLOR
 62
   256
  9
$DIMSCALE
 40
1.0
  9
$DIMASZ
 40
0.18
  9
$DIMEXO
 40
0.0625
  9
$DIMDLI
 40
0.38
  9
$DIMRND
 40
0.0
  9
$DIMDLE
 40
0.0
  9
$DIMEXE
 40
0.18
  9
$DIMTP
 40
0.0
  9
$DIMTM
 40
0.0
  9
$DIMTXT
 40
0.18
  9
$DIMCEN
 40
0.09
  9
$DIMTSZ
 40
0.0
  9
$DIMTOL
 70
     0
  9
$DIMLIM
 70
     0
  9
$DIMTIH
 70
     1
  9
$DIMTOH
 70
     1
  9
$DIMSE1
 70
     0
  9
$DIMSE2
 70
     0
  9
$DIMTAD
 70
     0
  9
$DIMZIN
 70
     0
  9
$DIMBLK
  1

  9
$DIMASO
 70
     1
  9
$DIMSHO
 70
     1
  9
$DIMPOST
  1

  9
$DIMAPOST
  1

  9
$DIMALT
 70
     0
  9
$DIMALTD
 70
     2
  9
$DIMALTF
 40
25.399999999999999
  9
$DIMLFAC
 40
1.0
  9
$DIMTOFL
 70
     0
  9
$DIMTVP
 40
0.0
  9
$DIMTIX
 70
     0
  9
$DIMSOXD
 70
     0
  9
$DIMSAH
 70
     0
  9
$DIMBLK1
  1

  9
$DIMBLK2
  1

  9
$DIMSTYLE
  2
STANDARD
  9
$DIMCLRD
 70
     0
  9
$DIMCLRE
 70
     0
  9
$DIMCLRT
 70
     0
  9
$DIMTFAC
 40
1.0
  9
$DIMGAP
 40
0.09
  9
$LUNITS
 70
     2
  9
$LUPREC
 70
     4
  9
$SKETCHINC
 40
0.1
  9
$FILLETRAD
 40
0.5
  9
$AUNITS
 70
     0
  9
$AUPREC
 70
     0
  9
$MENU
  1
.
  9
$ELEVATION
 40
0.0
  9
$PELEVATION
 40
0.0
  9
$THICKNESS
 40
0.0
  9
$LIMCHECK
 70
     0
  9
$BLIPMODE
 70
     0
  9
$CHAMFERA
 40
0.5
  9
$CHAMFERB
 40
0.5
  9
$SKPOLY
 70
     0
  9
$TDCREATE
 40
2455779.5485796179
  9
$TDUPDATE
 40
2455779.550064398
  9
$TDINDWG
 40
0.000463125
  9
$TDUSRTIMER
 40
0.000463125
  9
$USRTIMER
 70
     1
  9
$ANGBASE
 50
0.0
  9
$ANGDIR
 70
     0
  9
$PDMODE
 70
     1
  9
$PDSIZE
 40
-2.0
  9
$PLINEWID
 40
0.0
  9
$COORDS
 70
     1
  9
$SPLFRAME
 70
     0
  9
$SPLINETYPE
 70
     6
  9
$SPLINESEGS
 70
     8
  9
$ATTDIA
 70
     0
  9
$ATTREQ
 70
     1
  9
$HANDLING
 70
     1
  9
$HANDSEED
  5
3B0
  9
$SURFTAB1
 70
     6
  9
$SURFTAB2
 70
     6
  9
$SURFTYPE
 70
     6
  9
$SURFU
 70
     6
  9
$SURFV
 70
     6
  9
$UCSNAME
  2

  9
$UCSORG
 10
0.0
 20
0.0
 30
0.0
  9
$UCSXDIR
 10
1.0
 20
0.0
 30
0.0
  9
$UCSYDIR
 10
0.0
 20
1.0
 30
0.0
  9
$PUCSNAME
  2

  9
$PUCSORG
 10
0.0
 20
0.0
 30
0.0
  9
$PUCSXDIR
 10
1.0
 20
0.0
 30
0.0
  9
$PUCSYDIR
 10
0.0
 20
1.0
 30
0.0
  9
$USERI1
 70
     0
  9
$USERI2
 70
     0
  9
$USERI3
 70
     0
  9
$USERI4
 70
     0
  9
$USERI5
 70
     0
  9
$USERR1
 40
0.0
  9
$USERR2
 40
0.0
  9
$USERR3
 40
0.0
  9
$USERR4
 40
0.0
  9
$USERR5
 40
0.0
  9
$WORLDVIEW
 70
     1
  9
$SHADEDGE
 70
     3
  9
$SHADEDIF
 70
    70
  9
$TILEMODE
 70
     1
  9
$MAXACTVP
 70
    64
  9
$PLIMCHECK
 70
     0
  9
$PEXTMIN
 10
1.0000000000000000E+020
 20
1.0000000000000000E+020
 30
1.0000000000000000E+020
  9
$PEXTMAX
 10
-1.0000000000000000E+020
 20
-1.0000000000000000E+020
 30
-1.0000000000000000E+020
  9
$PLIMMIN
 10
-20.0
 20
-7.5
  9
$PLIMMAX
 10
277.0
 20
202.5
  9
$UNITMODE
 70
     0
  9
$VISRETAIN
 70
     1
  9
$PLINEGEN
 70
     0
  9
$PSLTSCALE
 70
     1
  0
ENDSEC
  0
SECTION
  2
TABLES
  0
TABLE
  2
VPORT
 70
     1
  0
VPORT
  2
*ACTIVE
 70
     0
 10
0.0
 20
0.0
 11
1.0
 21
1.0
 12
100.0000008381904
 22
135.93658728899311
 13
0.0
 23
0.0
 14
0.5
 24
0.5
 15
0.5
 25
0.5
 16
0.0
 26
0.0
 36
1.0
 17
0.0
 27
0.0
 37
0.0
 40
539.16704413284754
 41
1.9619164619164611
 42
2000.0
 43
0.0
 44
0.0
 50
0.0
 51
0.0
 71
     0
 72
   100
 73
     1
 74
     3
 75
     0
 76
     0
 77
     0
 78
     0
  0
ENDTAB
  0
TABLE
  2
LTYPE
 70
    11
  0
LTYPE
  2
CONTINUOUS
 70
     0
  3
Solid line
 72
    65
 73
     0
 40
0.0
  0
LTYPE
  2
破線の種類-5
 70
     0
  3

 72
    65
 73
     2
 40
0.208282470703125
 49
0.069427490234375
 49
-0.13885498046875
  0
ENDTAB
  0
TABLE
  2
LAYER
 70
     5
  0
LAYER
  2
0
 70
     0
 62
     7
  6
CONTINUOUS
  0
LAYER
  2
DATA
 70
     0
 62
     7
  6
CONTINUOUS
  0
LAYER
  2
HIBINO-BASE
 70
     0
 62
     7
  6
CONTINUOUS
  0
LAYER
  2
SPEC
 70
     0
 62
     7
  6
CONTINUOUS
  0
LAYER
  2
DIMNSIONS
 70
     0
 62
     7
  6
CONTINUOUS
  0
ENDTAB
  0
TABLE
  2
STYLE
 70
     3
  0
STYLE
  2
STANDARD
 70
     0
 40
0.0
 41
1.0
 50
0.0
 71
     0
 42
0.2
  3
txt
  4
BIGFONT.SHX
  0
ENDTAB
  0
TABLE
  2
VIEW
 70
     0
  0
ENDTAB
  0
TABLE
  2
UCS
 70
     0
  0
ENDTAB
  0
TABLE
  2
APPID
 70
     4
  0
APPID
  2
ACAD
 70
     0
  0
APPID
  2
ACADANNOTATIVE
 70
     0
  0
APPID
  2
ACAD_NAV_VCDISPLAY
 70
     0
  0
APPID
  2
ACAD_MLEADERVER
 70
     0
  0
ENDTAB
  0
TABLE
  2
DIMSTYLE
 70
     2
  0
DIMSTYLE
  2
STANDARD
 70
     0
  3

  4

  5

  6

  7

 40
1.0
 41
0.18
 42
0.0625
 43
0.38
 44
0.18
 45
0.0
 46
0.0
 47
0.0
 48
0.0
140
0.18
141
0.09
142
0.0
143
25.399999999999999
144
1.0
145
0.0
146
1.0
147
0.09
 71
     0
 72
     0
 73
     1
 74
     1
 75
     0
 76
     0
 77
     0
 78
     0
170
     0
171
     2
172
     0
173
     0
174
     0
175
     0
176
     0
177
     0
178
     0
  0
ENDTAB
  0
ENDSEC
  0
SECTION
  2
BLOCKS
  0
BLOCK
  8
0
  2
$MODEL_SPACE
 70
     0
 10
0.0
 20
0.0
 30
0.0
  3
$MODEL_SPACE
  1

  0
ENDBLK
  5
201
  8
0
  0
BLOCK
 67
     1
  8
0
  2
$PAPER_SPACE
 70
     0
 10
0.0
 20
0.0
 30
0.0
  3
$PAPER_SPACE
  1

  0
ENDBLK
  5
1FD
 67
     1
  8
0
  0
ENDSEC
  0
SECTION
  2
ENTITIES
  0
LINE
  5
4F
  8
HIBINO-BASE
  6
CONTINUOUS
 62
     7
 10
-79.999999999999986
 20
403.53364789486579
 30
0.0
 11
279.99999999999989
 21
403.53364789486579
 31
0.0
  0
LINE
  5
50
  8
HIBINO-BASE
  6
CONTINUOUS
 62
     7
 10
279.99999999999989
 20
-116.46635210513411
 30
0.0
 11
-79.999999999999986
 21
-116.46635210513411
 31
0.0
  0
LINE
  5
51
  8
HIBINO-BASE
  6
CONTINUOUS
 62
     7
 10
-79.999999999999986
 20
-116.46635210513411
 30
0.0
 11
-79.999999999999986
 21
403.53364789486579
 31
0.0
  0
LINE
  5
52
  8
HIBINO-BASE
  6
CONTINUOUS
 62
     7
 10
279.99999999999989
 20
403.53364789486579
 30
0.0
 11
279.99999999999989
 21
-116.46635210513411
 31
0.0
  0
LINE
  5
53
  8
HIBINO-BASE
  6
CONTINUOUS
 62
     7
 10
100.0
 20
-71.466352105134064
 30
0.0
 11
279.99999999999989
 21
-71.466352105134064
 31
0.0
  0
LINE
  5
54
  8
HIBINO-BASE
  6
CONTINUOUS
 62
     7
 10
100.0
 20
-116.46635210513411
 30
0.0
 11
100.0
 21
-71.466352105134064
 31
0.0
  0
TEXT
  5
55
  8
HIBINO-BASE
 62
     7
 10
101.8
 20
-76.483738771800745
 30
0.0
 40
3.2576822916666659
  1
NOTE
 41
0.7
 11
101.8
 21
-73.226056480134076
 31
0.0
 73
     3
1001
ACADANNOTATIVE
1000
AnnotativeData
1002
{
1070
     1
1070
     0
1002
}
  0
LINE
  5
56
  8
HIBINO-BASE
  6
CONTINUOUS
 62
     7
 10
170.0
 20
-116.46635210513411
 30
0.0
 11
170.0
 21
-71.466352105134064
 31
0.0
  0
TEXT
  5
57
  8
HIBINO-BASE
 62
     7
 10
171.80000000000001
 20
-76.483738771800745
 30
0.0
 40
3.2576822916666659
  1
TITLE
 41
0.7
 11
171.80000000000001
 21
-73.226056480134076
 31
0.0
 73
     3
1001
ACADANNOTATIVE
1000
AnnotativeData
1002
{
1070
     1
1070
     0
1002
}
  0
LINE
  5
58
  8
HIBINO-BASE
  6
CONTINUOUS
 62
     7
 10
100.0
 20
-96.466352105134064
 30
0.0
 11
279.99999999999989
 21
-96.466352105134064
 31
0.0
  0
TEXT
  5
59
  8
HIBINO-BASE
 62
     7
 10
196.80000000000001
 20
-101.3710987718007
 30
0.0
 40
3.2576822916666659
  1
DRAWN
 41
0.7
 11
196.80000000000001
 21
-98.113416480134106
 31
0.0
 73
     3
1001
ACADANNOTATIVE
1000
AnnotativeData
1002
{
1070
     1
1070
     0
1002
}
  0
TEXT
  5
5A
  8
HIBINO-BASE
 62
     7
 10
146.80000000000001
 20
-101.3710987718007
 30
0.0
 40
3.2576822916666659
  1
DATE
 41
0.7
 11
146.80000000000001
 21
-98.113416480134106
 31
0.0
 73
     3
1001
ACADANNOTATIVE
1000
AnnotativeData
1002
{
1070
     1
1070
     0
1002
}
  0
TEXT
  5
5B
  8
HIBINO-BASE
 62
     7
 10
126.8
 20
-101.3710987718007
 30
0.0
 40
3.2576822916666659
  1
SCALE
 41
0.7
 11
126.8
 21
-98.113416480134106
 31
0.0
 73
     3
1001
ACADANNOTATIVE
1000
AnnotativeData
1002
{
1070
     1
1070
     0
1002
}
  0
TEXT
  5
5C
  8
HIBINO-BASE
 62
     7
 10
171.80000000000001
 20
-101.3710987718007
 30
0.0
 40
3.2576822916666659
  1
DESIGN
 41
0.7
 11
171.80000000000001
 21
-98.113416480134106
 31
0.0
 73
     3
1001
ACADANNOTATIVE
1000
AnnotativeData
1002
{
1070
     1
1070
     0
1002
}
  0
TEXT
  5
5D
  8
HIBINO-BASE
 62
     7
 10
246.80000000000001
 20
-101.3710987718007
 30
0.0
 40
3.2576822916666659
  1
DRAWING NO.
 41
0.7
 11
246.80000000000001
 21
-98.113416480134106
 31
0.0
 73
     3
1001
ACADANNOTATIVE
1000
AnnotativeData
1002
{
1070
     1
1070
     0
1002
}
  0
TEXT
  5
5E
  8
HIBINO-BASE
 62
     7
 10
221.80000000000001
 20
-101.3710987718007
 30
0.0
 40
3.2576822916666659
  1
CHECK
 41
0.7
 11
221.80000000000001
 21
-98.113416480134106
 31
0.0
 73
     3
1001
ACADANNOTATIVE
1000
AnnotativeData
1002
{
1070
     1
1070
     0
1002
}
  0
LINE
  5
5F
  8
HIBINO-BASE
  6
CONTINUOUS
 62
     7
 10
128.75
 20
-113.96635210513411
 30
0.0
 11
136.25
 21
-106.46635210513411
 31
0.0
  0
TEXT
  5
60
  8
HIBINO-BASE
 62
     7
 10
127.5
 20
-108.68423877180069
 30
0.0
 40
3.2576822916666659
  1
1
 41
0.7
 11
127.5
 21
-105.4265564801341
 31
0.0
 73
     3
1001
ACADANNOTATIVE
1000
AnnotativeData
1002
{
1070
     1
1070
     0
1002
}
  0
LINE
  5
61
  8
HIBINO-BASE
  6
CONTINUOUS
 62
     7
 10
125.0
 20
-116.46635210513411
 30
0.0
 11
125.0
 21
-96.466352105134064
 31
0.0
  0
LINE
  5
62
  8
HIBINO-BASE
  6
CONTINUOUS
 62
     7
 10
145.0
 20
-116.46635210513411
 30
0.0
 11
145.0
 21
-96.466352105134064
 31
0.0
  0
LINE
  5
63
  8
HIBINO-BASE
  6
CONTINUOUS
 62
     7
 10
195.0
 20
-96.466352105134064
 30
0.0
 11
195.0
 21
-116.46635210513411
 31
0.0
  0
LINE
  5
64
  8
HIBINO-BASE
  6
CONTINUOUS
 62
     7
 10
245.0
 20
-96.466352105134064
 30
0.0
 11
245.0
 21
-116.46635210513411
 31
0.0
  0
LINE
  5
65
  8
HIBINO-BASE
  6
CONTINUOUS
 62
     7
 10
220.0
 20
-116.46635210513411
 30
0.0
 11
220.0
 21
-96.466352105134064
 31
0.0
  0
TEXT
  5
66
  8
HIBINO-BASE
 62
     7
 10
146.71307999999999
 20
-110.7390587718007
 30
0.0
 40
3.2576822916666659
  1
'11.08.
 41
0.7
 11
146.71307999999999
 21
-107.4813764801341
 31
0.0
 73
     3
1001
ACADANNOTATIVE
1000
AnnotativeData
1002
{
1070
     1
1070
     0
1002
}
  0
TEXT
  5
67
  8
HIBINO-BASE
 62
     7
 10
198.0116200220692
 20
-110.7390587718007
 30
0.0
 40
3.2576822916666659
  1
T.Ootake
 41
0.7
 11
198.0116200220692
 21
-107.4813764801341
 31
0.0
 73
     3
1001
ACADANNOTATIVE
1000
AnnotativeData
1002
{
1070
     1
1070
     0
1002
}
  0
TEXT
  5
68
  8
HIBINO-BASE
 62
     7
 10
107.76666666666669
 20
-112.51435210513399
 30
0.0
 40
6.5153645833333318
  1
A4
 41
0.7
 11
107.76666666666669
 21
-105.9989875218007
 31
0.0
 73
     3
1001
ACADANNOTATIVE
1000
AnnotativeData
1002
{
1070
     1
1070
     0
1002
}
  0
TEXT
  5
69
  8
HIBINO-BASE
 62
     7
 10
101.9166666666667
 20
-101.7052621051341
 30
0.0
 40
3.2576822916666659
  1
PAPER SIZE
 41
0.7
 11
101.9166666666667
 21
-98.447579813467414
 31
0.0
 73
     3
1001
ACADANNOTATIVE
1000
AnnotativeData
1002
{
1070
     1
1070
     0
1002
}
  0
TEXT
  5
6A
  8
HIBINO-BASE
 62
     7
 10
-74.48072948621963
 20
-129.31683257348649
 30
0.0
 40
7.0583116319444432
  1
Hibino-Intersound Corporation
 41
0.7
 11
-74.48072948621963
 21
-122.2585209415421
 31
0.0
 73
     3
1001
ACADANNOTATIVE
1000
AnnotativeData
1002
{
1070
     1
1070
     0
1002
}
  0
TEXT
  5
6B
  8
HIBINO-BASE
 62
     7
 10
140.36121936042781
 20
-128.61465606690771
 30
0.0
 40
7.0583116319444432
  1
ヒビノインターサウンド株式会社
 41
0.7
 11
140.36121936042781
 21
-121.55634443496329
 31
0.0
 73
     3
1001
ACADANNOTATIVE
1000
AnnotativeData
1002
{
1070
     1
1070
     0
1002
}
  0
LINE
  5
6C
  8
SPEC
  6
CONTINUOUS
 62
     7
 10
-64.999999999999986
 20
383.53364789486579
 30
0.0
 11
240.0
 21
383.53364789486579
 31
0.0
  0
LINE
  5
6D
  8
SPEC
  6
CONTINUOUS
 62
     7
 10
-64.999999999999986
 20
361.03364789486591
 30
0.0
 11
240.0
 21
361.03364789486591
 31
0.0
  0
LINE
  5
6E
  8
SPEC
  6
CONTINUOUS
 62
     7
 10
-64.999999999999986
 20
383.53364789486579
 30
0.0
 11
-64.999999999999986
 21
218.53364789486591
 31
0.0
  0
TEXT
  5
6F
  8
SPEC
 62
     7
 10
-62.5
 20
386.32018789486591
 30
0.0
 40
4.8865234375000002
  1
仕様
 41
0.7
 11
-62.5
 21
391.2067113323659
 31
0.0
 73
     3
1001
ACADANNOTATIVE
1000
AnnotativeData
1002
{
1070
     1
1070
     0
1002
}
  0
LINE
  5
70
  8
SPEC
  6
CONTINUOUS
 62
     7
 10
30.0
 20
383.53364789486579
 30
0.0
 11
30.0
 21
218.53364789486591
 31
0.0
  0
LINE
  5
71
  8
SPEC
  6
CONTINUOUS
 62
     7
 10
-64.999999999999986
 20
353.53364789486579
 30
0.0
 11
240.0
 21
353.53364789486579
 31
0.0
  0
LINE
  5
72
  8
SPEC
  6
CONTINUOUS
 62
     7
 10
-64.999999999999986
 20
346.03364789486579
 30
0.0
 11
240.0
 21
346.03364789486579
 31
0.0
  0
LINE
  5
73
  8
SPEC
  6
CONTINUOUS
 62
     7
 10
-64.999999999999986
 20
338.53364789486591
 30
0.0
 11
240.0
 21
338.53364789486591
 31
0.0
  0
LINE
  5
74
  8
SPEC
  6
CONTINUOUS
 62
     7
 10
-64.999999999999986
 20
331.03364789486579
 30
0.0
 11
240.0
 21
331.03364789486579
 31
0.0
  0
LINE
  5
75
  8
SPEC
  6
CONTINUOUS
 62
     7
 10
-64.999999999999986
 20
323.53364789486591
 30
0.0
 11
240.0
 21
323.53364789486591
 31
0.0
  0
LINE
  5
76
  8
SPEC
  6
CONTINUOUS
 62
     7
 10
-64.999999999999986
 20
316.03364789486579
 30
0.0
 11
240.0
 21
316.03364789486579
 31
0.0
  0
LINE
  5
77
  8
SPEC
  6
CONTINUOUS
 62
     7
 10
-64.999999999999986
 20
308.53364789486579
 30
0.0
 11
240.0
 21
308.53364789486579
 31
0.0
  0
LINE
  5
78
  8
SPEC
  6
CONTINUOUS
 62
     7
 10
-64.999999999999986
 20
293.53364789486579
 30
0.0
 11
240.0
 21
293.53364789486579
 31
0.0
  0
LINE
  5
79
  8
SPEC
  6
CONTINUOUS
 62
     7
 10
-64.999999999999986
 20
286.03364789486591
 30
0.0
 11
240.0
 21
286.03364789486591
 31
0.0
  0
LINE
  5
7A
  8
SPEC
  6
CONTINUOUS
 62
     7
 10
-64.999999999999986
 20
278.53364789486591
 30
0.0
 11
240.0
 21
278.53364789486591
 31
0.0
  0
LINE
  5
7B
  8
SPEC
  6
CONTINUOUS
 62
     7
 10
-64.999999999999986
 20
248.53364789486591
 30
0.0
 11
230.0
 21
248.53364789486591
 31
0.0
  0
LINE
  5
7C
  8
SPEC
  6
CONTINUOUS
 62
     7
 10
-64.999999999999986
 20
248.53364789486591
 30
0.0
 11
240.0
 21
248.53364789486591
 31
0.0
  0
TEXT
  5
7D
  8
SPEC
 62
     7
 10
-63.277669375570767
 20
355.46675421785551
 30
0.0
 40
3.8006293402777782
  1
指向特性
 41
0.7
 11
-63.277669375570767
 21
359.2673835581333
 31
0.0
 73
     3
1001
ACADANNOTATIVE
1000
AnnotativeData
1002
{
1070
     1
1070
     0
1002
}
  0
TEXT
  5
7E
  8
SPEC
 62
     7
 10
125.185703999504
 20
355.39660723099308
 30
0.0
 40
3.8006293402777782
  1
無指向性
 41
0.7
 11
125.185703999504
 21
359.19723657127088
 31
0.0
 73
     3
1001
ACADANNOTATIVE
1000
AnnotativeData
1002
{
1070
     1
1070
     0
1002
}
  0
TEXT
  5
7F
  8
SPEC
 62
     7
 10
-63.414670080347832
 20
235.7498962297993
 30
0.0
 40
3.8006293402777782
  1
寸法
 41
0.7
 11
-63.414670080347832
 21
239.5505255700771
 31
0.0
 73
     3
1001
ACADANNOTATIVE
1000
AnnotativeData
1002
{
1070
     1
1070
     0
1002
}
  0
TEXT
  5
80
  8
SPEC
 62
     7
 10
128.49064295354091
 20
235.24970799193579
 30
0.0
 40
3.8006293402777782
  1
\U+03A65.5
 41
0.7
 11
128.49064295354091
 21
239.05033733221359
 31
0.0
 73
     3
1001
ACADANNOTATIVE
1000
AnnotativeData
1002
{
1070
     1
1070
     0
1002
}
  0
TEXT
  5
81
  8
SPEC
 62
     7
 10
100.2817181191707
 20
227.84237274248829
 30
0.0
 40
3.8006293402777782
  1
約14g(ケーブル・コネクター含む）
 41
0.7
 11
100.2817181191707
 21
231.643002082766
 31
0.0
 73
     3
1001
ACADANNOTATIVE
1000
AnnotativeData
1002
{
1070
     1
1070
     0
1002
}
  0
TEXT
  5
82
  8
SPEC
 62
     7
 10
-63.293414759063609
 20
228.16531619862189
 30
0.0
 40
3.8006293402777782
  1
重量
 41
0.7
 11
-63.293414759063609
 21
231.9659455388996
 31
0.0
 73
     3
1001
ACADANNOTATIVE
1000
AnnotativeData
1002
{
1070
     1
1070
     0
1002
}
  0
TEXT
  5
83
  8
SPEC
 62
     7
 10
-63.565747826942371
 20
347.81758426923977
 30
0.0
 40
3.8006293402777782
  1
カートリッジ
 41
0.7
 11
-63.565747826942371
 21
351.61821360951762
 31
0.0
 73
     3
1001
ACADANNOTATIVE
1000
AnnotativeData
1002
{
1070
     1
1070
     0
1002
}
  0
TEXT
  5
84
  8
SPEC
 62
     7
 10
95.647607748661102
 20
347.94248369887902
 30
0.0
 40
3.8006293402777782
  1
プリポラライズド・コンデンサー型
 41
0.7
 11
95.647607748661102
 21
351.74311303915681
 31
0.0
 73
     3
1001
ACADANNOTATIVE
1000
AnnotativeData
1002
{
1070
     1
1070
     0
1002
}
  0
TEXT
  5
85
  8
SPEC
 62
     7
 10
-63.198491194344548
 20
325.30121475540483
 30
0.0
 40
3.8006293402777782
  1
等価雑音レベル(Aウェイト)
 41
0.7
 11
-63.198491194344548
 21
329.10184409568262
 31
0.0
 73
     3
1001
ACADANNOTATIVE
1000
AnnotativeData
1002
{
1070
     1
1070
     0
1002
}
  0
TEXT
  5
86
  8
SPEC
 62
     7
 10
89.829632461078205
 20
325.45908788452817
 30
0.0
 40
3.8006293402777782
  1
26dB SPL
 41
0.7
 11
89.829632461078205
 21
329.25971722480602
 31
0.0
 73
     3
1001
ACADANNOTATIVE
1000
AnnotativeData
1002
{
1070
     1
1070
     0
1002
}
  0
TEXT
  5
87
  8
SPEC
 62
     7
 10
-63.235347313211719
 20
332.94771179928608
 30
0.0
 40
3.8006293402777782
  1
感度(\U+00B13dB）
 41
0.7
 11
-63.235347313211719
 21
336.74834113956388
 31
0.0
 73
     3
1001
ACADANNOTATIVE
1000
AnnotativeData
1002
{
1070
     1
1070
     0
1002
}
  0
TEXT
  5
88
  8
SPEC
 62
     7
 10
82.884480878145098
 20
332.37903760785758
 30
0.0
 40
3.8006293402777782
  1
-44dB re 1V/Pa
 41
0.7
 11
82.884480878145098
 21
336.17966694813538
 31
0.0
 73
     3
1001
ACADANNOTATIVE
1000
AnnotativeData
1002
{
1070
     1
1070
     0
1002
}
  0
TEXT
  5
89
  8
SPEC
 62
     7
 10
-63.245882527000717
 20
340.47035866438949
 30
0.0
 40
3.8006293402777782
  1
周波数レンジ(\U+00B12dB)
 41
0.7
 11
-63.245882527000717
 21
344.27098800466729
 31
0.0
 73
     3
1001
ACADANNOTATIVE
1000
AnnotativeData
1002
{
1070
     1
1070
     0
1002
}
  0
TEXT
  5
8A
  8
SPEC
 62
     7
 10
86.562698235619038
 20
340.53190803602342
 30
0.0
 40
3.8006293402777782
  1
20Hz～20kHz
 41
0.7
 11
86.562698235619038
 21
344.33253737630122
 31
0.0
 73
     3
1001
ACADANNOTATIVE
1000
AnnotativeData
1002
{
1070
     1
1070
     0
1002
}
  0
TEXT
  5
8B
  8
SPEC
 62
     7
 10
-63.249040014688589
 20
317.88129635318683
 30
0.0
 40
3.8006293402777782
  1
全高調波歪み(THD)
 41
0.7
 11
-63.249040014688589
 21
321.68192569346462
 31
0.0
 73
     3
1001
ACADANNOTATIVE
1000
AnnotativeData
1002
{
1070
     1
1070
     0
1002
}
  0
TEXT
  5
8C
  8
SPEC
 62
     7
 10
81.273534014241406
 20
317.60111590126701
 30
0.0
 40
3.8006293402777782
  1
1%%%以下(123dB SPL、ピーク)、1%%%以下(120dB SPL、RMS）
 41
0.7
 11
81.273534014241406
 21
321.4017452415448
 31
0.0
 73
     3
1001
ACADANNOTATIVE
1000
AnnotativeData
1002
{
1070
     1
1070
     0
1002
}
  0
TEXT
  5
8D
  8
SPEC
 62
     7
 10
-63.763525169623549
 20
243.10908526519839
 30
0.0
 40
3.8006293402777782
  1
コネクター
 41
0.7
 11
-63.763525169623549
 21
246.90971460547621
 31
0.0
 73
     3
1001
ACADANNOTATIVE
1000
AnnotativeData
1002
{
1070
     1
1070
     0
1002
}
  0
TEXT
  5
8E
  8
SPEC
 62
     7
 10
127.1197515167857
 20
242.91207741280309
 30
0.0
 40
3.8006293402777782
  1
MicroDot
 41
0.7
 11
127.1197515167857
 21
246.71270675308079
 31
0.0
 73
     3
1001
ACADANNOTATIVE
1000
AnnotativeData
1002
{
1070
     1
1070
     0
1002
}
  0
TEXT
  5
8F
  8
SPEC
 62
     7
 10
-63.43330512829943
 20
287.78187274438989
 30
0.0
 40
3.8006293402777782
  1
ケーブル引き伸ばし可能距離
 41
0.7
 11
-63.43330512829943
 21
291.58250208466768
 31
0.0
 73
     3
1001
ACADANNOTATIVE
1000
AnnotativeData
1002
{
1070
     1
1070
     0
1002
}
  0
TEXT
  5
90
  8
SPEC
 62
     7
 10
125.3501337134192
 20
287.93033316199131
 30
0.0
 40
3.8006293402777782
  1
最大300m
 41
0.7
 11
125.3501337134192
 21
291.73096250226911
 31
0.0
 73
     3
1001
ACADANNOTATIVE
1000
AnnotativeData
1002
{
1070
     1
1070
     0
1002
}
  0
TEXT
  5
91
  8
SPEC
 62
     7
 10
-63.486992725482203
 20
295.20340639593559
 30
0.0
 40
3.8006293402777782
  1
出力インピーダンス
 41
0.7
 11
-63.486992725482203
 21
299.00403573621338
 31
0.0
 73
     3
1001
ACADANNOTATIVE
1000
AnnotativeData
1002
{
1070
     1
1070
     0
1002
}
  0
TEXT
  5
92
  8
SPEC
 62
     7
 10
121.50321513512451
 20
295.3875157629472
 30
0.0
 40
3.8006293402777782
  1
30～40\U+03A9以下
 41
0.7
 11
121.50321513512451
 21
299.188145103225
 31
0.0
 73
     3
1001
ACADANNOTATIVE
1000
AnnotativeData
1002
{
1070
     1
1070
     0
1002
}
  0
TEXT
  5
93
  8
SPEC
 62
     7
 10
-63.549552266758788
 20
310.3409180163469
 30
0.0
 40
3.8006293402777782
  1
ダイナミックレンジ(代表値)
 41
0.7
 11
-63.549552266758788
 21
314.1415473566247
 31
0.0
 73
     3
1001
ACADANNOTATIVE
1000
AnnotativeData
1002
{
1070
     1
1070
     0
1002
}
  0
TEXT
  5
94
  8
SPEC
 62
     7
 10
94.928828273151694
 20
310.3378415580404
 30
0.0
 40
3.8006293402777782
  1
97dB
 41
0.7
 11
94.928828273151694
 21
314.13847089831808
 31
0.0
 73
     3
1001
ACADANNOTATIVE
1000
AnnotativeData
1002
{
1070
     1
1070
     0
1002
}
  0
TEXT
  5
95
  8
SPEC
 62
     7
 10
-63.207502705823067
 20
303.0451281843649
 30
0.0
 40
3.8006293402777782
  1
最大音圧レベル
 41
0.7
 11
-63.207502705823067
 21
306.84575752464269
 31
0.0
 73
     3
1001
ACADANNOTATIVE
1000
AnnotativeData
1002
{
1070
     1
1070
     0
1002
}
  0
TEXT
  5
96
  8
SPEC
 62
     7
 10
88.990794721791374
 20
302.86074192059692
 30
0.0
 40
3.8006293402777782
  1
144dB SPL
 41
0.7
 11
88.990794721791374
 21
306.6613712608746
 31
0.0
 73
     3
1001
ACADANNOTATIVE
1000
AnnotativeData
1002
{
1070
     1
1070
     0
1002
}
  0
TEXT
  5
97
  8
SPEC
 62
     7
 10
-63.337192776331399
 20
272.87523223505917
 30
0.0
 40
3.8006293402777782
  1
電源
 41
0.7
 11
-63.337192776331399
 21
276.67586157533702
 31
0.0
 73
     3
1001
ACADANNOTATIVE
1000
AnnotativeData
1002
{
1070
     1
1070
     0
1002
}
  0
TEXT
  5
98
  8
SPEC
 62
     7
 10
44.927211822367958
 20
272.98008055004249
 30
0.0
 40
3.8006293402777782
  1
ワイヤレスシステム：5V～50V(DPAアダプター)、
 41
0.7
 11
44.927211822367958
 21
276.78070989032028
 31
0.0
 73
     3
1001
ACADANNOTATIVE
1000
AnnotativeData
1002
{
1070
     1
1070
     0
1002
}
  0
TEXT
  5
99
  8
SPEC
 62
     7
 10
44.653416085799023
 20
265.30976421482632
 30
0.0
 40
3.8006293402777782
  1
ファンタムDC48V\U+00B14V(DAD6001BC/DAD6024/DAD4099)
 41
0.7
 11
44.653416085799023
 21
269.11039355510411
 31
0.0
 73
     3
1001
ACADANNOTATIVE
1000
AnnotativeData
1002
{
1070
     1
1070
     0
1002
}
  0
TEXT
  5
9A
  8
SPEC
 62
     7
 10
-63.383296769451889
 20
280.46314664697962
 30
0.0
 40
3.8006293402777782
  1
ケーブル長
 41
0.7
 11
-63.383296769451889
 21
284.2637759872573
 31
0.0
 73
     3
1001
ACADANNOTATIVE
1000
AnnotativeData
1002
{
1070
     1
1070
     0
1002
}
  0
TEXT
  5
9B
  8
SPEC
 62
     7
 10
130.4356578631095
 20
280.43018298891059
 30
0.0
 40
3.8006293402777782
  1
1.3m
 41
0.7
 11
130.4356578631095
 21
284.23081232918838
 31
0.0
 73
     3
1001
ACADANNOTATIVE
1000
AnnotativeData
1002
{
1070
     1
1070
     0
1002
}
  0
LINE
  5
9C
  8
SPEC
  6
CONTINUOUS
 62
     7
 10
-64.999999999999986
 20
241.03364789486591
 30
0.0
 11
240.0
 21
241.03364789486591
 31
0.0
  0
TEXT
  5
9D
  8
SPEC
 62
     7
 10
80.825119707489478
 20
220.54676752225291
 30
0.0
 40
3.8006293402777782
  1
黒(-B）、ベージュ(-F)、ブラウン(-C、4066のみ)
 41
0.7
 11
80.825119707489478
 21
224.3473968625307
 31
0.0
 73
     3
1001
ACADANNOTATIVE
1000
AnnotativeData
1002
{
1070
     1
1070
     0
1002
}
  0
TEXT
  5
9E
  8
SPEC
 62
     7
 10
-63.258761188232242
 20
220.72228920528539
 30
0.0
 40
3.8006293402777782
  1
色
 41
0.7
 11
-63.258761188232242
 21
224.5229185455631
 31
0.0
 73
     3
1001
ACADANNOTATIVE
1000
AnnotativeData
1002
{
1070
     1
1070
     0
1002
}
  0
LINE
  5
9F
  8
SPEC
  6
CONTINUOUS
 62
     7
 10
-64.999999999999986
 20
233.53364789486591
 30
0.0
 11
240.0
 21
233.53364789486591
 31
0.0
  0
LINE
  5
A0
  8
SPEC
  6
CONTINUOUS
 62
     7
 10
-64.999999999999986
 20
226.03364789486591
 30
0.0
 11
240.0
 21
226.03364789486591
 31
0.0
  0
LINE
  5
A1
  8
SPEC
  6
CONTINUOUS
 62
     7
 10
-64.999999999999986
 20
218.53364789486591
 30
0.0
 11
240.0
 21
218.53364789486591
 31
0.0
  0
LINE
  5
A2
  8
SPEC
  6
CONTINUOUS
 62
     7
 10
100.0
 20
383.53364789486579
 30
0.0
 11
100.0
 21
361.03364789486591
 31
0.0
  0
LINE
  5
A3
  8
SPEC
  6
CONTINUOUS
 62
     7
 10
170.0
 20
383.53364789486579
 30
0.0
 11
170.0
 21
361.03364789486591
 31
0.0
  0
LINE
  5
A4
  8
SPEC
  6
CONTINUOUS
 62
     7
 10
170.0
 20
346.03364789486579
 30
0.0
 11
170.0
 21
323.53364789486591
 31
0.0
  0
LINE
  5
A5
  8
SPEC
  6
CONTINUOUS
 62
     7
 10
170.0
 20
316.03364789486579
 30
0.0
 11
170.0
 21
301.03364789486591
 31
0.0
  0
LINE
  5
A6
  8
SPEC
  6
CONTINUOUS
 62
     7
 10
170.0
 20
278.53364789486591
 30
0.0
 11
170.0
 21
248.53364789486591
 31
0.0
  0
LINE
  5
A7
  8
SPEC
  6
CONTINUOUS
 62
     7
 10
240.0
 20
383.53364789486579
 30
0.0
 11
240.0
 21
218.53364789486591
 31
0.0
  0
TEXT
  5
A8
  8
SPEC
 62
     7
 10
-63.295731280847789
 20
377.76376405227251
 30
0.0
 40
3.8006293402777782
  1
型番
 41
0.7
 11
-63.295731280847789
 21
381.5643933925503
 31
0.0
 73
     3
1001
ACADANNOTATIVE
1000
AnnotativeData
1002
{
1070
     1
1070
     0
1002
}
  0
TEXT
  5
A9
  8
SPEC
 62
     7
 10
59.979101769167713
 20
377.84762534301541
 30
0.0
 40
3.8006293402777782
  1
4065
 41
0.7
 11
59.979101769167713
 21
381.64825468329309
 31
0.0
 73
     3
1001
ACADANNOTATIVE
1000
AnnotativeData
1002
{
1070
     1
1070
     0
1002
}
  0
TEXT
  5
AA
  8
SPEC
 62
     7
 10
129.94506898463911
 20
377.82986469978692
 30
0.0
 40
3.8006293402777782
  1
4066
 41
0.7
 11
129.94506898463911
 21
381.63049404006472
 31
0.0
 73
     3
1001
ACADANNOTATIVE
1000
AnnotativeData
1002
{
1070
     1
1070
     0
1002
}
  0
TEXT
  5
AB
  8
SPEC
 62
     7
 10
199.51686851361609
 20
377.78080771676338
 30
0.0
 40
3.8006293402777782
  1
4067
 41
0.7
 11
199.51686851361609
 21
381.58143705704123
 31
0.0
 73
     3
1001
ACADANNOTATIVE
1000
AnnotativeData
1002
{
1070
     1
1070
     0
1002
}
  0
TEXT
  5
AC
  8
SPEC
 62
     7
 10
48.416788767406402
 20
370.4293352796376
 30
0.0
 40
3.8006293402777782
  1
マイク位置固定
 41
0.7
 11
48.416788767406402
 21
374.22996461991539
 31
0.0
 73
     3
1001
ACADANNOTATIVE
1000
AnnotativeData
1002
{
1070
     1
1070
     0
1002
}
  0
TEXT
  5
AD
  8
SPEC
 62
     7
 10
120.4010240739355
 20
366.53966851309588
 30
0.0
 40
3.8006293402777782
  1
アジャスタブル
 41
0.7
 11
120.4010240739355
 21
370.34029785337373
 31
0.0
 73
     3
1001
ACADANNOTATIVE
1000
AnnotativeData
1002
{
1070
     1
1070
     0
1002
}
  0
TEXT
  5
AE
  8
SPEC
 62
     7
 10
189.00323486942341
 20
363.04319380948721
 30
0.0
 40
3.8006293402777782
  1
低感度・低電圧
 41
0.7
 11
189.00323486942341
 21
366.843823149765
 31
0.0
 73
     3
1001
ACADANNOTATIVE
1000
AnnotativeData
1002
{
1070
     1
1070
     0
1002
}
  0
TEXT
  5
AF
  8
SPEC
 62
     7
 10
189.3002534271873
 20
370.33116318801081
 30
0.0
 40
3.8006293402777782
  1
アジャスタブル
 41
0.7
 11
189.3002534271873
 21
374.13179252828871
 31
0.0
 73
     3
1001
ACADANNOTATIVE
1000
AnnotativeData
1002
{
1070
     1
1070
     0
1002
}
  0
TEXT
  5
B0
  8
SPEC
 62
     7
 10
191.27666691972621
 20
340.5253336285694
 30
0.0
 40
3.8006293402777782
  1
50Hz～20kHz
 41
0.7
 11
191.27666691972621
 21
344.32596296884731
 31
0.0
 73
     3
1001
ACADANNOTATIVE
1000
AnnotativeData
1002
{
1070
     1
1070
     0
1002
}
  0
TEXT
  5
B1
  8
SPEC
 62
     7
 10
188.28444461315081
 20
332.92144478185719
 30
0.0
 40
3.8006293402777782
  1
-60dB re 1V/Pa
 41
0.7
 11
188.28444461315081
 21
336.72207412213498
 31
0.0
 73
     3
1001
ACADANNOTATIVE
1000
AnnotativeData
1002
{
1070
     1
1070
     0
1002
}
  0
TEXT
  5
B2
  8
SPEC
 62
     7
 10
195.15833270068441
 20
325.44477786213088
 30
0.0
 40
3.8006293402777782
  1
33dB SPL
 41
0.7
 11
195.15833270068441
 21
329.24540720240873
 31
0.0
 73
     3
1001
ACADANNOTATIVE
1000
AnnotativeData
1002
{
1070
     1
1070
     0
1002
}
  0
TEXT
  5
B3
  8
SPEC
 62
     7
 10
199.91043577693489
 20
310.13864118630897
 30
0.0
 40
3.8006293402777782
  1
90dB
 41
0.7
 11
199.91043577693489
 21
313.93927052658682
 31
0.0
 73
     3
1001
ACADANNOTATIVE
1000
AnnotativeData
1002
{
1070
     1
1070
     0
1002
}
  0
LINE
  5
B4
  8
SPEC
  6
CONTINUOUS
 62
     7
 10
-64.999999999999986
 20
301.03364789486591
 30
0.0
 11
240.0
 21
301.03364789486591
 31
0.0
  0
TEXT
  5
B5
  8
SPEC
 62
     7
 10
194.58696480779079
 20
302.97690570173688
 30
0.0
 40
3.8006293402777782
  1
154dB SPL
 41
0.7
 11
194.58696480779079
 21
306.77753504201468
 31
0.0
 73
     3
1001
ACADANNOTATIVE
1000
AnnotativeData
1002
{
1070
     1
1070
     0
1002
}
  0
TEXT
  5
B6
  8
SPEC
 62
     7
 10
171.3295729586043
 20
272.98558539058121
 30
0.0
 40
3.8006293402777782
  1
ワイヤレスシステム：3V～50V
 41
0.7
 11
171.3295729586043
 21
276.786214730859
 31
0.0
 73
     3
1001
ACADANNOTATIVE
1000
AnnotativeData
1002
{
1070
     1
1070
     0
1002
}
  0
TEXT
  5
B7
  8
SPEC
 62
     7
 10
198.67336057219549
 20
265.2783752694578
 30
0.0
 40
3.8006293402777782
  1
(DPAアダプター)、
 41
0.7
 11
198.67336057219549
 21
269.07900460973559
 31
0.0
 73
     3
1001
ACADANNOTATIVE
1000
AnnotativeData
1002
{
1070
     1
1070
     0
1002
}
  0
TEXT
  5
B8
  8
SPEC
 62
     7
 10
171.46741786733881
 20
258.12819656166289
 30
0.0
 40
3.8006293402777782
  1
ファンタムDC48V\U+00B14V
 41
0.7
 11
171.46741786733881
 21
261.92882590194063
 31
0.0
 73
     3
1001
ACADANNOTATIVE
1000
AnnotativeData
1002
{
1070
     1
1070
     0
1002
}
  0
TEXT
  5
B9
  8
SPEC
 62
     7
 10
172.64778117080209
 20
250.50477438475349
 30
0.0
 40
3.8006293402777782
  1
(DAD6001BC/DAD6024/DAD4099)
 41
0.7
 11
172.64778117080209
 21
254.30540372503131
 31
0.0
 73
     3
1001
ACADANNOTATIVE
1000
AnnotativeData
1002
{
1070
     1
1070
     0
1002
}
  0
TEXT
  5
BA
  8
SPEC
 62
     7
 10
48.89285421753754
 20
363.30787596367202
 30
0.0
 40
3.8006293402777782
  1
左(-L）、右(-R)
 41
0.7
 11
48.89285421753754
 21
367.10850530394981
 31
0.0
 73
     3
1001
ACADANNOTATIVE
1000
AnnotativeData
1002
{
1070
     1
1070
     0
1002
}
  0
TEXT
  5
BB
  8
DIMNSIONS
 62
     7
 10
60.0
 20
-91.927372105134054
 30
0.0
 40
4.8865234375000002
  1
(単位：mm)
 41
0.7
 11
60.0
 21
-87.040848667634066
 31
0.0
 73
     3
1001
ACADANNOTATIVE
1000
AnnotativeData
1002
{
1070
     1
1070
     0
1002
}
  0
LINE
  5
BC
  8
DIMNSIONS
  6
CONTINUOUS
 62
     7
 10
101.267182690361
 20
110.2134628100188
 30
0.0
 11
123.58085866312349
 21
155.5238864689957
 31
0.0
  0
LINE
  5
BD
  8
DIMNSIONS
  6
CONTINUOUS
 62
     7
 10
200.76718269036101
 20
61.213462810018839
 30
0.0
 11
223.08085866312351
 21
106.5238864689957
 31
0.0
  0
LINE
  5
BE
  8
DIMNSIONS
  6
CONTINUOUS
 62
     7
 10
121.8136759727625
 20
151.93542365897679
 30
0.0
 11
221.3136759727625
 21
102.9354236589769
 31
0.0
  0
POLYLINE
  5
BF
  8
DIMNSIONS
  6
CONTINUOUS
 62
     7
 66
     1
 10
0.0
 20
0.0
 30
0.0
 70
   128
  0
VERTEX
  5
361
  8
DIMNSIONS
  6
CONTINUOUS
 62
     7
 10
125.72131308138469
 20
148.538566544253
 30
0.0
  0
VERTEX
  5
362
  8
DIMNSIONS
  6
CONTINUOUS
 62
     7
 10
121.8136759727625
 20
151.93542365897679
 30
0.0
  0
VERTEX
  5
363
  8
DIMNSIONS
  6
CONTINUOUS
 62
     7
 10
126.89621753496201
 20
150.9474776589112
 30
0.0
  0
SEQEND
  5
364
  8
DIMNSIONS
  6
CONTINUOUS
 62
     7
  0
POLYLINE
  5
C4
  8
DIMNSIONS
  6
CONTINUOUS
 62
     7
 66
     1
 10
0.0
 20
0.0
 30
0.0
 70
   128
  0
VERTEX
  5
365
  8
DIMNSIONS
  6
CONTINUOUS
 62
     7
 10
217.4659173471745
 20
106.39996108693821
 30
0.0
  0
VERTEX
  5
366
  8
DIMNSIONS
  6
CONTINUOUS
 62
     7
 10
221.3136759727625
 20
102.9354236589769
 30
0.0
  0
VERTEX
  5
367
  8
DIMNSIONS
  6
CONTINUOUS
 62
     7
 10
216.24915054139191
 20
104.01192177115939
 30
0.0
  0
SEQEND
  5
368
  8
DIMNSIONS
  6
CONTINUOUS
 62
     7
  0
TEXT
  5
C9
  8
DIMNSIONS
 62
     7
 10
166.11221791427261
 20
132.33580422867581
 30
0.0
 40
5.4294704861111116
  1
1.3m
 50
333.78149165061262
 41
0.7
 11
168.51093447949299
 21
137.20666745805201
 31
0.0
 73
     3
1001
ACADANNOTATIVE
1000
AnnotativeData
1002
{
1070
     1
1070
     0
1002
}
  0
LINE
  5
CA
  8
DIMNSIONS
  6
CONTINUOUS
 62
     7
 10
233.7458498146033
 20
39.624999999999652
 30
0.0
 11
239.73733466932109
 21
43.75
 31
0.0
  0
POLYLINE
  5
CB
  8
DIMNSIONS
  6
CONTINUOUS
 62
     7
 66
     1
 10
0.0
 20
0.0
 30
0.0
 70
   128
  0
VERTEX
  5
369
  8
DIMNSIONS
  6
CONTINUOUS
 62
     7
 10
238.64143292329121
 20
41.310684447475353
 30
0.0
  0
VERTEX
  5
36A
  8
DIMNSIONS
  6
CONTINUOUS
 62
     7
 10
233.7458498146033
 20
39.624999999999652
 30
0.0
  0
VERTEX
  5
36B
  8
DIMNSIONS
  6
CONTINUOUS
 62
     7
 10
237.1427069293272
 20
43.532637108621877
 30
0.0
  0
SEQEND
  5
36C
  8
DIMNSIONS
  6
CONTINUOUS
 62
     7
  0
LINE
  5
D0
  8
DIMNSIONS
  6
CONTINUOUS
 62
     7
 10
239.73733466932109
 20
43.75
 30
0.0
 11
261.37622355820992
 21
43.75
 31
0.0
  0
TEXT
  5
D1
  8
DIMNSIONS
 62
     7
 10
243.73733466932109
 20
45.737777777777772
 30
0.0
 40
5.4294704861111116
  1
\U+03C65.8
 41
0.7
 11
243.73733466932109
 21
51.167248263888887
 31
0.0
 73
     3
1001
ACADANNOTATIVE
1000
AnnotativeData
1002
{
1070
     1
1070
     0
1002
}
  0
TEXT
  5
D2
  8
DATA
 62
     7
 10
201.87676056021871
 20
-93.824326722719107
 30
0.0
 40
4.8865234375000002
  1
4065 & 4066 & 4067
 41
0.7
 11
201.87676056021871
 21
-88.937803285219104
 31
0.0
 73
     3
1001
ACADANNOTATIVE
1000
AnnotativeData
1002
{
1070
     1
1070
     0
1002
}
  0
TEXT
  5
D3
  8
DATA
 62
     7
 10
203.1003369643245
 20
-78.475080246860074
 30
0.0
 40
4.8865234375000002
  1
DPA
 41
0.7
 11
203.1003369643245
 21
-73.588556809360071
 31
0.0
 73
     3
1001
ACADANNOTATIVE
1000
AnnotativeData
1002
{
1070
     1
1070
     0
1002
}
  0
TEXT
  5
D4
  8
DATA
 62
     7
 10
-60.0
 20
-107.99035210513409
 30
0.0
 40
3.2576822916666659
  1
仕様および外観は予告なく変更されることがありますので、ご了承ください。
 41
0.7
 11
-60.0
 21
-104.7326698134674
 31
0.0
 73
     3
1001
ACADANNOTATIVE
1000
AnnotativeData
1002
{
1070
     1
1070
     0
1002
}
  0
TEXT
  5
D5
  8
DATA
 62
     7
 10
197.97105634052511
 20
-85.664665397887475
 30
0.0
 40
3.2576822916666659
  1
無指向性ヘットバンド・マイクロホン
 41
0.7
 11
197.97105634052511
 21
-82.406983106220807
 31
0.0
 73
     3
1001
ACADANNOTATIVE
1000
AnnotativeData
1002
{
1070
     1
1070
     0
1002
}
  0
LINE
  5
D6
  8
DATA
  6
CONTINUOUS
 62
     7
 10
48.04999999999999
 20
-42.049999999999969
 30
0.0
 11
48.04999999999999
 21
-44.249999999999993
 31
0.0
  0
LINE
  5
D7
  8
DATA
  6
CONTINUOUS
 62
     7
 10
-16.290735975418912
 20
-25.257134823918928
 30
0.0
 11
-14.581940160836609
 21
-25.890022162653111
 31
0.0
  0
LINE
  5
D8
  8
DATA
  6
CONTINUOUS
 62
     7
 10
-18.491814148469231
 20
-33.348497105858598
 30
0.0
 11
-17.08181323466334
 21
-33.980566481012971
 31
0.0
  0
ARC
  5
D9
  8
DATA
  6
CONTINUOUS
 62
     7
 10
-10.339840248889869
 20
-31.22100461037104
 30
0.0
 40
8.4250164853119571
 50
134.9376103052864
 51
194.62673459280921
  0
ARC
  5
DA
  8
DATA
  6
CONTINUOUS
 62
     7
 10
-6.7224137931035122
 20
-32.75
 30
0.0
 40
10.43223133629535
 50
138.88478613052311
 51
186.77427496191569
  0
ARC
  5
DB
  8
DATA
  6
CONTINUOUS
 62
     7
 10
42.784114315139107
 20
87.618730690010736
 30
0.0
 40
129.775611232637
 50
244.0273913358171
 51
270.24926055461509
  0
ARC
  5
DC
  8
DATA
  6
CONTINUOUS
 62
     7
 10
42.784114315139107
 20
87.618730690010736
 30
0.0
 40
129.77561123263709
 50
270.84103551404911
 51
272.32552078004869
  0
ARC
  5
DD
  8
DATA
  6
CONTINUOUS
 62
     7
 10
45.438867187499923
 20
106.9740094866069
 30
0.0
 40
151.2465505714755
 50
246.42585268979269
 51
269.208166346366
  0
ARC
  5
DE
  8
DATA
  6
CONTINUOUS
 62
     7
 10
45.438867187499923
 20
106.9740094866069
 30
0.0
 40
151.2465505714755
 50
269.71593181645562
 51
270.98920816389739
  0
ARC
  5
DF
  8
DATA
  6
CONTINUOUS
 62
     7
 10
-15.715906617331671
 20
-32.388703767615539
 30
0.0
 40
2.097552808769231
 50
229.3685736999403
 51
3.3980601363294061
  0
ARC
  5
E0
  8
DATA
  6
CONTINUOUS
 62
     7
 10
-15.631940160836621
 20
-28.899999999999981
 30
0.0
 40
3.1878623843132612
 50
344.29863255072729
 51
70.769196424983633
  0
ARC
  5
E1
  8
DATA
  6
CONTINUOUS
 62
     7
 10
-12.808739837398379
 20
-31.01971544715445
 30
0.0
 40
2.3281979585122601
 50
122.2179953151641
 51
195.7069826339926
  0
LINE
  5
E2
  8
DATA
  6
CONTINUOUS
 62
     7
 10
48.04999999999999
 20
-42.049999999999969
 30
0.0
 11
58.450000000000003
 21
-38.25
 31
0.0
  0
LINE
  5
E3
  8
DATA
  6
CONTINUOUS
 62
     7
 10
56.75
 20
-47.95000000000001
 30
0.0
 11
48.04999999999999
 21
-44.249999999999993
 31
0.0
  0
ARC
  5
E4
  8
DATA
  6
CONTINUOUS
 62
     7
 10
64.74781000895409
 20
-44.35270897064143
 30
0.0
 40
8.7695762548272338
 50
135.9013771011866
 51
204.21747683258761
  0
LINE
  5
E5
  8
DATA
  6
CONTINUOUS
 62
     7
 10
58.450000000000003
 20
-38.25
 30
0.0
 11
65.849999999999994
 21
-38.25
 31
0.0
  0
LINE
  5
E6
  8
DATA
  6
CONTINUOUS
 62
     7
 10
58.350000000000001
 20
-48.950000000000017
 30
0.0
 11
56.75
 21
-47.95000000000001
 31
0.0
  0
LINE
  5
E7
  8
DATA
  6
CONTINUOUS
 62
     7
 10
58.350000000000001
 20
-48.950000000000017
 30
0.0
 11
65.050000000000011
 21
-48.950000000000017
 31
0.0
  0
ARC
  5
E8
  8
DATA
  6
CONTINUOUS
 62
     7
 10
69.748248407643302
 20
-43.353707916287497
 30
0.0
 40
6.4221628087793903
 50
127.37284852033321
 51
175.05391485963909
  0
ARC
  5
E9
  8
DATA
  6
CONTINUOUS
 62
     7
 10
71.747727272727303
 20
-43.788636363636392
 30
0.0
 40
8.4557214480262939
 50
173.28566481904721
 51
217.618356463212
  0
LINE
  5
EA
  8
DATA
  6
CONTINUOUS
 62
     7
 10
65.050000000000011
 20
-48.950000000000017
 30
0.0
 11
69.350000000000009
 21
-48.450000000000017
 31
0.0
  0
ARC
  5
EB
  8
DATA
  6
CONTINUOUS
 62
     7
 10
65.4132304392501
 20
-43.47763460163543
 30
0.0
 40
6.3421267906988756
 50
308.36970681895292
 51
46.858405120269417
  0
LINE
  5
EC
  8
DATA
  6
CONTINUOUS
 62
     7
 10
69.75
 20
-38.849999999999987
 30
0.0
 11
65.849999999999994
 21
-38.25
 31
0.0
  0
LINE
  5
ED
  8
DATA
  6
CONTINUOUS
 62
     7
 10
33.26061366257639
 20
10.950000000000021
 30
0.0
 11
37.33621608927649
 21
10.950000000000021
 31
0.0
  0
ARC
  5
EE
  8
DATA
  6
CONTINUOUS
 62
     7
 10
-14.629174256223379
 20
16.18715846994537
 30
0.0
 40
52.228628381372353
 50
354.24506772398962
 51
35.007675370147012
  0
ARC
  5
EF
  8
DATA
  6
CONTINUOUS
 62
     7
 10
-8.7549426301853241
 20
18.276478375992951
 30
0.0
 40
42.649551650446682
 50
350.10848310899689
 51
37.347957497216953
  0
LINE
  5
F0
  8
DATA
  6
CONTINUOUS
 62
     7
 10
33.76468575010712
 20
14.950000000000021
 30
0.0
 11
37.584799558453227
 21
14.950000000000021
 31
0.0
  0
ARC
  5
F1
  8
DATA
  6
CONTINUOUS
 62
     7
 10
-4.0672413793103601
 20
24.532758620689631
 30
0.0
 40
35.192092196273492
 50
33.878473220280391
 51
75.153567189655973
  0
ARC
  5
F2
  8
DATA
  6
CONTINUOUS
 62
     7
 10
0.75
 20
41.344961978149129
 30
0.0
 40
17.710260679429162
 50
76.281569225158137
 51
136.28156922515811
  0
ARC
  5
F3
  8
DATA
  6
CONTINUOUS
 62
     7
 10
17.216474318258559
 20
22.174614510701431
 30
0.0
 40
42.93163749333096
 50
132.97658840860649
 51
168.47794470218241
  0
ARC
  5
F4
  8
DATA
  6
CONTINUOUS
 62
     7
 10
16.582963725537791
 20
18.449999999999999
 30
0.0
 40
43.220139785541313
 50
163.46568459773641
 51
186.50979519337159
  0
ARC
  5
F5
  8
DATA
  6
CONTINUOUS
 62
     7
 10
36.280818131272909
 20
22.058706467511769
 30
0.0
 40
63.21458674567134
 50
187.73551159210601
 51
216.1705928417507
  0
LINE
  5
F6
  8
DATA
  6
CONTINUOUS
 62
     7
 10
-14.58194016083679
 20
-25.89002216265305
 30
0.0
 11
-12.750000000000499
 21
-22.71700872765868
 31
0.0
  0
LINE
  5
F7
  8
DATA
  6
CONTINUOUS
 62
     7
 10
-14.75
 20
-15.25
 30
0.0
 11
-14.19999999999825
 21
-15.958888888891121
 31
0.0
  0
ARC
  5
F8
  8
DATA
  6
CONTINUOUS
 62
     7
 10
-8.1290561913613288
 20
18.6709438086387
 30
0.0
 40
45.511190352526988
 50
37.141591692281892
 51
67.141591692281963
  0
ARC
  5
F9
  8
DATA
  6
CONTINUOUS
 62
     7
 10
-1.549999999999996
 20
33.772163815592393
 30
0.0
 40
29.040899701224831
 50
67.528764552043455
 51
97.717760320821725
  0
ARC
  5
FA
  8
DATA
  6
CONTINUOUS
 62
     7
 10
10.302261272118329
 20
25.79773872788164
 30
0.0
 40
39.985778019179911
 50
113.20029234258649
 51
143.20029234258641
  0
ARC
  5
FB
  8
DATA
  6
CONTINUOUS
 62
     7
 10
31.37208348647702
 20
16.457899273650611
 30
0.0
 40
62.663224280123643
 50
147.90760658738259
 51
174.97187606265021
  0
ARC
  5
FC
  8
DATA
  6
CONTINUOUS
 62
     7
 10
8.4833333333331638
 20
17.75
 30
0.0
 40
39.755810197308669
 50
173.93567469037669
 51
200.92714125196841
  0
LINE
  5
FD
  8
DATA
  6
CONTINUOUS
 62
     7
 10
-28.649999999999991
 20
3.5500000000000109
 30
0.0
 11
-22.25
 21
-9.6499999999999755
 31
0.0
  0
LINE
  5
FE
  8
DATA
  6
CONTINUOUS
 62
     7
 10
-22.25
 20
-9.6499999999999755
 30
0.0
 11
-16.47649730810376
 21
-19.649999999999981
 31
0.0
  0
ARC
  5
FF
  8
DATA
  6
CONTINUOUS
 62
     7
 10
-19.227517172451599
 20
-21.2821262717971
 30
0.0
 40
3.1987413870343722
 50
306.60395806907798
 51
30.679827058436281
  0
LINE
  5
100
  8
DATA
  6
CONTINUOUS
 62
     7
 10
-17.320170592217181
 20
-23.849999999999991
 30
0.0
 11
-19.676207544768719
 21
-25.599999999999991
 31
0.0
  0
ARC
  5
101
  8
DATA
  6
CONTINUOUS
 62
     7
 10
-27.358239632201968
 20
89.658239632202054
 30
0.0
 40
7.6485292703891616
 50
350.33622569211082
 51
46.526322248047776
  0
ARC
  5
102
  8
DATA
  6
CONTINUOUS
 62
     7
 10
-13.433870967741949
 20
97.166129032258084
 30
0.0
 40
5.9968167067156424
 50
346.49602094455588
 51
60.391498605188417
  0
LINE
  5
103
  8
DATA
  6
CONTINUOUS
 62
     7
 10
-22.095888894850031
 20
95.208704902527586
 30
0.0
 11
-10.471018493340569
 21
102.37989118917299
 31
0.0
  0
LINE
  5
104
  8
DATA
  6
CONTINUOUS
 62
     7
 10
-19.818244516087869
 20
88.374310643131537
 30
0.0
 11
-7.6028440197945741
 21
95.765795019869515
 31
0.0
  0
ARC
  5
105
  8
DATA
  6
CONTINUOUS
 62
     7
 10
-54.448038176033961
 20
43.345546129374362
 30
0.0
 40
4.5655148805738532
 50
50.913673600507622
 51
126.83057788128519
  0
ARC
  5
106
  8
DATA
  6
CONTINUOUS
 62
     7
 10
-55.149999999999991
 20
32.169787068142092
 30
0.0
 40
4.7034536992308871
 50
47.128912974332117
 51
137.61098101353019
  0
ARC
  5
107
  8
DATA
  6
CONTINUOUS
 62
     7
 10
-52.617554993491403
 20
13.42073170731709
 30
0.0
 40
6.3685397566291968
 50
79.604306585514664
 51
123.5964481685927
  0
ARC
  5
108
  8
DATA
  6
CONTINUOUS
 62
     7
 10
-47.464359353944893
 20
3.3787187078897878
 30
0.0
 40
6.1967733539318823
 50
90.067913198777319
 51
150.14759069224411
  0
ARC
  5
109
  8
DATA
  6
CONTINUOUS
 62
     7
 10
39.308164716677318
 20
15.00671607946029
 30
0.0
 40
101.0089937139398
 50
135.38445482782879
 51
161.2319645804061
  0
ARC
  5
10A
  8
DATA
  6
CONTINUOUS
 62
     7
 10
15.09004644196791
 20
37.571362225759998
 30
0.0
 40
67.928087397778413
 50
123.4474407819922
 51
134.58549843081701
  0
LINE
  5
10B
  8
DATA
  6
CONTINUOUS
 62
     7
 10
-22.095888894850031
 20
95.208704902527586
 30
0.0
 11
-22.350000000000009
 21
94.25
 31
0.0
  0
ARC
  5
10C
  8
DATA
  6
CONTINUOUS
 62
     7
 10
3.7503246753253161
 20
32.28506493506476
 30
0.0
 40
57.215110696325873
 50
165.2115357714199
 51
171.73813012791979
  0
ARC
  5
10D
  8
DATA
  6
CONTINUOUS
 62
     7
 10
21.177860299304811
 20
28.221432082186642
 30
0.0
 40
74.834702456011001
 50
147.39107817206309
 51
158.08668248022181
  0
ARC
  5
10E
  8
DATA
  6
CONTINUOUS
 62
     7
 10
47.969353674598693
 20
-1.4017518734710279
 30
0.0
 40
113.8536627307107
 50
127.06335969063019
 51
142.0916246302134
  0
LINE
  5
10F
  8
DATA
  6
CONTINUOUS
 62
     7
 10
-19.818244516087869
 20
88.374310643131537
 30
0.0
 11
-20.650000000000009
 21
89.450000000000017
 31
0.0
  0
ARC
  5
110
  8
DATA
  6
CONTINUOUS
 62
     7
 10
44.732325581391969
 20
28.50209302325624
 30
0.0
 40
103.5822145235481
 50
169.71292218082891
 51
176.2145346874498
  0
LINE
  5
111
  8
DATA
  6
CONTINUOUS
 62
     7
 10
-51.950000000000003
 20
40.253921568627447
 30
0.0
 11
-51.950000000000003
 21
35.616883919234212
 31
0.0
  0
LINE
  5
112
  8
DATA
  6
CONTINUOUS
 62
     7
 10
-52.870986916237811
 20
40.506741506418209
 30
0.0
 11
-51.950000000000003
 21
40.253921568627447
 31
0.0
  0
ARC
  5
113
  8
DATA
  6
CONTINUOUS
 62
     7
 10
-55.910515396595557
 20
35.189484603404509
 30
0.0
 40
2.7175916052646971
 50
176.81083806394261
 51
235.4942752159582
  0
ARC
  5
114
  8
DATA
  6
CONTINUOUS
 62
     7
 10
76.354248601213953
 20
41.079520716767519
 30
0.0
 40
134.0509830281741
 50
183.47683547542599
 51
189.52037980325551
  0
ARC
  5
115
  8
DATA
  6
CONTINUOUS
 62
     7
 10
-29.039495337422078
 20
11.73949533742206
 30
0.0
 40
33.091100153679648
 50
133.81613639728681
 51
138.07396234595021
  0
ARC
  5
116
  8
DATA
  6
CONTINUOUS
 62
     7
 10
-14.40312570498747
 20
30.5
 30
0.0
 40
39.399091282699388
 50
175.12240287032779
 51
195.78527843950269
  0
LINE
  5
117
  8
DATA
  6
CONTINUOUS
 62
     7
 10
-51.468382464817168
 20
19.684732116890469
 30
0.0
 11
-47.471704442982819
 21
9.5754877087212567
 31
0.0
  0
ARC
  5
118
  8
DATA
  6
CONTINUOUS
 62
     7
 10
-35.729310344827368
 20
15.755172413793179
 30
0.0
 40
19.469900013606701
 50
189.67210398478991
 51
208.5055852543133
  0
LINE
  5
119
  8
DATA
  6
CONTINUOUS
 62
     7
 10
-54.922453243405712
 20
12.484045358082771
 30
0.0
 11
-54.207957562803031
 21
13.03147384601581
 31
0.0
  0
ARC
  5
11A
  8
DATA
  6
CONTINUOUS
 62
     7
 10
-155.47222527291581
 20
-18.180683568226868
 30
0.0
 40
105.9653277507168
 50
17.130595048200309
 51
20.382449033324551
  0
ARC
  5
11B
  8
DATA
  6
CONTINUOUS
 62
     7
 10
-50.466922654127032
 20
8.2709229289444561
 30
0.0
 40
3.2669896536420282
 50
321.78685201070527
 51
23.535493000914371
  0
ARC
  5
11C
  8
DATA
  6
CONTINUOUS
 62
     7
 10
18.11178278688514
 20
42.17751024590153
 30
0.0
 40
75.155448632632499
 50
208.5576426141271
 51
238.2823237654242
  0
ARC
  5
11D
  8
DATA
  6
CONTINUOUS
 62
     7
 10
15.47004001171068
 20
39.615750951497958
 30
0.0
 40
73.259313098653408
 50
207.09371324695121
 51
237.90909797421151
  0
LINE
  5
11E
  8
DATA
  6
CONTINUOUS
 62
     7
 10
-52.838885955351238
 20
6.4632711569131533
 30
0.0
 11
-51.649999999999991
 21
5.7768675305553616
 31
0.0
  0
ARC
  5
11F
  8
DATA
  6
CONTINUOUS
 62
     7
 10
15.55718663373615
 20
37.290390761481049
 30
0.0
 40
74.228755086205879
 50
205.1219319318817
 51
236.27979445121139
  0
ARC
  5
120
  8
DATA
  6
CONTINUOUS
 62
     7
 10
12.678933680103819
 20
35.359817945383433
 30
0.0
 40
68.882169399984562
 50
204.99904114848729
 51
237.67875679316859
  0
ARC
  5
121
  8
DATA
  6
CONTINUOUS
 62
     7
 10
-12.65000000000005
 20
-27.199999999999989
 30
0.0
 40
13.287682265918271
 50
168.0558228115535
 51
184.31602751986571
  0
ARC
  5
122
  8
DATA
  6
CONTINUOUS
 62
     7
 10
-23.323793654119669
 20
-27.679293239384609
 30
0.0
 40
2.6283026209142442
 50
191.42676401742591
 51
291.29200135624762
  0
LINE
  5
123
  8
DATA
  6
CONTINUOUS
 62
     7
 10
-17.688188619719849
 20
-27.099999999999991
 30
0.0
 11
-21.400000000000009
 21
-24.399999999999981
 31
0.0
  0
LINE
  5
124
  8
DATA
  6
CONTINUOUS
 62
     7
 10
-21.400000000000009
 20
-24.399999999999981
 30
0.0
 11
-21.400000000000009
 21
-21.753393706524069
 31
0.0
  0
LINE
  5
125
  8
DATA
  6
CONTINUOUS
 62
     7
 10
-18.54292772036737
 20
-29.300000000000011
 30
0.0
 11
-21.949999999999999
 21
-27.332925902205599
 31
0.0
  0
ARC
  5
126
  8
DATA
  6
CONTINUOUS
 62
     7
 10
-17.275611146691499
 20
-26.69146295110281
 30
0.0
 40
4.7181973114286251
 50
150.94395422029871
 51
187.81385186614219
  0
ARC
  5
127
  8
DATA
  6
CONTINUOUS
 62
     7
 10
-27.615015760607189
 20
-9.9897567227309327
 30
0.0
 40
20.810408115632509
 50
284.59985258263379
 51
294.15276973999471
  0
ARC
  5
128
  8
DATA
  6
CONTINUOUS
 62
     7
 10
-22.42627213893644
 20
-21.258504363828909
 30
0.0
 40
9.7855749696206171
 50
351.42833401833582
 51
32.790869644019779
  0
ARC
  5
129
  8
DATA
  6
CONTINUOUS
 62
     7
 10
53.280177514792918
 20
38.432840236686033
 30
0.0
 40
78.217190927693295
 50
84.519842027720586
 51
95.524573992804775
  0
LINE
  5
12A
  8
DATA
  6
CONTINUOUS
 62
     7
 10
45.750000000000007
 20
116.28671222270179
 30
0.0
 11
45.750000000000007
 21
110.90614336769551
 31
0.0
  0
LINE
  5
12B
  8
DATA
  6
CONTINUOUS
 62
     7
 10
60.750000000000007
 20
116.292526266484
 30
0.0
 11
60.750000000000007
 21
111.17071050753241
 31
0.0
  0
ARC
  5
12C
  8
DATA
  6
CONTINUOUS
 62
     7
 10
50.794913206430671
 20
-18.45938455469005
 30
0.0
 40
134.44386989671659
 50
92.150489363730784
 51
116.65067937729479
  0
ARC
  5
12D
  8
DATA
  6
CONTINUOUS
 62
     7
 10
60.652755905511967
 20
-52.22096456692968
 30
0.0
 40
164.12090626813401
 50
98.374407948007246
 51
114.5116068517387
  0
ARC
  5
12E
  8
DATA
  6
CONTINUOUS
 62
     7
 10
56.450000000000003
 20
-70.38999999999993
 30
0.0
 40
181.6116229760639
 50
88.643286851152482
 51
96.227311653093068
  0
ARC
  5
12F
  8
DATA
  6
CONTINUOUS
 62
     7
 10
90.376923076923077
 20
106.59999999999999
 30
0.0
 40
6.9905536430733708
 50
138.02016835541329
 51
194.18665624236331
  0
ARC
  5
130
  8
DATA
  6
CONTINUOUS
 62
     7
 10
108.2916666666667
 20
100.75
 30
0.0
 40
12.24071360029491
 50
149.5877124229215
 51
182.96330519472781
  0
LINE
  5
131
  8
DATA
  6
CONTINUOUS
 62
     7
 10
162.5038363356434
 20
80.866256398278566
 30
0.0
 11
166.6289925185699
 21
81.850668669204182
 31
0.0
  0
ARC
  5
132
  8
DATA
  6
CONTINUOUS
 62
     7
 10
127.3933756729741
 20
131.17153903091739
 30
0.0
 40
5.0609617004412613
 50
64.777831366363841
 51
184.7778313663639
  0
ARC
  5
133
  8
DATA
  6
CONTINUOUS
 62
     7
 10
113.8178290053927
 20
97.185015247862097
 30
0.0
 40
41.650441211783019
 50
39.51369503872197
 51
67.80752447706503
  0
ARC
  5
134
  8
DATA
  6
CONTINUOUS
 62
     7
 10
87.261012530347614
 20
68.647423864691632
 30
0.0
 40
80.458696986582723
 50
9.4449358797361747
 51
43.161369660656263
  0
LINE
  5
135
  8
DATA
  6
CONTINUOUS
 62
     7
 10
126.35137480342161
 20
131.48376779861471
 30
0.0
 11
126.52261922267689
 21
128.07790657120489
 31
0.0
  0
LINE
  5
136
  8
DATA
  6
CONTINUOUS
 62
     7
 10
127.222794109083
 20
132.32065508099251
 30
0.0
 11
129.65000000000001
 21
132.09999999999999
 31
0.0
  0
ARC
  5
137
  8
DATA
  6
CONTINUOUS
 62
     7
 10
78.509883639910555
 20
60.036594202898343
 30
0.0
 40
88.365411538685393
 50
35.499482420902098
 51
54.638413492109827
  0
ARC
  5
138
  8
DATA
  6
CONTINUOUS
 62
     7
 10
90.216647210935875
 20
69.907590886373498
 30
0.0
 40
73.113131935057027
 50
8.6203444207979807
 51
34.52917405042438
  0
ARC
  5
139
  8
DATA
  6
CONTINUOUS
 62
     7
 10
127.150365512249
 20
131.52394051581831
 30
0.0
 40
0.8000000000000002
 50
84.805571092265154
 51
182.87836949973391
  0
ARC
  5
13A
  8
DATA
  6
CONTINUOUS
 62
     7
 10
-70.120588235293354
 20
32.411764705882753
 30
0.0
 40
218.67912963690421
 50
20.31973773832636
 51
25.94273814339823
  0
ARC
  5
13B
  8
DATA
  6
CONTINUOUS
 62
     7
 10
-205.7059322033885
 20
33.333050847457798
 30
0.0
 40
348.81801387760157
 50
6.9309782583946387
 51
12.419072134703869
  0
ARC
  5
13C
  8
DATA
  6
CONTINUOUS
 62
     7
 10
170.62118959107801
 20
140.40557620817839
 30
0.0
 40
49.22741001159558
 50
191.3114598613956
 51
208.7204593443698
  0
LINE
  5
13D
  8
DATA
  6
CONTINUOUS
 62
     7
 10
127.45
 20
116.75
 30
0.0
 11
131.55000000000001
 21
106.95
 31
0.0
  0
LINE
  5
13E
  8
DATA
  6
CONTINUOUS
 62
     7
 10
131.55000000000001
 20
106.95
 30
0.0
 11
133.75
 21
97.75
 31
0.0
  0
LINE
  5
13F
  8
DATA
  6
CONTINUOUS
 62
     7
 10
133.75
 20
97.75
 30
0.0
 11
135.71086956521739
 21
89.550000000000026
 31
0.0
  0
LINE
  5
140
  8
DATA
  6
CONTINUOUS
 62
     7
 10
135.71086956521739
 20
89.550000000000026
 30
0.0
 11
136.94999999999999
 21
78.500354609928976
 31
0.0
  0
ARC
  5
141
  8
DATA
  6
CONTINUOUS
 62
     7
 10
138.81587659821469
 20
71.707179676972459
 30
0.0
 40
4.10893335712972
 50
319.70797884297889
 51
64.836537520264983
  0
ARC
  5
142
  8
DATA
  6
CONTINUOUS
 62
     7
 10
138.25
 20
70.493375672974054
 30
0.0
 40
3.9715656022950552
 50
218.68916714515919
 51
338.6891671451591
  0
ARC
  5
143
  8
DATA
  6
CONTINUOUS
 62
     7
 10
138.6610833078837
 20
68.538916692116274
 30
0.0
 40
3.550583816094353
 50
118.81061683731549
 51
188.55445883689961
  0
LINE
  5
144
  8
DATA
  6
CONTINUOUS
 62
     7
 10
136.94999999999999
 20
71.650000000000006
 30
0.0
 11
136.94999999999999
 21
78.500354609928976
 31
0.0
  0
LINE
  5
145
  8
DATA
  6
CONTINUOUS
 62
     7
 10
85.180283099179704
 20
111.2757644485587
 30
0.0
 11
97.735212511361865
 21
106.94647844435799
 31
0.0
  0
LINE
  5
146
  8
DATA
  6
CONTINUOUS
 62
     7
 10
83.59956416615519
 20
104.8867439095917
 30
0.0
 11
96.067320757876487
 21
100.1171994416177
 31
0.0
  0
ARC
  5
147
  8
DATA
  6
CONTINUOUS
 62
     7
 10
42.586317135549741
 20
-11.35537084399002
 30
0.0
 40
129.0883881748901
 50
53.677055489590543
 51
65.029282786685499
  0
ARC
  5
148
  8
DATA
  6
CONTINUOUS
 62
     7
 10
81.864705882352908
 20
40.079411764705839
 30
0.0
 40
64.392645900139641
 50
38.369622744765991
 51
54.726692653189943
  0
ARC
  5
149
  8
DATA
  6
CONTINUOUS
 62
     7
 10
36.776785714285012
 20
-39.530357142858641
 30
0.0
 40
154.69504284846451
 50
61.369640486865819
 51
67.366390314376105
  0
ARC
  5
14A
  8
DATA
  6
CONTINUOUS
 62
     7
 10
79.926000000000073
 20
42.276000000000067
 30
0.0
 40
62.230067909331353
 50
38.541037151689821
 51
60.149826346768329
  0
LINE
  5
14B
  8
DATA
  6
CONTINUOUS
 62
     7
 10
128.59999999999999
 20
81.050000000000026
 30
0.0
 11
135.15000000000001
 21
73.850000000000023
 31
0.0
  0
ARC
  5
14C
  8
DATA
  6
CONTINUOUS
 62
     7
 10
138.3605420164179
 20
78.648719536940249
 30
0.0
 40
5.7736720753257718
 50
236.21583895376759
 51
255.8591830970758
  0
ARC
  5
14D
  8
DATA
  6
CONTINUOUS
 62
     7
 10
53.297058823529468
 20
-1.241176470588043
 30
0.0
 40
116.23037189655309
 50
74.328979242264055
 51
86.32354919194664
  0
ARC
  5
14E
  8
DATA
  6
CONTINUOUS
 62
     7
 10
56.911093442392549
 20
38.152470640122438
 30
0.0
 40
73.11908476514644
 50
68.766602672896497
 51
86.9904667288166
  0
ARC
  5
14F
  8
DATA
  6
CONTINUOUS
 62
     7
 10
134.98421052631579
 20
84.515789473684194
 30
0.0
 40
5.2346239682180871
 50
125.5474711035875
 51
176.33939588206741
  0
LINE
  5
150
  8
DATA
  6
CONTINUOUS
 62
     7
 10
131.94091911820729
 20
88.77485809181816
 30
0.0
 11
108.2241560373113
 21
102.46773764088
 31
0.0
  0
LINE
  5
151
  8
DATA
  6
CONTINUOUS
 62
     7
 10
108.2241560373113
 20
102.46773764088
 30
0.0
 11
100.13006709314089
 21
104.1977719190233
 31
0.0
  0
LINE
  5
152
  8
DATA
  6
CONTINUOUS
 62
     7
 10
96.067320757876487
 20
100.1171994416177
 30
0.0
 11
103.25
 21
94.950000000000017
 31
0.0
  0
LINE
  5
153
  8
DATA
  6
CONTINUOUS
 62
     7
 10
103.25
 20
94.950000000000017
 30
0.0
 11
122.58512895307631
 21
87.583616015023466
 31
0.0
  0
LINE
  5
154
  8
DATA
  6
CONTINUOUS
 62
     7
 10
127.1717919634485
 20
85.836168608487554
 30
0.0
 11
129.76026647868841
 21
84.850000000000023
 31
0.0
  0
LINE
  5
155
  8
DATA
  6
CONTINUOUS
 62
     7
 10
131.9409191182072
 20
88.774858091818345
 30
0.0
 11
136.06479721297879
 21
86.393935963696748
 31
0.0
  0
LINE
  5
156
  8
DATA
  6
CONTINUOUS
 62
     7
 10
129.8527685578336
 20
85.550000000000026
 30
0.0
 11
136.59603241260561
 21
81.656774798230714
 31
0.0
  0
ARC
  5
157
  8
DATA
  6
CONTINUOUS
 62
     7
 10
18.607143747938419
 20
-215.07880013835469
 30
0.0
 40
324.16871295851769
 50
60.63910292323289
 51
68.17276637497568
  0
ARC
  5
158
  8
DATA
  6
CONTINUOUS
 62
     7
 10
26.60131701516336
 20
-234.60259996667369
 30
0.0
 40
334.72118762232083
 50
63.653522161507787
 51
70.210044158812892
  0
ARC
  5
159
  8
DATA
  6
CONTINUOUS
 62
     7
 10
20.580096594992181
 20
31.750333514701001
 30
0.0
 40
73.026884925140948
 50
160.48102902880331
 51
173.31304431824501
  0
LINE
  5
15A
  8
DATA
  6
CONTINUOUS
 62
     7
 10
132.34999999999999
 20
80.050000000000026
 30
0.0
 11
136.94999999999999
 21
75.075177304964484
 31
0.0
  0
CIRCLE
  5
15B
  8
DATA
  6
CONTINUOUS
 62
     7
 10
231.35721831897871
 20
37.980481961755061
 30
0.0
 40
2.8999999999999981
  0
CIRCLE
  5
15C
  8
DATA
  6
CONTINUOUS
 62
     7
 10
231.35721831897871
 20
37.980481961755061
 30
0.0
 40
1.999999999999992
  0
CIRCLE
  5
15D
  8
DATA
  6
CONTINUOUS
 62
     7
 10
231.35721831897871
 20
37.980481961755061
 30
0.0
 40
0.3900000000000285
  0
LINE
  5
15E
  8
DATA
  6
CONTINUOUS
 62
     7
 10
232.99189524183811
 20
36.828166311479123
 30
0.0
 11
232.1856764843653
 21
37.256840428809802
 31
0.0
  0
LINE
  5
15F
  8
DATA
  6
CONTINUOUS
 62
     7
 10
230.29402437219909
 20
38.262649698270891
 30
0.0
 11
229.4878056147264
 21
38.691323815601578
 31
0.0
  0
LINE
  5
160
  8
DATA
  6
CONTINUOUS
 62
     7
 10
229.72254139611931
 20
39.132797612031062
 30
0.0
 11
230.52876015359209
 21
38.704123494700347
 31
0.0
  0
LINE
  5
161
  8
DATA
  6
CONTINUOUS
 62
     7
 10
232.42041226575819
 20
37.698314225239251
 30
0.0
 11
233.22663102323111
 21
37.269640107908593
 31
0.0
  0
CIRCLE
  5
162
  8
DATA
  6
CONTINUOUS
 62
     7
 10
231.35721831897871
 20
37.980481961755061
 30
0.0
 40
1.0999999999999841
  0
LINE
  5
163
  8
DATA
  6
CONTINUOUS
 62
     7
 10
221.92514903999171
 20
43.437304477245682
 30
0.0
 11
222.79926715665721
 21
42.972527630228477
 31
0.0
  0
LINE
  5
164
  8
DATA
  6
CONTINUOUS
 62
     7
 10
223.21814993979069
 20
42.460998340750081
 30
0.0
 11
223.09139261783849
 21
42.222602490678177
 31
0.0
  0
LINE
  5
165
  8
DATA
  6
CONTINUOUS
 62
     7
 10
222.43307933768409
 20
42.283828507798518
 30
0.0
 11
221.55896122101871
 21
42.748605354815709
 31
0.0
  0
LINE
  5
166
  8
DATA
  6
CONTINUOUS
 62
     7
 10
223.09139261783849
 20
42.222602490678177
 30
0.0
 11
222.43307933768409
 21
42.283828507798518
 31
0.0
  0
LINE
  5
167
  8
DATA
  6
CONTINUOUS
 62
     7
 10
223.21814993979069
 20
42.460998340750081
 30
0.0
 11
222.79926715665709
 21
42.972527630228477
 31
0.0
  0
LINE
  5
168
  8
DATA
  6
CONTINUOUS
 62
     7
 10
215.9658496341315
 20
42.879764710669292
 30
0.0
 11
218.68878469828971
 21
48.000860749250947
 31
0.0
  0
LINE
  5
169
  8
DATA
  6
CONTINUOUS
 62
     7
 10
215.25949155984441
 20
43.255341960897979
 30
0.0
 11
217.98242662400261
 21
48.376437999479627
 31
0.0
  0
LINE
  5
16A
  8
DATA
  6
CONTINUOUS
 62
     7
 10
210.5798693176921
 20
45.743541243663152
 30
0.0
 11
213.30280438185031
 21
50.864637282244892
 31
0.0
  0
LINE
  5
16B
  8
DATA
  6
CONTINUOUS
 62
     7
 10
209.76035258639911
 20
51.870450523808437
 30
0.0
 11
207.7650984445591
 21
48.117923254158029
 31
0.0
  0
LINE
  5
16C
  8
DATA
  6
CONTINUOUS
 62
     7
 10
220.3805875984261
 20
40.532406896739857
 30
0.0
 11
210.5798693176921
 21
45.743541243663152
 31
0.0
  0
LINE
  5
16D
  8
DATA
  6
CONTINUOUS
 62
     7
 10
223.1035226625842
 20
45.65350293532159
 30
0.0
 11
213.30280438185031
 21
50.864637282244892
 31
0.0
  0
LINE
  5
16E
  8
DATA
  6
CONTINUOUS
 62
     7
 10
223.1035226625842
 20
45.65350293532159
 30
0.0
 11
220.3805875984261
 21
40.532406896739857
 31
0.0
  0
LINE
  5
16F
  8
DATA
  6
CONTINUOUS
 62
     7
 10
207.7650984445591
 20
48.117923254158029
 30
0.0
 11
210.5798693176921
 21
45.743541243663152
 31
0.0
  0
LINE
  5
170
  8
DATA
  6
CONTINUOUS
 62
     7
 10
209.76035258639911
 20
51.870450523808437
 30
0.0
 11
213.30280438185031
 21
50.864637282244892
 31
0.0
  0
LINE
  5
171
  8
DATA
  6
CONTINUOUS
 62
     7
 10
199.2239192621864
 20
56.123917011146148
 30
0.0
 11
198.34691617016
 21
54.474514085781443
 31
0.0
  0
LINE
  5
172
  8
DATA
  6
CONTINUOUS
 62
     7
 10
209.76035258639911
 20
51.870450523808437
 30
0.0
 11
199.2239192621864
 21
56.123917011146148
 31
0.0
  0
LINE
  5
173
  8
DATA
  6
CONTINUOUS
 62
     7
 10
207.7650984445591
 20
48.117923254158001
 30
0.0
 11
198.34691617016
 21
54.474514085781443
 31
0.0
  0
LINE
  5
174
  8
DATA
  6
CONTINUOUS
 62
     7
 10
161.27663513348151
 20
87.112479081323187
 30
0.0
 11
165.27803258356411
 21
88.318379682717946
 31
0.0
  0
LINE
  5
175
  8
DATA
  6
CONTINUOUS
 62
     7
 10
199.2239192621864
 20
56.123917011146148
 30
0.0
 11
185.19999999999999
 21
63.580567151709531
 31
0.0
  0
LINE
  5
176
  8
DATA
  6
CONTINUOUS
 62
     7
 10
198.34691617016
 20
54.474514085781443
 30
0.0
 11
184.580189248685
 21
62.422737579755143
 31
0.0
  0
ARC
  5
177
  8
DATA
  6
CONTINUOUS
 62
     7
 10
182.449676158372
 20
65.915245053805862
 30
0.0
 40
2.1094467866517821
 50
247.2698274430991
 51
12.73017255690019
  0
ARC
  5
178
  8
DATA
  6
CONTINUOUS
 62
     7
 10
180.8195302470358
 20
62.024012949366963
 30
0.0
 40
2.109446786651775
 50
67.269827443099544
 51
192.73017255690061
  0
ARC
  5
179
  8
DATA
  6
CONTINUOUS
 62
     7
 10
181.2059317288915
 20
67.88320313651279
 30
0.0
 40
2.1094467866517821
 50
247.2698274430991
 51
12.730172556900611
  0
ARC
  5
17A
  8
DATA
  6
CONTINUOUS
 62
     7
 10
179.5757858175553
 20
63.991971032073913
 30
0.0
 40
2.109446786651763
 50
67.269827443099388
 51
192.73017255690101
  0
LINE
  5
17B
  8
DATA
  6
破線の種類-5
 62
     7
 10
74.235510126789862
 20
-39.405758231760601
 30
0.0
 11
74.575693842368963
 21
-45.89685020766531
 31
0.0
  0
ARC
  5
17C
  8
DATA
  6
破線の種類-5
 62
     7
 10
67.744418150885139
 20
-39.74594194733973
 30
0.0
 40
6.4999999999999973
 50
3.000000000000083
 51
92.999999999999815
  0
ARC
  5
17D
  8
DATA
  6
破線の種類-5
 62
     7
 10
53.486443215460788
 20
-40.542290377008428
 30
0.0
 40
6.5000000000000071
 50
93.0
 51
183.00000000000011
  0
ARC
  5
17E
  8
DATA
  6
破線の種類-5
 62
     7
 10
53.826626931039932
 20
-47.033382352913137
 30
0.0
 40
6.5000000000000071
 50
183.00000000000011
 51
273.0
  0
ARC
  5
17F
  8
DATA
  6
破線の種類-5
 62
     7
 10
68.084601866464268
 20
-46.237033923244461
 30
0.0
 40
6.5000000000000062
 50
272.99999999999989
 51
3.000000000000056
  0
LINE
  5
180
  8
DATA
  6
破線の種類-5
 62
     7
 10
46.995351239556037
 20
-40.882474092587593
 30
0.0
 11
47.388017883584197
 21
-48.375
 31
0.0
  0
LINE
  5
181
  8
DATA
  6
破線の種類-5
 62
     7
 10
67.404234435306023
 20
-33.254849971434957
 30
0.0
 11
52.209001197738317
 21
-34.051198401103711
 31
0.0
  0
LINE
  5
182
  8
DATA
  6
破線の種類-5
 62
     7
 10
69.200000000000003
 20
-52.640617841934557
 30
0.0
 11
54.166810646619062
 21
-53.524474328817888
 31
0.0
  0
TEXT
  5
183
  8
DATA
 62
     7
 10
90.919149259875496
 20
-20.39734581666718
 30
0.0
 40
5.4294704861111116
  1
ウインドスクリーン
 41
0.7
 11
90.919149259875496
 21
-14.967875330556071
 31
0.0
 73
     3
1001
ACADANNOTATIVE
1000
AnnotativeData
1002
{
1070
     1
1070
     0
1002
}
  0
LINE
  5
184
  8
DATA
  6
CONTINUOUS
 62
     7
 10
72.644321709370132
 20
-35.474999999999987
 30
0.0
 11
88.0
 21
-22.930555555555539
 31
0.0
  0
POLYLINE
  5
185
  8
DATA
  6
CONTINUOUS
 62
     7
 66
     1
 10
0.0
 20
0.0
 30
0.0
 70
   128
  0
VERTEX
  5
36D
  8
DATA
  6
CONTINUOUS
 62
     7
 10
78.649972969692129
 20
-32.801111784945292
 30
0.0
  0
VERTEX
  5
36E
  8
DATA
  6
CONTINUOUS
 62
     7
 10
72.644321709370132
 20
-35.474999999999987
 30
0.0
  0
VERTEX
  5
36F
  8
DATA
  6
CONTINUOUS
 62
     7
 10
76.508424159551652
 20
-30.156519248721761
 30
0.0
  0
SEQEND
  5
370
  8
DATA
  6
CONTINUOUS
 62
     7
  0
LINE
  5
18A
  8
DATA
  6
CONTINUOUS
 62
     7
 10
88.0
 20
-22.930555555555539
 30
0.0
 11
158.0
 21
-22.930555555555539
 31
0.0
  0
LINE
  5
18B
  8
DATA
  6
CONTINUOUS
 62
     7
 10
43.348690608008823
 20
-40.875
 30
0.0
 11
43.348690608008823
 21
-45.675000000000011
 31
0.0
  0
LINE
  5
18C
  8
DATA
  6
CONTINUOUS
 62
     7
 10
44.689001189765371
 20
-40.875
 30
0.0
 11
44.689001189765371
 21
-45.675000000000011
 31
0.0
  0
LINE
  5
18D
  8
DATA
  6
CONTINUOUS
 62
     7
 10
43.348690608008823
 20
-40.875
 30
0.0
 11
44.689001189765371
 21
-40.875
 31
0.0
  0
LINE
  5
18E
  8
DATA
  6
CONTINUOUS
 62
     7
 10
43.348690608008823
 20
-45.675000000000011
 30
0.0
 11
44.689001189765371
 21
-45.675000000000011
 31
0.0
  0
VIEWPORT
  5
18F
 67
     1
  8
0
 10
128.5
 20
97.5
 30
0.0
 40
314.226
 41
222.18000000000001
 68
     1
 69
     1
1001
ACAD
1000
MVIEW
1002
{
1070
    16
1010
0.0
1020
0.0
1030
0.0
1010
0.0
1020
0.0
1030
1.0
1040
0.0
1040
222.18000000000001
1040
128.5
1040
97.5
1040
50.0
1040
0.0
1040
0.0
1070
     0
1070
   100
1070
     1
1070
     3
1070
     0
1070
     0
1070
     0
1070
     0
1040
0.0
1040
0.0
1040
0.0
1040
10.0
1040
10.0
1040
10.0
1040
10.0
1070
     0
1002
{
1002
}
1002
}
  0
ENDSEC
  0
EOF
