  0
SECTION
  2
HEADER
  9
$ACADVER
  1
AC1009
  9
$INSBASE
 10
0.0
 20
0.0
 30
0.0
  9
$EXTMIN
 10
-80.010985489947416
 20
-131.67677505465531
 30
-0.0015258207003583
  9
$EXTMAX
 10
280.01098716632811
 20
403.54994963264153
 30
0.0000000349246037
  9
$LIMMIN
 10
0.0
 20
0.0
  9
$LIMMAX
 10
12.0
 20
9.0
  9
$ORTHOMODE
 70
     0
  9
$REGENMODE
 70
     1
  9
$FILLMODE
 70
     1
  9
$QTEXTMODE
 70
     0
  9
$MIRRTEXT
 70
     1
  9
$DRAGMODE
 70
     2
  9
$LTSCALE
 40
10.16
  9
$OSMODE
 70
   231
  9
$ATTMODE
 70
     1
  9
$TEXTSIZE
 40
0.2
  9
$TRACEWID
 40
1.0
  9
$TEXTSTYLE
  7
STANDARD
  9
$CLAYER
  8
DATA
  9
$CELTYPE
  6
BYLAYER
  9
$CECOLOR
 62
   256
  9
$DIMSCALE
 40
1.0
  9
$DIMASZ
 40
0.18
  9
$DIMEXO
 40
0.0625
  9
$DIMDLI
 40
0.38
  9
$DIMRND
 40
0.0
  9
$DIMDLE
 40
0.0
  9
$DIMEXE
 40
0.18
  9
$DIMTP
 40
0.0
  9
$DIMTM
 40
0.0
  9
$DIMTXT
 40
0.18
  9
$DIMCEN
 40
0.09
  9
$DIMTSZ
 40
0.0
  9
$DIMTOL
 70
     0
  9
$DIMLIM
 70
     0
  9
$DIMTIH
 70
     1
  9
$DIMTOH
 70
     1
  9
$DIMSE1
 70
     0
  9
$DIMSE2
 70
     0
  9
$DIMTAD
 70
     0
  9
$DIMZIN
 70
     0
  9
$DIMBLK
  1

  9
$DIMASO
 70
     1
  9
$DIMSHO
 70
     1
  9
$DIMPOST
  1

  9
$DIMAPOST
  1

  9
$DIMALT
 70
     0
  9
$DIMALTD
 70
     2
  9
$DIMALTF
 40
25.399999999999999
  9
$DIMLFAC
 40
1.0
  9
$DIMTOFL
 70
     0
  9
$DIMTVP
 40
0.0
  9
$DIMTIX
 70
     0
  9
$DIMSOXD
 70
     0
  9
$DIMSAH
 70
     0
  9
$DIMBLK1
  1

  9
$DIMBLK2
  1

  9
$DIMSTYLE
  2
STANDARD
  9
$DIMCLRD
 70
     0
  9
$DIMCLRE
 70
     0
  9
$DIMCLRT
 70
     0
  9
$DIMTFAC
 40
1.0
  9
$DIMGAP
 40
0.09
  9
$LUNITS
 70
     2
  9
$LUPREC
 70
     4
  9
$SKETCHINC
 40
0.1
  9
$FILLETRAD
 40
0.5
  9
$AUNITS
 70
     0
  9
$AUPREC
 70
     0
  9
$MENU
  1
.
  9
$ELEVATION
 40
0.0
  9
$PELEVATION
 40
0.0
  9
$THICKNESS
 40
0.0
  9
$LIMCHECK
 70
     0
  9
$BLIPMODE
 70
     0
  9
$CHAMFERA
 40
0.5
  9
$CHAMFERB
 40
0.5
  9
$SKPOLY
 70
     0
  9
$TDCREATE
 40
2455779.5488874419
  9
$TDUPDATE
 40
2455779.5504239011
  9
$TDINDWG
 40
0.000278831
  9
$TDUSRTIMER
 40
0.000278831
  9
$USRTIMER
 70
     1
  9
$ANGBASE
 50
0.0
  9
$ANGDIR
 70
     0
  9
$PDMODE
 70
     1
  9
$PDSIZE
 40
-2.0
  9
$PLINEWID
 40
0.0
  9
$COORDS
 70
     1
  9
$SPLFRAME
 70
     0
  9
$SPLINETYPE
 70
     6
  9
$SPLINESEGS
 70
     8
  9
$ATTDIA
 70
     0
  9
$ATTREQ
 70
     1
  9
$HANDLING
 70
     1
  9
$HANDSEED
  5
272
  9
$SURFTAB1
 70
     6
  9
$SURFTAB2
 70
     6
  9
$SURFTYPE
 70
     6
  9
$SURFU
 70
     6
  9
$SURFV
 70
     6
  9
$UCSNAME
  2

  9
$UCSORG
 10
0.0
 20
0.0
 30
0.0
  9
$UCSXDIR
 10
1.0
 20
0.0
 30
0.0
  9
$UCSYDIR
 10
0.0
 20
1.0
 30
0.0
  9
$PUCSNAME
  2

  9
$PUCSORG
 10
0.0
 20
0.0
 30
0.0
  9
$PUCSXDIR
 10
1.0
 20
0.0
 30
0.0
  9
$PUCSYDIR
 10
0.0
 20
1.0
 30
0.0
  9
$USERI1
 70
     0
  9
$USERI2
 70
     0
  9
$USERI3
 70
     0
  9
$USERI4
 70
     0
  9
$USERI5
 70
     0
  9
$USERR1
 40
0.0
  9
$USERR2
 40
0.0
  9
$USERR3
 40
0.0
  9
$USERR4
 40
0.0
  9
$USERR5
 40
0.0
  9
$WORLDVIEW
 70
     1
  9
$SHADEDGE
 70
     3
  9
$SHADEDIF
 70
    70
  9
$TILEMODE
 70
     1
  9
$MAXACTVP
 70
    64
  9
$PLIMCHECK
 70
     0
  9
$PEXTMIN
 10
1.0000000000000000E+020
 20
1.0000000000000000E+020
 30
1.0000000000000000E+020
  9
$PEXTMAX
 10
-1.0000000000000000E+020
 20
-1.0000000000000000E+020
 30
-1.0000000000000000E+020
  9
$PLIMMIN
 10
-20.0
 20
-7.5
  9
$PLIMMAX
 10
277.0
 20
202.5
  9
$UNITMODE
 70
     0
  9
$VISRETAIN
 70
     1
  9
$PLINEGEN
 70
     0
  9
$PSLTSCALE
 70
     1
  0
ENDSEC
  0
SECTION
  2
TABLES
  0
TABLE
  2
VPORT
 70
     1
  0
VPORT
  2
*ACTIVE
 70
     0
 10
0.0
 20
0.0
 11
1.0
 21
1.0
 12
100.0000008381904
 22
135.93658728899311
 13
0.0
 23
0.0
 14
0.5
 24
0.5
 15
0.5
 25
0.5
 16
0.0
 26
0.0
 36
1.0
 17
0.0
 27
0.0
 37
0.0
 40
539.16704413284754
 41
1.9619164619164611
 42
2000.0
 43
0.0
 44
0.0
 50
0.0
 51
0.0
 71
     0
 72
   100
 73
     1
 74
     3
 75
     0
 76
     0
 77
     0
 78
     0
  0
ENDTAB
  0
TABLE
  2
LTYPE
 70
    11
  0
LTYPE
  2
CONTINUOUS
 70
     0
  3
Solid line
 72
    65
 73
     0
 40
0.0
  0
LTYPE
  2
破線の種類-5
 70
     0
  3

 72
    65
 73
     2
 40
0.208282470703125
 49
0.069427490234375
 49
-0.13885498046875
  0
ENDTAB
  0
TABLE
  2
LAYER
 70
     5
  0
LAYER
  2
0
 70
     0
 62
     7
  6
CONTINUOUS
  0
LAYER
  2
DATA
 70
     0
 62
     7
  6
CONTINUOUS
  0
LAYER
  2
HIBINO-BASE
 70
     0
 62
     7
  6
CONTINUOUS
  0
LAYER
  2
SPEC
 70
     0
 62
     7
  6
CONTINUOUS
  0
LAYER
  2
DIMNSIONS
 70
     0
 62
     7
  6
CONTINUOUS
  0
ENDTAB
  0
TABLE
  2
STYLE
 70
     3
  0
STYLE
  2
STANDARD
 70
     0
 40
0.0
 41
1.0
 50
0.0
 71
     0
 42
0.2
  3
txt
  4
BIGFONT.SHX
  0
ENDTAB
  0
TABLE
  2
VIEW
 70
     0
  0
ENDTAB
  0
TABLE
  2
UCS
 70
     0
  0
ENDTAB
  0
TABLE
  2
APPID
 70
     4
  0
APPID
  2
ACAD
 70
     0
  0
APPID
  2
ACADANNOTATIVE
 70
     0
  0
APPID
  2
ACAD_NAV_VCDISPLAY
 70
     0
  0
APPID
  2
ACAD_MLEADERVER
 70
     0
  0
ENDTAB
  0
TABLE
  2
DIMSTYLE
 70
     2
  0
DIMSTYLE
  2
STANDARD
 70
     0
  3

  4

  5

  6

  7

 40
1.0
 41
0.18
 42
0.0625
 43
0.38
 44
0.18
 45
0.0
 46
0.0
 47
0.0
 48
0.0
140
0.18
141
0.09
142
0.0
143
25.399999999999999
144
1.0
145
0.0
146
1.0
147
0.09
 71
     0
 72
     0
 73
     1
 74
     1
 75
     0
 76
     0
 77
     0
 78
     0
170
     0
171
     2
172
     0
173
     0
174
     0
175
     0
176
     0
177
     0
178
     0
  0
ENDTAB
  0
ENDSEC
  0
SECTION
  2
BLOCKS
  0
BLOCK
  8
0
  2
$MODEL_SPACE
 70
     0
 10
0.0
 20
0.0
 30
0.0
  3
$MODEL_SPACE
  1

  0
ENDBLK
  5
1E5
  8
0
  0
BLOCK
 67
     1
  8
0
  2
$PAPER_SPACE
 70
     0
 10
0.0
 20
0.0
 30
0.0
  3
$PAPER_SPACE
  1

  0
ENDBLK
  5
1E1
 67
     1
  8
0
  0
ENDSEC
  0
SECTION
  2
ENTITIES
  0
LINE
  5
4F
  8
HIBINO-BASE
  6
CONTINUOUS
 62
     7
 10
-79.999999999999986
 20
403.53364789486579
 30
0.0
 11
279.99999999999989
 21
403.53364789486579
 31
0.0
  0
LINE
  5
50
  8
HIBINO-BASE
  6
CONTINUOUS
 62
     7
 10
279.99999999999989
 20
-116.46635210513411
 30
0.0
 11
-79.999999999999986
 21
-116.46635210513411
 31
0.0
  0
LINE
  5
51
  8
HIBINO-BASE
  6
CONTINUOUS
 62
     7
 10
-79.999999999999986
 20
-116.46635210513411
 30
0.0
 11
-79.999999999999986
 21
403.53364789486579
 31
0.0
  0
LINE
  5
52
  8
HIBINO-BASE
  6
CONTINUOUS
 62
     7
 10
279.99999999999989
 20
403.53364789486579
 30
0.0
 11
279.99999999999989
 21
-116.46635210513411
 31
0.0
  0
LINE
  5
53
  8
HIBINO-BASE
  6
CONTINUOUS
 62
     7
 10
100.0
 20
-71.466352105134064
 30
0.0
 11
279.99999999999989
 21
-71.466352105134064
 31
0.0
  0
LINE
  5
54
  8
HIBINO-BASE
  6
CONTINUOUS
 62
     7
 10
100.0
 20
-116.46635210513411
 30
0.0
 11
100.0
 21
-71.466352105134064
 31
0.0
  0
TEXT
  5
55
  8
HIBINO-BASE
 62
     7
 10
101.8
 20
-76.483738771800745
 30
0.0
 40
3.2576822916666659
  1
NOTE
 41
0.7
 11
101.8
 21
-73.226056480134076
 31
0.0
 73
     3
  0
LINE
  5
56
  8
HIBINO-BASE
  6
CONTINUOUS
 62
     7
 10
170.0
 20
-116.46635210513411
 30
0.0
 11
170.0
 21
-71.466352105134064
 31
0.0
  0
TEXT
  5
57
  8
HIBINO-BASE
 62
     7
 10
171.80000000000001
 20
-76.483738771800745
 30
0.0
 40
3.2576822916666659
  1
TITLE
 41
0.7
 11
171.80000000000001
 21
-73.226056480134076
 31
0.0
 73
     3
  0
LINE
  5
58
  8
HIBINO-BASE
  6
CONTINUOUS
 62
     7
 10
100.0
 20
-96.466352105134064
 30
0.0
 11
279.99999999999989
 21
-96.466352105134064
 31
0.0
  0
TEXT
  5
59
  8
HIBINO-BASE
 62
     7
 10
196.80000000000001
 20
-101.3710987718007
 30
0.0
 40
3.2576822916666659
  1
DRAWN
 41
0.7
 11
196.80000000000001
 21
-98.113416480134106
 31
0.0
 73
     3
  0
TEXT
  5
5A
  8
HIBINO-BASE
 62
     7
 10
146.80000000000001
 20
-101.3710987718007
 30
0.0
 40
3.2576822916666659
  1
DATE
 41
0.7
 11
146.80000000000001
 21
-98.113416480134106
 31
0.0
 73
     3
  0
TEXT
  5
5B
  8
HIBINO-BASE
 62
     7
 10
126.8
 20
-101.3710987718007
 30
0.0
 40
3.2576822916666659
  1
SCALE
 41
0.7
 11
126.8
 21
-98.113416480134106
 31
0.0
 73
     3
  0
TEXT
  5
5C
  8
HIBINO-BASE
 62
     7
 10
171.80000000000001
 20
-101.3710987718007
 30
0.0
 40
3.2576822916666659
  1
DESIGN
 41
0.7
 11
171.80000000000001
 21
-98.113416480134106
 31
0.0
 73
     3
  0
TEXT
  5
5D
  8
HIBINO-BASE
 62
     7
 10
246.80000000000001
 20
-101.3710987718007
 30
0.0
 40
3.2576822916666659
  1
DRAWING NO.
 41
0.7
 11
246.80000000000001
 21
-98.113416480134106
 31
0.0
 73
     3
  0
TEXT
  5
5E
  8
HIBINO-BASE
 62
     7
 10
221.80000000000001
 20
-101.3710987718007
 30
0.0
 40
3.2576822916666659
  1
CHECK
 41
0.7
 11
221.80000000000001
 21
-98.113416480134106
 31
0.0
 73
     3
  0
LINE
  5
5F
  8
HIBINO-BASE
  6
CONTINUOUS
 62
     7
 10
128.75
 20
-113.96635210513411
 30
0.0
 11
136.25
 21
-106.46635210513411
 31
0.0
  0
TEXT
  5
60
  8
HIBINO-BASE
 62
     7
 10
127.5
 20
-108.68423877180069
 30
0.0
 40
3.2576822916666659
  1
1
 41
0.7
 11
127.5
 21
-105.4265564801341
 31
0.0
 73
     3
  0
LINE
  5
61
  8
HIBINO-BASE
  6
CONTINUOUS
 62
     7
 10
125.0
 20
-116.46635210513411
 30
0.0
 11
125.0
 21
-96.466352105134064
 31
0.0
  0
LINE
  5
62
  8
HIBINO-BASE
  6
CONTINUOUS
 62
     7
 10
145.0
 20
-116.46635210513411
 30
0.0
 11
145.0
 21
-96.466352105134064
 31
0.0
  0
LINE
  5
63
  8
HIBINO-BASE
  6
CONTINUOUS
 62
     7
 10
195.0
 20
-96.466352105134064
 30
0.0
 11
195.0
 21
-116.46635210513411
 31
0.0
  0
LINE
  5
64
  8
HIBINO-BASE
  6
CONTINUOUS
 62
     7
 10
245.0
 20
-96.466352105134064
 30
0.0
 11
245.0
 21
-116.46635210513411
 31
0.0
  0
LINE
  5
65
  8
HIBINO-BASE
  6
CONTINUOUS
 62
     7
 10
220.0
 20
-116.46635210513411
 30
0.0
 11
220.0
 21
-96.466352105134064
 31
0.0
  0
TEXT
  5
66
  8
HIBINO-BASE
 62
     7
 10
146.71307999999999
 20
-110.7390587718007
 30
0.0
 40
3.2576822916666659
  1
'11.08.
 41
0.7
 11
146.71307999999999
 21
-107.4813764801341
 31
0.0
 73
     3
  0
TEXT
  5
67
  8
HIBINO-BASE
 62
     7
 10
198.0116200220692
 20
-110.7390587718007
 30
0.0
 40
3.2576822916666659
  1
T.Ootake
 41
0.7
 11
198.0116200220692
 21
-107.4813764801341
 31
0.0
 73
     3
  0
TEXT
  5
68
  8
HIBINO-BASE
 62
     7
 10
107.76666666666669
 20
-112.51435210513399
 30
0.0
 40
6.5153645833333318
  1
A4
 41
0.7
 11
107.76666666666669
 21
-105.9989875218007
 31
0.0
 73
     3
  0
TEXT
  5
69
  8
HIBINO-BASE
 62
     7
 10
101.9166666666667
 20
-101.7052621051341
 30
0.0
 40
3.2576822916666659
  1
PAPER SIZE
 41
0.7
 11
101.9166666666667
 21
-98.447579813467414
 31
0.0
 73
     3
  0
TEXT
  5
6A
  8
HIBINO-BASE
 62
     7
 10
-74.48072948621963
 20
-129.31683257348649
 30
0.0
 40
7.0583116319444432
  1
Hibino-Intersound Corporation
 41
0.7
 11
-74.48072948621963
 21
-122.2585209415421
 31
0.0
 73
     3
  0
TEXT
  5
6B
  8
HIBINO-BASE
 62
     7
 10
140.36121936042781
 20
-128.61465606690771
 30
0.0
 40
7.0583116319444432
  1
ヒビノインターサウンド株式会社
 41
0.7
 11
140.36121936042781
 21
-121.55634443496329
 31
0.0
 73
     3
  0
LINE
  5
6C
  8
SPEC
  6
CONTINUOUS
 62
     7
 10
-64.999999999999986
 20
383.53364789486579
 30
0.0
 11
230.0
 21
383.53364789486579
 31
0.0
  0
LINE
  5
6D
  8
SPEC
  6
CONTINUOUS
 62
     7
 10
-64.999999999999986
 20
376.03364789486591
 30
0.0
 11
230.0
 21
376.03364789486591
 31
0.0
  0
LINE
  5
6E
  8
SPEC
  6
CONTINUOUS
 62
     7
 10
-64.999999999999986
 20
361.03364789486591
 30
0.0
 11
230.0
 21
361.03364789486591
 31
0.0
  0
LINE
  5
6F
  8
SPEC
  6
CONTINUOUS
 62
     7
 10
-64.999999999999986
 20
368.53364789486579
 30
0.0
 11
230.0
 21
368.53364789486579
 31
0.0
  0
LINE
  5
70
  8
SPEC
  6
CONTINUOUS
 62
     7
 10
-64.999999999999986
 20
383.53364789486579
 30
0.0
 11
-64.999999999999986
 21
233.53364789486591
 31
0.0
  0
TEXT
  5
71
  8
SPEC
 62
     7
 10
-62.5
 20
386.32018789486591
 30
0.0
 40
4.8865234375000002
  1
仕様
 41
0.7
 11
-62.5
 21
391.2067113323659
 31
0.0
 73
     3
  0
LINE
  5
72
  8
SPEC
  6
CONTINUOUS
 62
     7
 10
30.0
 20
383.53364789486579
 30
0.0
 11
30.0
 21
233.53364789486591
 31
0.0
  0
LINE
  5
73
  8
SPEC
  6
CONTINUOUS
 62
     7
 10
230.0
 20
383.53364789486579
 30
0.0
 11
230.0
 21
233.53364789486591
 31
0.0
  0
LINE
  5
74
  8
SPEC
  6
CONTINUOUS
 62
     7
 10
-64.999999999999986
 20
353.53364789486579
 30
0.0
 11
230.0
 21
353.53364789486579
 31
0.0
  0
LINE
  5
75
  8
SPEC
  6
CONTINUOUS
 62
     7
 10
-64.999999999999986
 20
346.03364789486579
 30
0.0
 11
230.0
 21
346.03364789486579
 31
0.0
  0
LINE
  5
76
  8
SPEC
  6
CONTINUOUS
 62
     7
 10
-64.999999999999986
 20
338.53364789486591
 30
0.0
 11
230.0
 21
338.53364789486591
 31
0.0
  0
LINE
  5
77
  8
SPEC
  6
CONTINUOUS
 62
     7
 10
-64.999999999999986
 20
331.03364789486579
 30
0.0
 11
230.0
 21
331.03364789486579
 31
0.0
  0
LINE
  5
78
  8
SPEC
  6
CONTINUOUS
 62
     7
 10
-64.999999999999986
 20
323.53364789486591
 30
0.0
 11
230.0
 21
323.53364789486591
 31
0.0
  0
LINE
  5
79
  8
SPEC
  6
CONTINUOUS
 62
     7
 10
-64.999999999999986
 20
316.03364789486579
 30
0.0
 11
230.0
 21
316.03364789486579
 31
0.0
  0
LINE
  5
7A
  8
SPEC
  6
CONTINUOUS
 62
     7
 10
-64.999999999999986
 20
308.53364789486579
 30
0.0
 11
230.0
 21
308.53364789486579
 31
0.0
  0
LINE
  5
7B
  8
SPEC
  6
CONTINUOUS
 62
     7
 10
-64.999999999999986
 20
293.53364789486579
 30
0.0
 11
230.0
 21
293.53364789486579
 31
0.0
  0
LINE
  5
7C
  8
SPEC
  6
CONTINUOUS
 62
     7
 10
-64.999999999999986
 20
286.03364789486591
 30
0.0
 11
230.0
 21
286.03364789486591
 31
0.0
  0
LINE
  5
7D
  8
SPEC
  6
CONTINUOUS
 62
     7
 10
-64.999999999999986
 20
278.53364789486591
 30
0.0
 11
230.0
 21
278.53364789486591
 31
0.0
  0
LINE
  5
7E
  8
SPEC
  6
CONTINUOUS
 62
     7
 10
-64.999999999999986
 20
271.03364789486591
 30
0.0
 11
230.0
 21
271.03364789486591
 31
0.0
  0
LINE
  5
7F
  8
SPEC
  6
CONTINUOUS
 62
     7
 10
-64.999999999999986
 20
263.53364789486591
 30
0.0
 11
230.0
 21
263.53364789486591
 31
0.0
  0
LINE
  5
80
  8
SPEC
  6
CONTINUOUS
 62
     7
 10
-64.999999999999986
 20
256.03364789486591
 30
0.0
 11
230.0
 21
256.03364789486591
 31
0.0
  0
LINE
  5
81
  8
SPEC
  6
CONTINUOUS
 62
     7
 10
-64.999999999999986
 20
256.03364789486591
 30
0.0
 11
230.0
 21
256.03364789486591
 31
0.0
  0
TEXT
  5
82
  8
SPEC
 62
     7
 10
-63.242468843554988
 20
377.81702648956542
 30
0.0
 40
3.8006293402777782
  1
指向特性
 41
0.7
 11
-63.242468843554988
 21
381.6176558298431
 31
0.0
 73
     3
  0
TEXT
  5
83
  8
SPEC
 62
     7
 10
31.463131379976051
 20
377.7854898627873
 30
0.0
 40
3.8006293402777782
  1
カーディオイド
 41
0.7
 11
31.463131379976051
 21
381.58611920306498
 31
0.0
 73
     3
  0
TEXT
  5
84
  8
SPEC
 62
     7
 10
-63.347133994599893
 20
273.09945502035538
 30
0.0
 40
3.8006293402777782
  1
寸法
 41
0.7
 11
-63.347133994599893
 21
276.90008436063317
 31
0.0
 73
     3
  0
TEXT
  5
85
  8
SPEC
 62
     7
 10
31.26653528691152
 20
272.9204655575146
 30
0.0
 40
3.8006293402777782
  1
\U+03A65.5
 41
0.7
 11
31.26653528691152
 21
276.7210948977924
 31
0.0
 73
     3
  0
TEXT
  5
86
  8
SPEC
 62
     7
 10
31.732948459048671
 20
265.67602481930572
 30
0.0
 40
3.8006293402777782
  1
約1.4g(ケーブル・コネクター含む）
 41
0.7
 11
31.732948459048671
 21
269.47665415958352
 31
0.0
 73
     3
  0
TEXT
  5
87
  8
SPEC
 62
     7
 10
-63.293414759063609
 20
265.54784293722179
 30
0.0
 40
3.8006293402777782
  1
重量
 41
0.7
 11
-63.293414759063609
 21
269.34847227749958
 31
0.0
 73
     3
  0
TEXT
  5
88
  8
SPEC
 62
     7
 10
-63.565747826942371
 20
370.37032243286478
 30
0.0
 40
3.8006293402777782
  1
カートリッジ
 41
0.7
 11
-63.565747826942371
 21
374.17095177314258
 31
0.0
 73
     3
  0
TEXT
  5
89
  8
SPEC
 62
     7
 10
31.189152252706169
 20
370.37899383609169
 30
0.0
 40
3.8006293402777782
  1
プリポラライズド・コンデンサー型
 41
0.7
 11
31.189152252706169
 21
374.17962317636949
 31
0.0
 73
     3
  0
TEXT
  5
8A
  8
SPEC
 62
     7
 10
-63.198491194344548
 20
347.80121475540483
 30
0.0
 40
3.8006293402777782
  1
等価雑音レベル(Aウェイト)
 41
0.7
 11
-63.198491194344548
 21
351.60184409568262
 31
0.0
 73
     3
  0
TEXT
  5
8B
  8
SPEC
 62
     7
 10
31.829632461078209
 20
347.95908788452817
 30
0.0
 40
3.8006293402777782
  1
26dB SPL
 41
0.7
 11
31.829632461078209
 21
351.75971722480602
 31
0.0
 73
     3
  0
TEXT
  5
8C
  8
SPEC
 62
     7
 10
-63.270339542210351
 20
355.37772734128879
 30
0.0
 40
3.8006293402777782
  1
感度(\U+00B13dB）
 41
0.7
 11
-63.270339542210351
 21
359.17835668156658
 31
0.0
 73
     3
  0
TEXT
  5
8D
  8
SPEC
 62
     7
 10
31.924503972813991
 20
355.40231831202232
 30
0.0
 40
3.8006293402777782
  1
-44dB re 1V/Pa
 41
0.7
 11
31.924503972813991
 21
359.20294765230011
 31
0.0
 73
     3
  0
TEXT
  5
8E
  8
SPEC
 62
     7
 10
-63.245882527000717
 20
363.0054896246524
 30
0.0
 40
3.8006293402777782
  1
周波数レンジ(\U+00B12dB)
 41
0.7
 11
-63.245882527000717
 21
366.80611896493019
 31
0.0
 73
     3
  0
TEXT
  5
8F
  8
SPEC
 62
     7
 10
31.552548120271211
 20
363.03190803602342
 30
0.0
 40
3.8006293402777782
  1
100Hz～20kHz
 41
0.7
 11
31.552548120271211
 21
366.83253737630122
 31
0.0
 73
     3
  0
TEXT
  5
90
  8
SPEC
 62
     7
 10
-63.214185969108023
 20
340.48585848992849
 30
0.0
 40
3.8006293402777782
  1
全高調波歪み(THD)
 41
0.7
 11
-63.214185969108023
 21
344.28648783020628
 31
0.0
 73
     3
  0
TEXT
  5
91
  8
SPEC
 62
     7
 10
31.551879882893999
 20
340.50111590126699
 30
0.0
 40
3.8006293402777782
  1
1%%%以下(123dB SPL、ピーク)、1%%%以下(120dB SPL、RMS）
 41
0.7
 11
31.551879882893999
 21
344.30174524154478
 31
0.0
 73
     3
  0
TEXT
  5
92
  8
SPEC
 62
     7
 10
-63.763525169623549
 20
287.9306754913909
 30
0.0
 40
3.8006293402777782
  1
コネクター
 41
0.7
 11
-63.763525169623549
 21
291.73130483166869
 31
0.0
 73
     3
  0
TEXT
  5
93
  8
SPEC
 62
     7
 10
31.88246526492917
 20
287.90519214575897
 30
0.0
 40
3.8006293402777782
  1
MicroDot
 41
0.7
 11
31.88246526492917
 21
291.70582148603683
 31
0.0
 73
     3
  0
TEXT
  5
94
  8
SPEC
 62
     7
 10
-63.43330512829943
 20
310.28187274438989
 30
0.0
 40
3.8006293402777782
  1
ケーブル引き伸ばし可能距離
 41
0.7
 11
-63.43330512829943
 21
314.08250208466768
 31
0.0
 73
     3
  0
TEXT
  5
95
  8
SPEC
 62
     7
 10
31.820508569550679
 20
310.57778783719118
 30
0.0
 40
3.8006293402777782
  1
最大300m
 41
0.7
 11
31.820508569550679
 21
314.37841717746898
 31
0.0
 73
     3
  0
TEXT
  5
96
  8
SPEC
 62
     7
 10
-63.441014503210468
 20
317.7723737293432
 30
0.0
 40
3.8006293402777782
  1
出力インピーダンス
 41
0.7
 11
-63.441014503210468
 21
321.573003069621
 31
0.0
 73
     3
  0
TEXT
  5
97
  8
SPEC
 62
     7
 10
31.854453899595679
 20
317.8875157629472
 30
0.0
 40
3.8006293402777782
  1
30～40\U+03A9以下
 41
0.7
 11
31.854453899595679
 21
321.688145103225
 31
0.0
 73
     3
  0
TEXT
  5
98
  8
SPEC
 62
     7
 10
-63.549552266758788
 20
332.8409180163469
 30
0.0
 40
3.8006293402777782
  1
ダイナミックレンジ(代表値)
 41
0.7
 11
-63.549552266758788
 21
336.6415473566247
 31
0.0
 73
     3
  0
TEXT
  5
99
  8
SPEC
 62
     7
 10
31.75881672581724
 20
332.83784155804028
 30
0.0
 40
3.8006293402777782
  1
97dB
 41
0.7
 11
31.75881672581724
 21
336.63847089831808
 31
0.0
 73
     3
  0
TEXT
  5
9A
  8
SPEC
 62
     7
 10
-63.207502705823067
 20
325.44118480556011
 30
0.0
 40
3.8006293402777782
  1
最大音圧レベル
 41
0.7
 11
-63.207502705823067
 21
329.24181414583779
 31
0.0
 73
     3
  0
TEXT
  5
9B
  8
SPEC
 62
     7
 10
31.531181722239811
 20
325.51394625378072
 30
0.0
 40
3.8006293402777782
  1
144dB SPL
 41
0.7
 11
31.531181722239811
 21
329.31457559405851
 31
0.0
 73
     3
  0
TEXT
  5
9C
  8
SPEC
 62
     7
 10
-63.382808581956482
 20
302.86748120898898
 30
0.0
 40
3.8006293402777782
  1
電源
 41
0.7
 11
-63.382808581956482
 21
306.66811054926683
 31
0.0
 73
     3
  0
TEXT
  5
9D
  8
SPEC
 62
     7
 10
31.289931763761292
 20
302.98583709544118
 30
0.0
 40
3.8006293402777782
  1
ワイヤレスシステム：5V～50V(DPAアダプター)、
 41
0.7
 11
31.289931763761292
 21
306.78646643571898
 31
0.0
 73
     3
  0
TEXT
  5
9E
  8
SPEC
 62
     7
 10
31.204529891379021
 20
295.62132382813161
 30
0.0
 40
3.8006293402777782
  1
ファンタムDC48V\U+00B14V(DAD6001BC/DAD6024/DAD4099)
 41
0.7
 11
31.204529891379021
 21
299.4219531684094
 31
0.0
 73
     3
  0
TEXT
  5
9F
  8
SPEC
 62
     7
 10
-63.404780330647881
 20
280.63265789458239
 30
0.0
 40
3.8006293402777782
  1
ケーブル長
 41
0.7
 11
-63.404780330647881
 21
284.43328723486019
 31
0.0
 73
     3
  0
TEXT
  5
A0
  8
SPEC
 62
     7
 10
31.544464529333911
 20
280.48894680503992
 30
0.0
 40
3.8006293402777782
  1
1.3m
 41
0.7
 11
31.544464529333911
 21
284.28957614531771
 31
0.0
 73
     3
  0
TEXT
  5
A1
  8
SPEC
 62
     7
 10
31.37120969525068
 20
250.3327934576204
 30
0.0
 40
3.8006293402777782
  1
ウインドスクリーン（黒)、DUA0560\U+00D71(本体4088-B)
 41
0.7
 11
31.37120969525068
 21
254.13342279789819
 31
0.0
 73
     3
  0
TEXT
  5
A2
  8
SPEC
 62
     7
 10
-63.225259317042607
 20
250.7874407541367
 30
0.0
 40
3.8006293402777782
  1
付属品
 41
0.7
 11
-63.225259317042607
 21
254.58807009441449
 31
0.0
 73
     3
  0
TEXT
  5
A3
  8
SPEC
 62
     7
 10
31.668537376071271
 20
258.13040882067168
 30
0.0
 40
3.8006293402777782
  1
黒(-B）、ベージュ(-F)、ブラウン(-C)
 41
0.7
 11
31.668537376071271
 21
261.93103816094953
 31
0.0
 73
     3
  0
TEXT
  5
A4
  8
SPEC
 62
     7
 10
-63.225259317042607
 20
258.12501790460738
 30
0.0
 40
3.8006293402777782
  1
色
 41
0.7
 11
-63.225259317042607
 21
261.92564724488523
 31
0.0
 73
     3
  0
LINE
  5
A5
  8
SPEC
  6
CONTINUOUS
 62
     7
 10
-64.999999999999986
 20
233.53364789486591
 30
0.0
 11
230.0
 21
233.53364789486591
 31
0.0
  0
TEXT
  5
A6
  8
SPEC
 62
     7
 10
31.37120969525068
 20
242.8327934576204
 30
0.0
 40
3.8006293402777782
  1
ウインドスクリーン（ベージュ)、DUA0567\U+00D71(本体4088-F)
 41
0.7
 11
31.37120969525068
 21
246.63342279789819
 31
0.0
 73
     3
  0
TEXT
  5
A7
  8
SPEC
 62
     7
 10
31.37120969525068
 20
235.3327934576204
 30
0.0
 40
3.8006293402777782
  1
ウインドスクリーン（茶)、DUA0568\U+00D71(本体4088-C)
 41
0.7
 11
31.37120969525068
 21
239.13342279789819
 31
0.0
 73
     3
  0
TEXT
  5
A8
  8
DIMNSIONS
 62
     7
 10
60.0
 20
-91.927372105134054
 30
0.0
 40
4.8865234375000002
  1
(単位：mm)
 41
0.7
 11
60.0
 21
-87.040848667634066
 31
0.0
 73
     3
  0
LINE
  5
A9
  8
DIMNSIONS
  6
CONTINUOUS
 62
     7
 10
177.71466093808911
 20
180.8571764434449
 30
0.0
 11
182.4003153283592
 21
186.62788711915829
 31
0.0
  0
POLYLINE
  5
AA
  8
DIMNSIONS
  6
CONTINUOUS
 62
     7
 66
     1
 10
0.0
 20
0.0
 30
0.0
 70
   128
  0
VERTEX
  5
219
  8
DIMNSIONS
  6
CONTINUOUS
 62
     7
 10
181.9559598559095
 20
183.82696591750329
 30
0.0
  0
VERTEX
  5
21A
  8
DIMNSIONS
  6
CONTINUOUS
 62
     7
 10
177.71466093808911
 20
180.8571764434449
 30
0.0
  0
VERTEX
  5
21B
  8
DIMNSIONS
  6
CONTINUOUS
 62
     7
 10
179.9028388089358
 20
185.5497390307813
 30
0.0
  0
SEQEND
  5
21C
  8
DIMNSIONS
  6
CONTINUOUS
 62
     7
  0
LINE
  5
AF
  8
DIMNSIONS
  6
CONTINUOUS
 62
     7
 10
182.4003153283592
 20
186.62788711915829
 30
0.0
 11
204.03920421724811
 21
186.62788711915829
 31
0.0
  0
TEXT
  5
B0
  8
DIMNSIONS
 62
     7
 10
186.4003153283592
 20
188.11566489693601
 30
0.0
 40
5.4294704861111116
  1
\U+03C65.8
 41
0.7
 11
186.4003153283592
 21
193.54513538304721
 31
0.0
 73
     3
  0
LINE
  5
B1
  8
DIMNSIONS
  6
CONTINUOUS
 62
     7
 10
1.288151060977313
 20
90.83643140530657
 30
0.0
 11
-12.35268690223597
 21
115.2908787590529
 31
0.0
  0
LINE
  5
B2
  8
DIMNSIONS
  6
CONTINUOUS
 62
     7
 10
162.3159381293317
 20
180.65870050834269
 30
0.0
 11
148.6751001661184
 21
205.11314786208911
 31
0.0
  0
LINE
  5
B3
  8
DIMNSIONS
  6
CONTINUOUS
 62
     7
 10
-10.404110657300169
 20
111.7975922523844
 30
0.0
 11
150.62367641105419
 21
201.6198613554206
 31
0.0
  0
POLYLINE
  5
B4
  8
DIMNSIONS
  6
CONTINUOUS
 62
     7
 66
     1
 10
0.0
 20
0.0
 30
0.0
 70
   128
  0
VERTEX
  5
21D
  8
DIMNSIONS
  6
CONTINUOUS
 62
     7
 10
-5.3802396402998474
 20
113.05018397959491
 30
0.0
  0
VERTEX
  5
21E
  8
DIMNSIONS
  6
CONTINUOUS
 62
     7
 10
-10.404110657300169
 20
111.7975922523844
 30
0.0
  0
VERTEX
  5
21F
  8
DIMNSIONS
  6
CONTINUOUS
 62
     7
 10
-6.6796065948467449
 20
115.3943040172191
 30
0.0
  0
SEQEND
  5
220
  8
DIMNSIONS
  6
CONTINUOUS
 62
     7
  0
POLYLINE
  5
B9
  8
DIMNSIONS
  6
CONTINUOUS
 62
     7
 66
     1
 10
0.0
 20
0.0
 30
0.0
 70
   128
  0
VERTEX
  5
221
  8
DIMNSIONS
  6
CONTINUOUS
 62
     7
 10
145.6224312938667
 20
200.27978176512011
 30
0.0
  0
VERTEX
  5
222
  8
DIMNSIONS
  6
CONTINUOUS
 62
     7
 10
150.62367641105419
 20
201.6198613554206
 30
0.0
  0
VERTEX
  5
223
  8
DIMNSIONS
  6
CONTINUOUS
 62
     7
 10
146.96251088416719
 20
197.95869582853359
 30
0.0
  0
SEQEND
  5
224
  8
DIMNSIONS
  6
CONTINUOUS
 62
     7
  0
TEXT
  5
BE
  8
DIMNSIONS
 62
     7
 10
62.979679482561806
 20
155.00762413864899
 30
0.0
 40
5.4294704861111116
  1
1.3m
 50
29.153041219407491
 41
0.7
 11
60.334745179607737
 21
159.74929813552069
 31
0.0
 73
     3
  0
TEXT
  5
BF
  8
DATA
 62
     7
 10
202.89542165461219
 20
-93.678803709234316
 30
0.0
 40
4.8865234375000002
  1
4088-B & 4088-F 4088-C
 41
0.7
 11
202.89542165461219
 21
-88.792280271734299
 31
0.0
 73
     3
  0
TEXT
  5
C0
  8
DATA
 62
     7
 10
203.1003369643245
 20
-78.475080246860074
 30
0.0
 40
4.8865234375000002
  1
DPA
 41
0.7
 11
203.1003369643245
 21
-73.588556809360071
 31
0.0
 73
     3
  0
TEXT
  5
C1
  8
DATA
 62
     7
 10
-60.0
 20
-107.99035210513409
 30
0.0
 40
3.2576822916666659
  1
仕様および外観は予告なく変更されることがありますので、ご了承ください。
 41
0.7
 11
-60.0
 21
-104.7326698134674
 31
0.0
 73
     3
  0
TEXT
  5
C2
  8
DATA
 62
     7
 10
194.27704392890789
 20
-85.819495206116756
 30
0.0
 40
3.2576822916666659
  1
単一指向性ヘットバンド・マイクロホン
 41
0.7
 11
194.27704392890789
 21
-82.561812914450087
 31
0.0
 73
     3
  0
ARC
  5
C3
  8
DATA
  6
CONTINUOUS
 62
     7
 10
106.59999999999999
 20
-401.38942808897423
 30
0.0
 40
366.12295748832747
 50
89.859155913497943
 51
94.839689578377289
  0
LINE
  5
C4
  8
DATA
  6
CONTINUOUS
 62
     7
 10
72.489962581200061
 20
-31.875061581185861
 30
0.0
 11
75.289962581200101
 21
-31.875061581185861
 31
0.0
  0
LINE
  5
C5
  8
DATA
  6
CONTINUOUS
 62
     7
 10
73.159513593076568
 20
-39.345841292649787
 30
0.0
 11
75.959513593076565
 21
-39.345841292649787
 31
0.0
  0
LINE
  5
C6
  8
DATA
  6
CONTINUOUS
 62
     7
 10
75.289962581200101
 20
-31.875061581185861
 30
0.0
 11
75.959513593076565
 21
-39.345841292649787
 31
0.0
  0
LINE
  5
C7
  8
DATA
  6
CONTINUOUS
 62
     7
 10
72.489962581200061
 20
-31.875061581185861
 30
0.0
 11
73.159513593076568
 21
-39.345841292649787
 31
0.0
  0
ARC
  5
C8
  8
DATA
  6
CONTINUOUS
 62
     7
 10
181.90182724253549
 20
-1900.488015843451
 30
0.0
 40
1869.154105929106
 50
92.192303314287557
 51
93.262933118845524
  0
ARC
  5
C9
  8
DATA
  6
CONTINUOUS
 62
     7
 10
51.2814041419769
 20
89.903729888223381
 30
0.0
 40
125.6762986109301
 50
242.5462661325721
 51
267.08946854130579
  0
ARC
  5
CA
  8
DATA
  6
CONTINUOUS
 62
     7
 10
67.501555829408531
 20
239.3452730491733
 30
0.0
 40
275.88309254751567
 50
265.30081129977458
 51
271.12187421716311
  0
ARC
  5
CB
  8
DATA
  6
CONTINUOUS
 62
     7
 10
57.3272727272726
 20
106.997989140154
 30
0.0
 40
141.77912340930391
 50
243.25232703555821
 51
258.43357044032223
  0
ARC
  5
CC
  8
DATA
  6
CONTINUOUS
 62
     7
 10
67.661381103126644
 20
191.86426750755879
 30
0.0
 40
227.10477844611489
 50
259.99358258456618
 51
271.2569838658867
  0
ARC
  5
CD
  8
DATA
  6
CONTINUOUS
 62
     7
 10
4.1095569620253229
 20
49.352166355344217
 30
0.0
 40
13.545826156163519
 50
38.57217689101379
 51
90.040423790186907
  0
ARC
  5
CE
  8
DATA
  6
CONTINUOUS
 62
     7
 10
-4.9176470588233627
 20
40.989165610742653
 30
0.0
 40
25.83386584635495
 50
12.539420659051011
 51
40.59068169510499
  0
LINE
  5
CF
  8
DATA
  6
CONTINUOUS
 62
     7
 10
18.295106125998601
 20
26.797989140154328
 30
0.0
 11
21.100255307801561
 21
26.797989140154328
 31
0.0
  0
ARC
  5
D0
  8
DATA
  6
CONTINUOUS
 62
     7
 10
-16.854609922369931
 20
35.500620117913037
 30
0.0
 40
38.77649594405446
 50
358.0748827250676
 51
16.629875994717111
  0
ARC
  5
D1
  8
DATA
  6
CONTINUOUS
 62
     7
 10
-8.203158176940164
 20
33.708130381244587
 30
0.0
 40
30.107143568089619
 50
346.73128465186397
 51
0.9322730295349974
  0
ARC
  5
D2
  8
DATA
  6
CONTINUOUS
 62
     7
 10
3.715281899109796
 20
48.291906054100942
 30
0.0
 40
11.706093061052689
 50
26.406242153124431
 51
90.074797677249947
  0
ARC
  5
D3
  8
DATA
  6
CONTINUOUS
 62
     7
 10
-17.047069689317372
 20
34.492219870641023
 30
0.0
 40
36.573195508391571
 50
14.25510244983337
 51
31.30970901113006
  0
ARC
  5
D4
  8
DATA
  6
CONTINUOUS
 62
     7
 10
-6.8916666666665938
 20
37.497989140154331
 30
0.0
 40
25.993622348140988
 50
354.92364483291982
 51
13.345697914553121
  0
ARC
  5
D5
  8
DATA
  6
CONTINUOUS
 62
     7
 10
-11.739999999999981
 20
33.547989140154328
 30
0.0
 40
30.784250843572568
 50
347.33395936317243
 51
3.0724593774081081
  0
ARC
  5
D6
  8
DATA
  6
CONTINUOUS
 62
     7
 10
4.3170403587444071
 20
51.622204386791068
 30
0.0
 40
11.27787339534822
 50
91.102713591314355
 51
139.82397653242879
  0
ARC
  5
D7
  8
DATA
  6
CONTINUOUS
 62
     7
 10
13.193113772454961
 20
41.631821475483747
 30
0.0
 40
24.579047485217359
 50
135.37408337720319
 51
166.43213902374069
  0
ARC
  5
D8
  8
DATA
  6
CONTINUOUS
 62
     7
 10
5.3166666666666771
 20
49.681322473487647
 30
0.0
 40
10.442567798306239
 50
98.906069980944963
 51
153.14867678926211
  0
ARC
  5
D9
  8
DATA
  6
CONTINUOUS
 62
     7
 10
24.399326345045338
 20
35.068297096705066
 30
0.0
 40
34.353438421022318
 50
145.75926566544101
 51
165.1063916933565
  0
ARC
  5
DA
  8
DATA
  6
CONTINUOUS
 62
     7
 10
49.747752808988643
 20
25.162595881727398
 30
0.0
 40
64.407635673214173
 50
159.80421549722541
 51
175.9620606445294
  0
ARC
  5
DB
  8
DATA
  6
CONTINUOUS
 62
     7
 10
68.656447790462551
 20
19.550102650687109
 30
0.0
 40
81.193108579611788
 50
162.54982827792139
 51
172.82013476352981
  0
LINE
  5
DC
  8
DATA
  6
CONTINUOUS
 62
     7
 10
-14.5
 20
29.697989140154331
 30
0.0
 11
-14.949999999999999
 21
19.897989140154341
 31
0.0
  0
ARC
  5
DD
  8
DATA
  6
CONTINUOUS
 62
     7
 10
7.8222222222221793
 20
18.247989140154349
 30
0.0
 40
22.831920745707531
 50
175.85577930184451
 51
196.67120192682461
  0
LINE
  5
DE
  8
DATA
  6
CONTINUOUS
 62
     7
 10
-14.050000000000001
 20
11.697989140154331
 30
0.0
 11
-7.4000000000000048
 21
-6.302010859845665
 31
0.0
  0
LINE
  5
DF
  8
DATA
  6
CONTINUOUS
 62
     7
 10
-7.4000000000000048
 20
-6.302010859845665
 30
0.0
 11
-5.8668055555555716
 21
-10.45201085984567
 31
0.0
  0
LINE
  5
E0
  8
DATA
  6
CONTINUOUS
 62
     7
 10
-5.8668055555555716
 20
-10.45201085984567
 30
0.0
 11
-4.1673611111111333
 21
-15.052010859845669
 31
0.0
  0
ARC
  5
E1
  8
DATA
  6
CONTINUOUS
 62
     7
 10
-12.82078560957196
 20
-17.901359865909601
 30
0.0
 40
9.1104635068101487
 50
341.77462205740397
 51
18.225377942595969
  0
LINE
  5
E2
  8
DATA
  6
CONTINUOUS
 62
     7
 10
-11.900000000000009
 20
29.697989140154331
 30
0.0
 11
-12.449999999999999
 21
21.997989140154331
 31
0.0
  0
ARC
  5
E3
  8
DATA
  6
CONTINUOUS
 62
     7
 10
16.56957060280779
 20
20.247989140154349
 30
0.0
 40
29.070759389192549
 50
176.15384232261181
 51
197.2073087968177
  0
LINE
  5
E4
  8
DATA
  6
CONTINUOUS
 62
     7
 10
-11.199999999999999
 20
11.647989140154319
 30
0.0
 11
-4.200000000000002
 21
-7.6020108598456479
 31
0.0
  0
LINE
  5
E5
  8
DATA
  6
CONTINUOUS
 62
     7
 10
-4.200000000000002
 20
-7.6020108598456479
 30
0.0
 11
-2.0
 21
-14.052010859845669
 31
0.0
  0
ARC
  5
E6
  8
DATA
  6
CONTINUOUS
 62
     7
 10
-20.032074333707978
 20
-19.176374845434371
 30
0.0
 40
18.746061213843539
 50
351.33456878314962
 51
15.864116238934329
  0
LINE
  5
E7
  8
DATA
  6
CONTINUOUS
 62
     7
 10
-8.6775510204081741
 20
-17.702010859845672
 30
0.0
 11
-5.7500000000003828
 21
-17.702010859845672
 31
0.0
  0
ARC
  5
E8
  8
DATA
  6
CONTINUOUS
 62
     7
 10
-5.7404593393547989
 20
-20.04498960595026
 30
0.0
 40
4.8110098165390944
 50
265.54629127072087
 51
311.37693277484573
  0
LINE
  5
E9
  8
DATA
  6
CONTINUOUS
 62
     7
 10
-8.6775510204081741
 20
-17.702010859845672
 30
0.0
 11
-9.4142857143077112
 21
-21.502010859959139
 31
0.0
  0
ARC
  5
EA
  8
DATA
  6
CONTINUOUS
 62
     7
 10
-6.3826585949502981
 20
-21.806459367448952
 30
0.0
 40
3.04687575796452
 50
174.26534777388949
 51
275.05765507172327
  0
ARC
  5
EB
  8
DATA
  6
CONTINUOUS
 62
     7
 10
0.6499999999999631
 20
-21.252010859845679
 30
0.0
 40
7.3186405841521962
 50
150.98341565613401
 51
182.87687115275929
  0
ARC
  5
EC
  8
DATA
  6
CONTINUOUS
 62
     7
 10
123.7713898725692
 20
113.3547217893875
 30
0.0
 40
18.069396641165991
 50
43.860263931811893
 51
93.081640411864996
  0
ARC
  5
ED
  8
DATA
  6
CONTINUOUS
 62
     7
 10
106.5848133515117
 20
92.182802491666408
 30
0.0
 40
45.256209449002966
 50
29.68922290670659
 51
48.1142580218443
  0
ARC
  5
EE
  8
DATA
  6
CONTINUOUS
 62
     7
 10
114.9555219120234
 20
93.598853052795221
 30
0.0
 40
37.396850676931273
 50
9.3278811524607832
 51
34.161085784953087
  0
ARC
  5
EF
  8
DATA
  6
CONTINUOUS
 62
     7
 10
122.7250083723266
 20
122.82295286007241
 30
0.0
 40
8.5753641875400071
 50
89.498941568240753
 51
183.50970798440781
  0
ARC
  5
F0
  8
DATA
  6
CONTINUOUS
 62
     7
 10
143.41241164316489
 20
120.72916530205769
 30
0.0
 40
29.288730332454438
 50
176.92953494719151
 51
201.7037121555054
  0
LINE
  5
F1
  8
DATA
  6
CONTINUOUS
 62
     7
 10
116.2
 20
109.89798914015439
 30
0.0
 11
122.2
 21
96.697989140154405
 31
0.0
  0
LINE
  5
F2
  8
DATA
  6
CONTINUOUS
 62
     7
 10
122.2
 20
96.697989140154405
 30
0.0
 11
129.5
 21
73.497989140154317
 31
0.0
  0
LINE
  5
F3
  8
DATA
  6
CONTINUOUS
 62
     7
 10
149.28762477956641
 20
99.062553042379164
 30
0.0
 11
151.8578725460805
 21
99.660285081103368
 31
0.0
  0
ARC
  5
F4
  8
DATA
  6
CONTINUOUS
 62
     7
 10
123.3872583654646
 20
111.11729212143059
 30
0.0
 40
17.49958048711245
 50
45.283279561415647
 51
87.338026331622615
  0
ARC
  5
F5
  8
DATA
  6
CONTINUOUS
 62
     7
 10
116.9020327218842
 20
100.00002186203859
 30
0.0
 40
30.134327868383579
 50
24.085843922442031
 51
51.405413050977891
  0
ARC
  5
F6
  8
DATA
  6
CONTINUOUS
 62
     7
 10
121.8535786224068
 20
96.473464866661317
 30
0.0
 40
27.555947926623841
 50
5.3913209899569106
 51
35.048449816907429
  0
ARC
  5
F7
  8
DATA
  6
CONTINUOUS
 62
     7
 10
123.2731015662079
 20
123.05832373911031
 30
0.0
 40
5.6166745910807334
 50
80.501243833937878
 51
145.39663072790881
  0
ARC
  5
F8
  8
DATA
  6
CONTINUOUS
 62
     7
 10
125.67962004627191
 20
120.4729891401545
 30
0.0
 40
9.0695839572109573
 50
142.46983771484531
 51
194.52713038065721
  0
ARC
  5
F9
  8
DATA
  6
CONTINUOUS
 62
     7
 10
160.51669366600029
 20
124.807962886285
 30
0.0
 40
44.174640796948168
 50
186.9300137268182
 51
205.05863788096701
  0
ARC
  5
FA
  8
DATA
  6
CONTINUOUS
 62
     7
 10
287.37425373134539
 20
167.65759734911049
 30
0.0
 40
177.8668094986628
 50
200.24892585347459
 51
204.28758145582279
  0
LINE
  5
FB
  8
DATA
  6
CONTINUOUS
 62
     7
 10
125.25
 20
94.497989140154402
 30
0.0
 11
128.09999999999999
 21
85.797989140154385
 31
0.0
  0
LINE
  5
FC
  8
DATA
  6
CONTINUOUS
 62
     7
 10
128.09999999999999
 20
85.797989140154385
 30
0.0
 11
130.19999999999999
 21
78.19798914015432
 31
0.0
  0
ARC
  5
FD
  8
DATA
  6
CONTINUOUS
 62
     7
 10
98.557582714642507
 20
61.34398016377186
 30
0.0
 40
33.243843364737103
 50
6.3104364086240574
 51
21.444623197792019
  0
ARC
  5
FE
  8
DATA
  6
CONTINUOUS
 62
     7
 10
94.332600308077915
 20
62.123223976341777
 30
0.0
 40
39.403715122349617
 50
6.0563640483945349
 51
25.035358726336931
  0
LINE
  5
FF
  8
DATA
  6
CONTINUOUS
 62
     7
 10
131.59999999999999
 20
64.997989140154317
 30
0.0
 11
131.59999999999999
 21
63.857766031256062
 31
0.0
  0
ARC
  5
100
  8
DATA
  6
CONTINUOUS
 62
     7
 10
133.40000000000001
 20
66.71427228274591
 30
0.0
 40
4.1327956639543766
 50
45.436108842554042
 51
98.776415766739191
  0
ARC
  5
101
  8
DATA
  6
CONTINUOUS
 62
     7
 10
133.13985468096169
 20
67.812047267769657
 30
0.0
 40
3.6601723166307392
 50
316.61724535513059
 51
30.300967201059159
  0
ARC
  5
102
  8
DATA
  6
CONTINUOUS
 62
     7
 10
130.16097278764721
 20
69.787016352507152
 30
0.0
 40
7.2076343702285373
 50
294.93817316367148
 51
321.47796181324162
  0
ARC
  5
103
  8
DATA
  6
CONTINUOUS
 62
     7
 10
132.93504487125301
 20
64.966384430294994
 30
0.0
 40
1.735332695175928
 50
219.70616774794581
 51
278.78242000080382
  0
ARC
  5
104
  8
DATA
  6
CONTINUOUS
 62
     7
 10
133.54896313180171
 20
67.638138892270206
 30
0.0
 40
1.357947328543561
 50
268.62538410738932
 51
107.3843999551224
  0
ARC
  5
105
  8
DATA
  6
CONTINUOUS
 62
     7
 10
149.6206692913386
 20
105.89267417952451
 30
0.0
 40
4.1723101519235231
 50
259.95463669110973
 51
294.81843797204829
  0
ARC
  5
106
  8
DATA
  6
CONTINUOUS
 62
     7
 10
43.65000000000007
 20
-148.46201085984401
 30
0.0
 40
243.90517440185479
 50
78.78970548443786
 51
81.702506352686484
  0
LINE
  5
107
  8
DATA
  6
CONTINUOUS
 62
     7
 10
78.848666687191326
 20
92.889989263302269
 30
0.0
 11
78.162105263157883
 21
88.770620719101771
 31
0.0
  0
LINE
  5
108
  8
DATA
  6
CONTINUOUS
 62
     7
 10
91.067751158879361
 20
90.789511549175955
 30
0.0
 11
90.372641264904104
 21
86.169075195105137
 31
0.0
  0
LINE
  5
109
  8
DATA
  6
CONTINUOUS
 62
     7
 10
79.813914453602223
 20
86.610562546982223
 30
0.0
 11
87.960665804944497
 21
84.930493202152917
 31
0.0
  0
LINE
  5
10A
  8
DATA
  6
CONTINUOUS
 62
     7
 10
78.162105263157883
 20
88.770620719101771
 30
0.0
 11
79.813914453602223
 21
86.610562546982223
 31
0.0
  0
LINE
  5
10B
  8
DATA
  6
CONTINUOUS
 62
     7
 10
87.960665804944497
 20
84.930493202152917
 30
0.0
 11
90.372641264904104
 21
86.169075195105137
 31
0.0
  0
ARC
  5
10C
  8
DATA
  6
CONTINUOUS
 62
     7
 10
72.360107824755715
 20
-1.3159114857181451
 30
0.0
 40
92.454509936156938
 50
51.039412301344647
 51
78.470258577171265
  0
ARC
  5
10D
  8
DATA
  6
CONTINUOUS
 62
     7
 10
72.687395328338482
 20
-2.564857929039106
 30
0.0
 40
91.833641754078954
 50
50.53380875449507
 51
78.768372053409252
  0
LINE
  5
10E
  8
DATA
  6
CONTINUOUS
 62
     7
 10
37.569879518072298
 20
93.041826026159953
 30
0.0
 11
49.690651558073647
 21
93.974193106160087
 31
0.0
  0
LINE
  5
10F
  8
DATA
  6
CONTINUOUS
 62
     7
 10
37.569879518072298
 20
93.041826026159953
 30
0.0
 11
37.816000000000003
 21
89.917989140154404
 31
0.0
  0
LINE
  5
110
  8
DATA
  6
CONTINUOUS
 62
     7
 10
49.690651558073647
 20
93.974193106160087
 30
0.0
 11
49.862068965517253
 21
91.660058105671624
 31
0.0
  0
LINE
  5
111
  8
DATA
  6
CONTINUOUS
 62
     7
 10
41.516831683168313
 20
86.833962737514113
 30
0.0
 11
45.327804878048788
 21
87.125794018203166
 31
0.0
  0
LINE
  5
112
  8
DATA
  6
CONTINUOUS
 62
     7
 10
37.816000000000003
 20
89.917989140154404
 30
0.0
 11
41.516831683168313
 21
86.833962737514113
 31
0.0
  0
LINE
  5
113
  8
DATA
  6
CONTINUOUS
 62
     7
 10
45.327804878048788
 20
87.125794018203194
 30
0.0
 11
49.862068965517253
 21
91.660058105671624
 31
0.0
  0
ARC
  5
114
  8
DATA
  6
CONTINUOUS
 62
     7
 10
55.400000000000013
 20
-179.84047239830599
 30
0.0
 40
273.23599538054469
 50
85.094291444291201
 51
91.187397814098134
  0
ARC
  5
115
  8
DATA
  6
CONTINUOUS
 62
     7
 10
59.063168991242293
 20
-66.718893766105879
 30
0.0
 40
157.76354593459411
 50
82.980131779034195
 51
93.686188871984015
  0
LINE
  5
116
  8
DATA
  6
CONTINUOUS
 62
     7
 10
-4.0869074105767558
 20
78.984403653246943
 30
0.0
 11
-1.983127094431111
 21
74.391149962995598
 31
0.0
  0
LINE
  5
117
  8
DATA
  6
CONTINUOUS
 62
     7
 10
6.7620486484334617
 20
83.851773128370468
 30
0.0
 11
8.401706257460674
 21
80.386836294199711
 31
0.0
  0
LINE
  5
118
  8
DATA
  6
CONTINUOUS
 62
     7
 10
-4.0869074105767558
 20
78.984403653246943
 30
0.0
 11
6.7620486484334617
 21
83.851773128370468
 31
0.0
  0
LINE
  5
119
  8
DATA
  6
CONTINUOUS
 62
     7
 10
-1.9831270944311259
 20
74.39114996299557
 30
0.0
 11
8.401706257460674
 21
80.386836294199711
 31
0.0
  0
ARC
  5
11A
  8
DATA
  6
CONTINUOUS
 62
     7
 10
54.735945151811933
 20
-24.639865903920029
 30
0.0
 40
117.9172653659566
 50
98.331665957226875
 51
113.84570074505351
  0
ARC
  5
11B
  8
DATA
  6
CONTINUOUS
 62
     7
 10
46.270772317747138
 20
3.9138759853732661
 30
0.0
 40
85.790481659164087
 50
95.199580717163428
 51
116.3389973336692
  0
LINE
  5
11C
  8
DATA
  6
CONTINUOUS
 62
     7
 10
-34.039036498336273
 20
49.55039789431364
 30
0.0
 11
-37.222575871558327
 21
41.591549461258523
 31
0.0
  0
ARC
  5
11D
  8
DATA
  6
CONTINUOUS
 62
     7
 10
-35.926438794014203
 20
37.883949002060383
 30
0.0
 40
3.9276293726429681
 50
13.832585736185109
 51
109.2690750526548
  0
ARC
  5
11E
  8
DATA
  6
CONTINUOUS
 62
     7
 10
-32.789847161572041
 20
45.15060922749057
 30
0.0
 40
4.5736871681169804
 50
26.52768077631605
 51
105.8503209177091
  0
ARC
  5
11F
  8
DATA
  6
CONTINUOUS
 62
     7
 10
28.72901971576135
 20
15.614186303107941
 30
0.0
 40
70.608846205444493
 50
117.4067298786092
 51
151.12264092086491
  0
ARC
  5
120
  8
DATA
  6
CONTINUOUS
 62
     7
 10
34.857634029432731
 20
11.620686822354459
 30
0.0
 40
73.55656521562841
 50
120.34799417036329
 51
150.45123651637661
  0
ARC
  5
121
  8
DATA
  6
CONTINUOUS
 62
     7
 10
-35.481818181818177
 20
18.35253459469978
 30
0.0
 40
3.421673748280142
 50
69.609083488501611
 51
140.82511810893499
  0
ARC
  5
122
  8
DATA
  6
CONTINUOUS
 62
     7
 10
28.346520014668769
 20
25.797989140154328
 30
0.0
 40
66.690554219167922
 50
166.13186445371301
 51
184.54441653239289
  0
ARC
  5
123
  8
DATA
  6
CONTINUOUS
 62
     7
 10
20.814594221000551
 20
23.2683139469694
 30
0.0
 40
55.742713058590631
 50
162.84628627908609
 51
181.58596021327159
  0
ARC
  5
124
  8
DATA
  6
CONTINUOUS
 62
     7
 10
-32.62749943500323
 20
7.3230302102531368
 30
0.0
 40
3.7222905960109749
 50
70.229520803463132
 51
148.19236934819739
  0
LINE
  5
125
  8
DATA
  6
CONTINUOUS
 62
     7
 10
-34.289626812160357
 20
21.5597968193679
 30
0.0
 11
-30.207656801851801
 21
6.5607059675742496
 31
0.0
  0
LINE
  5
126
  8
DATA
  6
CONTINUOUS
 62
     7
 10
-38.134373209731109
 20
20.5139700120932
 30
0.0
 11
-35.41608408514297
 21
9.7886422904757371
 31
0.0
  0
ARC
  5
127
  8
DATA
  6
CONTINUOUS
 62
     7
 10
21.276398579625109
 20
37.043487364685703
 30
0.0
 40
59.831496055397409
 50
205.75498798892511
 51
242.44677541151819
  0
ARC
  5
128
  8
DATA
  6
CONTINUOUS
 62
     7
 10
15.71688863928115
 20
31.402530218459891
 30
0.0
 40
53.632726702663099
 50
202.53401581589671
 51
243.96927240366529
  0
LINE
  5
129
  8
DATA
  6
CONTINUOUS
 62
     7
 10
-6.4000000000000048
 20
-16.002010859845679
 30
0.0
 11
-6.4000000000000048
 21
-17.702010859845672
 31
0.0
  0
LINE
  5
12A
  8
DATA
  6
CONTINUOUS
 62
     7
 10
-7.8200000000000083
 20
-16.78962937980495
 30
0.0
 11
-7.8200000000000083
 21
-17.702010859845672
 31
0.0
  0
ARC
  5
12B
  8
DATA
  6
CONTINUOUS
 62
     7
 10
15.789263990267569
 20
28.899448994168889
 30
0.0
 40
55.18360921202575
 50
200.82047204030661
 51
243.09355779821689
  0
ARC
  5
12C
  8
DATA
  6
CONTINUOUS
 62
     7
 10
19.197581199310189
 20
32.311046168061551
 30
0.0
 40
58.225435136565039
 50
202.12015486740049
 51
241.17900750044589
  0
ARC
  5
12D
  8
DATA
  6
CONTINUOUS
 62
     7
 10
23.509851607584508
 20
93.711797878818871
 30
0.0
 40
4.7937656187133797
 50
20.594188673282709
 51
57.710354123898071
  0
LINE
  5
12E
  8
DATA
  6
CONTINUOUS
 62
     7
 10
8.5000000000000124
 20
88.197989140154405
 30
0.0
 11
26.070679237556281
 21
97.764247836157296
 31
0.0
  0
LINE
  5
12F
  8
DATA
  6
CONTINUOUS
 62
     7
 10
27.997272675119159
 20
95.397989140154394
 30
0.0
 11
20.925496868398302
 21
88.326213333433515
 31
0.0
  0
LINE
  5
130
  8
DATA
  6
CONTINUOUS
 62
     7
 10
8.5000000000000124
 20
88.197989140154405
 30
0.0
 11
4.3407050045027651
 21
82.765440574606956
 31
0.0
  0
ARC
  5
131
  8
DATA
  6
CONTINUOUS
 62
     7
 10
270.35297289157347
 20
-207.6384585485751
 30
0.0
 40
391.0813880255443
 50
111.93410845605131
 51
128.6552468806243
  0
ARC
  5
132
  8
DATA
  6
CONTINUOUS
 62
     7
 10
272.52366483943661
 20
-205.2316675607498
 30
0.0
 40
388.27063929432057
 50
112.4872563944696
 51
129.0968125669913
  0
POLYLINE
  5
133
  8
DATA
  6
CONTINUOUS
 62
     7
 66
     1
 10
0.0
 20
0.0
 30
0.0
 70
   129
  0
VERTEX
  5
225
  8
DATA
  6
CONTINUOUS
 62
     7
 10
114.9159353143347
 20
-30.764021195329889
 30
0.0
  0
VERTEX
  5
226
  8
DATA
  6
CONTINUOUS
 62
     7
 10
122.9049715923713
 20
-30.34533354538635
 30
0.0
  0
VERTEX
  5
227
  8
DATA
  6
CONTINUOUS
 62
     7
 10
123.2085201385804
 20
-36.137384846962867
 30
0.0
  0
VERTEX
  5
228
  8
DATA
  6
CONTINUOUS
 62
     7
 10
115.2194838605438
 20
-36.556072496906438
 30
0.0
  0
SEQEND
  5
229
  8
DATA
  6
CONTINUOUS
 62
     7
  0
POLYLINE
  5
139
  8
DATA
  6
CONTINUOUS
 62
     7
 66
     1
 10
0.0
 20
0.0
 30
0.0
 70
   129
  0
VERTEX
  5
22A
  8
DATA
  6
CONTINUOUS
 62
     7
 10
113.9094553861437
 20
-30.666562721359671
 30
0.0
  0
VERTEX
  5
22B
  8
DATA
  6
CONTINUOUS
 62
     7
 10
114.9080849208982
 20
-30.61422676511674
 30
0.0
  0
VERTEX
  5
22C
  8
DATA
  6
CONTINUOUS
 62
     7
 10
115.2273342539802
 20
-36.705866927119622
 30
0.0
  0
VERTEX
  5
22D
  8
DATA
  6
CONTINUOUS
 62
     7
 10
114.2287047192256
 20
-36.758202883362543
 30
0.0
  0
SEQEND
  5
22E
  8
DATA
  6
CONTINUOUS
 62
     7
  0
LINE
  5
13F
  8
DATA
  6
CONTINUOUS
 62
     7
 10
113.9094553861437
 20
-30.666562721359671
 30
0.0
 11
111.353997528934
 21
-32.702010859845672
 31
0.0
  0
LINE
  5
140
  8
DATA
  6
CONTINUOUS
 62
     7
 10
114.2287047192256
 20
-36.758202883362543
 30
0.0
 11
111.6287542527879
 21
-35.099447113438011
 31
0.0
  0
LINE
  5
141
  8
DATA
  6
CONTINUOUS
 62
     7
 10
-32.112716713434239
 20
38.822989140154327
 30
0.0
 11
-28.69768377107043
 21
47.193355686856137
 31
0.0
  0
CIRCLE
  5
142
  8
DATA
  6
CONTINUOUS
 62
     7
 10
175.8866586887732
 20
178.60586398701159
 30
0.0
 40
2.9000000000000088
  0
CIRCLE
  5
143
  8
DATA
  6
CONTINUOUS
 62
     7
 10
175.8866586887732
 20
178.60586398701159
 30
0.0
 40
2.0
  0
CIRCLE
  5
144
  8
DATA
  6
CONTINUOUS
 62
     7
 10
175.8866586887732
 20
178.60586398701159
 30
0.0
 40
0.390000000000019
  0
LINE
  5
145
  8
DATA
  6
CONTINUOUS
 62
     7
 10
177.7907120160435
 20
179.21789415531251
 30
0.0
 11
176.96316308351101
 21
178.83200175057479
 31
0.0
  0
LINE
  5
146
  8
DATA
  6
CONTINUOUS
 62
     7
 10
175.0214634249057
 20
177.92657232993
 30
0.0
 11
174.19391449237321
 21
177.54067992519231
 31
0.0
  0
LINE
  5
147
  8
DATA
  6
CONTINUOUS
 62
     7
 10
173.98260536150281
 20
177.99383381871061
 30
0.0
 11
174.81015429403541
 21
178.3797262234485
 31
0.0
  0
LINE
  5
148
  8
DATA
  6
CONTINUOUS
 62
     7
 10
176.7518539526406
 20
179.28515564409301
 30
0.0
 11
177.5794028851731
 21
179.67104804883101
 31
0.0
  0
CIRCLE
  5
149
  8
DATA
  6
CONTINUOUS
 62
     7
 10
175.8866586887732
 20
178.60586398701159
 30
0.0
 40
1.1000000000000041
  0
LINE
  5
14A
  8
DATA
  6
CONTINUOUS
 62
     7
 10
165.85228546437139
 20
174.35707629608311
 30
0.0
 11
166.7495301732659
 21
174.77546837507961
 31
0.0
  0
LINE
  5
14B
  8
DATA
  6
CONTINUOUS
 62
     7
 10
167.4101455801021
 20
174.80215702904701
 30
0.0
 11
167.5242525107721
 21
174.55745392654711
 31
0.0
  0
LINE
  5
14C
  8
DATA
  6
CONTINUOUS
 62
     7
 10
167.07917241742359
 20
174.06854830119099
 30
0.0
 11
166.18192770852929
 21
173.6501562221944
 31
0.0
  0
LINE
  5
14D
  8
DATA
  6
CONTINUOUS
 62
     7
 10
167.5242525107721
 20
174.55745392654711
 30
0.0
 11
167.07917241742359
 21
174.06854830119099
 31
0.0
  0
LINE
  5
14E
  8
DATA
  6
CONTINUOUS
 62
     7
 10
167.4101455801021
 20
174.80215702904701
 30
0.0
 11
166.7495301732659
 21
174.7754683750795
 31
0.0
  0
LINE
  5
14F
  8
DATA
  6
CONTINUOUS
 62
     7
 10
162.7111606103152
 20
169.262232368029
 30
0.0
 11
160.2599746922192
 21
174.5188175328415
 31
0.0
  0
LINE
  5
150
  8
DATA
  6
CONTINUOUS
 62
     7
 10
161.9861143806859
 20
168.9241377586365
 30
0.0
 11
159.5349284625899
 21
174.18072292344891
 31
0.0
  0
LINE
  5
151
  8
DATA
  6
CONTINUOUS
 62
     7
 10
157.18268310939169
 20
166.68426097141079
 30
0.0
 11
154.73149719129569
 21
171.94084613622331
 31
0.0
  0
LINE
  5
152
  8
DATA
  6
CONTINUOUS
 62
     7
 10
151.79631831081281
 20
169.71703185900341
 30
0.0
 11
153.5924459232107
 21
165.86522376409769
 31
0.0
  0
LINE
  5
153
  8
DATA
  6
CONTINUOUS
 62
     7
 10
167.2426995454984
 20
171.37532367673251
 30
0.0
 11
157.18268310939169
 21
166.68426097141079
 31
0.0
  0
LINE
  5
154
  8
DATA
  6
CONTINUOUS
 62
     7
 10
164.79151362740231
 20
176.631908841545
 30
0.0
 11
154.73149719129569
 21
171.94084613622331
 31
0.0
  0
LINE
  5
155
  8
DATA
  6
CONTINUOUS
 62
     7
 10
164.79151362740231
 20
176.631908841545
 30
0.0
 11
167.2426995454984
 21
171.37532367673251
 31
0.0
  0
LINE
  5
156
  8
DATA
  6
CONTINUOUS
 62
     7
 10
153.5924459232107
 20
165.86522376409769
 30
0.0
 11
157.18268310939169
 21
166.68426097141079
 31
0.0
  0
LINE
  5
157
  8
DATA
  6
CONTINUOUS
 62
     7
 10
151.79631831081281
 20
169.71703185900341
 30
0.0
 11
154.73149719129569
 21
171.94084613622331
 31
0.0
  0
LINE
  5
158
  8
DATA
  6
CONTINUOUS
 62
     7
 10
142.05836506827771
 20
163.86206208959521
 30
0.0
 11
142.84784317871751
 21
162.1690208181661
 31
0.0
  0
LINE
  5
159
  8
DATA
  6
CONTINUOUS
 62
     7
 10
151.79631831081281
 20
169.71703185900341
 30
0.0
 11
142.05836506827771
 21
163.86206208959521
 31
0.0
  0
LINE
  5
15A
  8
DATA
  6
CONTINUOUS
 62
     7
 10
153.5924459232107
 20
165.86522376409769
 30
0.0
 11
142.84784317871751
 21
162.1690208181661
 31
0.0
  0
LINE
  5
15B
  8
DATA
  6
CONTINUOUS
 62
     7
 10
142.77006781980299
 20
162.33581061360309
 30
0.0
 11
125.9512778518552
 21
154.49308005064859
 31
0.0
  0
LINE
  5
15C
  8
DATA
  6
CONTINUOUS
 62
     7
 10
126.2515685489179
 20
156.28817478080529
 30
0.0
 11
142.13614042719209
 21
163.69527229415809
 31
0.0
  0
ARC
  5
15D
  8
DATA
  6
CONTINUOUS
 62
     7
 10
124.1646654455169
 20
155.9806017281314
 30
0.0
 40
2.1094467866517741
 50
337.26982744309908
 51
102.7301725569006
  0
ARC
  5
15E
  8
DATA
  6
CONTINUOUS
 62
     7
 10
128.0558975499558
 20
154.35045581679529
 30
0.0
 40
2.1094467866517692
 50
157.2698274430995
 51
282.73017255690081
  0
ARC
  5
15F
  8
DATA
  6
CONTINUOUS
 62
     7
 10
122.1967073628099
 20
154.7368572986509
 30
0.0
 40
2.109446786651771
 50
337.2698274430993
 51
102.7301725569008
  0
ARC
  5
160
  8
DATA
  6
CONTINUOUS
 62
     7
 10
126.0879394672488
 20
153.1067113873147
 30
0.0
 40
2.1094467866517781
 50
157.26982744309939
 51
282.7301725569007
  0
LINE
  5
161
  8
DATA
  6
CONTINUOUS
 62
     7
 10
110.39999999999991
 20
-32.702010859845672
 30
0.0
 11
111.353997528934
 21
-32.702010859845672
 31
0.0
  0
LINE
  5
162
  8
DATA
  6
CONTINUOUS
 62
     7
 10
107.5
 20
-35.267576788072247
 30
0.0
 11
111.6287542527878
 21
-35.099447113438011
 31
0.0
  0
LINE
  5
163
  8
DATA
  6
破線の種類-5
 62
     7
 10
110.24454454306159
 20
-36.498326457682573
 30
0.0
 11
109.9828647618469
 21
-31.505178783909709
 31
0.0
  0
LINE
  5
164
  8
DATA
  6
破線の種類-5
 62
     7
 10
125.4856673455949
 20
-40.70643478781129
 30
0.0
 11
115.4993719980492
 21
-41.229794350240709
 31
0.0
  0
LINE
  5
165
  8
DATA
  6
破線の種類-5
 62
     7
 10
129.95545545693841
 20
-30.458459659050821
 30
0.0
 11
130.21713523815311
 21
-35.451607332823698
 31
0.0
  0
LINE
  5
166
  8
DATA
  6
破線の種類-5
 62
     7
 10
114.714332654405
 20
-26.250351328922111
 30
0.0
 11
124.7006280019508
 21
-25.72699176649266
 31
0.0
  0
ARC
  5
167
  8
DATA
  6
破線の種類-5
 62
     7
 10
124.9623077831655
 20
-30.720139440265541
 30
0.0
 40
5.0000000000000044
 50
3.0000000000000528
 51
92.999999999999929
  0
ARC
  5
168
  8
DATA
  6
破線の種類-5
 62
     7
 10
114.97601243561979
 20
-31.243499002694989
 30
0.0
 40
5.0000000000000107
 50
93.000000000000057
 51
183.00000000000011
  0
ARC
  5
169
  8
DATA
  6
破線の種類-5
 62
     7
 10
115.2376922168345
 20
-36.236646676467842
 30
0.0
 40
5.0000000000000009
 50
183.0
 51
272.99999999999989
  0
ARC
  5
16A
  8
DATA
  6
破線の種類-5
 62
     7
 10
125.2239875643802
 20
-35.713287114038422
 30
0.0
 40
5.0000000000000107
 50
272.99999999999989
 51
3.0000000000001128
  0
TEXT
  5
16B
  8
DATA
 62
     7
 10
145.00092216543399
 20
-10.96704004543062
 30
0.0
 40
5.4294704861111116
  1
ウインドスクリーン
 41
0.7
 11
145.00092216543399
 21
-5.5375695593195076
 31
0.0
 73
     3
  0
LINE
  5
16C
  8
DATA
  6
CONTINUOUS
 62
     7
 10
128.78731784658319
 20
-27.5
 30
0.0
 11
142.86588114551381
 21
-13.42143670106935
 31
0.0
  0
POLYLINE
  5
16D
  8
DATA
  6
CONTINUOUS
 62
     7
 66
     1
 10
0.0
 20
0.0
 30
0.0
 70
   128
  0
VERTEX
  5
22F
  8
DATA
  6
CONTINUOUS
 62
     7
 10
134.48057209485029
 20
-24.212998127197981
 30
0.0
  0
VERTEX
  5
230
  8
DATA
  6
CONTINUOUS
 62
     7
 10
128.78731784658319
 20
-27.5
 30
0.0
  0
VERTEX
  5
231
  8
DATA
  6
CONTINUOUS
 62
     7
 10
132.07431971938519
 20
-21.806745751732851
 30
0.0
  0
SEQEND
  5
232
  8
DATA
  6
CONTINUOUS
 62
     7
  0
LINE
  5
172
  8
DATA
  6
CONTINUOUS
 62
     7
 10
142.86588114551381
 20
-13.42143670106935
 30
0.0
 11
212.0
 21
-13.42143670106935
 31
0.0
  0
VIEWPORT
  5
173
 67
     1
  8
0
 10
128.5
 20
97.5
 30
0.0
 40
314.226
 41
222.18000000000001
 68
     1
 69
     1
1001
ACAD
1000
MVIEW
1002
{
1070
    16
1010
0.0
1020
0.0
1030
0.0
1010
0.0
1020
0.0
1030
1.0
1040
0.0
1040
222.18000000000001
1040
128.5
1040
97.5
1040
50.0
1040
0.0
1040
0.0
1070
     0
1070
   100
1070
     1
1070
     3
1070
     0
1070
     0
1070
     0
1070
     0
1040
0.0
1040
0.0
1040
0.0
1040
10.0
1040
10.0
1040
10.0
1040
10.0
1070
     0
1002
{
1002
}
1002
}
  0
ENDSEC
  0
EOF
