  0
SECTION
  2
HEADER
  9
$ACADVER
  1
AC1009
  9
$INSBASE
 10
0.0
 20
0.0
 30
0.0
  9
$EXTMIN
 10
-80.010985489947416
 20
-131.67677505465531
 30
-0.0015258207003583
  9
$EXTMAX
 10
280.01098716632811
 20
403.54994963264153
 30
0.0000000349246037
  9
$LIMMIN
 10
0.0
 20
0.0
  9
$LIMMAX
 10
0.0
 20
0.0
  9
$ORTHOMODE
 70
     0
  9
$REGENMODE
 70
     1
  9
$FILLMODE
 70
     1
  9
$QTEXTMODE
 70
     0
  9
$MIRRTEXT
 70
     1
  9
$DRAGMODE
 70
     2
  9
$LTSCALE
 40
10.16
  9
$OSMODE
 70
   231
  9
$ATTMODE
 70
     1
  9
$TEXTSIZE
 40
0.0
  9
$TRACEWID
 40
1.0
  9
$TEXTSTYLE
  7
STANDARD
  9
$CLAYER
  8
DATA
  9
$CELTYPE
  6
BYLAYER
  9
$CECOLOR
 62
   256
  9
$DIMSCALE
 40
1.0
  9
$DIMASZ
 40
0.18
  9
$DIMEXO
 40
0.0625
  9
$DIMDLI
 40
0.38
  9
$DIMRND
 40
0.0
  9
$DIMDLE
 40
0.0
  9
$DIMEXE
 40
0.18
  9
$DIMTP
 40
0.0
  9
$DIMTM
 40
0.0
  9
$DIMTXT
 40
0.18
  9
$DIMCEN
 40
0.09
  9
$DIMTSZ
 40
0.0
  9
$DIMTOL
 70
     0
  9
$DIMLIM
 70
     0
  9
$DIMTIH
 70
     1
  9
$DIMTOH
 70
     1
  9
$DIMSE1
 70
     0
  9
$DIMSE2
 70
     0
  9
$DIMTAD
 70
     0
  9
$DIMZIN
 70
     0
  9
$DIMBLK
  1

  9
$DIMASO
 70
     1
  9
$DIMSHO
 70
     1
  9
$DIMPOST
  1

  9
$DIMAPOST
  1

  9
$DIMALT
 70
     0
  9
$DIMALTD
 70
     2
  9
$DIMALTF
 40
25.399999999999999
  9
$DIMLFAC
 40
1.0
  9
$DIMTOFL
 70
     0
  9
$DIMTVP
 40
0.0
  9
$DIMTIX
 70
     0
  9
$DIMSOXD
 70
     0
  9
$DIMSAH
 70
     0
  9
$DIMBLK1
  1

  9
$DIMBLK2
  1

  9
$DIMSTYLE
  2
STANDARD
  9
$DIMCLRD
 70
     0
  9
$DIMCLRE
 70
     0
  9
$DIMCLRT
 70
     0
  9
$DIMTFAC
 40
1.0
  9
$DIMGAP
 40
0.09
  9
$LUNITS
 70
     2
  9
$LUPREC
 70
     4
  9
$SKETCHINC
 40
0.1
  9
$FILLETRAD
 40
0.0
  9
$AUNITS
 70
     0
  9
$AUPREC
 70
     0
  9
$MENU
  1
acad
  9
$ELEVATION
 40
0.0
  9
$PELEVATION
 40
0.0
  9
$THICKNESS
 40
0.0
  9
$LIMCHECK
 70
     0
  9
$BLIPMODE
 70
     0
  9
$CHAMFERA
 40
0.0
  9
$CHAMFERB
 40
0.0
  9
$SKPOLY
 70
     0
  9
$TDCREATE
 40
2455618.5970254629
  9
$TDUPDATE
 40
2455618.6154614352
  9
$TDINDWG
 40
0.0002647454
  9
$TDUSRTIMER
 40
0.0002647454
  9
$USRTIMER
 70
     1
  9
$ANGBASE
 50
0.0
  9
$ANGDIR
 70
     0
  9
$PDMODE
 70
     1
  9
$PDSIZE
 40
-2.0
  9
$PLINEWID
 40
0.0
  9
$COORDS
 70
     1
  9
$SPLFRAME
 70
     0
  9
$SPLINETYPE
 70
     6
  9
$SPLINESEGS
 70
     8
  9
$ATTDIA
 70
     0
  9
$ATTREQ
 70
     1
  9
$HANDLING
 70
     1
  9
$HANDSEED
  5
2DA
  9
$SURFTAB1
 70
     6
  9
$SURFTAB2
 70
     6
  9
$SURFTYPE
 70
     6
  9
$SURFU
 70
     6
  9
$SURFV
 70
     6
  9
$UCSNAME
  2

  9
$UCSORG
 10
0.0
 20
0.0
 30
0.0
  9
$UCSXDIR
 10
1.0
 20
0.0
 30
0.0
  9
$UCSYDIR
 10
0.0
 20
1.0
 30
0.0
  9
$PUCSNAME
  2

  9
$PUCSORG
 10
0.0
 20
0.0
 30
0.0
  9
$PUCSXDIR
 10
1.0
 20
0.0
 30
0.0
  9
$PUCSYDIR
 10
0.0
 20
1.0
 30
0.0
  9
$USERI1
 70
     0
  9
$USERI2
 70
     0
  9
$USERI3
 70
     0
  9
$USERI4
 70
     0
  9
$USERI5
 70
     0
  9
$USERR1
 40
0.0
  9
$USERR2
 40
0.0
  9
$USERR3
 40
0.0
  9
$USERR4
 40
0.0
  9
$USERR5
 40
0.0
  9
$WORLDVIEW
 70
     1
  9
$SHADEDGE
 70
     3
  9
$SHADEDIF
 70
    70
  9
$TILEMODE
 70
     1
  9
$MAXACTVP
 70
    64
  9
$PLIMCHECK
 70
     0
  9
$PEXTMIN
 10
1.0000000000000000E+020
 20
1.0000000000000000E+020
 30
1.0000000000000000E+020
  9
$PEXTMAX
 10
-1.0000000000000000E+020
 20
-1.0000000000000000E+020
 30
-1.0000000000000000E+020
  9
$PLIMMIN
 10
0.0
 20
0.0
  9
$PLIMMAX
 10
12.0
 20
9.0
  9
$UNITMODE
 70
     0
  9
$VISRETAIN
 70
     0
  9
$PLINEGEN
 70
     1
  9
$PSLTSCALE
 70
     0
  0
ENDSEC
  0
SECTION
  2
TABLES
  0
TABLE
  2
VPORT
 70
     1
  0
VPORT
  2
*ACTIVE
 70
     0
 10
0.0
 20
0.0
 11
1.0
 21
1.0
 12
100.0000008381904
 22
135.93658728899311
 13
0.0
 23
0.0
 14
1.0
 24
1.0
 15
0.0
 25
0.0
 16
0.0
 26
0.0
 36
1.0
 17
0.0
 27
0.0
 37
0.0
 40
539.16704413284754
 41
1.9619164619164611
 42
50.0
 43
0.0
 44
0.0
 50
0.0
 51
0.0
 71
     0
 72
  2000
 73
     1
 74
     1
 75
     0
 76
     0
 77
     0
 78
     0
  0
ENDTAB
  0
TABLE
  2
LTYPE
 70
    11
  0
LTYPE
  2
CONTINUOUS
 70
     0
  3
Solid line
 72
    65
 73
     0
 40
0.0
  0
LTYPE
  2
STYLE_05
 70
     0
  3

 72
    65
 73
     2
 40
0.208282470703125
 49
0.069427490234375
 49
-0.13885498046875
  0
ENDTAB
  0
TABLE
  2
LAYER
 70
     5
  0
LAYER
  2
0
 70
     0
 62
     7
  6
CONTINUOUS
  0
LAYER
  2
DATA
 70
     0
 62
     7
  6
CONTINUOUS
  0
LAYER
  2
HIBINO-BASE
 70
     0
 62
     7
  6
CONTINUOUS
  0
LAYER
  2
SPEC
 70
     0
 62
     7
  6
CONTINUOUS
  0
LAYER
  2
DIMNSIONS
 70
     0
 62
     7
  6
CONTINUOUS
  0
ENDTAB
  0
TABLE
  2
STYLE
 70
     3
  0
STYLE
  2
STANDARD
 70
     0
 40
0.0
 41
1.0
 50
0.0
 71
     0
 42
0.0
  3
txt
  4
BIGFONT.SHX
  0
ENDTAB
  0
TABLE
  2
VIEW
 70
     0
  0
ENDTAB
  0
TABLE
  2
UCS
 70
     0
  0
ENDTAB
  0
TABLE
  2
APPID
 70
     3
  0
APPID
  2
ACAD
 70
     0
  0
APPID
  2
ACADANNOTATIVE
 70
     0
  0
APPID
  2
ACAD_MLEADERVER
 70
     0
  0
ENDTAB
  0
TABLE
  2
DIMSTYLE
 70
     2
  0
DIMSTYLE
  2
STANDARD
 70
     0
  3

  4

  5

  6

  7

 40
1.0
 41
0.18
 42
0.0625
 43
0.38
 44
0.18
 45
0.0
 46
0.0
 47
0.0
 48
0.0
140
0.18
141
0.09
142
0.0
143
25.399999999999999
144
1.0
145
0.0
146
1.0
147
0.09
 71
     0
 72
     0
 73
     1
 74
     1
 75
     0
 76
     0
 77
     0
 78
     0
170
     0
171
     2
172
     0
173
     0
174
     0
175
     0
176
     0
177
     0
178
     0
  0
ENDTAB
  0
ENDSEC
  0
SECTION
  2
BLOCKS
  0
BLOCK
  8
0
  2
$MODEL_SPACE
 70
     0
 10
0.0
 20
0.0
 30
0.0
  3
$MODEL_SPACE
  1

  0
ENDBLK
  5
25D
  8
0
  0
BLOCK
 67
     1
  8
0
  2
$PAPER_SPACE
 70
     0
 10
0.0
 20
0.0
 30
0.0
  3
$PAPER_SPACE
  1

  0
ENDBLK
  5
259
 67
     1
  8
0
  0
ENDSEC
  0
SECTION
  2
ENTITIES
  0
LINE
  5
2C
  8
HIBINO-BASE
  6
CONTINUOUS
 62
     7
 10
-79.999999999999986
 20
403.53364789486591
 30
0.0
 11
279.99999999999989
 21
403.53364789486591
 31
0.0
  0
LINE
  5
2D
  8
HIBINO-BASE
  6
CONTINUOUS
 62
     7
 10
279.99999999999989
 20
-116.46635210513411
 30
0.0
 11
-79.999999999999986
 21
-116.46635210513411
 31
0.0
  0
LINE
  5
2E
  8
HIBINO-BASE
  6
CONTINUOUS
 62
     7
 10
-79.999999999999986
 20
-116.46635210513411
 30
0.0
 11
-79.999999999999986
 21
403.53364789486591
 31
0.0
  0
LINE
  5
2F
  8
HIBINO-BASE
  6
CONTINUOUS
 62
     7
 10
279.99999999999989
 20
403.53364789486591
 30
0.0
 11
279.99999999999989
 21
-116.46635210513411
 31
0.0
  0
LINE
  5
30
  8
HIBINO-BASE
  6
CONTINUOUS
 62
     7
 10
100.0
 20
-71.466352105134064
 30
0.0
 11
279.99999999999989
 21
-71.466352105134064
 31
0.0
  0
LINE
  5
31
  8
HIBINO-BASE
  6
CONTINUOUS
 62
     7
 10
100.0
 20
-116.46635210513411
 30
0.0
 11
100.0
 21
-71.466352105134064
 31
0.0
  0
TEXT
  5
32
  8
HIBINO-BASE
 62
     7
 10
101.8
 20
-76.483738771800731
 30
0.0
 40
3.2576822916666659
  1
NOTE
 41
0.7
 11
101.8
 21
-73.226056480134062
 31
0.0
 73
     3
  0
LINE
  5
33
  8
HIBINO-BASE
  6
CONTINUOUS
 62
     7
 10
170.0
 20
-116.46635210513411
 30
0.0
 11
170.0
 21
-71.466352105134064
 31
0.0
  0
TEXT
  5
34
  8
HIBINO-BASE
 62
     7
 10
171.7999999999999
 20
-76.483738771800731
 30
0.0
 40
3.2576822916666659
  1
TITLE
 41
0.7
 11
171.7999999999999
 21
-73.226056480134062
 31
0.0
 73
     3
  0
LINE
  5
35
  8
HIBINO-BASE
  6
CONTINUOUS
 62
     7
 10
100.0
 20
-96.466352105134064
 30
0.0
 11
279.99999999999989
 21
-96.466352105134064
 31
0.0
  0
TEXT
  5
36
  8
HIBINO-BASE
 62
     7
 10
196.80000000000001
 20
-101.3710987718007
 30
0.0
 40
3.2576822916666659
  1
DRAWN
 41
0.7
 11
196.80000000000001
 21
-98.113416480134106
 31
0.0
 73
     3
  0
TEXT
  5
37
  8
HIBINO-BASE
 62
     7
 10
146.7999999999999
 20
-101.3710987718007
 30
0.0
 40
3.2576822916666659
  1
DATE
 41
0.7
 11
146.7999999999999
 21
-98.113416480134106
 31
0.0
 73
     3
  0
TEXT
  5
38
  8
HIBINO-BASE
 62
     7
 10
126.8
 20
-101.3710987718007
 30
0.0
 40
3.2576822916666659
  1
SCALE
 41
0.7
 11
126.8
 21
-98.113416480134106
 31
0.0
 73
     3
  0
TEXT
  5
39
  8
HIBINO-BASE
 62
     7
 10
171.7999999999999
 20
-101.3710987718007
 30
0.0
 40
3.2576822916666659
  1
DESIGN
 41
0.7
 11
171.7999999999999
 21
-98.113416480134106
 31
0.0
 73
     3
  0
TEXT
  5
3A
  8
HIBINO-BASE
 62
     7
 10
246.7999999999999
 20
-101.3710987718007
 30
0.0
 40
3.2576822916666659
  1
DRAWING NO.
 41
0.7
 11
246.7999999999999
 21
-98.113416480134106
 31
0.0
 73
     3
  0
TEXT
  5
3B
  8
HIBINO-BASE
 62
     7
 10
221.7999999999999
 20
-101.3710987718007
 30
0.0
 40
3.2576822916666659
  1
CHECK
 41
0.7
 11
221.7999999999999
 21
-98.113416480134106
 31
0.0
 73
     3
  0
LINE
  5
3C
  8
HIBINO-BASE
  6
CONTINUOUS
 62
     7
 10
128.74999999999989
 20
-113.96635210513411
 30
0.0
 11
136.25
 21
-106.46635210513401
 31
0.0
  0
TEXT
  5
3D
  8
HIBINO-BASE
 62
     7
 10
127.5
 20
-108.68423877180069
 30
0.0
 40
3.2576822916666659
  1
1
 41
0.7
 11
127.5
 21
-105.4265564801341
 31
0.0
 73
     3
  0
LINE
  5
3E
  8
HIBINO-BASE
  6
CONTINUOUS
 62
     7
 10
125.0
 20
-116.46635210513411
 30
0.0
 11
125.0
 21
-96.466352105134064
 31
0.0
  0
LINE
  5
3F
  8
HIBINO-BASE
  6
CONTINUOUS
 62
     7
 10
145.0
 20
-116.46635210513411
 30
0.0
 11
145.0
 21
-96.466352105134064
 31
0.0
  0
LINE
  5
40
  8
HIBINO-BASE
  6
CONTINUOUS
 62
     7
 10
195.0
 20
-96.466352105134064
 30
0.0
 11
195.0
 21
-116.46635210513411
 31
0.0
  0
LINE
  5
41
  8
HIBINO-BASE
  6
CONTINUOUS
 62
     7
 10
245.0
 20
-96.466352105134064
 30
0.0
 11
245.0
 21
-116.46635210513411
 31
0.0
  0
LINE
  5
42
  8
HIBINO-BASE
  6
CONTINUOUS
 62
     7
 10
220.0
 20
-116.46635210513411
 30
0.0
 11
220.0
 21
-96.466352105134064
 31
0.0
  0
TEXT
  5
43
  8
HIBINO-BASE
 62
     7
 10
146.71307999999999
 20
-110.7390587718007
 30
0.0
 40
3.2576822916666659
  1
'11.02.
 41
0.7
 11
146.71307999999999
 21
-107.4813764801341
 31
0.0
 73
     3
  0
TEXT
  5
44
  8
HIBINO-BASE
 62
     7
 10
135.0
 20
-112.43423877180069
 30
0.0
 40
3.2576822916666659
  1
2
 41
0.7
 11
135.0
 21
-109.1765564801341
 31
0.0
 73
     3
  0
TEXT
  5
45
  8
HIBINO-BASE
 62
     7
 10
198.0116200220692
 20
-110.7390587718007
 30
0.0
 40
3.2576822916666659
  1
T.Ootake
 41
0.7
 11
198.0116200220692
 21
-107.4813764801341
 31
0.0
 73
     3
  0
TEXT
  5
46
  8
HIBINO-BASE
 62
     7
 10
107.76666666666659
 20
-112.51435210513399
 30
0.0
 40
6.5153645833333318
  1
A4
 41
0.7
 11
107.76666666666659
 21
-105.9989875218007
 31
0.0
 73
     3
  0
TEXT
  5
47
  8
HIBINO-BASE
 62
     7
 10
101.9166666666666
 20
-101.7052621051341
 30
0.0
 40
3.2576822916666659
  1
PAPER SIZE
 41
0.7
 11
101.9166666666666
 21
-98.447579813467414
 31
0.0
 73
     3
  0
TEXT
  5
48
  8
HIBINO-BASE
 62
     7
 10
-74.48072948621963
 20
-129.31683257348661
 30
0.0
 40
7.0583116319444441
  1
Hibino-Intersound Corporation
 41
0.7
 11
-74.48072948621963
 21
-122.2585209415421
 31
0.0
 73
     3
  0
TEXT
  5
49
  8
HIBINO-BASE
 62
     7
 10
140.36121936042781
 20
-128.61465606690771
 30
0.0
 40
7.0583116319444441
  1
ヒビノインターサウンド株式会社
 41
0.7
 11
140.36121936042781
 21
-121.55634443496329
 31
0.0
 73
     3
  0
LINE
  5
4A
  8
SPEC
  6
CONTINUOUS
 62
     7
 10
-64.999999999999986
 20
383.53364789486602
 30
0.0
 11
230.0
 21
383.53364789486602
 31
0.0
  0
LINE
  5
4B
  8
SPEC
  6
CONTINUOUS
 62
     7
 10
-64.999999999999986
 20
376.03364789486591
 30
0.0
 11
230.0
 21
376.03364789486591
 31
0.0
  0
LINE
  5
4C
  8
SPEC
  6
CONTINUOUS
 62
     7
 10
-64.999999999999986
 20
361.03364789486602
 30
0.0
 11
230.0
 21
361.03364789486602
 31
0.0
  0
LINE
  5
4D
  8
SPEC
  6
CONTINUOUS
 62
     7
 10
-64.999999999999986
 20
368.53364789486602
 30
0.0
 11
230.0
 21
368.53364789486602
 31
0.0
  0
LINE
  5
4E
  8
SPEC
  6
CONTINUOUS
 62
     7
 10
-64.999999999999986
 20
383.53364789486602
 30
0.0
 11
-64.999999999999986
 21
256.03364789486591
 31
0.0
  0
TEXT
  5
4F
  8
SPEC
 62
     7
 10
-62.5
 20
386.32018789486591
 30
0.0
 40
4.8865234375000002
  1
仕様
 41
0.7
 11
-62.5
 21
391.2067113323659
 31
0.0
 73
     3
  0
LINE
  5
50
  8
SPEC
  6
CONTINUOUS
 62
     7
 10
10.0
 20
383.53364789486602
 30
0.0
 11
9.9999999999999716
 21
256.03364789486591
 31
0.0
  0
LINE
  5
51
  8
SPEC
  6
CONTINUOUS
 62
     7
 10
230.0
 20
383.53364789486602
 30
0.0
 11
230.0
 21
256.03364789486591
 31
0.0
  0
LINE
  5
52
  8
SPEC
  6
CONTINUOUS
 62
     7
 10
-64.999999999999986
 20
353.53364789486602
 30
0.0
 11
230.0
 21
353.53364789486602
 31
0.0
  0
LINE
  5
53
  8
SPEC
  6
CONTINUOUS
 62
     7
 10
-64.999999999999986
 20
346.03364789486602
 30
0.0
 11
230.0
 21
346.03364789486602
 31
0.0
  0
LINE
  5
54
  8
SPEC
  6
CONTINUOUS
 62
     7
 10
-64.999999999999986
 20
338.53364789486591
 30
0.0
 11
230.0
 21
338.53364789486591
 31
0.0
  0
LINE
  5
55
  8
SPEC
  6
CONTINUOUS
 62
     7
 10
-64.999999999999986
 20
331.03364789486602
 30
0.0
 11
230.0
 21
331.03364789486602
 31
0.0
  0
LINE
  5
56
  8
SPEC
  6
CONTINUOUS
 62
     7
 10
-64.999999999999986
 20
323.53364789486602
 30
0.0
 11
230.0
 21
323.53364789486602
 31
0.0
  0
LINE
  5
57
  8
SPEC
  6
CONTINUOUS
 62
     7
 10
-64.999999999999986
 20
316.03364789486602
 30
0.0
 11
230.0
 21
316.03364789486602
 31
0.0
  0
LINE
  5
58
  8
SPEC
  6
CONTINUOUS
 62
     7
 10
-64.999999999999986
 20
308.53364789486602
 30
0.0
 11
230.0
 21
308.53364789486602
 31
0.0
  0
LINE
  5
59
  8
SPEC
  6
CONTINUOUS
 62
     7
 10
-64.999999999999986
 20
301.03364789486591
 30
0.0
 11
230.0
 21
301.03364789486591
 31
0.0
  0
LINE
  5
5A
  8
SPEC
  6
CONTINUOUS
 62
     7
 10
-64.999999999999986
 20
293.53364789486602
 30
0.0
 11
230.0
 21
293.53364789486602
 31
0.0
  0
LINE
  5
5B
  8
SPEC
  6
CONTINUOUS
 62
     7
 10
-64.999999999999986
 20
286.03364789486602
 30
0.0
 11
230.0
 21
286.03364789486602
 31
0.0
  0
TEXT
  5
5C
  8
SPEC
 62
     7
 10
-63.218298254203141
 20
265.37776093435178
 30
0.0
 40
3.8006293402777769
  1
寸法
 41
0.7
 11
-63.218298254203141
 21
269.17839027462958
 31
0.0
 73
     3
  0
TEXT
  5
5D
  8
SPEC
 62
     7
 10
89.391156098513704
 20
265.4278451305907
 30
0.0
 40
3.8006293402777769
  1
\U+03A65.5\U+00D7160mm(突起部含まず）
 41
0.7
 11
89.391156098513704
 21
269.22847447086838
 31
0.0
 73
     3
  0
TEXT
  5
5E
  8
SPEC
 62
     7
 10
106.9113705228156
 20
257.99759263102089
 30
0.0
 40
3.8006293402777769
  1
約2g(本体）
 41
0.7
 11
106.9113705228156
 21
261.79822197129869
 31
0.0
 73
     3
  0
TEXT
  5
5F
  8
SPEC
 62
     7
 10
-63.326895885465682
 20
257.83569693916468
 30
0.0
 40
3.8006293402777769
  1
重量
 41
0.7
 11
-63.326895885465682
 21
261.63632627944253
 31
0.0
 73
     3
  0
TEXT
  5
60
  8
SPEC
 62
     7
 10
-63.582548989148378
 20
362.86827152354738
 30
0.0
 40
3.8006293402777769
  1
カートリッチ
 41
0.7
 11
-63.582548989148378
 21
366.66890086382517
 31
0.0
 73
     3
  0
TEXT
  5
61
  8
SPEC
 62
     7
 10
-63.293194794953642
 20
370.44141555671268
 30
0.0
 40
3.8006293402777769
  1
指向特性
 41
0.7
 11
-63.293194794953642
 21
374.24204489699048
 31
0.0
 73
     3
  0
TEXT
  5
62
  8
SPEC
 62
     7
 10
105.7194896602354
 20
370.26432075318422
 30
0.0
 40
3.8006293402777769
  1
超単一指向性
 41
0.7
 11
105.7194896602354
 21
374.06495009346202
 31
0.0
 73
     3
  0
TEXT
  5
63
  8
SPEC
 62
     7
 10
85.855071352612285
 20
362.8735602805325
 30
0.0
 40
3.8006293402777769
  1
プリポラライズド・コンデンサー
 41
0.7
 11
85.855071352612285
 21
366.6741896208103
 31
0.0
 73
     3
  0
TEXT
  5
64
  8
SPEC
 62
     7
 10
-63.197197264690047
 20
355.36102045081628
 30
0.0
 40
3.8006293402777769
  1
周波数レンジ(\U+00B12dB)
 41
0.7
 11
-63.197197264690047
 21
359.16164979109408
 31
0.0
 73
     3
  0
TEXT
  5
65
  8
SPEC
 62
     7
 10
106.3734677164711
 20
355.20904033461181
 30
0.0
 40
3.8006293402777769
  1
20Hz～20kHz
 41
0.7
 11
106.3734677164711
 21
359.00966967488961
 31
0.0
 73
     3
  0
TEXT
  5
66
  8
SPEC
 62
     7
 10
-63.279937752889211
 20
347.89599531276639
 30
0.0
 40
3.8006293402777769
  1
感度(\U+00B13dB）
 41
0.7
 11
-63.279937752889211
 21
351.69662465304413
 31
0.0
 73
     3
  0
TEXT
  5
67
  8
SPEC
 62
     7
 10
101.35928979646241
 20
348.02744632559109
 30
0.0
 40
3.8006293402777769
  1
-34dB re、1V/Pa
 41
0.7
 11
101.35928979646241
 21
351.82807566586888
 31
0.0
 73
     3
  0
TEXT
  5
68
  8
SPEC
 62
     7
 10
-63.223812144714358
 20
340.34611986565108
 30
0.0
 40
3.8006293402777769
  1
等価雑音レベル(Aウェイト)
 41
0.7
 11
-63.223812144714358
 21
344.14674920592893
 31
0.0
 73
     3
  0
TEXT
  5
69
  8
SPEC
 62
     7
 10
109.5997653834817
 20
340.38339725130447
 30
0.0
 40
3.8006293402777769
  1
23dB SPL
 41
0.7
 11
109.5997653834817
 21
344.18402659158232
 31
0.0
 73
     3
  0
TEXT
  5
6A
  8
SPEC
 62
     7
 10
-63.289264532298667
 20
332.8853046968764
 30
0.0
 40
3.8006293402777769
  1
全高調波歪み(THD)
 41
0.7
 11
-63.289264532298667
 21
336.68593403715408
 31
0.0
 73
     3
  0
TEXT
  5
6B
  8
SPEC
 62
     7
 10
99.892073624504064
 20
332.78389598516202
 30
0.0
 40
3.8006293402777769
  1
1%%%以下(123dB SPL)
 41
0.7
 11
99.892073624504064
 21
336.58452532543981
 31
0.0
 73
     3
  0
TEXT
  5
6C
  8
SPEC
 62
     7
 10
-63.578295208970367
 20
325.46212914522971
 30
0.0
 40
3.8006293402777769
  1
ダイナミックレンジ
 41
0.7
 11
-63.578295208970367
 21
329.2627584855075
 31
0.0
 73
     3
  0
TEXT
  5
6D
  8
SPEC
 62
     7
 10
113.9751690354674
 20
325.2082844116382
 30
0.0
 40
3.8006293402777769
  1
100dB
 41
0.7
 11
113.9751690354674
 21
329.008913751916
 31
0.0
 73
     3
  0
TEXT
  5
6E
  8
SPEC
 62
     7
 10
-63.188037127952967
 20
317.95886130770049
 30
0.0
 40
3.8006293402777769
  1
最大音圧レベル
 41
0.7
 11
-63.188037127952967
 21
321.75949064797823
 31
0.0
 73
     3
  0
TEXT
  5
6F
  8
SPEC
 62
     7
 10
109.5395099201365
 20
317.77086631740337
 30
0.0
 40
3.8006293402777769
  1
134dB SPL
 41
0.7
 11
109.5395099201365
 21
321.57149565768123
 31
0.0
 73
     3
  0
TEXT
  5
70
  8
SPEC
 62
     7
 10
-63.462413443902321
 20
310.47446894001069
 30
0.0
 40
3.8006293402777769
  1
インピーダンス
 41
0.7
 11
-63.462413443902321
 21
314.27509828028849
 31
0.0
 73
     3
  0
TEXT
  5
71
  8
SPEC
 62
     7
 10
93.292448776335235
 20
310.32901216599572
 30
0.0
 40
3.8006293402777769
  1
30～40\U+03A9(DAD6001：100\U+03A9)
 41
0.7
 11
93.292448776335235
 21
314.12964150627352
 31
0.0
 73
     3
  0
TEXT
  5
72
  8
SPEC
 62
     7
 10
-63.452786271330339
 20
302.93385099826912
 30
0.0
 40
3.8006293402777769
  1
ケーブル引き伸ばし可能距離
 41
0.7
 11
-63.452786271330339
 21
306.73448033854692
 31
0.0
 73
     3
  0
TEXT
  5
73
  8
SPEC
 62
     7
 10
110.75934076310121
 20
302.94263782805649
 30
0.0
 40
3.8006293402777769
  1
最大300m
 41
0.7
 11
110.75934076310121
 21
306.74326716833423
 31
0.0
 73
     3
  0
LINE
  5
74
  8
SPEC
  6
CONTINUOUS
 62
     7
 10
-64.999999999999986
 20
278.53364789486591
 30
0.0
 11
230.0
 21
278.53364789486591
 31
0.0
  0
LINE
  5
75
  8
SPEC
  6
CONTINUOUS
 62
     7
 10
-64.999999999999986
 20
271.03364789486591
 30
0.0
 11
230.0
 21
271.03364789486591
 31
0.0
  0
LINE
  5
76
  8
SPEC
  6
CONTINUOUS
 62
     7
 10
-64.999999999999986
 20
263.53364789486591
 30
0.0
 11
230.0
 21
263.53364789486591
 31
0.0
  0
LINE
  5
77
  8
SPEC
  6
CONTINUOUS
 62
     7
 10
-64.999999999999986
 20
256.03364789486591
 30
0.0
 11
230.0
 21
256.03364789486591
 31
0.0
  0
TEXT
  5
78
  8
SPEC
 62
     7
 10
-63.548888790512542
 20
295.32341244809959
 30
0.0
 40
3.8006293402777769
  1
グースネック長
 41
0.7
 11
-63.548888790512542
 21
299.12404178837738
 31
0.0
 73
     3
  0
TEXT
  5
79
  8
SPEC
 62
     7
 10
114.6748308549257
 20
295.21903862791987
 30
0.0
 40
3.8006293402777769
  1
95mm
 41
0.7
 11
114.6748308549257
 21
299.01966796819772
 31
0.0
 73
     3
  0
TEXT
  5
7A
  8
SPEC
 62
     7
 10
-63.673089263329061
 20
280.48662537340749
 30
0.0
 40
3.8006293402777769
  1
コネクター
 41
0.7
 11
-63.673089263329061
 21
284.28725471368529
 31
0.0
 73
     3
  0
TEXT
  5
7B
  8
SPEC
 62
     7
 10
110.58799072332189
 20
280.40285007939292
 30
0.0
 40
3.8006293402777769
  1
MicroDot
 41
0.7
 11
110.58799072332189
 21
284.2034794196706
 31
0.0
 73
     3
  0
TEXT
  5
7C
  8
SPEC
 62
     7
 10
-63.318007325971401
 20
287.69159986537511
 30
0.0
 40
3.8006293402777769
  1
電源
 41
0.7
 11
-63.318007325971401
 21
291.4922292056529
 31
0.0
 73
     3
  0
TEXT
  5
7D
  8
SPEC
 62
     7
 10
90.038787184961805
 20
287.83226106499018
 30
0.0
 40
3.8006293402777769
  1
ファンタムDC48V\U+00B14V(DAD6001)
 41
0.7
 11
90.038787184961805
 21
291.63289040526797
 31
0.0
 73
     3
  0
TEXT
  5
7E
  8
SPEC
 62
     7
 10
-63.177443405056152
 20
272.92675940175093
 30
0.0
 40
3.8006293402777769
  1
色
 41
0.7
 11
-63.177443405056152
 21
276.72738874202872
 31
0.0
 73
     3
  0
TEXT
  5
7F
  8
SPEC
 62
     7
 10
62.411006037644441
 20
272.99731392902322
 30
0.0
 40
3.8006293402777769
  1
黒
 41
0.7
 11
62.411006037644441
 21
276.79794326930102
 31
0.0
 73
     3
  0
LINE
  5
80
  8
SPEC
  6
CONTINUOUS
 62
     7
 10
120.0
 20
383.53364789486602
 30
0.0
 11
120.0
 21
376.03364789486591
 31
0.0
  0
LINE
  5
81
  8
SPEC
  6
CONTINUOUS
 62
     7
 10
119.9999999999999
 20
278.53364789486591
 30
0.0
 11
119.9999999999999
 21
271.03364789486591
 31
0.0
  0
TEXT
  5
82
  8
SPEC
 62
     7
 10
57.52434740568102
 20
377.64820271361128
 30
0.0
 40
3.8006293402777769
  1
4098HB
 41
0.7
 11
57.52434740568102
 21
381.44883205388908
 31
0.0
 73
     3
  0
TEXT
  5
83
  8
SPEC
 62
     7
 10
167.688420827275
 20
377.61396682292963
 30
0.0
 40
3.8006293402777769
  1
4098HW
 41
0.7
 11
167.688420827275
 21
381.41459616320742
 31
0.0
 73
     3
  0
TEXT
  5
84
  8
SPEC
 62
     7
 10
171.59465505361149
 20
272.99731392902322
 30
0.0
 40
3.8006293402777769
  1
白
 41
0.7
 11
171.59465505361149
 21
276.79794326930102
 31
0.0
 73
     3
  0
TEXT
  5
85
  8
DIMNSIONS
 62
     7
 10
60.0
 20
-91.927372105134054
 30
0.0
 40
4.8865234375000002
  1
(単位：mm)
 41
0.7
 11
60.0
 21
-87.040848667634066
 31
0.0
 73
     3
  0
LINE
  5
86
  8
DIMNSIONS
  6
CONTINUOUS
 62
     7
 10
14.37499999999998
 20
-12.5
 30
0.0
 11
-25.875
 21
-12.5
 31
0.0
  0
LINE
  5
87
  8
DIMNSIONS
  6
CONTINUOUS
 62
     7
 10
15.12499999999998
 20
147.5
 30
0.0
 11
-25.875
 21
147.5
 31
0.0
  0
LINE
  5
88
  8
DIMNSIONS
  6
CONTINUOUS
 62
     7
 10
-21.875
 20
-12.5
 30
0.0
 11
-21.875
 21
147.5
 31
0.0
  0
LINE
  5
89
  8
DIMNSIONS
  6
CONTINUOUS
 62
     7
 10
-21.875
 20
-12.5
 30
0.0
 11
-23.215079590300491
 21
-7.4987548828125048
 31
0.0
  0
LINE
  5
8A
  8
DIMNSIONS
  6
CONTINUOUS
 62
     7
 10
-21.875
 20
-12.5
 30
0.0
 11
-20.534920409699509
 21
-7.4987548828125048
 31
0.0
  0
LINE
  5
8B
  8
DIMNSIONS
  6
CONTINUOUS
 62
     7
 10
-21.875
 20
147.5
 30
0.0
 11
-20.534920409699509
 21
142.49875488281251
 31
0.0
  0
LINE
  5
8C
  8
DIMNSIONS
  6
CONTINUOUS
 62
     7
 10
-21.875
 20
147.5
 30
0.0
 11
-23.215079590300491
 21
142.49875488281251
 31
0.0
  0
TEXT
  5
8D
  8
DIMNSIONS
 62
     7
 10
-23.862777777777769
 20
62.208333333333343
 30
0.0
 40
5.4294704861111107
  1
160
 50
90.0
 41
0.7
 11
-29.292248263888879
 21
62.208333333333343
 31
0.0
 73
     3
  0
LINE
  5
8E
  8
DIMNSIONS
  6
CONTINUOUS
 62
     7
 10
23.524999999999821
 20
180.3249999999997
 30
0.0
 11
31.249999999999989
 21
190.625
 31
0.0
  0
LINE
  5
8F
  8
DIMNSIONS
  6
CONTINUOUS
 62
     7
 10
23.524999999999821
 20
180.3249999999997
 30
0.0
 11
25.464589298885489
 21
185.1256519746986
 31
0.0
  0
LINE
  5
90
  8
DIMNSIONS
  6
CONTINUOUS
 62
     7
 10
23.524999999999821
 20
180.3249999999997
 30
0.0
 11
27.60505959309268
 21
183.51269191537409
 31
0.0
  0
LINE
  5
91
  8
DIMNSIONS
  6
CONTINUOUS
 62
     7
 10
31.249999999999989
 20
190.625
 30
0.0
 11
52.888888888888857
 21
190.625
 31
0.0
  0
TEXT
  5
92
  8
DIMNSIONS
 62
     7
 10
35.249999999999993
 20
192.61277777777781
 30
0.0
 40
5.4294704861111107
  1
\U+03C65.5
 41
0.7
 11
35.249999999999993
 21
198.04224826388889
 31
0.0
 73
     3
  0
LINE
  5
93
  8
DIMNSIONS
  6
CONTINUOUS
 62
     7
 10
14.37499999999998
 20
-12.5
 30
0.0
 11
-4.0
 21
-12.5
 31
0.0
  0
LINE
  5
94
  8
DIMNSIONS
  6
CONTINUOUS
 62
     7
 10
14.37499999999998
 20
32.5
 30
0.0
 11
-4.0
 21
32.5
 31
0.0
  0
LINE
  5
95
  8
DIMNSIONS
  6
CONTINUOUS
 62
     7
 10
0.0
 20
-12.5
 30
0.0
 11
0.0
 21
32.5
 31
0.0
  0
LINE
  5
96
  8
DIMNSIONS
  6
CONTINUOUS
 62
     7
 10
0.0
 20
-12.5
 30
0.0
 11
-1.3400795903004901
 21
-7.4987548828125048
 31
0.0
  0
LINE
  5
97
  8
DIMNSIONS
  6
CONTINUOUS
 62
     7
 10
0.0
 20
-12.5
 30
0.0
 11
1.3400795903004901
 21
-7.4987548828125048
 31
0.0
  0
LINE
  5
98
  8
DIMNSIONS
  6
CONTINUOUS
 62
     7
 10
0.0
 20
32.5
 30
0.0
 11
1.3400795903004901
 21
27.498754882812509
 31
0.0
  0
LINE
  5
99
  8
DIMNSIONS
  6
CONTINUOUS
 62
     7
 10
0.0
 20
32.5
 30
0.0
 11
-1.3400795903004901
 21
27.498754882812509
 31
0.0
  0
TEXT
  5
9A
  8
DIMNSIONS
 62
     7
 10
-1.9877777777777661
 20
6.4722222222222268
 30
0.0
 40
5.4294704861111107
  1
45
 50
90.0
 41
0.7
 11
-7.4172482638888777
 21
6.4722222222222276
 31
0.0
 73
     3
  0
LINE
  5
9B
  8
DIMNSIONS
  6
CONTINUOUS
 62
     7
 10
15.12499999999998
 20
114.0
 30
0.0
 11
-4.0
 21
114.0
 31
0.0
  0
LINE
  5
9C
  8
DIMNSIONS
  6
CONTINUOUS
 62
     7
 10
15.12499999999998
 20
147.5
 30
0.0
 11
-4.0
 21
147.5
 31
0.0
  0
LINE
  5
9D
  8
DIMNSIONS
  6
CONTINUOUS
 62
     7
 10
0.0
 20
114.0
 30
0.0
 11
0.0
 21
147.5
 31
0.0
  0
LINE
  5
9E
  8
DIMNSIONS
  6
CONTINUOUS
 62
     7
 10
0.0
 20
114.0
 30
0.0
 11
-1.3400795903004901
 21
119.00124511718749
 31
0.0
  0
LINE
  5
9F
  8
DIMNSIONS
  6
CONTINUOUS
 62
     7
 10
0.0
 20
114.0
 30
0.0
 11
1.3400795903004901
 21
119.00124511718749
 31
0.0
  0
LINE
  5
A0
  8
DIMNSIONS
  6
CONTINUOUS
 62
     7
 10
0.0
 20
147.5
 30
0.0
 11
1.3400795903004901
 21
142.49875488281251
 31
0.0
  0
LINE
  5
A1
  8
DIMNSIONS
  6
CONTINUOUS
 62
     7
 10
0.0
 20
147.5
 30
0.0
 11
-1.3400795903004901
 21
142.49875488281251
 31
0.0
  0
TEXT
  5
A2
  8
DIMNSIONS
 62
     7
 10
-1.987777777777781
 20
123.6944444444444
 30
0.0
 40
5.4294704861111107
  1
33.5
 50
90.0
 41
0.7
 11
-7.4172482638888919
 21
123.6944444444444
 31
0.0
 73
     3
  0
LINE
  5
A3
  8
DIMNSIONS
  6
CONTINUOUS
 62
     7
 10
24.787176030182231
 20
-32.433549313211842
 30
0.0
 11
31.25
 21
-28.125
 31
0.0
  0
LINE
  5
A4
  8
DIMNSIONS
  6
CONTINUOUS
 62
     7
 10
24.787176030182231
 20
-32.433549313211842
 30
0.0
 11
28.251713458143559
 21
-28.585790687623842
 31
0.0
  0
LINE
  5
A5
  8
DIMNSIONS
  6
CONTINUOUS
 62
     7
 10
24.787176030182231
 20
-32.433549313211842
 30
0.0
 11
29.711432767952729
 21
-30.833561309802612
 31
0.0
  0
LINE
  5
A6
  8
DIMNSIONS
  6
CONTINUOUS
 62
     7
 10
31.25
 20
-28.125
 30
0.0
 11
45.833333333333329
 21
-28.125
 31
0.0
  0
TEXT
  5
A7
  8
DIMNSIONS
 62
     7
 10
35.25
 20
-26.137222222222249
 30
0.0
 40
5.4294704861111107
  1
\U+03C67
 41
0.7
 11
35.25
 21
-20.707751736111138
 31
0.0
 73
     3
  0
TEXT
  5
A8
  8
DATA
 62
     7
 10
203.761904459269
 20
-94.403586019990698
 30
0.0
 40
4.8865234375000002
  1
4098HB & 4098HW
 41
0.7
 11
203.761904459269
 21
-89.517062582490695
 31
0.0
 73
     3
  0
TEXT
  5
A9
  8
DATA
 62
     7
 10
203.761904459269
 20
-78.762176691457796
 30
0.0
 40
4.8865234375000002
  1
DPA
 41
0.7
 11
203.761904459269
 21
-73.875653253957793
 31
0.0
 73
     3
  0
TEXT
  5
AA
  8
DATA
 62
     7
 10
195.0157600336413
 20
-86.062410137261992
 30
0.0
 40
3.257687421875
  1
超単一指向性マイクロホン
 41
0.7
 11
195.0157600336413
 21
-82.804722715386987
 31
0.0
 73
     3
  0
TEXT
  5
AB
  8
DATA
 62
     7
 10
-60.0
 20
-107.99035210513409
 30
0.0
 40
3.2576822916666659
  1
仕様および外観は予告なく変更されることがありますので、ご了承ください。
 41
0.7
 11
-60.0
 21
-104.7326698134674
 31
0.0
 73
     3
  0
LINE
  5
AC
  8
DATA
  6
CONTINUOUS
 62
     7
 10
18.374999999999979
 20
-12.5
 30
0.0
 11
25.374999999999989
 21
-12.5
 31
0.0
  0
LINE
  5
AD
  8
DATA
  6
CONTINUOUS
 62
     7
 10
18.374999999999979
 20
32.5
 30
0.0
 11
25.374999999999989
 21
32.5
 31
0.0
  0
LINE
  5
AE
  8
DATA
  6
CONTINUOUS
 62
     7
 10
18.374999999999979
 20
-12.5
 30
0.0
 11
18.374999999999979
 21
32.5
 31
0.0
  0
LINE
  5
AF
  8
DATA
  6
CONTINUOUS
 62
     7
 10
25.374999999999989
 20
-12.5
 30
0.0
 11
18.374999999999979
 21
-12.5
 31
0.0
  0
LINE
  5
B0
  8
DATA
  6
CONTINUOUS
 62
     7
 10
25.374999999999989
 20
32.5
 30
0.0
 11
25.374999999999989
 21
-12.5
 31
0.0
  0
LINE
  5
B1
  8
DATA
  6
CONTINUOUS
 62
     7
 10
19.124999999999979
 20
146.5
 30
0.0
 11
19.124999999999979
 21
147.5
 31
0.0
  0
LINE
  5
B2
  8
DATA
  6
CONTINUOUS
 62
     7
 10
24.624999999999989
 20
146.5
 30
0.0
 11
19.124999999999979
 21
146.5
 31
0.0
  0
LINE
  5
B3
  8
DATA
  6
CONTINUOUS
 62
     7
 10
24.624999999999989
 20
147.5
 30
0.0
 11
24.624999999999989
 21
146.5
 31
0.0
  0
LINE
  5
B4
  8
DATA
  6
CONTINUOUS
 62
     7
 10
19.124999999999979
 20
147.5
 30
0.0
 11
24.624999999999989
 21
147.5
 31
0.0
  0
LINE
  5
B5
  8
DATA
  6
CONTINUOUS
 62
     7
 10
19.374999999999979
 20
118.5
 30
0.0
 11
19.374999999999979
 21
146.5
 31
0.0
  0
LINE
  5
B6
  8
DATA
  6
CONTINUOUS
 62
     7
 10
24.624999999999989
 20
118.5
 30
0.0
 11
19.124999999999979
 21
118.5
 31
0.0
  0
LINE
  5
B7
  8
DATA
  6
CONTINUOUS
 62
     7
 10
24.374999999999989
 20
146.5
 30
0.0
 11
24.374999999999989
 21
118.5
 31
0.0
  0
LINE
  5
B8
  8
DATA
  6
CONTINUOUS
 62
     7
 10
19.124999999999979
 20
114.0
 30
0.0
 11
24.624999999999989
 21
114.0
 31
0.0
  0
LINE
  5
B9
  8
DATA
  6
CONTINUOUS
 62
     7
 10
19.124999999999979
 20
118.5
 30
0.0
 11
19.124999999999979
 21
114.0
 31
0.0
  0
LINE
  5
BA
  8
DATA
  6
CONTINUOUS
 62
     7
 10
24.624999999999989
 20
118.5
 30
0.0
 11
24.624999999999989
 21
114.0
 31
0.0
  0
LINE
  5
BB
  8
DATA
  6
CONTINUOUS
 62
     7
 10
19.574999999999989
 20
35.899999999999977
 30
0.0
 11
24.17499999999999
 21
35.899999999999977
 31
0.0
  0
LINE
  5
BC
  8
DATA
  6
CONTINUOUS
 62
     7
 10
19.574999999999989
 20
35.899999999999977
 30
0.0
 11
19.84
 21
33.480000000000011
 31
0.0
  0
LINE
  5
BD
  8
DATA
  6
CONTINUOUS
 62
     7
 10
19.84
 20
33.480000000000011
 30
0.0
 11
20.374999999999979
 21
32.499999999999957
 31
0.0
  0
LINE
  5
BE
  8
DATA
  6
CONTINUOUS
 62
     7
 10
24.17499999999999
 20
35.899999999999977
 30
0.0
 11
23.909999999999972
 21
33.480000000000011
 31
0.0
  0
LINE
  5
BF
  8
DATA
  6
CONTINUOUS
 62
     7
 10
23.909999999999972
 20
33.480000000000011
 30
0.0
 11
23.374999999999989
 21
32.499999999999957
 31
0.0
  0
LINE
  5
C0
  8
DATA
  6
CONTINUOUS
 62
     7
 10
19.574999999999989
 20
39.299999999999983
 30
0.0
 11
24.17499999999999
 21
39.299999999999983
 31
0.0
  0
LINE
  5
C1
  8
DATA
  6
CONTINUOUS
 62
     7
 10
19.574999999999989
 20
39.299999999999983
 30
0.0
 11
19.84
 21
36.88000000000001
 31
0.0
  0
LINE
  5
C2
  8
DATA
  6
CONTINUOUS
 62
     7
 10
19.84
 20
36.88000000000001
 30
0.0
 11
20.374999999999979
 21
35.899999999999977
 31
0.0
  0
LINE
  5
C3
  8
DATA
  6
CONTINUOUS
 62
     7
 10
24.17499999999999
 20
39.299999999999983
 30
0.0
 11
23.909999999999972
 21
36.88000000000001
 31
0.0
  0
LINE
  5
C4
  8
DATA
  6
CONTINUOUS
 62
     7
 10
23.909999999999972
 20
36.88000000000001
 30
0.0
 11
23.374999999999989
 21
35.899999999999977
 31
0.0
  0
LINE
  5
C5
  8
DATA
  6
CONTINUOUS
 62
     7
 10
19.574999999999989
 20
42.69999999999996
 30
0.0
 11
24.17499999999999
 21
42.69999999999996
 31
0.0
  0
LINE
  5
C6
  8
DATA
  6
CONTINUOUS
 62
     7
 10
19.574999999999989
 20
42.69999999999996
 30
0.0
 11
19.84
 21
40.280000000000001
 31
0.0
  0
LINE
  5
C7
  8
DATA
  6
CONTINUOUS
 62
     7
 10
19.84
 20
40.280000000000001
 30
0.0
 11
20.374999999999979
 21
39.299999999999969
 31
0.0
  0
LINE
  5
C8
  8
DATA
  6
CONTINUOUS
 62
     7
 10
24.17499999999999
 20
42.69999999999996
 30
0.0
 11
23.909999999999972
 21
40.280000000000001
 31
0.0
  0
LINE
  5
C9
  8
DATA
  6
CONTINUOUS
 62
     7
 10
23.909999999999972
 20
40.280000000000001
 30
0.0
 11
23.374999999999989
 21
39.299999999999969
 31
0.0
  0
LINE
  5
CA
  8
DATA
  6
CONTINUOUS
 62
     7
 10
19.574999999999989
 20
46.09999999999998
 30
0.0
 11
24.17499999999999
 21
46.09999999999998
 31
0.0
  0
LINE
  5
CB
  8
DATA
  6
CONTINUOUS
 62
     7
 10
19.574999999999989
 20
46.09999999999998
 30
0.0
 11
19.84
 21
43.680000000000007
 31
0.0
  0
LINE
  5
CC
  8
DATA
  6
CONTINUOUS
 62
     7
 10
19.84
 20
43.680000000000007
 30
0.0
 11
20.374999999999979
 21
42.69999999999996
 31
0.0
  0
LINE
  5
CD
  8
DATA
  6
CONTINUOUS
 62
     7
 10
24.17499999999999
 20
46.09999999999998
 30
0.0
 11
23.909999999999972
 21
43.680000000000007
 31
0.0
  0
LINE
  5
CE
  8
DATA
  6
CONTINUOUS
 62
     7
 10
23.909999999999972
 20
43.680000000000007
 30
0.0
 11
23.374999999999989
 21
42.69999999999996
 31
0.0
  0
LINE
  5
CF
  8
DATA
  6
CONTINUOUS
 62
     7
 10
19.574999999999989
 20
49.499999999999972
 30
0.0
 11
24.17499999999999
 21
49.499999999999972
 31
0.0
  0
LINE
  5
D0
  8
DATA
  6
CONTINUOUS
 62
     7
 10
19.574999999999989
 20
49.499999999999972
 30
0.0
 11
19.84
 21
47.079999999999998
 31
0.0
  0
LINE
  5
D1
  8
DATA
  6
CONTINUOUS
 62
     7
 10
19.84
 20
47.079999999999998
 30
0.0
 11
20.374999999999979
 21
46.099999999999973
 31
0.0
  0
LINE
  5
D2
  8
DATA
  6
CONTINUOUS
 62
     7
 10
24.17499999999999
 20
49.499999999999972
 30
0.0
 11
23.909999999999972
 21
47.079999999999998
 31
0.0
  0
LINE
  5
D3
  8
DATA
  6
CONTINUOUS
 62
     7
 10
23.909999999999972
 20
47.079999999999998
 30
0.0
 11
23.374999999999989
 21
46.099999999999973
 31
0.0
  0
LINE
  5
D4
  8
DATA
  6
CONTINUOUS
 62
     7
 10
19.574999999999989
 20
52.899999999999991
 30
0.0
 11
24.17499999999999
 21
52.899999999999991
 31
0.0
  0
LINE
  5
D5
  8
DATA
  6
CONTINUOUS
 62
     7
 10
19.574999999999989
 20
52.899999999999991
 30
0.0
 11
19.84
 21
50.479999999999997
 31
0.0
  0
LINE
  5
D6
  8
DATA
  6
CONTINUOUS
 62
     7
 10
19.84
 20
50.479999999999997
 30
0.0
 11
20.374999999999979
 21
49.499999999999972
 31
0.0
  0
LINE
  5
D7
  8
DATA
  6
CONTINUOUS
 62
     7
 10
24.17499999999999
 20
52.899999999999991
 30
0.0
 11
23.909999999999972
 21
50.479999999999997
 31
0.0
  0
LINE
  5
D8
  8
DATA
  6
CONTINUOUS
 62
     7
 10
23.909999999999972
 20
50.479999999999997
 30
0.0
 11
23.374999999999989
 21
49.499999999999972
 31
0.0
  0
LINE
  5
D9
  8
DATA
  6
CONTINUOUS
 62
     7
 10
19.574999999999989
 20
56.29999999999999
 30
0.0
 11
24.17499999999999
 21
56.29999999999999
 31
0.0
  0
LINE
  5
DA
  8
DATA
  6
CONTINUOUS
 62
     7
 10
19.574999999999989
 20
56.29999999999999
 30
0.0
 11
19.84
 21
53.880000000000003
 31
0.0
  0
LINE
  5
DB
  8
DATA
  6
CONTINUOUS
 62
     7
 10
19.84
 20
53.880000000000003
 30
0.0
 11
20.374999999999979
 21
52.899999999999991
 31
0.0
  0
LINE
  5
DC
  8
DATA
  6
CONTINUOUS
 62
     7
 10
24.17499999999999
 20
56.29999999999999
 30
0.0
 11
23.909999999999972
 21
53.880000000000003
 31
0.0
  0
LINE
  5
DD
  8
DATA
  6
CONTINUOUS
 62
     7
 10
23.909999999999972
 20
53.880000000000003
 30
0.0
 11
23.374999999999989
 21
52.899999999999991
 31
0.0
  0
LINE
  5
DE
  8
DATA
  6
CONTINUOUS
 62
     7
 10
19.574999999999989
 20
59.699999999999967
 30
0.0
 11
24.17499999999999
 21
59.699999999999967
 31
0.0
  0
LINE
  5
DF
  8
DATA
  6
CONTINUOUS
 62
     7
 10
19.574999999999989
 20
59.699999999999967
 30
0.0
 11
19.84
 21
57.280000000000001
 31
0.0
  0
LINE
  5
E0
  8
DATA
  6
CONTINUOUS
 62
     7
 10
19.84
 20
57.280000000000001
 30
0.0
 11
20.374999999999979
 21
56.299999999999969
 31
0.0
  0
LINE
  5
E1
  8
DATA
  6
CONTINUOUS
 62
     7
 10
24.17499999999999
 20
59.699999999999967
 30
0.0
 11
23.909999999999972
 21
57.280000000000001
 31
0.0
  0
LINE
  5
E2
  8
DATA
  6
CONTINUOUS
 62
     7
 10
23.909999999999972
 20
57.280000000000001
 30
0.0
 11
23.374999999999989
 21
56.299999999999969
 31
0.0
  0
LINE
  5
E3
  8
DATA
  6
CONTINUOUS
 62
     7
 10
19.574999999999989
 20
63.099999999999973
 30
0.0
 11
24.17499999999999
 21
63.099999999999973
 31
0.0
  0
LINE
  5
E4
  8
DATA
  6
CONTINUOUS
 62
     7
 10
19.574999999999989
 20
63.099999999999973
 30
0.0
 11
19.84
 21
60.680000000000007
 31
0.0
  0
LINE
  5
E5
  8
DATA
  6
CONTINUOUS
 62
     7
 10
19.84
 20
60.680000000000007
 30
0.0
 11
20.374999999999979
 21
59.69999999999996
 31
0.0
  0
LINE
  5
E6
  8
DATA
  6
CONTINUOUS
 62
     7
 10
24.17499999999999
 20
63.099999999999973
 30
0.0
 11
23.909999999999972
 21
60.680000000000007
 31
0.0
  0
LINE
  5
E7
  8
DATA
  6
CONTINUOUS
 62
     7
 10
23.909999999999972
 20
60.680000000000007
 30
0.0
 11
23.374999999999989
 21
59.69999999999996
 31
0.0
  0
LINE
  5
E8
  8
DATA
  6
CONTINUOUS
 62
     7
 10
19.574999999999989
 20
66.499999999999972
 30
0.0
 11
24.17499999999999
 21
66.499999999999972
 31
0.0
  0
LINE
  5
E9
  8
DATA
  6
CONTINUOUS
 62
     7
 10
19.574999999999989
 20
66.499999999999972
 30
0.0
 11
19.84
 21
64.079999999999998
 31
0.0
  0
LINE
  5
EA
  8
DATA
  6
CONTINUOUS
 62
     7
 10
19.84
 20
64.079999999999998
 30
0.0
 11
20.374999999999979
 21
63.099999999999973
 31
0.0
  0
LINE
  5
EB
  8
DATA
  6
CONTINUOUS
 62
     7
 10
24.17499999999999
 20
66.499999999999972
 30
0.0
 11
23.909999999999972
 21
64.079999999999998
 31
0.0
  0
LINE
  5
EC
  8
DATA
  6
CONTINUOUS
 62
     7
 10
23.909999999999972
 20
64.079999999999998
 30
0.0
 11
23.374999999999989
 21
63.099999999999973
 31
0.0
  0
LINE
  5
ED
  8
DATA
  6
CONTINUOUS
 62
     7
 10
19.574999999999989
 20
69.899999999999977
 30
0.0
 11
24.17499999999999
 21
69.899999999999977
 31
0.0
  0
LINE
  5
EE
  8
DATA
  6
CONTINUOUS
 62
     7
 10
19.574999999999989
 20
69.899999999999977
 30
0.0
 11
19.84
 21
67.47999999999999
 31
0.0
  0
LINE
  5
EF
  8
DATA
  6
CONTINUOUS
 62
     7
 10
19.84
 20
67.47999999999999
 30
0.0
 11
20.374999999999979
 21
66.499999999999972
 31
0.0
  0
LINE
  5
F0
  8
DATA
  6
CONTINUOUS
 62
     7
 10
24.17499999999999
 20
69.899999999999977
 30
0.0
 11
23.909999999999972
 21
67.47999999999999
 31
0.0
  0
LINE
  5
F1
  8
DATA
  6
CONTINUOUS
 62
     7
 10
23.909999999999972
 20
67.47999999999999
 30
0.0
 11
23.374999999999989
 21
66.499999999999972
 31
0.0
  0
LINE
  5
F2
  8
DATA
  6
CONTINUOUS
 62
     7
 10
19.574999999999989
 20
73.299999999999983
 30
0.0
 11
24.17499999999999
 21
73.299999999999983
 31
0.0
  0
LINE
  5
F3
  8
DATA
  6
CONTINUOUS
 62
     7
 10
19.574999999999989
 20
73.299999999999983
 30
0.0
 11
19.84
 21
70.879999999999995
 31
0.0
  0
LINE
  5
F4
  8
DATA
  6
CONTINUOUS
 62
     7
 10
19.84
 20
70.879999999999995
 30
0.0
 11
20.374999999999979
 21
69.899999999999963
 31
0.0
  0
LINE
  5
F5
  8
DATA
  6
CONTINUOUS
 62
     7
 10
24.17499999999999
 20
73.299999999999983
 30
0.0
 11
23.909999999999972
 21
70.879999999999995
 31
0.0
  0
LINE
  5
F6
  8
DATA
  6
CONTINUOUS
 62
     7
 10
23.909999999999972
 20
70.879999999999995
 30
0.0
 11
23.374999999999989
 21
69.899999999999963
 31
0.0
  0
LINE
  5
F7
  8
DATA
  6
CONTINUOUS
 62
     7
 10
19.574999999999989
 20
76.699999999999946
 30
0.0
 11
24.17499999999999
 21
76.699999999999946
 31
0.0
  0
LINE
  5
F8
  8
DATA
  6
CONTINUOUS
 62
     7
 10
19.574999999999989
 20
76.699999999999946
 30
0.0
 11
19.84
 21
74.280000000000001
 31
0.0
  0
LINE
  5
F9
  8
DATA
  6
CONTINUOUS
 62
     7
 10
19.84
 20
74.280000000000001
 30
0.0
 11
20.374999999999979
 21
73.299999999999955
 31
0.0
  0
LINE
  5
FA
  8
DATA
  6
CONTINUOUS
 62
     7
 10
24.17499999999999
 20
76.699999999999946
 30
0.0
 11
23.909999999999972
 21
74.280000000000001
 31
0.0
  0
LINE
  5
FB
  8
DATA
  6
CONTINUOUS
 62
     7
 10
23.909999999999972
 20
74.280000000000001
 30
0.0
 11
23.374999999999989
 21
73.299999999999955
 31
0.0
  0
LINE
  5
FC
  8
DATA
  6
CONTINUOUS
 62
     7
 10
19.574999999999989
 20
80.099999999999966
 30
0.0
 11
24.17499999999999
 21
80.099999999999966
 31
0.0
  0
LINE
  5
FD
  8
DATA
  6
CONTINUOUS
 62
     7
 10
19.574999999999989
 20
80.099999999999966
 30
0.0
 11
19.84
 21
77.679999999999978
 31
0.0
  0
LINE
  5
FE
  8
DATA
  6
CONTINUOUS
 62
     7
 10
19.84
 20
77.679999999999978
 30
0.0
 11
20.374999999999979
 21
76.699999999999946
 31
0.0
  0
LINE
  5
FF
  8
DATA
  6
CONTINUOUS
 62
     7
 10
24.17499999999999
 20
80.099999999999966
 30
0.0
 11
23.909999999999972
 21
77.679999999999978
 31
0.0
  0
LINE
  5
100
  8
DATA
  6
CONTINUOUS
 62
     7
 10
23.909999999999972
 20
77.679999999999978
 30
0.0
 11
23.374999999999989
 21
76.699999999999946
 31
0.0
  0
LINE
  5
101
  8
DATA
  6
CONTINUOUS
 62
     7
 10
19.574999999999989
 20
83.499999999999972
 30
0.0
 11
24.17499999999999
 21
83.499999999999972
 31
0.0
  0
LINE
  5
102
  8
DATA
  6
CONTINUOUS
 62
     7
 10
19.574999999999989
 20
83.499999999999972
 30
0.0
 11
19.84
 21
81.079999999999984
 31
0.0
  0
LINE
  5
103
  8
DATA
  6
CONTINUOUS
 62
     7
 10
19.84
 20
81.079999999999984
 30
0.0
 11
20.374999999999979
 21
80.099999999999966
 31
0.0
  0
LINE
  5
104
  8
DATA
  6
CONTINUOUS
 62
     7
 10
24.17499999999999
 20
83.499999999999972
 30
0.0
 11
23.909999999999972
 21
81.079999999999984
 31
0.0
  0
LINE
  5
105
  8
DATA
  6
CONTINUOUS
 62
     7
 10
23.909999999999972
 20
81.079999999999984
 30
0.0
 11
23.374999999999989
 21
80.099999999999966
 31
0.0
  0
LINE
  5
106
  8
DATA
  6
CONTINUOUS
 62
     7
 10
19.574999999999989
 20
86.899999999999949
 30
0.0
 11
24.17499999999999
 21
86.899999999999949
 31
0.0
  0
LINE
  5
107
  8
DATA
  6
CONTINUOUS
 62
     7
 10
19.574999999999989
 20
86.899999999999949
 30
0.0
 11
19.84
 21
84.479999999999976
 31
0.0
  0
LINE
  5
108
  8
DATA
  6
CONTINUOUS
 62
     7
 10
19.84
 20
84.479999999999976
 30
0.0
 11
20.374999999999979
 21
83.499999999999957
 31
0.0
  0
LINE
  5
109
  8
DATA
  6
CONTINUOUS
 62
     7
 10
24.17499999999999
 20
86.899999999999949
 30
0.0
 11
23.909999999999972
 21
84.479999999999976
 31
0.0
  0
LINE
  5
10A
  8
DATA
  6
CONTINUOUS
 62
     7
 10
23.909999999999972
 20
84.479999999999976
 30
0.0
 11
23.374999999999989
 21
83.499999999999957
 31
0.0
  0
LINE
  5
10B
  8
DATA
  6
CONTINUOUS
 62
     7
 10
19.574999999999989
 20
90.299999999999969
 30
0.0
 11
24.17499999999999
 21
90.299999999999969
 31
0.0
  0
LINE
  5
10C
  8
DATA
  6
CONTINUOUS
 62
     7
 10
19.574999999999989
 20
90.299999999999969
 30
0.0
 11
19.84
 21
87.879999999999981
 31
0.0
  0
LINE
  5
10D
  8
DATA
  6
CONTINUOUS
 62
     7
 10
19.84
 20
87.879999999999981
 30
0.0
 11
20.374999999999979
 21
86.899999999999949
 31
0.0
  0
LINE
  5
10E
  8
DATA
  6
CONTINUOUS
 62
     7
 10
24.17499999999999
 20
90.299999999999969
 30
0.0
 11
23.909999999999972
 21
87.879999999999981
 31
0.0
  0
LINE
  5
10F
  8
DATA
  6
CONTINUOUS
 62
     7
 10
23.909999999999972
 20
87.879999999999981
 30
0.0
 11
23.374999999999989
 21
86.899999999999949
 31
0.0
  0
LINE
  5
110
  8
DATA
  6
CONTINUOUS
 62
     7
 10
19.574999999999989
 20
93.699999999999946
 30
0.0
 11
24.17499999999999
 21
93.699999999999946
 31
0.0
  0
LINE
  5
111
  8
DATA
  6
CONTINUOUS
 62
     7
 10
19.574999999999989
 20
93.699999999999946
 30
0.0
 11
19.84
 21
91.279999999999987
 31
0.0
  0
LINE
  5
112
  8
DATA
  6
CONTINUOUS
 62
     7
 10
19.84
 20
91.279999999999987
 30
0.0
 11
20.374999999999979
 21
90.299999999999969
 31
0.0
  0
LINE
  5
113
  8
DATA
  6
CONTINUOUS
 62
     7
 10
24.17499999999999
 20
93.699999999999946
 30
0.0
 11
23.909999999999972
 21
91.279999999999987
 31
0.0
  0
LINE
  5
114
  8
DATA
  6
CONTINUOUS
 62
     7
 10
23.909999999999972
 20
91.279999999999987
 30
0.0
 11
23.374999999999989
 21
90.299999999999969
 31
0.0
  0
LINE
  5
115
  8
DATA
  6
CONTINUOUS
 62
     7
 10
19.574999999999989
 20
97.099999999999966
 30
0.0
 11
24.17499999999999
 21
97.099999999999966
 31
0.0
  0
LINE
  5
116
  8
DATA
  6
CONTINUOUS
 62
     7
 10
19.574999999999989
 20
97.099999999999966
 30
0.0
 11
19.84
 21
94.679999999999964
 31
0.0
  0
LINE
  5
117
  8
DATA
  6
CONTINUOUS
 62
     7
 10
19.84
 20
94.679999999999964
 30
0.0
 11
20.374999999999979
 21
93.699999999999946
 31
0.0
  0
LINE
  5
118
  8
DATA
  6
CONTINUOUS
 62
     7
 10
24.17499999999999
 20
97.099999999999966
 30
0.0
 11
23.909999999999972
 21
94.679999999999964
 31
0.0
  0
LINE
  5
119
  8
DATA
  6
CONTINUOUS
 62
     7
 10
23.909999999999972
 20
94.679999999999964
 30
0.0
 11
23.374999999999989
 21
93.699999999999946
 31
0.0
  0
LINE
  5
11A
  8
DATA
  6
CONTINUOUS
 62
     7
 10
19.574999999999989
 20
100.4999999999999
 30
0.0
 11
24.17499999999999
 21
100.4999999999999
 31
0.0
  0
LINE
  5
11B
  8
DATA
  6
CONTINUOUS
 62
     7
 10
19.574999999999989
 20
100.4999999999999
 30
0.0
 11
19.84
 21
98.079999999999984
 31
0.0
  0
LINE
  5
11C
  8
DATA
  6
CONTINUOUS
 62
     7
 10
19.84
 20
98.079999999999984
 30
0.0
 11
20.374999999999979
 21
97.099999999999966
 31
0.0
  0
LINE
  5
11D
  8
DATA
  6
CONTINUOUS
 62
     7
 10
24.17499999999999
 20
100.4999999999999
 30
0.0
 11
23.909999999999972
 21
98.079999999999984
 31
0.0
  0
LINE
  5
11E
  8
DATA
  6
CONTINUOUS
 62
     7
 10
23.909999999999972
 20
98.079999999999984
 30
0.0
 11
23.374999999999989
 21
97.099999999999966
 31
0.0
  0
LINE
  5
11F
  8
DATA
  6
CONTINUOUS
 62
     7
 10
19.574999999999989
 20
103.89999999999991
 30
0.0
 11
24.17499999999999
 21
103.89999999999991
 31
0.0
  0
LINE
  5
120
  8
DATA
  6
CONTINUOUS
 62
     7
 10
19.574999999999989
 20
103.89999999999991
 30
0.0
 11
19.84
 21
101.48
 31
0.0
  0
LINE
  5
121
  8
DATA
  6
CONTINUOUS
 62
     7
 10
19.84
 20
101.48
 30
0.0
 11
20.374999999999979
 21
100.4999999999999
 31
0.0
  0
LINE
  5
122
  8
DATA
  6
CONTINUOUS
 62
     7
 10
24.17499999999999
 20
103.89999999999991
 30
0.0
 11
23.909999999999972
 21
101.48
 31
0.0
  0
LINE
  5
123
  8
DATA
  6
CONTINUOUS
 62
     7
 10
23.909999999999972
 20
101.48
 30
0.0
 11
23.374999999999989
 21
100.4999999999999
 31
0.0
  0
LINE
  5
124
  8
DATA
  6
CONTINUOUS
 62
     7
 10
19.574999999999989
 20
107.2999999999999
 30
0.0
 11
24.17499999999999
 21
107.2999999999999
 31
0.0
  0
LINE
  5
125
  8
DATA
  6
CONTINUOUS
 62
     7
 10
19.574999999999989
 20
107.2999999999999
 30
0.0
 11
19.84
 21
104.88
 31
0.0
  0
LINE
  5
126
  8
DATA
  6
CONTINUOUS
 62
     7
 10
19.84
 20
104.88
 30
0.0
 11
20.374999999999979
 21
103.89999999999991
 31
0.0
  0
LINE
  5
127
  8
DATA
  6
CONTINUOUS
 62
     7
 10
24.17499999999999
 20
107.2999999999999
 30
0.0
 11
23.909999999999972
 21
104.88
 31
0.0
  0
LINE
  5
128
  8
DATA
  6
CONTINUOUS
 62
     7
 10
23.909999999999972
 20
104.88
 30
0.0
 11
23.374999999999989
 21
103.89999999999991
 31
0.0
  0
LINE
  5
129
  8
DATA
  6
CONTINUOUS
 62
     7
 10
19.596900826446269
 20
110.5
 30
0.0
 11
19.84
 21
108.28
 31
0.0
  0
LINE
  5
12A
  8
DATA
  6
CONTINUOUS
 62
     7
 10
19.84
 20
108.28
 30
0.0
 11
20.374999999999979
 21
107.2999999999999
 31
0.0
  0
LINE
  5
12B
  8
DATA
  6
CONTINUOUS
 62
     7
 10
24.153099173553699
 20
110.5
 30
0.0
 11
23.909999999999972
 21
108.28
 31
0.0
  0
LINE
  5
12C
  8
DATA
  6
CONTINUOUS
 62
     7
 10
23.909999999999972
 20
108.28
 30
0.0
 11
23.374999999999989
 21
107.2999999999999
 31
0.0
  0
LINE
  5
12D
  8
DATA
  6
CONTINUOUS
 62
     7
 10
19.596900826446269
 20
110.5
 30
0.0
 11
24.15309917355372
 21
110.5
 31
0.0
  0
LINE
  5
12E
  8
DATA
  6
CONTINUOUS
 62
     7
 10
19.34
 20
114.0
 30
0.0
 11
19.879999999999988
 21
110.5
 31
0.0
  0
LINE
  5
12F
  8
DATA
  6
CONTINUOUS
 62
     7
 10
24.409999999999972
 20
114.0
 30
0.0
 11
23.86999999999998
 21
110.5
 31
0.0
  0
POLYLINE
  5
130
  8
DATA
  6
CONTINUOUS
 62
     7
 66
     1
 10
0.0
 20
0.0
 30
0.0
 70
   129
  0
VERTEX
  5
289
  8
DATA
  6
CONTINUOUS
 62
     7
 10
20.724999999999991
 20
112.15000000000001
 30
0.0
 42
-0.4142135623730951
  0
VERTEX
  5
28A
  8
DATA
  6
CONTINUOUS
 62
     7
 10
21.225000000000001
 20
112.65000000000001
 30
0.0
  0
VERTEX
  5
28B
  8
DATA
  6
CONTINUOUS
 62
     7
 10
22.524999999999991
 20
112.65000000000001
 30
0.0
 42
-0.4142135623730951
  0
VERTEX
  5
28C
  8
DATA
  6
CONTINUOUS
 62
     7
 10
23.024999999999991
 20
112.15000000000001
 30
0.0
  0
VERTEX
  5
28D
  8
DATA
  6
CONTINUOUS
 62
     7
 10
23.024999999999991
 20
112.15000000000001
 30
0.0
 42
-0.4142135623730951
  0
VERTEX
  5
28E
  8
DATA
  6
CONTINUOUS
 62
     7
 10
22.524999999999991
 20
111.65000000000001
 30
0.0
  0
VERTEX
  5
28F
  8
DATA
  6
CONTINUOUS
 62
     7
 10
21.225000000000001
 20
111.65000000000001
 30
0.0
  0
VERTEX
  5
290
  8
DATA
  6
CONTINUOUS
 62
     7
 10
21.225000000000001
 20
111.65000000000001
 30
0.0
 42
-0.4142135623730951
  0
VERTEX
  5
291
  8
DATA
  6
CONTINUOUS
 62
     7
 10
20.724999999999991
 20
112.15000000000001
 30
0.0
  0
SEQEND
  5
292
  8
DATA
  6
CONTINUOUS
 62
     7
  0
LINE
  5
13B
  8
DATA
  6
STYLE_05
 62
     7
 10
16.874999999999979
 20
102.9299634800737
 30
0.0
 11
16.874999999999979
 21
112.9299634800737
 31
0.0
  0
LINE
  5
13C
  8
DATA
  6
STYLE_05
 62
     7
 10
16.874999999999979
 20
118.9299634800736
 30
0.0
 11
16.874999999999979
 21
145.92996348007361
 31
0.0
  0
LINE
  5
13D
  8
DATA
  6
STYLE_05
 62
     7
 10
26.874999999999989
 20
102.9299634800737
 30
0.0
 11
16.874999999999979
 21
102.9299634800737
 31
0.0
  0
LINE
  5
13E
  8
DATA
  6
STYLE_05
 62
     7
 10
26.874999999999989
 20
145.92996348007361
 30
0.0
 11
26.874999999999989
 21
118.9299634800736
 31
0.0
  0
LINE
  5
13F
  8
DATA
  6
STYLE_05
 62
     7
 10
26.874999999999989
 20
112.9299634800737
 30
0.0
 11
26.874999999999989
 21
102.9299634800737
 31
0.0
  0
ARC
  5
140
  8
DATA
  6
STYLE_05
 62
     7
 10
21.874999999999989
 20
145.92996348007361
 30
0.0
 40
5.0
 50
0.0
 51
90.0
  0
ARC
  5
141
  8
DATA
  6
STYLE_05
 62
     7
 10
21.874999999999989
 20
145.92996348007361
 30
0.0
 40
5.0
 50
90.0
 51
180.0
  0
LINE
  5
142
  8
DATA
  6
CONTINUOUS
 62
     7
 10
16.874999999999979
 20
112.9299634800737
 30
0.0
 11
17.074999999999989
 21
112.9299634800737
 31
0.0
  0
LINE
  5
143
  8
DATA
  6
CONTINUOUS
 62
     7
 10
16.874999999999979
 20
118.9299634800736
 30
0.0
 11
17.074999999999989
 21
118.9299634800736
 31
0.0
  0
LINE
  5
144
  8
DATA
  6
STYLE_05
 62
     7
 10
17.074999999999989
 20
112.9299634800737
 30
0.0
 11
17.074999999999989
 21
118.9299634800736
 31
0.0
  0
LINE
  5
145
  8
DATA
  6
CONTINUOUS
 62
     7
 10
26.874999999999989
 20
112.9299634800737
 30
0.0
 11
26.67499999999999
 21
112.9299634800737
 31
0.0
  0
LINE
  5
146
  8
DATA
  6
CONTINUOUS
 62
     7
 10
26.874999999999989
 20
118.9299634800736
 30
0.0
 11
26.67499999999999
 21
118.9299634800736
 31
0.0
  0
LINE
  5
147
  8
DATA
  6
STYLE_05
 62
     7
 10
26.67499999999999
 20
112.9299634800737
 30
0.0
 11
26.67499999999999
 21
118.9299634800736
 31
0.0
  0
CIRCLE
  5
148
  8
DATA
  6
STYLE_05
 62
     7
 10
21.874999999999989
 20
178.125
 30
0.0
 40
5.0
  0
CIRCLE
  5
149
  8
DATA
  6
CONTINUOUS
 62
     7
 10
21.874999999999989
 20
178.125
 30
0.0
 40
2.75
  0
CIRCLE
  5
14A
  8
DATA
  6
CONTINUOUS
 62
     7
 10
21.874999999999989
 20
178.125
 30
0.0
 40
2.25
  0
CIRCLE
  5
14B
  8
DATA
  6
CONTINUOUS
 62
     7
 10
21.874999999999989
 20
-34.375
 30
0.0
 40
3.5
  0
CIRCLE
  5
14C
  8
DATA
  6
CONTINUOUS
 62
     7
 10
21.874999999999989
 20
-34.375
 30
0.0
 40
2.9000000000000048
  0
CIRCLE
  5
14D
  8
DATA
  6
CONTINUOUS
 62
     7
 10
21.874999999999989
 20
-34.375
 30
0.0
 40
0.4249999999999973
  0
CIRCLE
  5
14E
  8
DATA
  6
CONTINUOUS
 62
     7
 10
21.874999999999989
 20
-34.375
 30
0.0
 40
2.0999999999999939
  0
LINE
  5
14F
  8
DATA
  6
CONTINUOUS
 62
     7
 10
21.760000000000009
 20
-13.69999999999999
 30
0.0
 11
21.98999999999997
 21
-13.69999999999999
 31
0.0
  0
LINE
  5
150
  8
DATA
  6
CONTINUOUS
 62
     7
 10
21.449999999999989
 20
-13.259999999999989
 30
0.0
 11
21.449999999999989
 21
-12.50000000000002
 31
0.0
  0
LINE
  5
151
  8
DATA
  6
CONTINUOUS
 62
     7
 10
22.300000000000001
 20
-12.50000000000002
 30
0.0
 11
22.300000000000001
 21
-13.259999999999989
 31
0.0
  0
LINE
  5
152
  8
DATA
  6
CONTINUOUS
 62
     7
 10
21.760000000000009
 20
-13.69999999999999
 30
0.0
 11
21.449999999999989
 21
-13.259999999999989
 31
0.0
  0
LINE
  5
153
  8
DATA
  6
CONTINUOUS
 62
     7
 10
21.98999999999997
 20
-13.69999999999999
 30
0.0
 11
22.29999999999999
 21
-13.259999999999989
 31
0.0
  0
TEXT
  5
154
  8
DATA
 62
     7
 10
45.65451540630351
 20
164.25061437809759
 30
0.0
 40
5.4294704861111107
  1
ウインドスクリーン
 41
0.7
 11
45.65451540630351
 21
169.68008486420871
 31
0.0
 73
     3
  0
LINE
  5
155
  8
DATA
  6
CONTINUOUS
 62
     7
 10
24.399999999999991
 20
150.24556019431839
 30
0.0
 11
40.625
 21
162.5
 31
0.0
  0
LINE
  5
156
  8
DATA
  6
CONTINUOUS
 62
     7
 10
24.399999999999991
 20
150.24556019431839
 30
0.0
 11
28.44736084481497
 21
155.42594584010519
 31
0.0
  0
LINE
  5
157
  8
DATA
  6
CONTINUOUS
 62
     7
 10
24.399999999999991
 20
150.24556019431839
 30
0.0
 11
30.49531013278564
 21
152.70822534256251
 31
0.0
  0
LINE
  5
158
  8
DATA
  6
CONTINUOUS
 62
     7
 10
40.625
 20
162.5
 30
0.0
 11
25.0
 21
174.22187625100099
 31
0.0
  0
LINE
  5
159
  8
DATA
  6
CONTINUOUS
 62
     7
 10
25.0
 20
174.22187625100099
 30
0.0
 11
31.137361220615201
 21
171.8659640083857
 31
0.0
  0
LINE
  5
15A
  8
DATA
  6
CONTINUOUS
 62
     7
 10
25.0
 20
174.22187625100099
 30
0.0
 11
29.137154607946631
 21
169.11291578950181
 31
0.0
  0
LINE
  5
15B
  8
DATA
  6
CONTINUOUS
 62
     7
 10
40.625
 20
162.5
 30
0.0
 11
113.2
 21
162.5
 31
0.0
  0
LINE
  5
15C
  8
DATA
  6
CONTINUOUS
 62
     7
 10
80.874999999999986
 20
-12.5
 30
0.0
 11
87.874999999999986
 21
-12.5
 31
0.0
  0
LINE
  5
15D
  8
DATA
  6
CONTINUOUS
 62
     7
 10
80.874999999999986
 20
32.5
 30
0.0
 11
87.874999999999986
 21
32.5
 31
0.0
  0
LINE
  5
15E
  8
DATA
  6
CONTINUOUS
 62
     7
 10
80.874999999999986
 20
-12.5
 30
0.0
 11
80.874999999999986
 21
32.5
 31
0.0
  0
LINE
  5
15F
  8
DATA
  6
CONTINUOUS
 62
     7
 10
87.874999999999986
 20
-12.5
 30
0.0
 11
80.874999999999986
 21
-12.5
 31
0.0
  0
LINE
  5
160
  8
DATA
  6
CONTINUOUS
 62
     7
 10
87.874999999999986
 20
32.5
 30
0.0
 11
87.874999999999986
 21
-12.5
 31
0.0
  0
LINE
  5
161
  8
DATA
  6
CONTINUOUS
 62
     7
 10
137.36023575596019
 20
141.1819561632268
 30
0.0
 11
138.12628019907919
 21
141.82474377291331
 31
0.0
  0
LINE
  5
162
  8
DATA
  6
CONTINUOUS
 62
     7
 10
140.8955676092362
 20
136.9687117260724
 30
0.0
 11
137.36023575596019
 21
141.1819561632268
 31
0.0
  0
LINE
  5
163
  8
DATA
  6
CONTINUOUS
 62
     7
 10
141.66161205235511
 20
137.61149933575891
 30
0.0
 11
140.8955676092362
 21
136.9687117260724
 31
0.0
  0
LINE
  5
164
  8
DATA
  6
CONTINUOUS
 62
     7
 10
138.12628019907919
 20
141.82474377291331
 30
0.0
 11
141.66161205235511
 21
137.61149933575891
 31
0.0
  0
LINE
  5
165
  8
DATA
  6
CONTINUOUS
 62
     7
 10
116.0716882510504
 20
122.9923919812239
 30
0.0
 11
137.52093265838189
 21
140.990445052447
 31
0.0
  0
LINE
  5
166
  8
DATA
  6
CONTINUOUS
 62
     7
 10
119.4463232019048
 20
118.9706586548493
 30
0.0
 11
115.9109913486288
 21
123.1839030920037
 31
0.0
  0
LINE
  5
167
  8
DATA
  6
CONTINUOUS
 62
     7
 10
140.73487070681449
 20
137.16022283685211
 30
0.0
 11
119.2856262994831
 21
119.1621697656291
 31
0.0
  0
LINE
  5
168
  8
DATA
  6
CONTINUOUS
 62
     7
 10
112.4637913545933
 20
120.2913588484143
 30
0.0
 11
115.9991232078693
 21
116.0781144112599
 31
0.0
  0
LINE
  5
169
  8
DATA
  6
CONTINUOUS
 62
     7
 10
115.9109913486288
 20
123.1839030920037
 30
0.0
 11
112.4637913545933
 21
120.2913588484143
 31
0.0
  0
LINE
  5
16A
  8
DATA
  6
CONTINUOUS
 62
     7
 10
119.4463232019048
 20
118.9706586548493
 30
0.0
 11
115.9991232078693
 21
116.0781144112599
 31
0.0
  0
LINE
  5
16B
  8
DATA
  6
CONTINUOUS
 62
     7
 10
82.075000000000017
 20
35.899999999999977
 30
0.0
 11
86.674999999999983
 21
35.899999999999977
 31
0.0
  0
LINE
  5
16C
  8
DATA
  6
CONTINUOUS
 62
     7
 10
82.075000000000017
 20
35.899999999999977
 30
0.0
 11
82.339999999999989
 21
33.480000000000011
 31
0.0
  0
LINE
  5
16D
  8
DATA
  6
CONTINUOUS
 62
     7
 10
82.339999999999989
 20
33.480000000000011
 30
0.0
 11
82.874999999999986
 21
32.499999999999957
 31
0.0
  0
LINE
  5
16E
  8
DATA
  6
CONTINUOUS
 62
     7
 10
86.674999999999983
 20
35.899999999999977
 30
0.0
 11
86.409999999999954
 21
33.480000000000011
 31
0.0
  0
LINE
  5
16F
  8
DATA
  6
CONTINUOUS
 62
     7
 10
86.409999999999954
 20
33.480000000000011
 30
0.0
 11
85.874999999999986
 21
32.499999999999957
 31
0.0
  0
LINE
  5
170
  8
DATA
  6
CONTINUOUS
 62
     7
 10
82.075000000000017
 20
39.299999999999983
 30
0.0
 11
86.674999999999983
 21
39.299999999999983
 31
0.0
  0
LINE
  5
171
  8
DATA
  6
CONTINUOUS
 62
     7
 10
82.075000000000017
 20
39.299999999999983
 30
0.0
 11
82.339999999999989
 21
36.88000000000001
 31
0.0
  0
LINE
  5
172
  8
DATA
  6
CONTINUOUS
 62
     7
 10
82.339999999999989
 20
36.88000000000001
 30
0.0
 11
82.874999999999986
 21
35.899999999999977
 31
0.0
  0
LINE
  5
173
  8
DATA
  6
CONTINUOUS
 62
     7
 10
86.674999999999983
 20
39.299999999999983
 30
0.0
 11
86.409999999999954
 21
36.88000000000001
 31
0.0
  0
LINE
  5
174
  8
DATA
  6
CONTINUOUS
 62
     7
 10
86.409999999999954
 20
36.88000000000001
 30
0.0
 11
85.874999999999986
 21
35.899999999999977
 31
0.0
  0
LINE
  5
175
  8
DATA
  6
CONTINUOUS
 62
     7
 10
82.075000000000017
 20
42.69999999999996
 30
0.0
 11
86.674999999999983
 21
42.69999999999996
 31
0.0
  0
LINE
  5
176
  8
DATA
  6
CONTINUOUS
 62
     7
 10
82.075000000000017
 20
42.69999999999996
 30
0.0
 11
82.339999999999989
 21
40.280000000000001
 31
0.0
  0
LINE
  5
177
  8
DATA
  6
CONTINUOUS
 62
     7
 10
82.339999999999989
 20
40.280000000000001
 30
0.0
 11
82.874999999999986
 21
39.299999999999969
 31
0.0
  0
LINE
  5
178
  8
DATA
  6
CONTINUOUS
 62
     7
 10
86.674999999999983
 20
42.69999999999996
 30
0.0
 11
86.409999999999954
 21
40.280000000000001
 31
0.0
  0
LINE
  5
179
  8
DATA
  6
CONTINUOUS
 62
     7
 10
86.409999999999954
 20
40.280000000000001
 30
0.0
 11
85.874999999999986
 21
39.299999999999969
 31
0.0
  0
LINE
  5
17A
  8
DATA
  6
CONTINUOUS
 62
     7
 10
82.075000000000017
 20
46.09999999999998
 30
0.0
 11
86.674999999999983
 21
46.09999999999998
 31
0.0
  0
LINE
  5
17B
  8
DATA
  6
CONTINUOUS
 62
     7
 10
82.075000000000017
 20
46.09999999999998
 30
0.0
 11
82.339999999999989
 21
43.680000000000007
 31
0.0
  0
LINE
  5
17C
  8
DATA
  6
CONTINUOUS
 62
     7
 10
82.339999999999989
 20
43.680000000000007
 30
0.0
 11
82.874999999999986
 21
42.69999999999996
 31
0.0
  0
LINE
  5
17D
  8
DATA
  6
CONTINUOUS
 62
     7
 10
86.674999999999983
 20
46.09999999999998
 30
0.0
 11
86.409999999999954
 21
43.680000000000007
 31
0.0
  0
LINE
  5
17E
  8
DATA
  6
CONTINUOUS
 62
     7
 10
86.409999999999954
 20
43.680000000000007
 30
0.0
 11
85.874999999999986
 21
42.69999999999996
 31
0.0
  0
LINE
  5
17F
  8
DATA
  6
CONTINUOUS
 62
     7
 10
82.075000000000017
 20
49.499999999999972
 30
0.0
 11
86.674999999999983
 21
49.499999999999972
 31
0.0
  0
LINE
  5
180
  8
DATA
  6
CONTINUOUS
 62
     7
 10
82.075000000000017
 20
49.499999999999972
 30
0.0
 11
82.339999999999989
 21
47.079999999999998
 31
0.0
  0
LINE
  5
181
  8
DATA
  6
CONTINUOUS
 62
     7
 10
82.339999999999989
 20
47.079999999999998
 30
0.0
 11
82.874999999999986
 21
46.099999999999973
 31
0.0
  0
LINE
  5
182
  8
DATA
  6
CONTINUOUS
 62
     7
 10
86.674999999999983
 20
49.499999999999972
 30
0.0
 11
86.409999999999954
 21
47.079999999999998
 31
0.0
  0
LINE
  5
183
  8
DATA
  6
CONTINUOUS
 62
     7
 10
86.409999999999954
 20
47.079999999999998
 30
0.0
 11
85.874999999999986
 21
46.099999999999973
 31
0.0
  0
LINE
  5
184
  8
DATA
  6
CONTINUOUS
 62
     7
 10
82.075000000000017
 20
52.899999999999991
 30
0.0
 11
86.674999999999983
 21
52.899999999999991
 31
0.0
  0
LINE
  5
185
  8
DATA
  6
CONTINUOUS
 62
     7
 10
82.075000000000017
 20
52.899999999999991
 30
0.0
 11
82.339999999999989
 21
50.479999999999997
 31
0.0
  0
LINE
  5
186
  8
DATA
  6
CONTINUOUS
 62
     7
 10
82.339999999999989
 20
50.479999999999997
 30
0.0
 11
82.874999999999986
 21
49.499999999999972
 31
0.0
  0
LINE
  5
187
  8
DATA
  6
CONTINUOUS
 62
     7
 10
86.674999999999983
 20
52.899999999999991
 30
0.0
 11
86.409999999999954
 21
50.479999999999997
 31
0.0
  0
LINE
  5
188
  8
DATA
  6
CONTINUOUS
 62
     7
 10
86.409999999999954
 20
50.479999999999997
 30
0.0
 11
85.874999999999986
 21
49.499999999999972
 31
0.0
  0
LINE
  5
189
  8
DATA
  6
CONTINUOUS
 62
     7
 10
82.075000000000017
 20
56.29999999999999
 30
0.0
 11
86.674999999999983
 21
56.29999999999999
 31
0.0
  0
LINE
  5
18A
  8
DATA
  6
CONTINUOUS
 62
     7
 10
82.075000000000017
 20
56.29999999999999
 30
0.0
 11
82.339999999999989
 21
53.880000000000003
 31
0.0
  0
LINE
  5
18B
  8
DATA
  6
CONTINUOUS
 62
     7
 10
82.339999999999989
 20
53.880000000000003
 30
0.0
 11
82.874999999999986
 21
52.899999999999991
 31
0.0
  0
LINE
  5
18C
  8
DATA
  6
CONTINUOUS
 62
     7
 10
86.674999999999983
 20
56.29999999999999
 30
0.0
 11
86.409999999999954
 21
53.880000000000003
 31
0.0
  0
LINE
  5
18D
  8
DATA
  6
CONTINUOUS
 62
     7
 10
86.409999999999954
 20
53.880000000000003
 30
0.0
 11
85.874999999999986
 21
52.899999999999991
 31
0.0
  0
LINE
  5
18E
  8
DATA
  6
CONTINUOUS
 62
     7
 10
82.075000000000017
 20
59.699999999999967
 30
0.0
 11
86.674999999999983
 21
59.699999999999967
 31
0.0
  0
LINE
  5
18F
  8
DATA
  6
CONTINUOUS
 62
     7
 10
82.075000000000017
 20
59.699999999999967
 30
0.0
 11
82.339999999999989
 21
57.280000000000001
 31
0.0
  0
LINE
  5
190
  8
DATA
  6
CONTINUOUS
 62
     7
 10
82.339999999999989
 20
57.280000000000001
 30
0.0
 11
82.874999999999986
 21
56.299999999999969
 31
0.0
  0
LINE
  5
191
  8
DATA
  6
CONTINUOUS
 62
     7
 10
86.674999999999983
 20
59.699999999999967
 30
0.0
 11
86.409999999999954
 21
57.280000000000001
 31
0.0
  0
LINE
  5
192
  8
DATA
  6
CONTINUOUS
 62
     7
 10
86.409999999999954
 20
57.280000000000001
 30
0.0
 11
85.874999999999986
 21
56.299999999999969
 31
0.0
  0
LINE
  5
193
  8
DATA
  6
CONTINUOUS
 62
     7
 10
82.075000000000017
 20
63.099999999999973
 30
0.0
 11
86.674999999999983
 21
63.099999999999973
 31
0.0
  0
LINE
  5
194
  8
DATA
  6
CONTINUOUS
 62
     7
 10
82.075000000000017
 20
63.099999999999973
 30
0.0
 11
82.339999999999989
 21
60.680000000000007
 31
0.0
  0
LINE
  5
195
  8
DATA
  6
CONTINUOUS
 62
     7
 10
82.339999999999989
 20
60.680000000000007
 30
0.0
 11
82.874999999999986
 21
59.69999999999996
 31
0.0
  0
LINE
  5
196
  8
DATA
  6
CONTINUOUS
 62
     7
 10
86.674999999999983
 20
63.099999999999973
 30
0.0
 11
86.409999999999954
 21
60.680000000000007
 31
0.0
  0
LINE
  5
197
  8
DATA
  6
CONTINUOUS
 62
     7
 10
86.409999999999954
 20
60.680000000000007
 30
0.0
 11
85.874999999999986
 21
59.69999999999996
 31
0.0
  0
LINE
  5
198
  8
DATA
  6
CONTINUOUS
 62
     7
 10
82.075000000000017
 20
66.499999999999972
 30
0.0
 11
86.674999999999983
 21
66.499999999999972
 31
0.0
  0
LINE
  5
199
  8
DATA
  6
CONTINUOUS
 62
     7
 10
82.075000000000017
 20
66.499999999999972
 30
0.0
 11
82.339999999999989
 21
64.079999999999998
 31
0.0
  0
LINE
  5
19A
  8
DATA
  6
CONTINUOUS
 62
     7
 10
82.339999999999989
 20
64.079999999999998
 30
0.0
 11
82.874999999999986
 21
63.099999999999973
 31
0.0
  0
LINE
  5
19B
  8
DATA
  6
CONTINUOUS
 62
     7
 10
86.674999999999983
 20
66.499999999999972
 30
0.0
 11
86.409999999999954
 21
64.079999999999998
 31
0.0
  0
LINE
  5
19C
  8
DATA
  6
CONTINUOUS
 62
     7
 10
86.409999999999954
 20
64.079999999999998
 30
0.0
 11
85.874999999999986
 21
63.099999999999973
 31
0.0
  0
LINE
  5
19D
  8
DATA
  6
CONTINUOUS
 62
     7
 10
82.075000000000017
 20
69.899999999999977
 30
0.0
 11
86.674999999999983
 21
69.899999999999977
 31
0.0
  0
LINE
  5
19E
  8
DATA
  6
CONTINUOUS
 62
     7
 10
82.075000000000017
 20
69.899999999999977
 30
0.0
 11
82.339999999999989
 21
67.47999999999999
 31
0.0
  0
LINE
  5
19F
  8
DATA
  6
CONTINUOUS
 62
     7
 10
82.339999999999989
 20
67.47999999999999
 30
0.0
 11
82.874999999999986
 21
66.499999999999972
 31
0.0
  0
LINE
  5
1A0
  8
DATA
  6
CONTINUOUS
 62
     7
 10
86.674999999999983
 20
69.899999999999977
 30
0.0
 11
86.409999999999954
 21
67.47999999999999
 31
0.0
  0
LINE
  5
1A1
  8
DATA
  6
CONTINUOUS
 62
     7
 10
86.409999999999954
 20
67.47999999999999
 30
0.0
 11
85.874999999999986
 21
66.499999999999972
 31
0.0
  0
LINE
  5
1A2
  8
DATA
  6
CONTINUOUS
 62
     7
 10
82.075000000000017
 20
73.299999999999983
 30
0.0
 11
86.674999999999983
 21
73.299999999999983
 31
0.0
  0
LINE
  5
1A3
  8
DATA
  6
CONTINUOUS
 62
     7
 10
82.075000000000017
 20
73.299999999999983
 30
0.0
 11
82.339999999999989
 21
70.879999999999995
 31
0.0
  0
LINE
  5
1A4
  8
DATA
  6
CONTINUOUS
 62
     7
 10
82.339999999999989
 20
70.879999999999995
 30
0.0
 11
82.874999999999986
 21
69.899999999999963
 31
0.0
  0
LINE
  5
1A5
  8
DATA
  6
CONTINUOUS
 62
     7
 10
86.674999999999983
 20
73.299999999999983
 30
0.0
 11
86.409999999999954
 21
70.879999999999995
 31
0.0
  0
LINE
  5
1A6
  8
DATA
  6
CONTINUOUS
 62
     7
 10
86.409999999999954
 20
70.879999999999995
 30
0.0
 11
85.874999999999986
 21
69.899999999999963
 31
0.0
  0
LINE
  5
1A7
  8
DATA
  6
CONTINUOUS
 62
     7
 10
82.075000000000017
 20
76.699999999999946
 30
0.0
 11
86.674999999999983
 21
76.699999999999946
 31
0.0
  0
LINE
  5
1A8
  8
DATA
  6
CONTINUOUS
 62
     7
 10
82.075000000000017
 20
76.699999999999946
 30
0.0
 11
82.339999999999989
 21
74.280000000000001
 31
0.0
  0
LINE
  5
1A9
  8
DATA
  6
CONTINUOUS
 62
     7
 10
82.339999999999989
 20
74.280000000000001
 30
0.0
 11
82.874999999999986
 21
73.299999999999955
 31
0.0
  0
LINE
  5
1AA
  8
DATA
  6
CONTINUOUS
 62
     7
 10
86.674999999999983
 20
76.699999999999946
 30
0.0
 11
86.409999999999954
 21
74.280000000000001
 31
0.0
  0
LINE
  5
1AB
  8
DATA
  6
CONTINUOUS
 62
     7
 10
86.409999999999954
 20
74.280000000000001
 30
0.0
 11
85.874999999999986
 21
73.299999999999955
 31
0.0
  0
LINE
  5
1AC
  8
DATA
  6
CONTINUOUS
 62
     7
 10
82.075000000000017
 20
80.099999999999966
 30
0.0
 11
86.674999999999983
 21
80.099999999999966
 31
0.0
  0
LINE
  5
1AD
  8
DATA
  6
CONTINUOUS
 62
     7
 10
82.075000000000017
 20
80.099999999999966
 30
0.0
 11
82.339999999999989
 21
77.679999999999978
 31
0.0
  0
LINE
  5
1AE
  8
DATA
  6
CONTINUOUS
 62
     7
 10
82.339999999999989
 20
77.679999999999978
 30
0.0
 11
82.874999999999986
 21
76.699999999999946
 31
0.0
  0
LINE
  5
1AF
  8
DATA
  6
CONTINUOUS
 62
     7
 10
86.674999999999983
 20
80.099999999999966
 30
0.0
 11
86.409999999999954
 21
77.679999999999978
 31
0.0
  0
LINE
  5
1B0
  8
DATA
  6
CONTINUOUS
 62
     7
 10
86.409999999999954
 20
77.679999999999978
 30
0.0
 11
85.874999999999986
 21
76.699999999999946
 31
0.0
  0
LINE
  5
1B1
  8
DATA
  6
CONTINUOUS
 62
     7
 10
82.320056463048886
 20
83.881008189778655
 30
0.0
 11
86.850172126905065
 21
83.082226572510777
 31
0.0
  0
LINE
  5
1B2
  8
DATA
  6
CONTINUOUS
 62
     7
 10
82.320056463048886
 20
83.881008189778655
 30
0.0
 11
82.158255583781227
 21
81.412915005410113
 31
0.0
  0
LINE
  5
1B3
  8
DATA
  6
CONTINUOUS
 62
     7
 10
82.158255583781227
 20
81.412915005410113
 30
0.0
 11
82.874999999999986
 21
80.099999999999966
 31
0.0
  0
LINE
  5
1B4
  8
DATA
  6
CONTINUOUS
 62
     7
 10
86.850172126905065
 20
83.082226572510777
 30
0.0
 11
86.102361392147813
 21
80.516475073467049
 31
0.0
  0
LINE
  5
1B5
  8
DATA
  6
CONTINUOUS
 62
     7
 10
86.102361392147813
 20
80.516475073467049
 30
0.0
 11
85.874999999999986
 21
80.099999999999966
 31
0.0
  0
LINE
  5
1B6
  8
DATA
  6
CONTINUOUS
 62
     7
 10
102.4114457968461
 20
111.2690061182424
 30
0.0
 11
105.3227401155512
 21
107.7994606548265
 31
0.0
  0
LINE
  5
1B7
  8
DATA
  6
CONTINUOUS
 62
     7
 10
105.0159969034506
 20
113.4544839911766
 30
0.0
 11
107.9728199080087
 21
109.9306795528293
 31
0.0
  0
LINE
  5
1B8
  8
DATA
  6
CONTINUOUS
 62
     7
 10
105.0159969034506
 20
113.4544839911766
 30
0.0
 11
103.33250806766959
 21
111.6959361983087
 31
0.0
  0
LINE
  5
1B9
  8
DATA
  6
CONTINUOUS
 62
     7
 10
103.33250806766959
 20
111.6959361983087
 30
0.0
 11
102.92567588459529
 21
110.6561705637472
 31
0.0
  0
LINE
  5
1BA
  8
DATA
  6
CONTINUOUS
 62
     7
 10
107.9728199080087
 20
109.9306795528293
 30
0.0
 11
105.94865363909381
 21
108.5781353148145
 31
0.0
  0
LINE
  5
1BB
  8
DATA
  6
CONTINUOUS
 62
     7
 10
105.94865363909381
 20
108.5781353148145
 30
0.0
 11
104.8540387136549
 21
108.3580372343903
 31
0.0
  0
LINE
  5
1BC
  8
DATA
  6
CONTINUOUS
 62
     7
 10
107.6205480100551
 20
115.6399618641109
 30
0.0
 11
110.57737101461321
 21
112.1161574257636
 31
0.0
  0
LINE
  5
1BD
  8
DATA
  6
CONTINUOUS
 62
     7
 10
107.6205480100551
 20
115.6399618641109
 30
0.0
 11
105.9370591742742
 21
113.8814140712429
 31
0.0
  0
LINE
  5
1BE
  8
DATA
  6
CONTINUOUS
 62
     7
 10
105.9370591742742
 20
113.8814140712429
 30
0.0
 11
105.5302269911998
 21
112.8416484366814
 31
0.0
  0
LINE
  5
1BF
  8
DATA
  6
CONTINUOUS
 62
     7
 10
110.57737101461321
 20
112.1161574257636
 30
0.0
 11
108.55320474569839
 21
110.7636131877487
 31
0.0
  0
LINE
  5
1C0
  8
DATA
  6
CONTINUOUS
 62
     7
 10
108.55320474569839
 20
110.7636131877487
 30
0.0
 11
107.4585898202595
 21
110.5435151073245
 31
0.0
  0
LINE
  5
1C1
  8
DATA
  6
CONTINUOUS
 62
     7
 10
110.0859678079175
 20
117.68010520870889
 30
0.0
 11
108.5416102808787
 21
116.0668919441772
 31
0.0
  0
LINE
  5
1C2
  8
DATA
  6
CONTINUOUS
 62
     7
 10
108.5416102808787
 20
116.0668919441772
 30
0.0
 11
108.1347780978044
 21
115.0271263096157
 31
0.0
  0
LINE
  5
1C3
  8
DATA
  6
CONTINUOUS
 62
     7
 10
113.0146356527124
 20
114.1898547831594
 30
0.0
 11
111.1577558523029
 21
112.9490910606829
 31
0.0
  0
LINE
  5
1C4
  8
DATA
  6
CONTINUOUS
 62
     7
 10
111.1577558523029
 20
112.9490910606829
 30
0.0
 11
110.06314092686399
 21
112.72899298025879
 31
0.0
  0
LINE
  5
1C5
  8
DATA
  6
CONTINUOUS
 62
     7
 10
110.0859678079175
 20
117.68010520870889
 30
0.0
 11
113.0146356527124
 21
114.1898547831594
 31
0.0
  0
LINE
  5
1C6
  8
DATA
  6
CONTINUOUS
 62
     7
 10
112.601990690676
 20
120.1266592931437
 30
0.0
 11
110.2679404489903
 21
117.4632386599566
 31
0.0
  0
LINE
  5
1C7
  8
DATA
  6
CONTINUOUS
 62
     7
 10
115.8609238717867
 20
116.24281396653051
 30
0.0
 11
112.8326630116396
 21
114.4067213319118
 31
0.0
  0
POLYLINE
  5
1C8
  8
DATA
  6
CONTINUOUS
 62
     7
 66
     1
 10
0.0
 20
0.0
 30
0.0
 70
   129
  0
VERTEX
  5
293
  8
DATA
  6
CONTINUOUS
 62
     7
 10
112.07506931032169
 20
117.87653066150381
 30
0.0
 42
-0.4142135623730921
  0
VERTEX
  5
294
  8
DATA
  6
CONTINUOUS
 62
     7
 10
112.77948533672451
 20
117.8149022447876
 30
0.0
  0
VERTEX
  5
295
  8
DATA
  6
CONTINUOUS
 62
     7
 10
113.615109229317
 20
116.8190444687329
 30
0.0
 42
-0.414213562373101
  0
VERTEX
  5
296
  8
DATA
  6
CONTINUOUS
 62
     7
 10
113.5534808126008
 20
116.1146284423301
 30
0.0
  0
VERTEX
  5
297
  8
DATA
  6
CONTINUOUS
 62
     7
 10
113.5534808126008
 20
116.1146284423301
 30
0.0
 42
-0.4142135623730965
  0
VERTEX
  5
298
  8
DATA
  6
CONTINUOUS
 62
     7
 10
112.849064786198
 20
116.1762568590464
 30
0.0
  0
VERTEX
  5
299
  8
DATA
  6
CONTINUOUS
 62
     7
 10
112.01344089360551
 20
117.172114635101
 30
0.0
  0
VERTEX
  5
29A
  8
DATA
  6
CONTINUOUS
 62
     7
 10
112.01344089360551
 20
117.172114635101
 30
0.0
 42
-0.4142135623730982
  0
VERTEX
  5
29B
  8
DATA
  6
CONTINUOUS
 62
     7
 10
112.07506931032169
 20
117.87653066150381
 30
0.0
  0
SEQEND
  5
29C
  8
DATA
  6
CONTINUOUS
 62
     7
  0
LINE
  5
1D3
  8
DATA
  6
STYLE_05
 62
     7
 10
102.5373792715849
 20
114.8992765316458
 30
0.0
 11
110.1978237027747
 21
121.3271526285112
 31
0.0
  0
LINE
  5
1D4
  8
DATA
  6
STYLE_05
 62
     7
 10
114.7940903614886
 20
125.1838782866304
 30
0.0
 11
135.47729032570101
 21
142.53914374816699
 31
0.0
  0
LINE
  5
1D5
  8
DATA
  6
STYLE_05
 62
     7
 10
108.9652553684503
 20
107.23883210045599
 30
0.0
 11
102.5373792715849
 21
114.8992765316458
 31
0.0
  0
LINE
  5
1D6
  8
DATA
  6
STYLE_05
 62
     7
 10
141.9051664225664
 20
134.87869931697719
 30
0.0
 11
121.221966458354
 21
117.5234338554407
 31
0.0
  0
LINE
  5
1D7
  8
DATA
  6
STYLE_05
 62
     7
 10
116.6256997996401
 20
113.6667081973214
 30
0.0
 11
108.9652553684503
 21
107.23883210045599
 31
0.0
  0
ARC
  5
1D8
  8
DATA
  6
STYLE_05
 62
     7
 10
138.69122837413369
 20
138.70892153257211
 30
0.0
 40
5.0000000000000009
 50
310.0
 51
40.0
  0
ARC
  5
1D9
  8
DATA
  6
STYLE_05
 62
     7
 10
138.69122837413369
 20
138.70892153257211
 30
0.0
 40
4.9999999999999956
 50
40.000000000000007
 51
130.0
  0
LINE
  5
1DA
  8
DATA
  6
CONTINUOUS
 62
     7
 10
110.1978237027747
 20
121.3271526285112
 30
0.0
 11
110.32638122471199
 21
121.17394373988741
 31
0.0
  0
LINE
  5
1DB
  8
DATA
  6
CONTINUOUS
 62
     7
 10
114.7940903614886
 20
125.1838782866304
 30
0.0
 11
114.9226478834259
 21
125.03066939800669
 31
0.0
  0
LINE
  5
1DC
  8
DATA
  6
STYLE_05
 62
     7
 10
110.32638122471199
 20
121.17394373988741
 30
0.0
 11
114.9226478834259
 21
125.03066939800669
 31
0.0
  0
LINE
  5
1DD
  8
DATA
  6
CONTINUOUS
 62
     7
 10
116.6256997996401
 20
113.6667081973214
 30
0.0
 11
116.49714227770281
 21
113.81991708594521
 31
0.0
  0
LINE
  5
1DE
  8
DATA
  6
CONTINUOUS
 62
     7
 10
121.221966458354
 20
117.5234338554407
 30
0.0
 11
121.09340893641669
 21
117.67664274406449
 31
0.0
  0
LINE
  5
1DF
  8
DATA
  6
STYLE_05
 62
     7
 10
116.49714227770281
 20
113.81991708594521
 30
0.0
 11
121.09340893641669
 21
117.67664274406449
 31
0.0
  0
LINE
  5
1E0
  8
DATA
  6
CONTINUOUS
 62
     7
 10
84.260000000000005
 20
-13.69999999999999
 30
0.0
 11
84.489999999999966
 21
-13.69999999999999
 31
0.0
  0
LINE
  5
1E1
  8
DATA
  6
CONTINUOUS
 62
     7
 10
83.950000000000017
 20
-13.259999999999989
 30
0.0
 11
83.950000000000017
 21
-12.50000000000002
 31
0.0
  0
LINE
  5
1E2
  8
DATA
  6
CONTINUOUS
 62
     7
 10
84.799999999999983
 20
-12.50000000000002
 30
0.0
 11
84.799999999999983
 21
-13.259999999999989
 31
0.0
  0
LINE
  5
1E3
  8
DATA
  6
CONTINUOUS
 62
     7
 10
84.260000000000005
 20
-13.69999999999999
 30
0.0
 11
83.950000000000017
 21
-13.259999999999989
 31
0.0
  0
LINE
  5
1E4
  8
DATA
  6
CONTINUOUS
 62
     7
 10
84.489999999999966
 20
-13.69999999999999
 30
0.0
 11
84.799999999999983
 21
-13.259999999999989
 31
0.0
  0
ARC
  5
1E5
  8
DATA
  6
STYLE_05
 62
     7
 10
154.9244091020301
 20
51.06339578937235
 30
0.0
 40
75.361174504258074
 50
131.16167211752551
 51
154.83738685442259
  0
ARC
  5
1E6
  8
DATA
  6
STYLE_05
 62
     7
 10
172.4103468253297
 20
38.72200932182318
 30
0.0
 40
100.7663781567765
 50
133.94944854449119
 51
153.3886414712205
  0
LINE
  5
1E7
  8
DATA
  6
STYLE_05
 62
     7
 10
25.374999999999989
 20
-21.5
 30
0.0
 11
18.374999999999979
 21
-21.5
 31
0.0
  0
LINE
  5
1E8
  8
DATA
  6
STYLE_05
 62
     7
 10
87.874999999999986
 20
-21.5
 30
0.0
 11
80.874999999999986
 21
-21.5
 31
0.0
  0
LINE
  5
1E9
  8
DATA
  6
STYLE_05
 62
     7
 10
18.374999999999979
 20
23.5
 30
0.0
 11
25.374999999999989
 21
23.5
 31
0.0
  0
LINE
  5
1EA
  8
DATA
  6
STYLE_05
 62
     7
 10
80.874999999999986
 20
23.5
 30
0.0
 11
87.874999999999986
 21
23.5
 31
0.0
  0
LINE
  5
1EB
  8
DATA
  6
STYLE_05
 62
     7
 10
18.374999999999979
 20
-21.5
 30
0.0
 11
18.374999999999979
 21
-12.5
 31
0.0
  0
LINE
  5
1EC
  8
DATA
  6
STYLE_05
 62
     7
 10
25.374999999999989
 20
-12.5
 30
0.0
 11
25.374999999999989
 21
-21.5
 31
0.0
  0
LINE
  5
1ED
  8
DATA
  6
STYLE_05
 62
     7
 10
80.874999999999986
 20
-12.5
 30
0.0
 11
80.874999999999986
 21
-21.5
 31
0.0
  0
LINE
  5
1EE
  8
DATA
  6
STYLE_05
 62
     7
 10
87.874999999999986
 20
-12.5
 30
0.0
 11
87.874999999999986
 21
-21.5
 31
0.0
  0
ENDSEC
  0
EOF
