  0
SECTION
  2
HEADER
  9
$ACADVER
  1
AC1009
  9
$INSBASE
 10
0.0
 20
0.0
 30
0.0
  9
$EXTMIN
 10
9.9963383446405487
 20
2.381287252508741
 30
-0.0015258207003583
  9
$EXTMAX
 10
190.00579878222879
 20
270.00824037474621
 30
0.0000000349246037
  9
$LIMMIN
 10
0.0
 20
0.0
  9
$LIMMAX
 10
0.0
 20
0.0
  9
$ORTHOMODE
 70
     0
  9
$REGENMODE
 70
     1
  9
$FILLMODE
 70
     1
  9
$QTEXTMODE
 70
     0
  9
$MIRRTEXT
 70
     1
  9
$DRAGMODE
 70
     2
  9
$LTSCALE
 40
5.0800000000000001
  9
$OSMODE
 70
   231
  9
$ATTMODE
 70
     1
  9
$TEXTSIZE
 40
0.0
  9
$TRACEWID
 40
1.0
  9
$TEXTSTYLE
  7
STANDARD
  9
$CLAYER
  8
DATA
  9
$CELTYPE
  6
BYLAYER
  9
$CECOLOR
 62
   256
  9
$DIMSCALE
 40
1.0
  9
$DIMASZ
 40
0.18
  9
$DIMEXO
 40
0.0625
  9
$DIMDLI
 40
0.38
  9
$DIMRND
 40
0.0
  9
$DIMDLE
 40
0.0
  9
$DIMEXE
 40
0.18
  9
$DIMTP
 40
0.0
  9
$DIMTM
 40
0.0
  9
$DIMTXT
 40
0.18
  9
$DIMCEN
 40
0.09
  9
$DIMTSZ
 40
0.0
  9
$DIMTOL
 70
     0
  9
$DIMLIM
 70
     0
  9
$DIMTIH
 70
     1
  9
$DIMTOH
 70
     1
  9
$DIMSE1
 70
     0
  9
$DIMSE2
 70
     0
  9
$DIMTAD
 70
     0
  9
$DIMZIN
 70
     0
  9
$DIMBLK
  1

  9
$DIMASO
 70
     1
  9
$DIMSHO
 70
     1
  9
$DIMPOST
  1

  9
$DIMAPOST
  1

  9
$DIMALT
 70
     0
  9
$DIMALTD
 70
     2
  9
$DIMALTF
 40
25.399999999999999
  9
$DIMLFAC
 40
1.0
  9
$DIMTOFL
 70
     0
  9
$DIMTVP
 40
0.0
  9
$DIMTIX
 70
     0
  9
$DIMSOXD
 70
     0
  9
$DIMSAH
 70
     0
  9
$DIMBLK1
  1

  9
$DIMBLK2
  1

  9
$DIMSTYLE
  2
STANDARD
  9
$DIMCLRD
 70
     0
  9
$DIMCLRE
 70
     0
  9
$DIMCLRT
 70
     0
  9
$DIMTFAC
 40
1.0
  9
$DIMGAP
 40
0.09
  9
$LUNITS
 70
     2
  9
$LUPREC
 70
     4
  9
$SKETCHINC
 40
0.1
  9
$FILLETRAD
 40
0.0
  9
$AUNITS
 70
     0
  9
$AUPREC
 70
     0
  9
$MENU
  1
acad
  9
$ELEVATION
 40
0.0
  9
$PELEVATION
 40
0.0
  9
$THICKNESS
 40
0.0
  9
$LIMCHECK
 70
     0
  9
$BLIPMODE
 70
     0
  9
$CHAMFERA
 40
0.0
  9
$CHAMFERB
 40
0.0
  9
$SKPOLY
 70
     0
  9
$TDCREATE
 40
2455618.597291667
  9
$TDUPDATE
 40
2455618.6157704978
  9
$TDINDWG
 40
0.0002262269
  9
$TDUSRTIMER
 40
0.0002260532
  9
$USRTIMER
 70
     1
  9
$ANGBASE
 50
0.0
  9
$ANGDIR
 70
     0
  9
$PDMODE
 70
     1
  9
$PDSIZE
 40
-2.0
  9
$PLINEWID
 40
0.0
  9
$COORDS
 70
     1
  9
$SPLFRAME
 70
     0
  9
$SPLINETYPE
 70
     6
  9
$SPLINESEGS
 70
     8
  9
$ATTDIA
 70
     0
  9
$ATTREQ
 70
     1
  9
$HANDLING
 70
     1
  9
$HANDSEED
  5
1A0
  9
$SURFTAB1
 70
     6
  9
$SURFTAB2
 70
     6
  9
$SURFTYPE
 70
     6
  9
$SURFU
 70
     6
  9
$SURFV
 70
     6
  9
$UCSNAME
  2

  9
$UCSORG
 10
0.0
 20
0.0
 30
0.0
  9
$UCSXDIR
 10
1.0
 20
0.0
 30
0.0
  9
$UCSYDIR
 10
0.0
 20
1.0
 30
0.0
  9
$PUCSNAME
  2

  9
$PUCSORG
 10
0.0
 20
0.0
 30
0.0
  9
$PUCSXDIR
 10
1.0
 20
0.0
 30
0.0
  9
$PUCSYDIR
 10
0.0
 20
1.0
 30
0.0
  9
$USERI1
 70
     0
  9
$USERI2
 70
     0
  9
$USERI3
 70
     0
  9
$USERI4
 70
     0
  9
$USERI5
 70
     0
  9
$USERR1
 40
0.0
  9
$USERR2
 40
0.0
  9
$USERR3
 40
0.0
  9
$USERR4
 40
0.0
  9
$USERR5
 40
0.0
  9
$WORLDVIEW
 70
     1
  9
$SHADEDGE
 70
     3
  9
$SHADEDIF
 70
    70
  9
$TILEMODE
 70
     1
  9
$MAXACTVP
 70
    64
  9
$PLIMCHECK
 70
     0
  9
$PEXTMIN
 10
1.0000000000000000E+020
 20
1.0000000000000000E+020
 30
1.0000000000000000E+020
  9
$PEXTMAX
 10
-1.0000000000000000E+020
 20
-1.0000000000000000E+020
 30
-1.0000000000000000E+020
  9
$PLIMMIN
 10
0.0
 20
0.0
  9
$PLIMMAX
 10
12.0
 20
9.0
  9
$UNITMODE
 70
     0
  9
$VISRETAIN
 70
     0
  9
$PLINEGEN
 70
     1
  9
$PSLTSCALE
 70
     0
  0
ENDSEC
  0
SECTION
  2
TABLES
  0
TABLE
  2
VPORT
 70
     1
  0
VPORT
  2
*ACTIVE
 70
     0
 10
0.0
 20
0.0
 11
1.0
 21
1.0
 12
100.0010685634347
 22
136.19476381362739
 13
0.0
 23
0.0
 14
1.0
 24
1.0
 15
0.0
 25
0.0
 16
0.0
 26
0.0
 36
1.0
 17
0.0
 27
0.0
 37
0.0
 40
269.5972128998244
 41
1.961916461916462
 42
50.0
 43
0.0
 44
0.0
 50
0.0
 51
0.0
 71
     0
 72
  2000
 73
     1
 74
     1
 75
     0
 76
     0
 77
     0
 78
     0
  0
ENDTAB
  0
TABLE
  2
LTYPE
 70
    11
  0
LTYPE
  2
CONTINUOUS
 70
     0
  3
Solid line
 72
    65
 73
     0
 40
0.0
  0
ENDTAB
  0
TABLE
  2
LAYER
 70
     5
  0
LAYER
  2
0
 70
     0
 62
     7
  6
CONTINUOUS
  0
LAYER
  2
DATA
 70
     0
 62
     7
  6
CONTINUOUS
  0
LAYER
  2
HIBINO-BASE
 70
     0
 62
     7
  6
CONTINUOUS
  0
LAYER
  2
SPEC
 70
     0
 62
     7
  6
CONTINUOUS
  0
LAYER
  2
DIMNSIONS
 70
     0
 62
     7
  6
CONTINUOUS
  0
ENDTAB
  0
TABLE
  2
STYLE
 70
     3
  0
STYLE
  2
STANDARD
 70
     0
 40
0.0
 41
1.0
 50
0.0
 71
     0
 42
0.0
  3
txt
  4
BIGFONT.SHX
  0
ENDTAB
  0
TABLE
  2
VIEW
 70
     0
  0
ENDTAB
  0
TABLE
  2
UCS
 70
     0
  0
ENDTAB
  0
TABLE
  2
APPID
 70
     3
  0
APPID
  2
ACAD
 70
     0
  0
APPID
  2
ACADANNOTATIVE
 70
     0
  0
APPID
  2
ACAD_MLEADERVER
 70
     0
  0
ENDTAB
  0
TABLE
  2
DIMSTYLE
 70
     2
  0
DIMSTYLE
  2
STANDARD
 70
     0
  3

  4

  5

  6

  7

 40
1.0
 41
0.18
 42
0.0625
 43
0.38
 44
0.18
 45
0.0
 46
0.0
 47
0.0
 48
0.0
140
0.18
141
0.09
142
0.0
143
25.399999999999999
144
1.0
145
0.0
146
1.0
147
0.09
 71
     0
 72
     0
 73
     1
 74
     1
 75
     0
 76
     0
 77
     0
 78
     0
170
     0
171
     2
172
     0
173
     0
174
     0
175
     0
176
     0
177
     0
178
     0
  0
ENDTAB
  0
ENDSEC
  0
SECTION
  2
BLOCKS
  0
BLOCK
  8
0
  2
$MODEL_SPACE
 70
     0
 10
0.0
 20
0.0
 30
0.0
  3
$MODEL_SPACE
  1

  0
ENDBLK
  5
137
  8
0
  0
BLOCK
 67
     1
  8
0
  2
$PAPER_SPACE
 70
     0
 10
0.0
 20
0.0
 30
0.0
  3
$PAPER_SPACE
  1

  0
ENDBLK
  5
133
 67
     1
  8
0
  0
ENDSEC
  0
SECTION
  2
ENTITIES
  0
LINE
  5
2C
  8
HIBINO-BASE
  6
CONTINUOUS
 62
     7
 10
10.0
 20
270.0
 30
0.0
 11
190.0
 21
270.0
 31
0.0
  0
LINE
  5
2D
  8
HIBINO-BASE
  6
CONTINUOUS
 62
     7
 10
190.0
 20
10.0
 30
0.0
 11
10.0
 21
10.0
 31
0.0
  0
LINE
  5
2E
  8
HIBINO-BASE
  6
CONTINUOUS
 62
     7
 10
10.0
 20
10.0
 30
0.0
 11
10.0
 21
270.0
 31
0.0
  0
LINE
  5
2F
  8
HIBINO-BASE
  6
CONTINUOUS
 62
     7
 10
190.0
 20
270.0
 30
0.0
 11
190.0
 21
10.0
 31
0.0
  0
LINE
  5
30
  8
HIBINO-BASE
  6
CONTINUOUS
 62
     7
 10
100.0
 20
32.500000000000007
 30
0.0
 11
190.0
 21
32.500000000000007
 31
0.0
  0
LINE
  5
31
  8
HIBINO-BASE
  6
CONTINUOUS
 62
     7
 10
100.0
 20
10.0
 30
0.0
 11
100.0
 21
32.500000000000007
 31
0.0
  0
TEXT
  5
32
  8
HIBINO-BASE
 62
     7
 10
100.90000000000001
 20
29.991306666666681
 30
0.0
 40
1.6288411458333329
  1
NOTE
 41
0.7
 11
100.90000000000001
 21
31.620147812500011
 31
0.0
 73
     3
  0
LINE
  5
33
  8
HIBINO-BASE
  6
CONTINUOUS
 62
     7
 10
135.0
 20
10.0
 30
0.0
 11
135.0
 21
32.500000000000007
 31
0.0
  0
TEXT
  5
34
  8
HIBINO-BASE
 62
     7
 10
135.89999999999989
 20
29.991306666666681
 30
0.0
 40
1.6288411458333329
  1
TITLE
 41
0.7
 11
135.89999999999989
 21
31.620147812500011
 31
0.0
 73
     3
  0
LINE
  5
35
  8
HIBINO-BASE
  6
CONTINUOUS
 62
     7
 10
100.0
 20
20.000000000000011
 30
0.0
 11
190.0
 21
20.000000000000011
 31
0.0
  0
TEXT
  5
36
  8
HIBINO-BASE
 62
     7
 10
148.39999999999989
 20
17.54762666666667
 30
0.0
 40
1.6288411458333329
  1
DRAWN
 41
0.7
 11
148.39999999999989
 21
19.176467812500011
 31
0.0
 73
     3
  0
TEXT
  5
37
  8
HIBINO-BASE
 62
     7
 10
123.39999999999991
 20
17.54762666666667
 30
0.0
 40
1.6288411458333329
  1
DATE
 41
0.7
 11
123.39999999999991
 21
19.176467812500011
 31
0.0
 73
     3
  0
TEXT
  5
38
  8
HIBINO-BASE
 62
     7
 10
113.40000000000001
 20
17.54762666666667
 30
0.0
 40
1.6288411458333329
  1
SCALE
 41
0.7
 11
113.40000000000001
 21
19.176467812500011
 31
0.0
 73
     3
  0
TEXT
  5
39
  8
HIBINO-BASE
 62
     7
 10
135.89999999999989
 20
17.54762666666667
 30
0.0
 40
1.6288411458333329
  1
DESIGN
 41
0.7
 11
135.89999999999989
 21
19.176467812500011
 31
0.0
 73
     3
  0
TEXT
  5
3A
  8
HIBINO-BASE
 62
     7
 10
173.39999999999989
 20
17.54762666666667
 30
0.0
 40
1.6288411458333329
  1
DRAWING NO.
 41
0.7
 11
173.39999999999989
 21
19.176467812500011
 31
0.0
 73
     3
  0
TEXT
  5
3B
  8
HIBINO-BASE
 62
     7
 10
160.89999999999989
 20
17.54762666666667
 30
0.0
 40
1.6288411458333329
  1
CHECK
 41
0.7
 11
160.89999999999989
 21
19.176467812500011
 31
0.0
 73
     3
  0
LINE
  5
3C
  8
HIBINO-BASE
  6
CONTINUOUS
 62
     7
 10
114.375
 20
11.25
 30
0.0
 11
118.125
 21
15.000000000000011
 31
0.0
  0
TEXT
  5
3D
  8
HIBINO-BASE
 62
     7
 10
113.75
 20
13.891056666666669
 30
0.0
 40
1.6288411458333329
  1
1
 41
0.7
 11
113.75
 21
15.5198978125
 31
0.0
 73
     3
  0
LINE
  5
3E
  8
HIBINO-BASE
  6
CONTINUOUS
 62
     7
 10
112.5
 20
10.0
 30
0.0
 11
112.5
 21
20.000000000000011
 31
0.0
  0
LINE
  5
3F
  8
HIBINO-BASE
  6
CONTINUOUS
 62
     7
 10
122.5
 20
10.0
 30
0.0
 11
122.5
 21
20.000000000000011
 31
0.0
  0
LINE
  5
40
  8
HIBINO-BASE
  6
CONTINUOUS
 62
     7
 10
147.49999999999989
 20
20.000000000000011
 30
0.0
 11
147.49999999999989
 21
10.0
 31
0.0
  0
LINE
  5
41
  8
HIBINO-BASE
  6
CONTINUOUS
 62
     7
 10
172.5
 20
20.000000000000011
 30
0.0
 11
172.5
 21
10.0
 31
0.0
  0
LINE
  5
42
  8
HIBINO-BASE
  6
CONTINUOUS
 62
     7
 10
159.99999999999989
 20
10.0
 30
0.0
 11
159.99999999999989
 21
20.000000000000011
 31
0.0
  0
TEXT
  5
43
  8
HIBINO-BASE
 62
     7
 10
123.35654
 20
12.86364666666667
 30
0.0
 40
1.6288411458333329
  1
'11.02.
 41
0.7
 11
123.35654
 21
14.4924878125
 31
0.0
 73
     3
  0
TEXT
  5
44
  8
HIBINO-BASE
 62
     7
 10
117.5
 20
12.016056666666669
 30
0.0
 40
1.6288411458333329
  1
1
 41
0.7
 11
117.5
 21
13.6448978125
 31
0.0
 73
     3
  0
TEXT
  5
45
  8
HIBINO-BASE
 62
     7
 10
149.00581001103461
 20
12.86364666666667
 30
0.0
 40
1.6288411458333329
  1
T.Ootake
 41
0.7
 11
149.00581001103461
 21
14.4924878125
 31
0.0
 73
     3
  0
TEXT
  5
46
  8
HIBINO-BASE
 62
     7
 10
103.8833333333333
 20
11.97600000000001
 30
0.0
 40
3.2576822916666659
  1
A4
 41
0.7
 11
103.8833333333333
 21
15.23368229166668
 31
0.0
 73
     3
  0
TEXT
  5
47
  8
HIBINO-BASE
 62
     7
 10
100.9583333333333
 20
17.380545000000009
 30
0.0
 40
1.6288411458333329
  1
PAPER SIZE
 41
0.7
 11
100.9583333333333
 21
19.009386145833339
 31
0.0
 73
     3
  0
TEXT
  5
48
  8
HIBINO-BASE
 62
     7
 10
12.75963525689018
 20
3.5747597658237509
 30
0.0
 40
3.5291558159722221
  1
Hibino-Intersound Corporation
 41
0.7
 11
12.75963525689018
 21
7.1039155817959729
 31
0.0
 73
     3
  0
TEXT
  5
49
  8
HIBINO-BASE
 62
     7
 10
120.18060968021391
 20
3.9258480191131699
 30
0.0
 40
3.5291558159722221
  1
ヒビノインターサウンド株式会社
 41
0.7
 11
120.18060968021391
 21
7.4550038350853924
 31
0.0
 73
     3
  0
LINE
  5
4A
  8
SPEC
  6
CONTINUOUS
 62
     7
 10
17.5
 20
260.0
 30
0.0
 11
165.0
 21
260.0
 31
0.0
  0
LINE
  5
4B
  8
SPEC
  6
CONTINUOUS
 62
     7
 10
17.5
 20
256.25
 30
0.0
 11
165.0
 21
256.25
 31
0.0
  0
LINE
  5
4C
  8
SPEC
  6
CONTINUOUS
 62
     7
 10
17.5
 20
252.5
 30
0.0
 11
165.0
 21
252.5
 31
0.0
  0
LINE
  5
4D
  8
SPEC
  6
CONTINUOUS
 62
     7
 10
17.5
 20
260.0
 30
0.0
 11
17.5
 21
252.5
 31
0.0
  0
TEXT
  5
4E
  8
SPEC
 62
     7
 10
18.75
 20
261.39326999999997
 30
0.0
 40
2.4432617187500001
  1
仕様
 41
0.7
 11
18.75
 21
263.83653171875
 31
0.0
 73
     3
  0
LINE
  5
4F
  8
SPEC
  6
CONTINUOUS
 62
     7
 10
50.0
 20
260.0
 30
0.0
 11
50.0
 21
252.5
 31
0.0
  0
LINE
  5
50
  8
SPEC
  6
CONTINUOUS
 62
     7
 10
165.0
 20
260.0
 30
0.0
 11
165.0
 21
252.5
 31
0.0
  0
TEXT
  5
51
  8
SPEC
 62
     7
 10
18.31383829617269
 20
257.25841987222941
 30
0.0
 40
1.900314670138888
  1
寸法
 41
0.7
 11
18.31383829617269
 21
259.15873454236828
 31
0.0
 73
     3
  0
TEXT
  5
52
  8
SPEC
 62
     7
 10
50.626636592352781
 20
257.0403519279198
 30
0.0
 40
1.900314670138888
  1
\U+03A65.8\U+00D75m(突起部含まず）
 41
0.7
 11
50.626636592352781
 21
258.94066659805873
 31
0.0
 73
     3
  0
TEXT
  5
53
  8
SPEC
 62
     7
 10
50.886940841350452
 20
253.5000199062859
 30
0.0
 40
1.900314670138888
  1
約70g
 41
0.7
 11
50.886940841350452
 21
255.4003345764248
 31
0.0
 73
     3
  0
TEXT
  5
54
  8
SPEC
 62
     7
 10
18.36423294736549
 20
253.4575577756863
 30
0.0
 40
1.900314670138888
  1
重量
 41
0.7
 11
18.36423294736549
 21
255.35787244582519
 31
0.0
 73
     3
  0
TEXT
  5
55
  8
DIMNSIONS
 62
     7
 10
79.999999999999986
 20
22.269490000000012
 30
0.0
 40
2.4432617187500001
  1
(単位：mm)
 41
0.7
 11
79.999999999999986
 21
24.71275171875001
 31
0.0
 73
     3
  0
LINE
  5
56
  8
DIMNSIONS
  6
CONTINUOUS
 62
     7
 10
55.10489898732245
 20
45.729898987322457
 30
0.0
 11
59.375
 21
50.0
 31
0.0
  0
LINE
  5
57
  8
DIMNSIONS
  6
CONTINUOUS
 62
     7
 10
55.10489898732245
 20
45.729898987322457
 30
0.0
 11
56.399316472876563
 21
47.97189583850772
 31
0.0
  0
LINE
  5
58
  8
DIMNSIONS
  6
CONTINUOUS
 62
     7
 10
55.10489898732245
 20
45.729898987322457
 30
0.0
 11
57.346895838507727
 21
47.024316472876563
 31
0.0
  0
LINE
  5
59
  8
DIMNSIONS
  6
CONTINUOUS
 62
     7
 10
59.375
 20
50.0
 30
0.0
 11
70.194444444444414
 21
50.0
 31
0.0
  0
TEXT
  5
5A
  8
DIMNSIONS
 62
     7
 10
61.374999999999993
 20
50.993888888888868
 30
0.0
 40
2.7147352430555549
  1
\U+03C65.6
 41
0.7
 11
61.374999999999993
 21
53.708624131944418
 31
0.0
 73
     3
  0
LINE
  5
5B
  8
DIMNSIONS
  6
CONTINUOUS
 62
     7
 10
51.725000000000001
 20
89.400000000000006
 30
0.0
 11
51.725000000000001
 21
89.500000000000014
 31
0.0
  0
LINE
  5
5C
  8
DIMNSIONS
  6
CONTINUOUS
 62
     7
 10
54.524999999999991
 20
89.400000000000006
 30
0.0
 11
54.524999999999991
 21
89.500000000000014
 31
0.0
  0
LINE
  5
5D
  8
DIMNSIONS
  6
CONTINUOUS
 62
     7
 10
54.524999999999991
 20
87.5
 30
0.0
 11
51.725000000000001
 21
87.5
 31
0.0
  0
LINE
  5
5E
  8
DIMNSIONS
  6
CONTINUOUS
 62
     7
 10
51.725000000000001
 20
87.5
 30
0.0
 11
46.725000000000001
 21
87.5
 31
0.0
  0
LINE
  5
5F
  8
DIMNSIONS
  6
CONTINUOUS
 62
     7
 10
51.725000000000001
 20
87.5
 30
0.0
 11
49.224377441406247
 21
86.829960204849741
 31
0.0
  0
LINE
  5
60
  8
DIMNSIONS
  6
CONTINUOUS
 62
     7
 10
51.725000000000001
 20
87.5
 30
0.0
 11
49.224377441406247
 21
88.170039795150245
 31
0.0
  0
LINE
  5
61
  8
DIMNSIONS
  6
CONTINUOUS
 62
     7
 10
54.524999999999991
 20
87.5
 30
0.0
 11
71.319444444444443
 21
87.5
 31
0.0
  0
LINE
  5
62
  8
DIMNSIONS
  6
CONTINUOUS
 62
     7
 10
54.524999999999991
 20
87.5
 30
0.0
 11
57.025622558593739
 21
88.170039795150245
 31
0.0
  0
LINE
  5
63
  8
DIMNSIONS
  6
CONTINUOUS
 62
     7
 10
54.524999999999991
 20
87.5
 30
0.0
 11
57.025622558593739
 21
86.829960204849741
 31
0.0
  0
TEXT
  5
64
  8
DIMNSIONS
 62
     7
 10
62.5
 20
88.493888888888875
 30
0.0
 40
2.7147352430555549
  1
\U+03A62.8
 41
0.7
 11
62.5
 21
91.208624131944447
 31
0.0
 73
     3
  0
ARC
  5
65
  8
DIMNSIONS
  6
CONTINUOUS
 62
     7
 10
67.5
 20
160.625
 30
0.0
 40
30.0
 50
90.0
 51
180.0
  0
LINE
  5
66
  8
DIMNSIONS
  6
CONTINUOUS
 62
     7
 10
123.375
 20
174.72499999999999
 30
0.0
 11
123.375
 21
163.625
 31
0.0
  0
LINE
  5
67
  8
DIMNSIONS
  6
CONTINUOUS
 62
     7
 10
146.875
 20
173.77500000000001
 30
0.0
 11
146.875
 21
163.625
 31
0.0
  0
LINE
  5
68
  8
DIMNSIONS
  6
CONTINUOUS
 62
     7
 10
123.375
 20
165.625
 30
0.0
 11
146.875
 21
165.625
 31
0.0
  0
LINE
  5
69
  8
DIMNSIONS
  6
CONTINUOUS
 62
     7
 10
123.375
 20
165.625
 30
0.0
 11
125.8756225585937
 21
166.29503979515019
 31
0.0
  0
LINE
  5
6A
  8
DIMNSIONS
  6
CONTINUOUS
 62
     7
 10
123.375
 20
165.625
 30
0.0
 11
125.8756225585937
 21
164.9549602048497
 31
0.0
  0
LINE
  5
6B
  8
DIMNSIONS
  6
CONTINUOUS
 62
     7
 10
146.875
 20
165.625
 30
0.0
 11
144.37437744140621
 21
164.9549602048497
 31
0.0
  0
LINE
  5
6C
  8
DIMNSIONS
  6
CONTINUOUS
 62
     7
 10
146.875
 20
165.625
 30
0.0
 11
144.37437744140621
 21
166.29503979515019
 31
0.0
  0
TEXT
  5
6D
  8
DIMNSIONS
 62
     7
 10
131.5972222222222
 20
166.6188888888889
 30
0.0
 40
2.7147352430555549
  1
23.5
 41
0.7
 11
131.5972222222222
 21
169.33362413194439
 31
0.0
 73
     3
  0
LINE
  5
6E
  8
DIMNSIONS
  6
CONTINUOUS
 62
     7
 10
57.124999999999993
 20
56.25
 30
0.0
 11
67.625
 21
56.25
 31
0.0
  0
LINE
  5
6F
  8
DIMNSIONS
  6
CONTINUOUS
 62
     7
 10
57.124999999999993
 20
72.25
 30
0.0
 11
67.625
 21
72.25
 31
0.0
  0
LINE
  5
70
  8
DIMNSIONS
  6
CONTINUOUS
 62
     7
 10
65.625
 20
56.25
 30
0.0
 11
65.625
 21
72.25
 31
0.0
  0
LINE
  5
71
  8
DIMNSIONS
  6
CONTINUOUS
 62
     7
 10
65.625
 20
56.25
 30
0.0
 11
64.954960204849755
 21
58.750622558593747
 31
0.0
  0
LINE
  5
72
  8
DIMNSIONS
  6
CONTINUOUS
 62
     7
 10
65.625
 20
56.25
 30
0.0
 11
66.295039795150245
 21
58.750622558593747
 31
0.0
  0
LINE
  5
73
  8
DIMNSIONS
  6
CONTINUOUS
 62
     7
 10
65.625
 20
72.25
 30
0.0
 11
66.295039795150245
 21
69.749377441406253
 31
0.0
  0
LINE
  5
74
  8
DIMNSIONS
  6
CONTINUOUS
 62
     7
 10
65.625
 20
72.25
 30
0.0
 11
64.954960204849755
 21
69.749377441406253
 31
0.0
  0
TEXT
  5
75
  8
DIMNSIONS
 62
     7
 10
64.63111111111111
 20
62.486111111111107
 30
0.0
 40
2.7147352430555549
  1
16
 50
90.0
 41
0.7
 11
61.91637586805556
 21
62.486111111111107
 31
0.0
 73
     3
  0
LINE
  5
76
  8
DIMNSIONS
  6
CONTINUOUS
 62
     7
 10
140.875
 20
183.02500000000001
 30
0.0
 11
140.875
 21
192.625
 31
0.0
  0
LINE
  5
77
  8
DIMNSIONS
  6
CONTINUOUS
 62
     7
 10
67.5
 20
190.625
 30
0.0
 11
140.875
 21
190.625
 31
0.0
  0
LINE
  5
78
  8
DIMNSIONS
  6
CONTINUOUS
 62
     7
 10
140.875
 20
190.625
 30
0.0
 11
138.37437744140621
 21
189.9549602048497
 31
0.0
  0
LINE
  5
79
  8
DIMNSIONS
  6
CONTINUOUS
 62
     7
 10
140.875
 20
190.625
 30
0.0
 11
138.37437744140621
 21
191.2950397951503
 31
0.0
  0
TEXT
  5
7A
  8
DIMNSIONS
 62
     7
 10
83.732888299486802
 20
191.82883362803429
 30
0.0
 40
2.7147352430555549
  1
5m
 41
0.7
 11
83.732888299486802
 21
194.54356887108989
 31
0.0
 73
     3
  0
LINE
  5
7B
  8
DIMNSIONS
  6
CONTINUOUS
 62
     7
 10
48.325000000000003
 20
62.550000000000011
 30
0.0
 11
35.5
 21
62.550000000000011
 31
0.0
  0
LINE
  5
7C
  8
DIMNSIONS
  6
CONTINUOUS
 62
     7
 10
37.5
 20
62.550000000000011
 30
0.0
 11
37.5
 21
160.625
 31
0.0
  0
LINE
  5
7D
  8
DIMNSIONS
  6
CONTINUOUS
 62
     7
 10
37.5
 20
62.550000000000011
 30
0.0
 11
36.829960204849762
 21
65.050622558593759
 31
0.0
  0
LINE
  5
7E
  8
DIMNSIONS
  6
CONTINUOUS
 62
     7
 10
37.5
 20
62.550000000000011
 30
0.0
 11
38.170039795150252
 21
65.050622558593759
 31
0.0
  0
LINE
  5
7F
  8
DIMNSIONS
  6
CONTINUOUS
 62
     7
 10
160.28838077157951
 20
180.87574112893211
 30
0.0
 11
162.5
 21
187.5
 31
0.0
  0
LINE
  5
80
  8
DIMNSIONS
  6
CONTINUOUS
 62
     7
 10
160.28838077157951
 20
180.87574112893211
 30
0.0
 11
160.4689687702695
 21
183.4582698281651
 31
0.0
  0
LINE
  5
81
  8
DIMNSIONS
  6
CONTINUOUS
 62
     7
 10
160.28838077157951
 20
180.87574112893211
 30
0.0
 11
161.7360389156801
 21
183.02198258912529
 31
0.0
  0
LINE
  5
82
  8
DIMNSIONS
  6
CONTINUOUS
 62
     7
 10
162.5
 20
187.5
 30
0.0
 11
173.3194444444444
 21
187.5
 31
0.0
  0
TEXT
  5
83
  8
DIMNSIONS
 62
     7
 10
164.5
 20
188.49388888888879
 30
0.0
 40
2.7147352430555549
  1
\U+03C65.8
 41
0.7
 11
164.5
 21
191.20862413194439
 31
0.0
 73
     3
  0
TEXT
  5
84
  8
DATA
 62
     7
 10
150.5087345929513
 20
21.085296617322228
 30
0.0
 40
2.4432617187500001
  1
DAO6005-B & DAO6005-W
 41
0.7
 11
150.5087345929513
 21
23.52855833607223
 31
0.0
 73
     3
  0
TEXT
  5
85
  8
DATA
 62
     7
 10
150.5087345929513
 20
28.584700693653179
 30
0.0
 40
2.4432617187500001
  1
DPA
 41
0.7
 11
150.5087345929513
 21
31.027962412403181
 31
0.0
 73
     3
  0
TEXT
  5
86
  8
DATA
 62
     7
 10
147.5254525371484
 20
25.205362407891361
 30
0.0
 40
1.6288437109374989
  1
専用マイクケーブル
 41
0.7
 11
147.5254525371484
 21
26.83420611882886
 31
0.0
 73
     3
  0
TEXT
  5
87
  8
DATA
 62
     7
 10
20.0
 20
14.238
 30
0.0
 40
1.6288411458333329
  1
仕様および外観は予告なく変更されることがありますので、ご了承ください。
 41
0.7
 11
20.0
 21
15.86684114583333
 31
0.0
 73
     3
  0
CIRCLE
  5
88
  8
DATA
  6
CONTINUOUS
 62
     7
 10
53.125
 20
43.75
 30
0.0
 40
2.7999999999999958
  0
CIRCLE
  5
89
  8
DATA
  6
CONTINUOUS
 62
     7
 10
53.125
 20
43.75
 30
0.0
 40
2.0
  0
CIRCLE
  5
8A
  8
DATA
  6
CONTINUOUS
 62
     7
 10
53.125
 20
43.75
 30
0.0
 40
0.3900000000000006
  0
LINE
  5
8B
  8
DATA
  6
CONTINUOUS
 62
     7
 10
52.874999999999993
 20
41.765686516701571
 30
0.0
 11
52.874999999999993
 21
42.678785735718982
 31
0.0
  0
LINE
  5
8C
  8
DATA
  6
CONTINUOUS
 62
     7
 10
52.874999999999993
 20
44.821214264281032
 30
0.0
 11
52.874999999999993
 21
45.734313483298429
 31
0.0
  0
LINE
  5
8D
  8
DATA
  6
CONTINUOUS
 62
     7
 10
53.374999999999993
 20
45.734313483298429
 30
0.0
 11
53.374999999999993
 21
44.821214264281032
 31
0.0
  0
LINE
  5
8E
  8
DATA
  6
CONTINUOUS
 62
     7
 10
53.374999999999993
 20
42.678785735718982
 30
0.0
 11
53.374999999999993
 21
41.765686516701571
 31
0.0
  0
CIRCLE
  5
8F
  8
DATA
  6
CONTINUOUS
 62
     7
 10
53.125
 20
43.75
 30
0.0
 40
1.100000000000001
  0
LINE
  5
90
  8
DATA
  6
CONTINUOUS
 62
     7
 10
53.514999999999993
 20
56.25
 30
0.0
 11
53.514999999999993
 21
53.859999999999957
 31
0.0
  0
LINE
  5
91
  8
DATA
  6
CONTINUOUS
 62
     7
 10
53.259999999999998
 20
53.25
 30
0.0
 11
52.990000000000002
 21
53.25
 31
0.0
  0
LINE
  5
92
  8
DATA
  6
CONTINUOUS
 62
     7
 10
52.734999999999992
 20
53.859999999999992
 30
0.0
 11
52.734999999999992
 21
56.25
 31
0.0
  0
LINE
  5
93
  8
DATA
  6
CONTINUOUS
 62
     7
 10
52.990000000000002
 20
53.25
 30
0.0
 11
52.734999999999992
 21
53.859999999999999
 31
0.0
  0
LINE
  5
94
  8
DATA
  6
CONTINUOUS
 62
     7
 10
53.259999999999998
 20
53.25
 30
0.0
 11
53.515000000000008
 21
53.859999999999999
 31
0.0
  0
LINE
  5
95
  8
DATA
  6
CONTINUOUS
 62
     7
 10
51.124999999999993
 20
56.25
 30
0.0
 11
51.124999999999993
 21
57.550000000000011
 31
0.0
  0
LINE
  5
96
  8
DATA
  6
CONTINUOUS
 62
     7
 10
55.124999999999993
 20
56.25
 30
0.0
 11
51.124999999999993
 21
56.25
 31
0.0
  0
LINE
  5
97
  8
DATA
  6
CONTINUOUS
 62
     7
 10
55.124999999999993
 20
57.550000000000011
 30
0.0
 11
55.124999999999993
 21
56.25
 31
0.0
  0
LINE
  5
98
  8
DATA
  6
CONTINUOUS
 62
     7
 10
50.325000000000003
 20
57.550000000000011
 30
0.0
 11
55.92499999999999
 21
57.550000000000011
 31
0.0
  0
LINE
  5
99
  8
DATA
  6
CONTINUOUS
 62
     7
 10
50.325000000000003
 20
57.550000000000011
 30
0.0
 11
50.325000000000003
 21
68.650000000000006
 31
0.0
  0
LINE
  5
9A
  8
DATA
  6
CONTINUOUS
 62
     7
 10
55.92499999999999
 20
57.550000000000011
 30
0.0
 11
55.92499999999999
 21
68.650000000000034
 31
0.0
  0
LINE
  5
9B
  8
DATA
  6
CONTINUOUS
 62
     7
 10
50.325000000000003
 20
62.550000000000011
 30
0.0
 11
55.92499999999999
 21
62.550000000000011
 31
0.0
  0
LINE
  5
9C
  8
DATA
  6
CONTINUOUS
 62
     7
 10
50.325000000000003
 20
63.350000000000001
 30
0.0
 11
55.92499999999999
 21
63.350000000000001
 31
0.0
  0
LINE
  5
9D
  8
DATA
  6
CONTINUOUS
 62
     7
 10
50.325000000000003
 20
68.650000000000006
 30
0.0
 11
55.92499999999999
 21
68.650000000000006
 31
0.0
  0
LINE
  5
9E
  8
DATA
  6
CONTINUOUS
 62
     7
 10
51.725000000000001
 20
72.25
 30
0.0
 11
51.725000000000001
 21
125.5436468734863
 31
0.0
  0
LINE
  5
9F
  8
DATA
  6
CONTINUOUS
 62
     7
 10
51.725000000000001
 20
126.5436468734863
 30
0.0
 11
51.725000000000001
 21
149.52500000000001
 31
0.0
  0
LINE
  5
A0
  8
DATA
  6
CONTINUOUS
 62
     7
 10
54.524999999999991
 20
146.72499999999999
 30
0.0
 11
54.524999999999991
 21
124.36814057913421
 31
0.0
  0
LINE
  5
A1
  8
DATA
  6
CONTINUOUS
 62
     7
 10
54.524999999999991
 20
123.36814057913421
 30
0.0
 11
54.524999999999991
 21
72.25
 31
0.0
  0
LINE
  5
A2
  8
DATA
  6
CONTINUOUS
 62
     7
 10
123.375
 20
176.72499999999999
 30
0.0
 11
123.375
 21
179.52500000000001
 31
0.0
  0
LINE
  5
A3
  8
DATA
  6
CONTINUOUS
 62
     7
 10
140.875
 20
175.22499999999999
 30
0.0
 11
135.875
 21
175.22499999999999
 31
0.0
  0
LINE
  5
A4
  8
DATA
  6
CONTINUOUS
 62
     7
 10
132.07499999999999
 20
175.22499999999999
 30
0.0
 11
126.675
 21
175.22499999999999
 31
0.0
  0
LINE
  5
A5
  8
DATA
  6
CONTINUOUS
 62
     7
 10
146.875
 20
180.47499999999999
 30
0.0
 11
146.875
 21
175.77500000000001
 31
0.0
  0
LINE
  5
A6
  8
DATA
  6
CONTINUOUS
 62
     7
 10
126.675
 20
181.02500000000001
 30
0.0
 11
132.07499999999999
 21
181.02500000000001
 31
0.0
  0
LINE
  5
A7
  8
DATA
  6
CONTINUOUS
 62
     7
 10
135.875
 20
181.02500000000001
 30
0.0
 11
140.875
 21
181.02500000000001
 31
0.0
  0
CIRCLE
  5
A8
  8
DATA
  6
CONTINUOUS
 62
     7
 10
159.37
 20
178.125
 30
0.0
 40
2.9000000000000048
  0
CIRCLE
  5
A9
  8
DATA
  6
CONTINUOUS
 62
     7
 10
159.37
 20
178.125
 30
0.0
 40
2.2999999999999958
  0
CIRCLE
  5
AA
  8
DATA
  6
CONTINUOUS
 62
     7
 10
159.37
 20
178.125
 30
0.0
 40
0.3900000000000006
  0
LINE
  5
AB
  8
DATA
  6
CONTINUOUS
 62
     7
 10
140.875
 20
181.02500000000001
 30
0.0
 11
140.875
 21
175.22499999999999
 31
0.0
  0
LINE
  5
AC
  8
DATA
  6
CONTINUOUS
 62
     7
 10
146.875
 20
175.77500000000001
 30
0.0
 11
140.875
 21
175.77500000000001
 31
0.0
  0
LINE
  5
AD
  8
DATA
  6
CONTINUOUS
 62
     7
 10
140.875
 20
180.47499999999999
 30
0.0
 11
146.875
 21
180.47499999999999
 31
0.0
  0
LINE
  5
AE
  8
DATA
  6
CONTINUOUS
 62
     7
 10
135.875
 20
181.02500000000001
 30
0.0
 11
135.875
 21
175.22499999999999
 31
0.0
  0
LINE
  5
AF
  8
DATA
  6
CONTINUOUS
 62
     7
 10
141.0111726811781
 20
180.47499999999999
 30
0.0
 11
141.42278164248151
 21
175.77500000000001
 31
0.0
  0
LINE
  5
B0
  8
DATA
  6
CONTINUOUS
 62
     7
 10
141.81117268117811
 20
180.47499999999999
 30
0.0
 11
142.22278164248149
 21
175.77500000000001
 31
0.0
  0
LINE
  5
B1
  8
DATA
  6
CONTINUOUS
 62
     7
 10
142.61117268117809
 20
180.47499999999999
 30
0.0
 11
143.0227816424815
 21
175.77500000000001
 31
0.0
  0
LINE
  5
B2
  8
DATA
  6
CONTINUOUS
 62
     7
 10
143.4111726811781
 20
180.47499999999999
 30
0.0
 11
143.82278164248149
 21
175.77500000000001
 31
0.0
  0
LINE
  5
B3
  8
DATA
  6
CONTINUOUS
 62
     7
 10
144.21117268117811
 20
180.47499999999999
 30
0.0
 11
144.6227816424815
 21
175.77500000000001
 31
0.0
  0
LINE
  5
B4
  8
DATA
  6
CONTINUOUS
 62
     7
 10
145.0111726811781
 20
180.47499999999999
 30
0.0
 11
145.42278164248151
 21
175.77500000000001
 31
0.0
  0
LINE
  5
B5
  8
DATA
  6
CONTINUOUS
 62
     7
 10
145.81117268117811
 20
180.47499999999999
 30
0.0
 11
146.22278164248149
 21
175.77500000000001
 31
0.0
  0
LINE
  5
B6
  8
DATA
  6
CONTINUOUS
 62
     7
 10
146.61117268117809
 20
180.47499999999999
 30
0.0
 11
146.875
 21
177.46246015019631
 31
0.0
  0
LINE
  5
B7
  8
DATA
  6
CONTINUOUS
 62
     7
 10
132.07499999999999
 20
181.02500000000001
 30
0.0
 11
132.07499999999999
 21
175.22499999999999
 31
0.0
  0
LINE
  5
B8
  8
DATA
  6
CONTINUOUS
 62
     7
 10
135.875
 20
176.4249999999999
 30
0.0
 11
132.07499999999999
 21
176.4249999999999
 31
0.0
  0
LINE
  5
B9
  8
DATA
  6
CONTINUOUS
 62
     7
 10
132.07499999999999
 20
179.82499999999999
 30
0.0
 11
135.875
 21
179.82499999999999
 31
0.0
  0
LINE
  5
BA
  8
DATA
  6
CONTINUOUS
 62
     7
 10
131.27500000000001
 20
181.02500000000001
 30
0.0
 11
131.27500000000001
 21
175.22499999999999
 31
0.0
  0
LINE
  5
BB
  8
DATA
  6
CONTINUOUS
 62
     7
 10
123.375
 20
176.72499999999999
 30
0.0
 11
84.524999999999977
 21
176.72499999999999
 31
0.0
  0
LINE
  5
BC
  8
DATA
  6
CONTINUOUS
 62
     7
 10
81.724999999999966
 20
179.52500000000001
 30
0.0
 11
123.375
 21
179.52500000000001
 31
0.0
  0
LINE
  5
BD
  8
DATA
  6
CONTINUOUS
 62
     7
 10
126.675
 20
175.22499999999999
 30
0.0
 11
126.675
 21
181.02500000000001
 31
0.0
  0
LINE
  5
BE
  8
DATA
  6
CONTINUOUS
 62
     7
 10
123.375
 20
179.52500000000001
 30
0.0
 11
126.675
 21
181.02500000000001
 31
0.0
  0
LINE
  5
BF
  8
DATA
  6
CONTINUOUS
 62
     7
 10
126.675
 20
175.22499999999999
 30
0.0
 11
123.375
 21
176.72499999999999
 31
0.0
  0
ARC
  5
C0
  8
DATA
  6
CONTINUOUS
 62
     7
 10
84.524999999999977
 20
146.72499999999999
 30
0.0
 40
30.0
 50
90.0
 51
180.0
  0
ARC
  5
C1
  8
DATA
  6
CONTINUOUS
 62
     7
 10
81.724999999999966
 20
149.52500000000001
 30
0.0
 40
30.0
 50
90.0
 51
180.0
  0
LINE
  5
C2
  8
DATA
  6
CONTINUOUS
 62
     7
 10
55.249999999999993
 20
72.25
 30
0.0
 11
51.000000000000021
 21
72.25
 31
0.0
  0
LINE
  5
C3
  8
DATA
  6
CONTINUOUS
 62
     7
 10
50.325000000000003
 20
68.650000000000006
 30
0.0
 11
51.000000000000007
 21
72.25
 31
0.0
  0
LINE
  5
C4
  8
DATA
  6
CONTINUOUS
 62
     7
 10
55.92499999999999
 20
68.650000000000034
 30
0.0
 11
55.249999999999979
 21
72.25
 31
0.0
  0
ARC
  5
C5
  8
DATA
  6
CONTINUOUS
 62
     7
 10
51.187270014734011
 20
124.5038889935748
 30
0.0
 40
2.1094467866517732
 50
27.269827443099341
 51
152.73017255690061
  0
ARC
  5
C6
  8
DATA
  6
CONTINUOUS
 62
     7
 10
54.937270014734011
 20
126.4369081302783
 30
0.0
 40
2.1094467866517732
 50
207.26982744309939
 51
332.73017255690058
  0
ARC
  5
C7
  8
DATA
  6
CONTINUOUS
 62
     7
 10
51.187270014734011
 20
123.5038889935748
 30
0.0
 40
2.1094467866517732
 50
27.269827443099341
 51
152.73017255690061
  0
ARC
  5
C8
  8
DATA
  6
CONTINUOUS
 62
     7
 10
54.937270014734011
 20
125.4369081302783
 30
0.0
 40
2.1094467866517732
 50
207.26982744309939
 51
332.73017255690058
  0
ENDSEC
  0
EOF
