  0
SECTION
  2
HEADER
  9
$ACADVER
  1
AC1009
  9
$INSBASE
 10
0.0
 20
0.0
 30
0.0
  9
$EXTMIN
 10
-80.010985489947416
 20
-131.67677505465531
 30
-0.0015258207003583
  9
$EXTMAX
 10
280.01098716632811
 20
403.54994963264153
 30
0.0000000349246037
  9
$LIMMIN
 10
0.0
 20
0.0
  9
$LIMMAX
 10
0.0
 20
0.0
  9
$ORTHOMODE
 70
     0
  9
$REGENMODE
 70
     1
  9
$FILLMODE
 70
     1
  9
$QTEXTMODE
 70
     0
  9
$MIRRTEXT
 70
     1
  9
$DRAGMODE
 70
     2
  9
$LTSCALE
 40
10.16
  9
$OSMODE
 70
   231
  9
$ATTMODE
 70
     1
  9
$TEXTSIZE
 40
0.0
  9
$TRACEWID
 40
1.0
  9
$TEXTSTYLE
  7
STANDARD
  9
$CLAYER
  8
DATA
  9
$CELTYPE
  6
BYLAYER
  9
$CECOLOR
 62
   256
  9
$DIMSCALE
 40
1.0
  9
$DIMASZ
 40
0.18
  9
$DIMEXO
 40
0.0625
  9
$DIMDLI
 40
0.38
  9
$DIMRND
 40
0.0
  9
$DIMDLE
 40
0.0
  9
$DIMEXE
 40
0.18
  9
$DIMTP
 40
0.0
  9
$DIMTM
 40
0.0
  9
$DIMTXT
 40
0.18
  9
$DIMCEN
 40
0.09
  9
$DIMTSZ
 40
0.0
  9
$DIMTOL
 70
     0
  9
$DIMLIM
 70
     0
  9
$DIMTIH
 70
     1
  9
$DIMTOH
 70
     1
  9
$DIMSE1
 70
     0
  9
$DIMSE2
 70
     0
  9
$DIMTAD
 70
     0
  9
$DIMZIN
 70
     0
  9
$DIMBLK
  1

  9
$DIMASO
 70
     1
  9
$DIMSHO
 70
     1
  9
$DIMPOST
  1

  9
$DIMAPOST
  1

  9
$DIMALT
 70
     0
  9
$DIMALTD
 70
     2
  9
$DIMALTF
 40
25.399999999999999
  9
$DIMLFAC
 40
1.0
  9
$DIMTOFL
 70
     0
  9
$DIMTVP
 40
0.0
  9
$DIMTIX
 70
     0
  9
$DIMSOXD
 70
     0
  9
$DIMSAH
 70
     0
  9
$DIMBLK1
  1

  9
$DIMBLK2
  1

  9
$DIMSTYLE
  2
STANDARD
  9
$DIMCLRD
 70
     0
  9
$DIMCLRE
 70
     0
  9
$DIMCLRT
 70
     0
  9
$DIMTFAC
 40
1.0
  9
$DIMGAP
 40
0.09
  9
$LUNITS
 70
     2
  9
$LUPREC
 70
     4
  9
$SKETCHINC
 40
0.1
  9
$FILLETRAD
 40
0.0
  9
$AUNITS
 70
     0
  9
$AUPREC
 70
     0
  9
$MENU
  1
acad
  9
$ELEVATION
 40
0.0
  9
$PELEVATION
 40
0.0
  9
$THICKNESS
 40
0.0
  9
$LIMCHECK
 70
     0
  9
$BLIPMODE
 70
     0
  9
$CHAMFERA
 40
0.0
  9
$CHAMFERB
 40
0.0
  9
$SKPOLY
 70
     0
  9
$TDCREATE
 40
2455618.5978356479
  9
$TDUPDATE
 40
2455618.6163515388
  9
$TDINDWG
 40
0.0002256944
  9
$TDUSRTIMER
 40
0.0002256944
  9
$USRTIMER
 70
     1
  9
$ANGBASE
 50
0.0
  9
$ANGDIR
 70
     0
  9
$PDMODE
 70
     1
  9
$PDSIZE
 40
-2.0
  9
$PLINEWID
 40
0.0
  9
$COORDS
 70
     1
  9
$SPLFRAME
 70
     0
  9
$SPLINETYPE
 70
     6
  9
$SPLINESEGS
 70
     8
  9
$ATTDIA
 70
     0
  9
$ATTREQ
 70
     1
  9
$HANDLING
 70
     1
  9
$HANDSEED
  5
260
  9
$SURFTAB1
 70
     6
  9
$SURFTAB2
 70
     6
  9
$SURFTYPE
 70
     6
  9
$SURFU
 70
     6
  9
$SURFV
 70
     6
  9
$UCSNAME
  2

  9
$UCSORG
 10
0.0
 20
0.0
 30
0.0
  9
$UCSXDIR
 10
1.0
 20
0.0
 30
0.0
  9
$UCSYDIR
 10
0.0
 20
1.0
 30
0.0
  9
$PUCSNAME
  2

  9
$PUCSORG
 10
0.0
 20
0.0
 30
0.0
  9
$PUCSXDIR
 10
1.0
 20
0.0
 30
0.0
  9
$PUCSYDIR
 10
0.0
 20
1.0
 30
0.0
  9
$USERI1
 70
     0
  9
$USERI2
 70
     0
  9
$USERI3
 70
     0
  9
$USERI4
 70
     0
  9
$USERI5
 70
     0
  9
$USERR1
 40
0.0
  9
$USERR2
 40
0.0
  9
$USERR3
 40
0.0
  9
$USERR4
 40
0.0
  9
$USERR5
 40
0.0
  9
$WORLDVIEW
 70
     1
  9
$SHADEDGE
 70
     3
  9
$SHADEDIF
 70
    70
  9
$TILEMODE
 70
     1
  9
$MAXACTVP
 70
    64
  9
$PLIMCHECK
 70
     0
  9
$PEXTMIN
 10
1.0000000000000000E+020
 20
1.0000000000000000E+020
 30
1.0000000000000000E+020
  9
$PEXTMAX
 10
-1.0000000000000000E+020
 20
-1.0000000000000000E+020
 30
-1.0000000000000000E+020
  9
$PLIMMIN
 10
0.0
 20
0.0
  9
$PLIMMAX
 10
12.0
 20
9.0
  9
$UNITMODE
 70
     0
  9
$VISRETAIN
 70
     0
  9
$PLINEGEN
 70
     1
  9
$PSLTSCALE
 70
     0
  0
ENDSEC
  0
SECTION
  2
TABLES
  0
TABLE
  2
VPORT
 70
     1
  0
VPORT
  2
*ACTIVE
 70
     0
 10
0.0
 20
0.0
 11
1.0
 21
1.0
 12
100.0000008381904
 22
135.93658728899311
 13
0.0
 23
0.0
 14
1.0
 24
1.0
 15
0.0
 25
0.0
 16
0.0
 26
0.0
 36
1.0
 17
0.0
 27
0.0
 37
0.0
 40
539.16704413284754
 41
1.9619164619164611
 42
50.0
 43
0.0
 44
0.0
 50
0.0
 51
0.0
 71
     0
 72
  2000
 73
     1
 74
     1
 75
     0
 76
     0
 77
     0
 78
     0
  0
ENDTAB
  0
TABLE
  2
LTYPE
 70
    11
  0
LTYPE
  2
CONTINUOUS
 70
     0
  3
Solid line
 72
    65
 73
     0
 40
0.0
  0
ENDTAB
  0
TABLE
  2
LAYER
 70
     5
  0
LAYER
  2
0
 70
     0
 62
     7
  6
CONTINUOUS
  0
LAYER
  2
DATA
 70
     0
 62
     7
  6
CONTINUOUS
  0
LAYER
  2
HIBINO-BASE
 70
     0
 62
     7
  6
CONTINUOUS
  0
LAYER
  2
SPEC
 70
     0
 62
     7
  6
CONTINUOUS
  0
LAYER
  2
DIMNSIONS
 70
     0
 62
     7
  6
CONTINUOUS
  0
ENDTAB
  0
TABLE
  2
STYLE
 70
     3
  0
STYLE
  2
STANDARD
 70
     0
 40
0.0
 41
1.0
 50
0.0
 71
     0
 42
0.0
  3
txt
  4
BIGFONT.SHX
  0
ENDTAB
  0
TABLE
  2
VIEW
 70
     0
  0
ENDTAB
  0
TABLE
  2
UCS
 70
     0
  0
ENDTAB
  0
TABLE
  2
APPID
 70
     3
  0
APPID
  2
ACAD
 70
     0
  0
APPID
  2
ACADANNOTATIVE
 70
     0
  0
APPID
  2
ACAD_MLEADERVER
 70
     0
  0
ENDTAB
  0
TABLE
  2
DIMSTYLE
 70
     2
  0
DIMSTYLE
  2
STANDARD
 70
     0
  3

  4

  5

  6

  7

 40
1.0
 41
0.18
 42
0.0625
 43
0.38
 44
0.18
 45
0.0
 46
0.0
 47
0.0
 48
0.0
140
0.18
141
0.09
142
0.0
143
25.399999999999999
144
1.0
145
0.0
146
1.0
147
0.09
 71
     0
 72
     0
 73
     1
 74
     1
 75
     0
 76
     0
 77
     0
 78
     0
170
     0
171
     2
172
     0
173
     0
174
     0
175
     0
176
     0
177
     0
178
     0
  0
ENDTAB
  0
ENDSEC
  0
SECTION
  2
BLOCKS
  0
BLOCK
  8
0
  2
$MODEL_SPACE
 70
     0
 10
0.0
 20
0.0
 30
0.0
  3
$MODEL_SPACE
  1

  0
ENDBLK
  5
1B6
  8
0
  0
BLOCK
 67
     1
  8
0
  2
$PAPER_SPACE
 70
     0
 10
0.0
 20
0.0
 30
0.0
  3
$PAPER_SPACE
  1

  0
ENDBLK
  5
1B2
 67
     1
  8
0
  0
ENDSEC
  0
SECTION
  2
ENTITIES
  0
LINE
  5
2C
  8
HIBINO-BASE
  6
CONTINUOUS
 62
     7
 10
-79.999999999999986
 20
403.53364789486591
 30
0.0
 11
279.99999999999989
 21
403.53364789486591
 31
0.0
  0
LINE
  5
2D
  8
HIBINO-BASE
  6
CONTINUOUS
 62
     7
 10
279.99999999999989
 20
-116.46635210513411
 30
0.0
 11
-79.999999999999986
 21
-116.46635210513411
 31
0.0
  0
LINE
  5
2E
  8
HIBINO-BASE
  6
CONTINUOUS
 62
     7
 10
-79.999999999999986
 20
-116.46635210513411
 30
0.0
 11
-79.999999999999986
 21
403.53364789486591
 31
0.0
  0
LINE
  5
2F
  8
HIBINO-BASE
  6
CONTINUOUS
 62
     7
 10
279.99999999999989
 20
403.53364789486591
 30
0.0
 11
279.99999999999989
 21
-116.46635210513411
 31
0.0
  0
LINE
  5
30
  8
HIBINO-BASE
  6
CONTINUOUS
 62
     7
 10
100.0
 20
-71.466352105134064
 30
0.0
 11
279.99999999999989
 21
-71.466352105134064
 31
0.0
  0
LINE
  5
31
  8
HIBINO-BASE
  6
CONTINUOUS
 62
     7
 10
100.0
 20
-116.46635210513411
 30
0.0
 11
100.0
 21
-71.466352105134064
 31
0.0
  0
TEXT
  5
32
  8
HIBINO-BASE
 62
     7
 10
101.8
 20
-76.483738771800731
 30
0.0
 40
3.2576822916666659
  1
NOTE
 41
0.7
 11
101.8
 21
-73.226056480134062
 31
0.0
 73
     3
  0
LINE
  5
33
  8
HIBINO-BASE
  6
CONTINUOUS
 62
     7
 10
170.0
 20
-116.46635210513411
 30
0.0
 11
170.0
 21
-71.466352105134064
 31
0.0
  0
TEXT
  5
34
  8
HIBINO-BASE
 62
     7
 10
171.7999999999999
 20
-76.483738771800731
 30
0.0
 40
3.2576822916666659
  1
TITLE
 41
0.7
 11
171.7999999999999
 21
-73.226056480134062
 31
0.0
 73
     3
  0
LINE
  5
35
  8
HIBINO-BASE
  6
CONTINUOUS
 62
     7
 10
100.0
 20
-96.466352105134064
 30
0.0
 11
279.99999999999989
 21
-96.466352105134064
 31
0.0
  0
TEXT
  5
36
  8
HIBINO-BASE
 62
     7
 10
196.80000000000001
 20
-101.3710987718007
 30
0.0
 40
3.2576822916666659
  1
DRAWN
 41
0.7
 11
196.80000000000001
 21
-98.113416480134106
 31
0.0
 73
     3
  0
TEXT
  5
37
  8
HIBINO-BASE
 62
     7
 10
146.7999999999999
 20
-101.3710987718007
 30
0.0
 40
3.2576822916666659
  1
DATE
 41
0.7
 11
146.7999999999999
 21
-98.113416480134106
 31
0.0
 73
     3
  0
TEXT
  5
38
  8
HIBINO-BASE
 62
     7
 10
126.8
 20
-101.3710987718007
 30
0.0
 40
3.2576822916666659
  1
SCALE
 41
0.7
 11
126.8
 21
-98.113416480134106
 31
0.0
 73
     3
  0
TEXT
  5
39
  8
HIBINO-BASE
 62
     7
 10
171.7999999999999
 20
-101.3710987718007
 30
0.0
 40
3.2576822916666659
  1
DESIGN
 41
0.7
 11
171.7999999999999
 21
-98.113416480134106
 31
0.0
 73
     3
  0
TEXT
  5
3A
  8
HIBINO-BASE
 62
     7
 10
246.7999999999999
 20
-101.3710987718007
 30
0.0
 40
3.2576822916666659
  1
DRAWING NO.
 41
0.7
 11
246.7999999999999
 21
-98.113416480134106
 31
0.0
 73
     3
  0
TEXT
  5
3B
  8
HIBINO-BASE
 62
     7
 10
221.7999999999999
 20
-101.3710987718007
 30
0.0
 40
3.2576822916666659
  1
CHECK
 41
0.7
 11
221.7999999999999
 21
-98.113416480134106
 31
0.0
 73
     3
  0
LINE
  5
3C
  8
HIBINO-BASE
  6
CONTINUOUS
 62
     7
 10
128.74999999999989
 20
-113.96635210513411
 30
0.0
 11
136.25
 21
-106.46635210513401
 31
0.0
  0
TEXT
  5
3D
  8
HIBINO-BASE
 62
     7
 10
127.5
 20
-108.68423877180069
 30
0.0
 40
3.2576822916666659
  1
1
 41
0.7
 11
127.5
 21
-105.4265564801341
 31
0.0
 73
     3
  0
LINE
  5
3E
  8
HIBINO-BASE
  6
CONTINUOUS
 62
     7
 10
125.0
 20
-116.46635210513411
 30
0.0
 11
125.0
 21
-96.466352105134064
 31
0.0
  0
LINE
  5
3F
  8
HIBINO-BASE
  6
CONTINUOUS
 62
     7
 10
145.0
 20
-116.46635210513411
 30
0.0
 11
145.0
 21
-96.466352105134064
 31
0.0
  0
LINE
  5
40
  8
HIBINO-BASE
  6
CONTINUOUS
 62
     7
 10
195.0
 20
-96.466352105134064
 30
0.0
 11
195.0
 21
-116.46635210513411
 31
0.0
  0
LINE
  5
41
  8
HIBINO-BASE
  6
CONTINUOUS
 62
     7
 10
245.0
 20
-96.466352105134064
 30
0.0
 11
245.0
 21
-116.46635210513411
 31
0.0
  0
LINE
  5
42
  8
HIBINO-BASE
  6
CONTINUOUS
 62
     7
 10
220.0
 20
-116.46635210513411
 30
0.0
 11
220.0
 21
-96.466352105134064
 31
0.0
  0
TEXT
  5
43
  8
HIBINO-BASE
 62
     7
 10
146.71307999999999
 20
-110.7390587718007
 30
0.0
 40
3.2576822916666659
  1
'11.02.
 41
0.7
 11
146.71307999999999
 21
-107.4813764801341
 31
0.0
 73
     3
  0
TEXT
  5
44
  8
HIBINO-BASE
 62
     7
 10
135.0
 20
-112.43423877180069
 30
0.0
 40
3.2576822916666659
  1
2
 41
0.7
 11
135.0
 21
-109.1765564801341
 31
0.0
 73
     3
  0
TEXT
  5
45
  8
HIBINO-BASE
 62
     7
 10
198.0116200220692
 20
-110.7390587718007
 30
0.0
 40
3.2576822916666659
  1
T.Ootake
 41
0.7
 11
198.0116200220692
 21
-107.4813764801341
 31
0.0
 73
     3
  0
TEXT
  5
46
  8
HIBINO-BASE
 62
     7
 10
107.76666666666659
 20
-112.51435210513399
 30
0.0
 40
6.5153645833333318
  1
A4
 41
0.7
 11
107.76666666666659
 21
-105.9989875218007
 31
0.0
 73
     3
  0
TEXT
  5
47
  8
HIBINO-BASE
 62
     7
 10
101.9166666666666
 20
-101.7052621051341
 30
0.0
 40
3.2576822916666659
  1
PAPER SIZE
 41
0.7
 11
101.9166666666666
 21
-98.447579813467414
 31
0.0
 73
     3
  0
TEXT
  5
48
  8
HIBINO-BASE
 62
     7
 10
-74.48072948621963
 20
-129.31683257348661
 30
0.0
 40
7.0583116319444441
  1
Hibino-Intersound Corporation
 41
0.7
 11
-74.48072948621963
 21
-122.2585209415421
 31
0.0
 73
     3
  0
TEXT
  5
49
  8
HIBINO-BASE
 62
     7
 10
140.36121936042781
 20
-128.61465606690771
 30
0.0
 40
7.0583116319444441
  1
ヒビノインターサウンド株式会社
 41
0.7
 11
140.36121936042781
 21
-121.55634443496329
 31
0.0
 73
     3
  0
LINE
  5
4A
  8
SPEC
  6
CONTINUOUS
 62
     7
 10
-64.999999999999986
 20
383.53364789486602
 30
0.0
 11
230.0
 21
383.53364789486602
 31
0.0
  0
LINE
  5
4B
  8
SPEC
  6
CONTINUOUS
 62
     7
 10
-64.999999999999986
 20
376.03364789486591
 30
0.0
 11
230.0
 21
376.03364789486591
 31
0.0
  0
LINE
  5
4C
  8
SPEC
  6
CONTINUOUS
 62
     7
 10
-64.999999999999986
 20
361.03364789486602
 30
0.0
 11
230.0
 21
361.03364789486602
 31
0.0
  0
LINE
  5
4D
  8
SPEC
  6
CONTINUOUS
 62
     7
 10
-64.999999999999986
 20
368.53364789486602
 30
0.0
 11
230.0
 21
368.53364789486602
 31
0.0
  0
LINE
  5
4E
  8
SPEC
  6
CONTINUOUS
 62
     7
 10
-64.999999999999986
 20
383.53364789486602
 30
0.0
 11
-64.999999999999986
 21
308.53364789486602
 31
0.0
  0
TEXT
  5
4F
  8
SPEC
 62
     7
 10
-62.5
 20
386.32018789486591
 30
0.0
 40
4.8865234375000002
  1
仕様
 41
0.7
 11
-62.5
 21
391.2067113323659
 31
0.0
 73
     3
  0
LINE
  5
50
  8
SPEC
  6
CONTINUOUS
 62
     7
 10
30.0
 20
383.53364789486602
 30
0.0
 11
29.999999999999989
 21
308.53364789486602
 31
0.0
  0
LINE
  5
51
  8
SPEC
  6
CONTINUOUS
 62
     7
 10
230.0
 20
383.53364789486602
 30
0.0
 11
230.0
 21
308.53364789486602
 31
0.0
  0
LINE
  5
52
  8
SPEC
  6
CONTINUOUS
 62
     7
 10
-64.999999999999986
 20
353.53364789486602
 30
0.0
 11
230.0
 21
353.53364789486602
 31
0.0
  0
LINE
  5
53
  8
SPEC
  6
CONTINUOUS
 62
     7
 10
-64.999999999999986
 20
346.03364789486602
 30
0.0
 11
230.0
 21
346.03364789486602
 31
0.0
  0
LINE
  5
54
  8
SPEC
  6
CONTINUOUS
 62
     7
 10
-64.999999999999986
 20
338.53364789486591
 30
0.0
 11
230.0
 21
338.53364789486591
 31
0.0
  0
LINE
  5
55
  8
SPEC
  6
CONTINUOUS
 62
     7
 10
-64.999999999999986
 20
331.03364789486602
 30
0.0
 11
230.0
 21
331.03364789486602
 31
0.0
  0
LINE
  5
56
  8
SPEC
  6
CONTINUOUS
 62
     7
 10
-64.999999999999986
 20
323.53364789486602
 30
0.0
 11
230.0
 21
323.53364789486602
 31
0.0
  0
LINE
  5
57
  8
SPEC
  6
CONTINUOUS
 62
     7
 10
-64.999999999999986
 20
316.03364789486602
 30
0.0
 11
230.0
 21
316.03364789486602
 31
0.0
  0
LINE
  5
58
  8
SPEC
  6
CONTINUOUS
 62
     7
 10
-64.999999999999986
 20
308.53364789486602
 30
0.0
 11
230.0
 21
308.53364789486602
 31
0.0
  0
TEXT
  5
59
  8
SPEC
 62
     7
 10
-63.140996230177571
 20
310.76445016922059
 30
0.0
 40
3.8006293402777769
  1
使用湿度範囲
 41
0.7
 11
-63.140996230177571
 21
314.56507950949839
 31
0.0
 73
     3
  0
TEXT
  5
5A
  8
SPEC
 62
     7
 10
31.798340608898979
 20
310.63347945938523
 30
0.0
 40
3.8006293402777769
  1
90%%%以下
 41
0.7
 11
31.798340608898979
 21
314.43410879966302
 31
0.0
 73
     3
  0
TEXT
  5
5B
  8
SPEC
 62
     7
 10
-63.201846946011102
 20
318.1652590314672
 30
0.0
 40
3.8006293402777769
  1
使用温度範囲
 41
0.7
 11
-63.201846946011102
 21
321.965888371745
 31
0.0
 73
     3
  0
TEXT
  5
5C
  8
SPEC
 62
     7
 10
31.936416528764191
 20
318.04099508164057
 30
0.0
 40
3.8006293402777769
  1
-40℃～45℃
 41
0.7
 11
31.936416528764191
 21
321.84162442191843
 31
0.0
 73
     3
  0
TEXT
  5
5D
  8
SPEC
 62
     7
 10
-63.3581204052863
 20
325.46693606018368
 30
0.0
 40
3.8006293402777769
  1
寸法
 41
0.7
 11
-63.3581204052863
 21
329.26756540046148
 31
0.0
 73
     3
  0
TEXT
  5
5E
  8
SPEC
 62
     7
 10
31.314737894628269
 20
325.40105458226088
 30
0.0
 40
3.8006293402777769
  1
\U+03A619\U+00D723mm(突起は含まず）
 41
0.7
 11
31.314737894628269
 21
329.20168392253868
 31
0.0
 73
     3
  0
TEXT
  5
5F
  8
SPEC
 62
     7
 10
-63.347308736345212
 20
333.0825645687176
 30
0.0
 40
3.8006293402777769
  1
重量
 41
0.7
 11
-63.347308736345212
 21
336.88319390899528
 31
0.0
 73
     3
  0
TEXT
  5
60
  8
SPEC
 62
     7
 10
31.721059482326869
 20
332.99453263740259
 30
0.0
 40
3.8006293402777769
  1
約20g
 41
0.7
 11
31.721059482326869
 21
336.79516197768038
 31
0.0
 73
     3
  0
TEXT
  5
61
  8
SPEC
 62
     7
 10
-63.190767070872553
 20
340.50855067863472
 30
0.0
 40
3.8006293402777769
  1
色
 41
0.7
 11
-63.190767070872553
 21
344.30918001891251
 31
0.0
 73
     3
  0
TEXT
  5
62
  8
SPEC
 62
     7
 10
31.56644319327232
 20
340.56483563798201
 30
0.0
 40
3.8006293402777769
  1
マットブラック
 41
0.7
 11
31.56644319327232
 21
344.36546497825969
 31
0.0
 73
     3
  0
TEXT
  5
63
  8
SPEC
 62
     7
 10
-63.311808779328928
 20
348.00855067863472
 30
0.0
 40
3.8006293402777769
  1
等価雑音レベル(Aウェイト、代表値)
 41
0.7
 11
-63.311808779328928
 21
351.80918001891251
 31
0.0
 73
     3
  0
TEXT
  5
64
  8
SPEC
 62
     7
 10
31.558564197328231
 20
347.85392663624378
 30
0.0
 40
3.8006293402777769
  1
18dB SPL
 41
0.7
 11
31.558564197328231
 21
351.65455597652158
 31
0.0
 73
     3
  0
TEXT
  5
65
  8
SPEC
 62
     7
 10
-63.266873155618107
 20
355.43365647533619
 30
0.0
 40
3.8006293402777769
  1
感度(\U+00B12dB@250Hz、公称値）
 41
0.7
 11
-63.266873155618107
 21
359.23428581561387
 31
0.0
 73
     3
  0
TEXT
  5
66
  8
SPEC
 62
     7
 10
31.928551128053432
 20
355.35496422370102
 30
0.0
 40
3.8006293402777769
  1
-40dB re、1V/Pa
 41
0.7
 11
31.928551128053432
 21
359.1555935639787
 31
0.0
 73
     3
  0
TEXT
  5
67
  8
SPEC
 62
     7
 10
-63.347351253828982
 20
362.98886065055109
 30
0.0
 40
3.8006293402777769
  1
周波数レンジ(\U+00B12dB)
 41
0.7
 11
-63.347351253828982
 21
366.789489990829
 31
0.0
 73
     3
  0
TEXT
  5
68
  8
SPEC
 62
     7
 10
31.893521006000739
 20
362.78278745936768
 30
0.0
 40
3.8006293402777769
  1
40Hz～20kHz
 41
0.7
 11
31.893521006000739
 21
366.58341679964548
 31
0.0
 73
     3
  0
TEXT
  5
69
  8
SPEC
 62
     7
 10
-63.593321779192948
 20
370.39194697141448
 30
0.0
 40
3.8006293402777769
  1
カートリッジ
 41
0.7
 11
-63.593321779192948
 21
374.19257631169228
 31
0.0
 73
     3
  0
TEXT
  5
6A
  8
SPEC
 62
     7
 10
31.236805407086209
 20
370.42367108091543
 30
0.0
 40
3.8006293402777769
  1
プリポラライズド・コンデンサー
 41
0.7
 11
31.236805407086209
 21
374.22430042119322
 31
0.0
 73
     3
  0
TEXT
  5
6B
  8
SPEC
 62
     7
 10
-63.301196395546768
 20
377.76087824959541
 30
0.0
 40
3.8006293402777769
  1
指向性
 41
0.7
 11
-63.301196395546768
 21
381.56150758987332
 31
0.0
 73
     3
  0
TEXT
  5
6C
  8
SPEC
 62
     7
 10
31.780607437823122
 20
377.62225689003913
 30
0.0
 40
3.8006293402777769
  1
単一指向性
 41
0.7
 11
31.780607437823122
 21
381.42288623031692
 31
0.0
 73
     3
  0
TEXT
  5
6D
  8
DIMNSIONS
 62
     7
 10
60.0
 20
-91.927372105134054
 30
0.0
 40
4.8865234375000002
  1
(単位：mm)
 41
0.7
 11
60.0
 21
-87.040848667634066
 31
0.0
 73
     3
  0
LINE
  5
6E
  8
DIMNSIONS
  6
CONTINUOUS
 62
     7
 10
31.82001037461783
 20
144.23994333011501
 30
0.0
 11
43.75
 21
156.25
 31
0.0
  0
LINE
  5
6F
  8
DIMNSIONS
  6
CONTINUOUS
 62
     7
 10
31.82001037461783
 20
144.23994333011501
 30
0.0
 11
34.40884534572605
 21
148.72393703248551
 31
0.0
  0
LINE
  5
70
  8
DIMNSIONS
  6
CONTINUOUS
 62
     7
 10
31.82001037461783
 20
144.23994333011501
 30
0.0
 11
36.30400407698837
 21
146.8287783012232
 31
0.0
  0
LINE
  5
71
  8
DIMNSIONS
  6
CONTINUOUS
 62
     7
 10
43.75
 20
156.25
 30
0.0
 11
61.861111111111107
 21
156.25
 31
0.0
  0
TEXT
  5
72
  8
DIMNSIONS
 62
     7
 10
47.75
 20
158.23777777777769
 30
0.0
 40
5.4294704861111107
  1
\U+03C619
 41
0.7
 11
47.75
 21
163.66724826388881
 31
0.0
 73
     3
  0
LINE
  5
73
  8
DIMNSIONS
  6
CONTINUOUS
 62
     7
 10
11.62500000037776
 20
84.375000000322217
 30
0.0
 11
-13.374999999622229
 21
84.375000000322217
 31
0.0
  0
LINE
  5
74
  8
DIMNSIONS
  6
CONTINUOUS
 62
     7
 10
11.62500000037776
 20
107.3750000003222
 30
0.0
 11
-13.374999999622229
 21
107.3750000003222
 31
0.0
  0
LINE
  5
75
  8
DIMNSIONS
  6
CONTINUOUS
 62
     7
 10
-9.3749999996222328
 20
84.375000000322217
 30
0.0
 11
-9.3749999996222328
 21
107.3750000003222
 31
0.0
  0
LINE
  5
76
  8
DIMNSIONS
  6
CONTINUOUS
 62
     7
 10
-9.3749999996222328
 20
84.375000000322217
 30
0.0
 11
-10.71507958992272
 21
89.376245117509725
 31
0.0
  0
LINE
  5
77
  8
DIMNSIONS
  6
CONTINUOUS
 62
     7
 10
-9.3749999996222328
 20
84.375000000322217
 30
0.0
 11
-8.0349204093217423
 21
89.376245117509725
 31
0.0
  0
LINE
  5
78
  8
DIMNSIONS
  6
CONTINUOUS
 62
     7
 10
-9.3749999996222328
 20
107.3750000003222
 30
0.0
 11
-8.0349204093217423
 21
102.37375488313469
 31
0.0
  0
LINE
  5
79
  8
DIMNSIONS
  6
CONTINUOUS
 62
     7
 10
-9.3749999996222328
 20
107.3750000003222
 30
0.0
 11
-10.71507958992272
 21
102.37375488313469
 31
0.0
  0
TEXT
  5
7A
  8
DIMNSIONS
 62
     7
 10
-11.3627777774
 20
92.347222222544445
 30
0.0
 40
5.4294704861111107
  1
23
 50
90.0
 41
0.7
 11
-16.792248263511109
 21
92.347222222544445
 31
0.0
 73
     3
  0
TEXT
  5
7B
  8
DATA
 62
     7
 10
200.0
 20
-94.216803476723214
 30
0.0
 40
4.8865234375000002
  1
MMC4011
 41
0.7
 11
200.0
 21
-89.330280039223226
 31
0.0
 73
     3
  0
TEXT
  5
7C
  8
DATA
 62
     7
 10
200.0
 20
-78.634103186773984
 30
0.0
 40
4.8865234375000002
  1
DPA
 41
0.7
 11
200.0
 21
-73.747579749273982
 31
0.0
 73
     3
  0
TEXT
  5
7D
  8
DATA
 62
     7
 10
193.91953066445441
 20
-85.833993932429095
 30
0.0
 40
3.257687421875
  1
単一指向性カプセル
 41
0.7
 11
193.91953066445441
 21
-82.57630651055409
 31
0.0
 73
     3
  0
TEXT
  5
7E
  8
DATA
 62
     7
 10
-60.0
 20
-107.99035210513409
 30
0.0
 40
3.2576822916666659
  1
仕様および外観は予告なく変更されることがありますので、ご了承ください。
 41
0.7
 11
-60.0
 21
-104.7326698134674
 31
0.0
 73
     3
  0
CIRCLE
  5
7F
  8
DATA
  6
CONTINUOUS
 62
     7
 10
25.125000000377771
 20
137.50000000032219
 30
0.0
 40
3.8000000000000109
  0
ARC
  5
80
  8
DATA
  6
CONTINUOUS
 62
     7
 10
25.125000000377771
 20
137.50000000032219
 30
0.0
 40
9.5000000000000089
 50
90.000000000007745
 51
109.9999999999999
  0
ARC
  5
81
  8
DATA
  6
CONTINUOUS
 62
     7
 10
25.125000000377771
 20
137.50000000032219
 30
0.0
 40
9.5000000000000089
 50
129.9999999999998
 51
149.99999999999969
  0
ARC
  5
82
  8
DATA
  6
CONTINUOUS
 62
     7
 10
25.125000000377771
 20
137.50000000032219
 30
0.0
 40
9.5000000000000142
 50
169.9999999999996
 51
189.99999999999949
  0
ARC
  5
83
  8
DATA
  6
CONTINUOUS
 62
     7
 10
25.125000000377771
 20
137.50000000032219
 30
0.0
 40
9.5000000000000036
 50
209.9999999999994
 51
229.9999999999994
  0
ARC
  5
84
  8
DATA
  6
CONTINUOUS
 62
     7
 10
25.125000000377771
 20
137.50000000032219
 30
0.0
 40
9.5000000000000036
 50
249.9999999999996
 51
270.00000000000767
  0
ARC
  5
85
  8
DATA
  6
CONTINUOUS
 62
     7
 10
25.125000000377771
 20
137.50000000032219
 30
0.0
 40
9.5000000000000089
 50
289.99999999999972
 51
309.9999999999996
  0
ARC
  5
86
  8
DATA
  6
CONTINUOUS
 62
     7
 10
25.125000000377771
 20
137.50000000032219
 30
0.0
 40
9.5000000000000142
 50
329.99999999999972
 51
349.99999999999977
  0
ARC
  5
87
  8
DATA
  6
CONTINUOUS
 62
     7
 10
25.125000000377771
 20
137.50000000032219
 30
0.0
 40
9.5
 50
9.9999999999998863
 51
29.999999999999911
  0
ARC
  5
88
  8
DATA
  6
CONTINUOUS
 62
     7
 10
25.125000000377771
 20
137.50000000032219
 30
0.0
 40
9.5
 50
50.000000000000021
 51
69.999999999999986
  0
LINE
  5
89
  8
DATA
  6
CONTINUOUS
 62
     7
 10
15.625000000377771
 20
84.375000000322217
 30
0.0
 11
34.625000000377767
 21
84.375000000322217
 31
0.0
  0
LINE
  5
8A
  8
DATA
  6
CONTINUOUS
 62
     7
 10
15.625000000377771
 20
107.1750000003222
 30
0.0
 11
16.375000000377771
 21
107.1750000003222
 31
0.0
  0
LINE
  5
8B
  8
DATA
  6
CONTINUOUS
 62
     7
 10
17.075000000377791
 20
107.1750000003222
 30
0.0
 11
17.775000000377769
 21
107.1750000003222
 31
0.0
  0
LINE
  5
8C
  8
DATA
  6
CONTINUOUS
 62
     7
 10
18.475000000377769
 20
107.1750000003222
 30
0.0
 11
19.175000000377771
 21
107.1750000003222
 31
0.0
  0
LINE
  5
8D
  8
DATA
  6
CONTINUOUS
 62
     7
 10
19.87500000037776
 20
107.1750000003222
 30
0.0
 11
20.575000000377791
 21
107.1750000003222
 31
0.0
  0
LINE
  5
8E
  8
DATA
  6
CONTINUOUS
 62
     7
 10
21.275000000377769
 20
107.1750000003222
 30
0.0
 11
21.975000000377779
 21
107.1750000003222
 31
0.0
  0
LINE
  5
8F
  8
DATA
  6
CONTINUOUS
 62
     7
 10
22.675000000377771
 20
107.1750000003222
 30
0.0
 11
23.375000000377771
 21
107.1750000003222
 31
0.0
  0
LINE
  5
90
  8
DATA
  6
CONTINUOUS
 62
     7
 10
24.075000000377781
 20
107.1750000003222
 30
0.0
 11
24.775000000377769
 21
107.1750000003222
 31
0.0
  0
LINE
  5
91
  8
DATA
  6
CONTINUOUS
 62
     7
 10
25.475000000377779
 20
107.1750000003222
 30
0.0
 11
26.175000000377771
 21
107.1750000003222
 31
0.0
  0
LINE
  5
92
  8
DATA
  6
CONTINUOUS
 62
     7
 10
26.875000000377771
 20
107.1750000003222
 30
0.0
 11
27.575000000377781
 21
107.1750000003222
 31
0.0
  0
LINE
  5
93
  8
DATA
  6
CONTINUOUS
 62
     7
 10
28.275000000377769
 20
107.1750000003222
 30
0.0
 11
28.975000000377761
 21
107.1750000003222
 31
0.0
  0
LINE
  5
94
  8
DATA
  6
CONTINUOUS
 62
     7
 10
29.675000000377779
 20
107.1750000003222
 30
0.0
 11
30.375000000377771
 21
107.1750000003222
 31
0.0
  0
LINE
  5
95
  8
DATA
  6
CONTINUOUS
 62
     7
 10
31.075000000377791
 20
107.1750000003222
 30
0.0
 11
31.775000000377769
 21
107.1750000003222
 31
0.0
  0
LINE
  5
96
  8
DATA
  6
CONTINUOUS
 62
     7
 10
32.47500000037779
 20
107.1750000003222
 30
0.0
 11
33.175000000377771
 21
107.1750000003222
 31
0.0
  0
LINE
  5
97
  8
DATA
  6
CONTINUOUS
 62
     7
 10
33.875000000377767
 20
107.1750000003222
 30
0.0
 11
34.625000000377767
 21
107.1750000003222
 31
0.0
  0
LINE
  5
98
  8
DATA
  6
CONTINUOUS
 62
     7
 10
15.625000000377771
 20
84.375000000322217
 30
0.0
 11
15.625000000377771
 21
107.3750000003222
 31
0.0
  0
LINE
  5
99
  8
DATA
  6
CONTINUOUS
 62
     7
 10
34.625000000377767
 20
84.375000000322217
 30
0.0
 11
34.625000000377767
 21
107.3750000003222
 31
0.0
  0
CIRCLE
  5
9A
  8
DATA
  6
CONTINUOUS
 62
     7
 10
25.125000000377771
 20
137.50000000032219
 30
0.0
 40
1.0
  0
LINE
  5
9B
  8
DATA
  6
CONTINUOUS
 62
     7
 10
15.625000000377771
 20
99.375000000322231
 30
0.0
 11
34.625000000377767
 21
99.375000000322231
 31
0.0
  0
LINE
  5
9C
  8
DATA
  6
CONTINUOUS
 62
     7
 10
15.625000000377771
 20
84.675000000322242
 30
0.0
 11
34.625000000377767
 21
84.675000000322242
 31
0.0
  0
TEXT
  5
9D
  8
DATA
 62
     7
 10
22.40277777815556
 20
101.4623888892111
 30
0.0
 40
1.900314670138888
  1
4011
 41
0.7
 11
22.40277777815556
 21
103.36270355935
 31
0.0
 73
     3
  0
POLYLINE
  5
9E
  8
DATA
  6
CONTINUOUS
 62
     7
 66
     1
 10
0.0
 20
0.0
 30
0.0
 70
     1
  0
VERTEX
  5
1E2
  8
DATA
  6
CONTINUOUS
 62
     7
 10
24.775000000377769
 20
98.875000000322245
 30
0.0
  0
VERTEX
  5
1E3
  8
DATA
  6
CONTINUOUS
 62
     7
 10
25.475000000377779
 20
98.875000000322245
 30
0.0
  0
VERTEX
  5
1E4
  8
DATA
  6
CONTINUOUS
 62
     7
 10
25.475000000377779
 20
91.875000000322231
 30
0.0
  0
VERTEX
  5
1E5
  8
DATA
  6
CONTINUOUS
 62
     7
 10
24.775000000377769
 20
91.875000000322231
 30
0.0
  0
SEQEND
  5
1E6
  8
DATA
  6
CONTINUOUS
 62
     7
  0
POLYLINE
  5
A5
  8
DATA
  6
CONTINUOUS
 62
     7
 66
     1
 10
0.0
 20
0.0
 30
0.0
 70
     1
  0
VERTEX
  5
1E7
  8
DATA
  6
CONTINUOUS
 62
     7
 10
26.175000000377771
 20
98.875000000322245
 30
0.0
  0
VERTEX
  5
1E8
  8
DATA
  6
CONTINUOUS
 62
     7
 10
26.875000000377771
 20
98.875000000322245
 30
0.0
  0
VERTEX
  5
1E9
  8
DATA
  6
CONTINUOUS
 62
     7
 10
26.875000000377771
 20
91.875000000322231
 30
0.0
  0
VERTEX
  5
1EA
  8
DATA
  6
CONTINUOUS
 62
     7
 10
26.175000000377771
 20
91.875000000322231
 30
0.0
  0
SEQEND
  5
1EB
  8
DATA
  6
CONTINUOUS
 62
     7
  0
POLYLINE
  5
AC
  8
DATA
  6
CONTINUOUS
 62
     7
 66
     1
 10
0.0
 20
0.0
 30
0.0
 70
     1
  0
VERTEX
  5
1EC
  8
DATA
  6
CONTINUOUS
 62
     7
 10
27.575000000377781
 20
98.875000000322245
 30
0.0
  0
VERTEX
  5
1ED
  8
DATA
  6
CONTINUOUS
 62
     7
 10
28.275000000377769
 20
98.875000000322245
 30
0.0
  0
VERTEX
  5
1EE
  8
DATA
  6
CONTINUOUS
 62
     7
 10
28.275000000377769
 20
91.875000000322231
 30
0.0
  0
VERTEX
  5
1EF
  8
DATA
  6
CONTINUOUS
 62
     7
 10
27.575000000377781
 20
91.875000000322231
 30
0.0
  0
SEQEND
  5
1F0
  8
DATA
  6
CONTINUOUS
 62
     7
  0
POLYLINE
  5
B3
  8
DATA
  6
CONTINUOUS
 62
     7
 66
     1
 10
0.0
 20
0.0
 30
0.0
 70
     1
  0
VERTEX
  5
1F1
  8
DATA
  6
CONTINUOUS
 62
     7
 10
28.975000000377761
 20
98.875000000322245
 30
0.0
  0
VERTEX
  5
1F2
  8
DATA
  6
CONTINUOUS
 62
     7
 10
29.675000000377779
 20
98.875000000322245
 30
0.0
  0
VERTEX
  5
1F3
  8
DATA
  6
CONTINUOUS
 62
     7
 10
29.675000000377779
 20
91.875000000322231
 30
0.0
  0
VERTEX
  5
1F4
  8
DATA
  6
CONTINUOUS
 62
     7
 10
28.975000000377761
 20
91.875000000322231
 30
0.0
  0
SEQEND
  5
1F5
  8
DATA
  6
CONTINUOUS
 62
     7
  0
POLYLINE
  5
BA
  8
DATA
  6
CONTINUOUS
 62
     7
 66
     1
 10
0.0
 20
0.0
 30
0.0
 70
     1
  0
VERTEX
  5
1F6
  8
DATA
  6
CONTINUOUS
 62
     7
 10
30.375000000377771
 20
98.875000000322245
 30
0.0
  0
VERTEX
  5
1F7
  8
DATA
  6
CONTINUOUS
 62
     7
 10
31.075000000377791
 20
98.875000000322245
 30
0.0
  0
VERTEX
  5
1F8
  8
DATA
  6
CONTINUOUS
 62
     7
 10
31.075000000377791
 20
91.875000000322231
 30
0.0
  0
VERTEX
  5
1F9
  8
DATA
  6
CONTINUOUS
 62
     7
 10
30.375000000377771
 20
91.875000000322231
 30
0.0
  0
SEQEND
  5
1FA
  8
DATA
  6
CONTINUOUS
 62
     7
  0
POLYLINE
  5
C1
  8
DATA
  6
CONTINUOUS
 62
     7
 66
     1
 10
0.0
 20
0.0
 30
0.0
 70
     1
  0
VERTEX
  5
1FB
  8
DATA
  6
CONTINUOUS
 62
     7
 10
31.775000000377769
 20
98.875000000322245
 30
0.0
  0
VERTEX
  5
1FC
  8
DATA
  6
CONTINUOUS
 62
     7
 10
32.47500000037779
 20
98.875000000322245
 30
0.0
  0
VERTEX
  5
1FD
  8
DATA
  6
CONTINUOUS
 62
     7
 10
32.47500000037779
 20
91.875000000322231
 30
0.0
  0
VERTEX
  5
1FE
  8
DATA
  6
CONTINUOUS
 62
     7
 10
31.775000000377769
 20
91.875000000322231
 30
0.0
  0
SEQEND
  5
1FF
  8
DATA
  6
CONTINUOUS
 62
     7
  0
POLYLINE
  5
C8
  8
DATA
  6
CONTINUOUS
 62
     7
 66
     1
 10
0.0
 20
0.0
 30
0.0
 70
     1
  0
VERTEX
  5
200
  8
DATA
  6
CONTINUOUS
 62
     7
 10
33.175000000377771
 20
98.875000000322245
 30
0.0
  0
VERTEX
  5
201
  8
DATA
  6
CONTINUOUS
 62
     7
 10
33.875000000377767
 20
98.875000000322245
 30
0.0
  0
VERTEX
  5
202
  8
DATA
  6
CONTINUOUS
 62
     7
 10
33.875000000377767
 20
91.875000000322231
 30
0.0
  0
VERTEX
  5
203
  8
DATA
  6
CONTINUOUS
 62
     7
 10
33.175000000377771
 20
91.875000000322231
 30
0.0
  0
SEQEND
  5
204
  8
DATA
  6
CONTINUOUS
 62
     7
  0
POLYLINE
  5
CF
  8
DATA
  6
CONTINUOUS
 62
     7
 66
     1
 10
0.0
 20
0.0
 30
0.0
 70
     1
  0
VERTEX
  5
205
  8
DATA
  6
CONTINUOUS
 62
     7
 10
23.375000000377771
 20
98.875000000322245
 30
0.0
  0
VERTEX
  5
206
  8
DATA
  6
CONTINUOUS
 62
     7
 10
24.075000000377781
 20
98.875000000322245
 30
0.0
  0
VERTEX
  5
207
  8
DATA
  6
CONTINUOUS
 62
     7
 10
24.075000000377781
 20
91.875000000322231
 30
0.0
  0
VERTEX
  5
208
  8
DATA
  6
CONTINUOUS
 62
     7
 10
23.375000000377771
 20
91.875000000322231
 30
0.0
  0
SEQEND
  5
209
  8
DATA
  6
CONTINUOUS
 62
     7
  0
POLYLINE
  5
D6
  8
DATA
  6
CONTINUOUS
 62
     7
 66
     1
 10
0.0
 20
0.0
 30
0.0
 70
     1
  0
VERTEX
  5
20A
  8
DATA
  6
CONTINUOUS
 62
     7
 10
21.975000000377779
 20
98.875000000322245
 30
0.0
  0
VERTEX
  5
20B
  8
DATA
  6
CONTINUOUS
 62
     7
 10
22.675000000377771
 20
98.875000000322245
 30
0.0
  0
VERTEX
  5
20C
  8
DATA
  6
CONTINUOUS
 62
     7
 10
22.675000000377771
 20
91.875000000322231
 30
0.0
  0
VERTEX
  5
20D
  8
DATA
  6
CONTINUOUS
 62
     7
 10
21.975000000377779
 20
91.875000000322231
 30
0.0
  0
SEQEND
  5
20E
  8
DATA
  6
CONTINUOUS
 62
     7
  0
POLYLINE
  5
DD
  8
DATA
  6
CONTINUOUS
 62
     7
 66
     1
 10
0.0
 20
0.0
 30
0.0
 70
     1
  0
VERTEX
  5
20F
  8
DATA
  6
CONTINUOUS
 62
     7
 10
20.575000000377791
 20
98.875000000322245
 30
0.0
  0
VERTEX
  5
210
  8
DATA
  6
CONTINUOUS
 62
     7
 10
21.275000000377769
 20
98.875000000322245
 30
0.0
  0
VERTEX
  5
211
  8
DATA
  6
CONTINUOUS
 62
     7
 10
21.275000000377769
 20
91.875000000322231
 30
0.0
  0
VERTEX
  5
212
  8
DATA
  6
CONTINUOUS
 62
     7
 10
20.575000000377791
 20
91.875000000322231
 30
0.0
  0
SEQEND
  5
213
  8
DATA
  6
CONTINUOUS
 62
     7
  0
POLYLINE
  5
E4
  8
DATA
  6
CONTINUOUS
 62
     7
 66
     1
 10
0.0
 20
0.0
 30
0.0
 70
     1
  0
VERTEX
  5
214
  8
DATA
  6
CONTINUOUS
 62
     7
 10
19.175000000377771
 20
98.875000000322245
 30
0.0
  0
VERTEX
  5
215
  8
DATA
  6
CONTINUOUS
 62
     7
 10
19.87500000037776
 20
98.875000000322245
 30
0.0
  0
VERTEX
  5
216
  8
DATA
  6
CONTINUOUS
 62
     7
 10
19.87500000037776
 20
91.875000000322231
 30
0.0
  0
VERTEX
  5
217
  8
DATA
  6
CONTINUOUS
 62
     7
 10
19.175000000377771
 20
91.875000000322231
 30
0.0
  0
SEQEND
  5
218
  8
DATA
  6
CONTINUOUS
 62
     7
  0
POLYLINE
  5
EB
  8
DATA
  6
CONTINUOUS
 62
     7
 66
     1
 10
0.0
 20
0.0
 30
0.0
 70
     1
  0
VERTEX
  5
219
  8
DATA
  6
CONTINUOUS
 62
     7
 10
17.775000000377769
 20
98.875000000322245
 30
0.0
  0
VERTEX
  5
21A
  8
DATA
  6
CONTINUOUS
 62
     7
 10
18.475000000377769
 20
98.875000000322245
 30
0.0
  0
VERTEX
  5
21B
  8
DATA
  6
CONTINUOUS
 62
     7
 10
18.475000000377769
 20
91.875000000322231
 30
0.0
  0
VERTEX
  5
21C
  8
DATA
  6
CONTINUOUS
 62
     7
 10
17.775000000377769
 20
91.875000000322231
 30
0.0
  0
SEQEND
  5
21D
  8
DATA
  6
CONTINUOUS
 62
     7
  0
POLYLINE
  5
F2
  8
DATA
  6
CONTINUOUS
 62
     7
 66
     1
 10
0.0
 20
0.0
 30
0.0
 70
     1
  0
VERTEX
  5
21E
  8
DATA
  6
CONTINUOUS
 62
     7
 10
16.375000000377771
 20
98.875000000322245
 30
0.0
  0
VERTEX
  5
21F
  8
DATA
  6
CONTINUOUS
 62
     7
 10
17.075000000377791
 20
98.875000000322245
 30
0.0
  0
VERTEX
  5
220
  8
DATA
  6
CONTINUOUS
 62
     7
 10
17.075000000377791
 20
91.875000000322231
 30
0.0
  0
VERTEX
  5
221
  8
DATA
  6
CONTINUOUS
 62
     7
 10
16.375000000377771
 20
91.875000000322231
 30
0.0
  0
SEQEND
  5
222
  8
DATA
  6
CONTINUOUS
 62
     7
  0
LINE
  5
F9
  8
DATA
  6
CONTINUOUS
 62
     7
 10
24.775000000377769
 20
105.3750000003222
 30
0.0
 11
24.775000000377769
 21
107.3750000003222
 31
0.0
  0
LINE
  5
FA
  8
DATA
  6
CONTINUOUS
 62
     7
 10
25.475000000377779
 20
107.3750000003222
 30
0.0
 11
25.475000000377779
 21
105.3750000003222
 31
0.0
  0
LINE
  5
FB
  8
DATA
  6
CONTINUOUS
 62
     7
 10
24.775000000377769
 20
107.3750000003222
 30
0.0
 11
25.475000000377779
 21
107.3750000003222
 31
0.0
  0
LINE
  5
FC
  8
DATA
  6
CONTINUOUS
 62
     7
 10
23.375000000377771
 20
105.3750000003222
 30
0.0
 11
23.375000000377771
 21
107.3750000003222
 31
0.0
  0
LINE
  5
FD
  8
DATA
  6
CONTINUOUS
 62
     7
 10
24.075000000377781
 20
107.3750000003222
 30
0.0
 11
24.075000000377781
 21
105.3750000003222
 31
0.0
  0
LINE
  5
FE
  8
DATA
  6
CONTINUOUS
 62
     7
 10
23.375000000377771
 20
107.3750000003222
 30
0.0
 11
24.075000000377781
 21
107.3750000003222
 31
0.0
  0
LINE
  5
FF
  8
DATA
  6
CONTINUOUS
 62
     7
 10
21.975000000377779
 20
105.3750000003222
 30
0.0
 11
21.975000000377779
 21
107.3750000003222
 31
0.0
  0
LINE
  5
100
  8
DATA
  6
CONTINUOUS
 62
     7
 10
22.675000000377771
 20
107.3750000003222
 30
0.0
 11
22.675000000377771
 21
105.3750000003222
 31
0.0
  0
LINE
  5
101
  8
DATA
  6
CONTINUOUS
 62
     7
 10
21.975000000377779
 20
107.3750000003222
 30
0.0
 11
22.675000000377771
 21
107.3750000003222
 31
0.0
  0
LINE
  5
102
  8
DATA
  6
CONTINUOUS
 62
     7
 10
20.575000000377791
 20
105.3750000003222
 30
0.0
 11
20.575000000377791
 21
107.3750000003222
 31
0.0
  0
LINE
  5
103
  8
DATA
  6
CONTINUOUS
 62
     7
 10
21.275000000377769
 20
107.3750000003222
 30
0.0
 11
21.275000000377769
 21
105.3750000003222
 31
0.0
  0
LINE
  5
104
  8
DATA
  6
CONTINUOUS
 62
     7
 10
20.575000000377791
 20
107.3750000003222
 30
0.0
 11
21.275000000377769
 21
107.3750000003222
 31
0.0
  0
LINE
  5
105
  8
DATA
  6
CONTINUOUS
 62
     7
 10
19.175000000377771
 20
105.3750000003222
 30
0.0
 11
19.175000000377771
 21
107.3750000003222
 31
0.0
  0
LINE
  5
106
  8
DATA
  6
CONTINUOUS
 62
     7
 10
19.87500000037776
 20
107.3750000003222
 30
0.0
 11
19.87500000037776
 21
105.3750000003222
 31
0.0
  0
LINE
  5
107
  8
DATA
  6
CONTINUOUS
 62
     7
 10
19.175000000377771
 20
107.3750000003222
 30
0.0
 11
19.87500000037776
 21
107.3750000003222
 31
0.0
  0
LINE
  5
108
  8
DATA
  6
CONTINUOUS
 62
     7
 10
17.775000000377769
 20
105.3750000003222
 30
0.0
 11
17.775000000377769
 21
107.3750000003222
 31
0.0
  0
LINE
  5
109
  8
DATA
  6
CONTINUOUS
 62
     7
 10
18.475000000377769
 20
107.3750000003222
 30
0.0
 11
18.475000000377769
 21
105.3750000003222
 31
0.0
  0
LINE
  5
10A
  8
DATA
  6
CONTINUOUS
 62
     7
 10
17.775000000377769
 20
107.3750000003222
 30
0.0
 11
18.475000000377769
 21
107.3750000003222
 31
0.0
  0
LINE
  5
10B
  8
DATA
  6
CONTINUOUS
 62
     7
 10
16.375000000377771
 20
105.3750000003222
 30
0.0
 11
16.375000000377771
 21
107.3750000003222
 31
0.0
  0
LINE
  5
10C
  8
DATA
  6
CONTINUOUS
 62
     7
 10
17.075000000377791
 20
107.3750000003222
 30
0.0
 11
17.075000000377791
 21
105.3750000003222
 31
0.0
  0
LINE
  5
10D
  8
DATA
  6
CONTINUOUS
 62
     7
 10
16.375000000377771
 20
107.3750000003222
 30
0.0
 11
17.075000000377791
 21
107.3750000003222
 31
0.0
  0
LINE
  5
10E
  8
DATA
  6
CONTINUOUS
 62
     7
 10
26.175000000377771
 20
105.3750000003222
 30
0.0
 11
26.175000000377771
 21
107.3750000003222
 31
0.0
  0
LINE
  5
10F
  8
DATA
  6
CONTINUOUS
 62
     7
 10
26.875000000377771
 20
107.3750000003222
 30
0.0
 11
26.875000000377771
 21
105.3750000003222
 31
0.0
  0
LINE
  5
110
  8
DATA
  6
CONTINUOUS
 62
     7
 10
26.175000000377771
 20
107.3750000003222
 30
0.0
 11
26.875000000377771
 21
107.3750000003222
 31
0.0
  0
LINE
  5
111
  8
DATA
  6
CONTINUOUS
 62
     7
 10
27.575000000377781
 20
105.3750000003222
 30
0.0
 11
27.575000000377781
 21
107.3750000003222
 31
0.0
  0
LINE
  5
112
  8
DATA
  6
CONTINUOUS
 62
     7
 10
28.275000000377769
 20
107.3750000003222
 30
0.0
 11
28.275000000377769
 21
105.3750000003222
 31
0.0
  0
LINE
  5
113
  8
DATA
  6
CONTINUOUS
 62
     7
 10
27.575000000377781
 20
107.3750000003222
 30
0.0
 11
28.275000000377769
 21
107.3750000003222
 31
0.0
  0
LINE
  5
114
  8
DATA
  6
CONTINUOUS
 62
     7
 10
28.975000000377761
 20
105.3750000003222
 30
0.0
 11
28.975000000377761
 21
107.3750000003222
 31
0.0
  0
LINE
  5
115
  8
DATA
  6
CONTINUOUS
 62
     7
 10
29.675000000377779
 20
107.3750000003222
 30
0.0
 11
29.675000000377779
 21
105.3750000003222
 31
0.0
  0
LINE
  5
116
  8
DATA
  6
CONTINUOUS
 62
     7
 10
28.975000000377761
 20
107.3750000003222
 30
0.0
 11
29.675000000377779
 21
107.3750000003222
 31
0.0
  0
LINE
  5
117
  8
DATA
  6
CONTINUOUS
 62
     7
 10
30.375000000377771
 20
105.3750000003222
 30
0.0
 11
30.375000000377771
 21
107.3750000003222
 31
0.0
  0
LINE
  5
118
  8
DATA
  6
CONTINUOUS
 62
     7
 10
31.075000000377791
 20
107.3750000003222
 30
0.0
 11
31.075000000377791
 21
105.3750000003222
 31
0.0
  0
LINE
  5
119
  8
DATA
  6
CONTINUOUS
 62
     7
 10
30.375000000377771
 20
107.3750000003222
 30
0.0
 11
31.075000000377791
 21
107.3750000003222
 31
0.0
  0
LINE
  5
11A
  8
DATA
  6
CONTINUOUS
 62
     7
 10
31.775000000377769
 20
105.3750000003222
 30
0.0
 11
31.775000000377769
 21
107.3750000003222
 31
0.0
  0
LINE
  5
11B
  8
DATA
  6
CONTINUOUS
 62
     7
 10
32.47500000037779
 20
107.3750000003222
 30
0.0
 11
32.47500000037779
 21
105.3750000003222
 31
0.0
  0
LINE
  5
11C
  8
DATA
  6
CONTINUOUS
 62
     7
 10
31.775000000377769
 20
107.3750000003222
 30
0.0
 11
32.47500000037779
 21
107.3750000003222
 31
0.0
  0
LINE
  5
11D
  8
DATA
  6
CONTINUOUS
 62
     7
 10
33.175000000377771
 20
105.3750000003222
 30
0.0
 11
33.175000000377771
 21
107.3750000003222
 31
0.0
  0
LINE
  5
11E
  8
DATA
  6
CONTINUOUS
 62
     7
 10
33.875000000377767
 20
107.3750000003222
 30
0.0
 11
33.875000000377767
 21
105.3750000003222
 31
0.0
  0
LINE
  5
11F
  8
DATA
  6
CONTINUOUS
 62
     7
 10
33.175000000377771
 20
107.3750000003222
 30
0.0
 11
33.875000000377767
 21
107.3750000003222
 31
0.0
  0
LINE
  5
120
  8
DATA
  6
CONTINUOUS
 62
     7
 10
17.075000000377791
 20
105.3750000003222
 30
0.0
 11
17.775000000377769
 21
105.3750000003222
 31
0.0
  0
LINE
  5
121
  8
DATA
  6
CONTINUOUS
 62
     7
 10
18.475000000377769
 20
105.3750000003222
 30
0.0
 11
19.175000000377771
 21
105.3750000003222
 31
0.0
  0
LINE
  5
122
  8
DATA
  6
CONTINUOUS
 62
     7
 10
19.87500000037776
 20
105.3750000003222
 30
0.0
 11
20.575000000377791
 21
105.3750000003222
 31
0.0
  0
LINE
  5
123
  8
DATA
  6
CONTINUOUS
 62
     7
 10
21.275000000377769
 20
105.3750000003222
 30
0.0
 11
21.975000000377779
 21
105.3750000003222
 31
0.0
  0
LINE
  5
124
  8
DATA
  6
CONTINUOUS
 62
     7
 10
22.675000000377771
 20
105.3750000003222
 30
0.0
 11
23.375000000377771
 21
105.3750000003222
 31
0.0
  0
LINE
  5
125
  8
DATA
  6
CONTINUOUS
 62
     7
 10
24.075000000377781
 20
105.3750000003222
 30
0.0
 11
24.775000000377769
 21
105.3750000003222
 31
0.0
  0
LINE
  5
126
  8
DATA
  6
CONTINUOUS
 62
     7
 10
25.475000000377779
 20
105.3750000003222
 30
0.0
 11
26.175000000377771
 21
105.3750000003222
 31
0.0
  0
LINE
  5
127
  8
DATA
  6
CONTINUOUS
 62
     7
 10
26.875000000377771
 20
105.3750000003222
 30
0.0
 11
27.575000000377781
 21
105.3750000003222
 31
0.0
  0
LINE
  5
128
  8
DATA
  6
CONTINUOUS
 62
     7
 10
28.275000000377769
 20
105.3750000003222
 30
0.0
 11
28.975000000377761
 21
105.3750000003222
 31
0.0
  0
LINE
  5
129
  8
DATA
  6
CONTINUOUS
 62
     7
 10
29.675000000377779
 20
105.3750000003222
 30
0.0
 11
30.375000000377771
 21
105.3750000003222
 31
0.0
  0
LINE
  5
12A
  8
DATA
  6
CONTINUOUS
 62
     7
 10
31.075000000377791
 20
105.3750000003222
 30
0.0
 11
31.775000000377769
 21
105.3750000003222
 31
0.0
  0
LINE
  5
12B
  8
DATA
  6
CONTINUOUS
 62
     7
 10
32.47500000037779
 20
105.3750000003222
 30
0.0
 11
33.175000000377771
 21
105.3750000003222
 31
0.0
  0
LINE
  5
12C
  8
DATA
  6
CONTINUOUS
 62
     7
 10
33.875000000377767
 20
105.3750000003222
 30
0.0
 11
34.625000000377767
 21
105.3750000003222
 31
0.0
  0
ARC
  5
12D
  8
DATA
  6
CONTINUOUS
 62
     7
 10
25.12500000037781
 20
137.50000000032219
 30
0.0
 40
9.2499999999999751
 50
70.00712512773201
 51
90.007125127722915
  0
ARC
  5
12E
  8
DATA
  6
CONTINUOUS
 62
     7
 10
25.12500000037781
 20
137.50000000032219
 30
0.0
 40
9.2499999999999751
 50
110.007125127732
 51
130.007125127732
  0
ARC
  5
12F
  8
DATA
  6
CONTINUOUS
 62
     7
 10
25.12500000037781
 20
137.50000000032219
 30
0.0
 40
9.2499999999999751
 50
150.0071251277318
 51
170.00712512773171
  0
ARC
  5
130
  8
DATA
  6
CONTINUOUS
 62
     7
 10
25.12500000037781
 20
137.50000000032219
 30
0.0
 40
9.2499999999999805
 50
190.00712512773151
 51
210.0071251277314
  0
ARC
  5
131
  8
DATA
  6
CONTINUOUS
 62
     7
 10
25.12500000037781
 20
137.50000000032219
 30
0.0
 40
9.2499999999999716
 50
230.0071251277314
 51
250.00712512773131
  0
ARC
  5
132
  8
DATA
  6
CONTINUOUS
 62
     7
 10
25.12500000037781
 20
137.50000000032219
 30
0.0
 40
9.249999999999968
 50
270.00712512772259
 51
290.0071251277314
  0
ARC
  5
133
  8
DATA
  6
CONTINUOUS
 62
     7
 10
25.12500000037781
 20
137.50000000032219
 30
0.0
 40
9.2499999999999805
 50
310.00712512773129
 51
330.0071251277314
  0
ARC
  5
134
  8
DATA
  6
CONTINUOUS
 62
     7
 10
25.12500000037781
 20
137.50000000032219
 30
0.0
 40
9.2499999999999822
 50
350.00712512773163
 51
10.00712598150511
  0
ARC
  5
135
  8
DATA
  6
CONTINUOUS
 62
     7
 10
25.12500000037781
 20
137.50000000032219
 30
0.0
 40
9.2499999999999911
 50
30.007125127731761
 51
50.007125127731982
  0
LINE
  5
136
  8
DATA
  6
CONTINUOUS
 62
     7
 10
25.0987727131524
 20
141.29990948995541
 30
0.0
 11
25.125000000377771
 21
147.00000000032219
 31
0.0
  0
LINE
  5
137
  8
DATA
  6
CONTINUOUS
 62
     7
 10
26.400000000377769
 20
141.07971716792079
 30
0.0
 11
28.374191361971619
 21
146.4270798977883
 31
0.0
  0
LINE
  5
138
  8
DATA
  6
CONTINUOUS
 62
     7
 10
27.547443470607242
 20
140.42775812447499
 30
0.0
 11
31.231482292399889
 21
144.7774222099525
 31
0.0
  0
LINE
  5
139
  8
DATA
  6
CONTINUOUS
 62
     7
 10
28.402704506869028
 20
139.42266824214829
 30
0.0
 11
33.352241336329932
 21
142.25000000032219
 31
0.0
  0
LINE
  5
13A
  8
DATA
  6
CONTINUOUS
 62
     7
 10
28.86262600588141
 20
138.18567619429629
 30
0.0
 11
34.480673653993719
 21
139.14965768815799
 31
0.0
  0
LINE
  5
13B
  8
DATA
  6
CONTINUOUS
 62
     7
 10
28.87173464714509
 20
136.86598147794811
 30
0.0
 11
34.480673653993691
 21
135.8503423124863
 31
0.0
  0
LINE
  5
13C
  8
DATA
  6
CONTINUOUS
 62
     7
 10
28.4289317940944
 20
135.6227587525151
 30
0.0
 11
33.352241336329868
 21
132.75000000032219
 31
0.0
  0
LINE
  5
13D
  8
DATA
  6
CONTINUOUS
 62
     7
 10
27.5876260058814
 20
134.6059590266978
 30
0.0
 11
31.231482292399811
 21
130.2225777906919
 31
0.0
  0
LINE
  5
13E
  8
DATA
  6
CONTINUOUS
 62
     7
 10
26.449291176915629
 20
133.93822335379539
 30
0.0
 11
28.37419136197154
 21
128.5729201028561
 31
0.0
  0
LINE
  5
13F
  8
DATA
  6
CONTINUOUS
 62
     7
 10
25.15122728760316
 20
133.70009051068899
 30
0.0
 11
25.125000000377771
 21
128.00000000032219
 31
0.0
  0
LINE
  5
140
  8
DATA
  6
CONTINUOUS
 62
     7
 10
23.850000000377761
 20
133.9202828327237
 30
0.0
 11
21.875808638783841
 21
128.5729201028561
 31
0.0
  0
LINE
  5
141
  8
DATA
  6
CONTINUOUS
 62
     7
 10
22.702556530148321
 20
134.57224187616939
 30
0.0
 11
19.018517708355581
 21
130.22257779069199
 31
0.0
  0
LINE
  5
142
  8
DATA
  6
CONTINUOUS
 62
     7
 10
21.84729549388652
 20
135.57733175849609
 30
0.0
 11
16.897758664425549
 21
132.75000000032219
 31
0.0
  0
LINE
  5
143
  8
DATA
  6
CONTINUOUS
 62
     7
 10
21.387373994874121
 20
136.81432380634811
 30
0.0
 11
15.76932634676176
 21
135.85034231248639
 31
0.0
  0
LINE
  5
144
  8
DATA
  6
CONTINUOUS
 62
     7
 10
21.37826535361048
 20
138.13401852269629
 30
0.0
 11
15.76932634676178
 21
139.1496576881581
 31
0.0
  0
LINE
  5
145
  8
DATA
  6
CONTINUOUS
 62
     7
 10
21.821068206661138
 20
139.37724124812931
 30
0.0
 11
16.897758664425599
 21
142.2500000003223
 31
0.0
  0
LINE
  5
146
  8
DATA
  6
CONTINUOUS
 62
     7
 10
22.662373994874141
 20
140.39404097394669
 30
0.0
 11
19.018517708355638
 21
144.7774222099525
 31
0.0
  0
LINE
  5
147
  8
DATA
  6
CONTINUOUS
 62
     7
 10
23.80070882383993
 20
141.0617766468491
 30
0.0
 11
21.87580863878393
 21
146.4270798977883
 31
0.0
  0
ENDSEC
  0
EOF
