  0
SECTION
  2
HEADER
  9
$ACADVER
  1
AC1009
  9
$INSBASE
 10
0.0
 20
0.0
 30
0.0
  9
$EXTMIN
 10
-80.010985489947416
 20
-131.67677505465531
 30
-0.0015258207003583
  9
$EXTMAX
 10
280.01098716632811
 20
403.54994963264153
 30
0.0000000349246037
  9
$LIMMIN
 10
0.0
 20
0.0
  9
$LIMMAX
 10
0.0
 20
0.0
  9
$ORTHOMODE
 70
     0
  9
$REGENMODE
 70
     1
  9
$FILLMODE
 70
     1
  9
$QTEXTMODE
 70
     0
  9
$MIRRTEXT
 70
     1
  9
$DRAGMODE
 70
     2
  9
$LTSCALE
 40
10.16
  9
$OSMODE
 70
   231
  9
$ATTMODE
 70
     1
  9
$TEXTSIZE
 40
0.0
  9
$TRACEWID
 40
1.0
  9
$TEXTSTYLE
  7
STANDARD
  9
$CLAYER
  8
DATA
  9
$CELTYPE
  6
BYLAYER
  9
$CECOLOR
 62
   256
  9
$DIMSCALE
 40
1.0
  9
$DIMASZ
 40
0.18
  9
$DIMEXO
 40
0.0625
  9
$DIMDLI
 40
0.38
  9
$DIMRND
 40
0.0
  9
$DIMDLE
 40
0.0
  9
$DIMEXE
 40
0.18
  9
$DIMTP
 40
0.0
  9
$DIMTM
 40
0.0
  9
$DIMTXT
 40
0.18
  9
$DIMCEN
 40
0.09
  9
$DIMTSZ
 40
0.0
  9
$DIMTOL
 70
     0
  9
$DIMLIM
 70
     0
  9
$DIMTIH
 70
     1
  9
$DIMTOH
 70
     1
  9
$DIMSE1
 70
     0
  9
$DIMSE2
 70
     0
  9
$DIMTAD
 70
     0
  9
$DIMZIN
 70
     0
  9
$DIMBLK
  1

  9
$DIMASO
 70
     1
  9
$DIMSHO
 70
     1
  9
$DIMPOST
  1

  9
$DIMAPOST
  1

  9
$DIMALT
 70
     0
  9
$DIMALTD
 70
     2
  9
$DIMALTF
 40
25.399999999999999
  9
$DIMLFAC
 40
1.0
  9
$DIMTOFL
 70
     0
  9
$DIMTVP
 40
0.0
  9
$DIMTIX
 70
     0
  9
$DIMSOXD
 70
     0
  9
$DIMSAH
 70
     0
  9
$DIMBLK1
  1

  9
$DIMBLK2
  1

  9
$DIMSTYLE
  2
STANDARD
  9
$DIMCLRD
 70
     0
  9
$DIMCLRE
 70
     0
  9
$DIMCLRT
 70
     0
  9
$DIMTFAC
 40
1.0
  9
$DIMGAP
 40
0.09
  9
$LUNITS
 70
     2
  9
$LUPREC
 70
     4
  9
$SKETCHINC
 40
0.1
  9
$FILLETRAD
 40
0.0
  9
$AUNITS
 70
     0
  9
$AUPREC
 70
     0
  9
$MENU
  1
acad
  9
$ELEVATION
 40
0.0
  9
$PELEVATION
 40
0.0
  9
$THICKNESS
 40
0.0
  9
$LIMCHECK
 70
     0
  9
$BLIPMODE
 70
     0
  9
$CHAMFERA
 40
0.0
  9
$CHAMFERB
 40
0.0
  9
$SKPOLY
 70
     0
  9
$TDCREATE
 40
2455618.5988657409
  9
$TDUPDATE
 40
2455618.617312592
  9
$TDINDWG
 40
0.0002306481
  9
$TDUSRTIMER
 40
0.0002306481
  9
$USRTIMER
 70
     1
  9
$ANGBASE
 50
0.0
  9
$ANGDIR
 70
     0
  9
$PDMODE
 70
     1
  9
$PDSIZE
 40
-2.0
  9
$PLINEWID
 40
0.0
  9
$COORDS
 70
     1
  9
$SPLFRAME
 70
     0
  9
$SPLINETYPE
 70
     6
  9
$SPLINESEGS
 70
     8
  9
$ATTDIA
 70
     0
  9
$ATTREQ
 70
     1
  9
$HANDLING
 70
     1
  9
$HANDSEED
  5
194
  9
$SURFTAB1
 70
     6
  9
$SURFTAB2
 70
     6
  9
$SURFTYPE
 70
     6
  9
$SURFU
 70
     6
  9
$SURFV
 70
     6
  9
$UCSNAME
  2

  9
$UCSORG
 10
0.0
 20
0.0
 30
0.0
  9
$UCSXDIR
 10
1.0
 20
0.0
 30
0.0
  9
$UCSYDIR
 10
0.0
 20
1.0
 30
0.0
  9
$PUCSNAME
  2

  9
$PUCSORG
 10
0.0
 20
0.0
 30
0.0
  9
$PUCSXDIR
 10
1.0
 20
0.0
 30
0.0
  9
$PUCSYDIR
 10
0.0
 20
1.0
 30
0.0
  9
$USERI1
 70
     0
  9
$USERI2
 70
     0
  9
$USERI3
 70
     0
  9
$USERI4
 70
     0
  9
$USERI5
 70
     0
  9
$USERR1
 40
0.0
  9
$USERR2
 40
0.0
  9
$USERR3
 40
0.0
  9
$USERR4
 40
0.0
  9
$USERR5
 40
0.0
  9
$WORLDVIEW
 70
     1
  9
$SHADEDGE
 70
     3
  9
$SHADEDIF
 70
    70
  9
$TILEMODE
 70
     1
  9
$MAXACTVP
 70
    64
  9
$PLIMCHECK
 70
     0
  9
$PEXTMIN
 10
1.0000000000000000E+020
 20
1.0000000000000000E+020
 30
1.0000000000000000E+020
  9
$PEXTMAX
 10
-1.0000000000000000E+020
 20
-1.0000000000000000E+020
 30
-1.0000000000000000E+020
  9
$PLIMMIN
 10
0.0
 20
0.0
  9
$PLIMMAX
 10
12.0
 20
9.0
  9
$UNITMODE
 70
     0
  9
$VISRETAIN
 70
     0
  9
$PLINEGEN
 70
     1
  9
$PSLTSCALE
 70
     0
  0
ENDSEC
  0
SECTION
  2
TABLES
  0
TABLE
  2
VPORT
 70
     1
  0
VPORT
  2
*ACTIVE
 70
     0
 10
0.0
 20
0.0
 11
1.0
 21
1.0
 12
100.0000008381904
 22
135.93658728899311
 13
0.0
 23
0.0
 14
1.0
 24
1.0
 15
0.0
 25
0.0
 16
0.0
 26
0.0
 36
1.0
 17
0.0
 27
0.0
 37
0.0
 40
539.16704413284754
 41
1.9619164619164611
 42
50.0
 43
0.0
 44
0.0
 50
0.0
 51
0.0
 71
     0
 72
  2000
 73
     1
 74
     1
 75
     0
 76
     0
 77
     0
 78
     0
  0
ENDTAB
  0
TABLE
  2
LTYPE
 70
    11
  0
LTYPE
  2
CONTINUOUS
 70
     0
  3
Solid line
 72
    65
 73
     0
 40
0.0
  0
ENDTAB
  0
TABLE
  2
LAYER
 70
     5
  0
LAYER
  2
0
 70
     0
 62
     7
  6
CONTINUOUS
  0
LAYER
  2
DATA
 70
     0
 62
     7
  6
CONTINUOUS
  0
LAYER
  2
HIBINO-BASE
 70
     0
 62
     7
  6
CONTINUOUS
  0
LAYER
  2
SPEC
 70
     0
 62
     7
  6
CONTINUOUS
  0
LAYER
  2
DIMNSIONS
 70
     0
 62
     7
  6
CONTINUOUS
  0
ENDTAB
  0
TABLE
  2
STYLE
 70
     3
  0
STYLE
  2
STANDARD
 70
     0
 40
0.0
 41
1.0
 50
0.0
 71
     0
 42
0.0
  3
txt
  4
BIGFONT.SHX
  0
ENDTAB
  0
TABLE
  2
VIEW
 70
     0
  0
ENDTAB
  0
TABLE
  2
UCS
 70
     0
  0
ENDTAB
  0
TABLE
  2
APPID
 70
     3
  0
APPID
  2
ACAD
 70
     0
  0
APPID
  2
ACADANNOTATIVE
 70
     0
  0
APPID
  2
ACAD_MLEADERVER
 70
     0
  0
ENDTAB
  0
TABLE
  2
DIMSTYLE
 70
     2
  0
DIMSTYLE
  2
STANDARD
 70
     0
  3

  4

  5

  6

  7

 40
1.0
 41
0.18
 42
0.0625
 43
0.38
 44
0.18
 45
0.0
 46
0.0
 47
0.0
 48
0.0
140
0.18
141
0.09
142
0.0
143
25.399999999999999
144
1.0
145
0.0
146
1.0
147
0.09
 71
     0
 72
     0
 73
     1
 74
     1
 75
     0
 76
     0
 77
     0
 78
     0
170
     0
171
     2
172
     0
173
     0
174
     0
175
     0
176
     0
177
     0
178
     0
  0
ENDTAB
  0
ENDSEC
  0
SECTION
  2
BLOCKS
  0
BLOCK
  8
0
  2
$MODEL_SPACE
 70
     0
 10
0.0
 20
0.0
 30
0.0
  3
$MODEL_SPACE
  1

  0
ENDBLK
  5
12B
  8
0
  0
BLOCK
 67
     1
  8
0
  2
$PAPER_SPACE
 70
     0
 10
0.0
 20
0.0
 30
0.0
  3
$PAPER_SPACE
  1

  0
ENDBLK
  5
127
 67
     1
  8
0
  0
ENDSEC
  0
SECTION
  2
ENTITIES
  0
LINE
  5
2C
  8
HIBINO-BASE
  6
CONTINUOUS
 62
     7
 10
-79.999999999999986
 20
403.53364789486591
 30
0.0
 11
279.99999999999989
 21
403.53364789486591
 31
0.0
  0
LINE
  5
2D
  8
HIBINO-BASE
  6
CONTINUOUS
 62
     7
 10
279.99999999999989
 20
-116.46635210513411
 30
0.0
 11
-79.999999999999986
 21
-116.46635210513411
 31
0.0
  0
LINE
  5
2E
  8
HIBINO-BASE
  6
CONTINUOUS
 62
     7
 10
-79.999999999999986
 20
-116.46635210513411
 30
0.0
 11
-79.999999999999986
 21
403.53364789486591
 31
0.0
  0
LINE
  5
2F
  8
HIBINO-BASE
  6
CONTINUOUS
 62
     7
 10
279.99999999999989
 20
403.53364789486591
 30
0.0
 11
279.99999999999989
 21
-116.46635210513411
 31
0.0
  0
LINE
  5
30
  8
HIBINO-BASE
  6
CONTINUOUS
 62
     7
 10
100.0
 20
-71.466352105134064
 30
0.0
 11
279.99999999999989
 21
-71.466352105134064
 31
0.0
  0
LINE
  5
31
  8
HIBINO-BASE
  6
CONTINUOUS
 62
     7
 10
100.0
 20
-116.46635210513411
 30
0.0
 11
100.0
 21
-71.466352105134064
 31
0.0
  0
TEXT
  5
32
  8
HIBINO-BASE
 62
     7
 10
101.8
 20
-76.483738771800731
 30
0.0
 40
3.2576822916666659
  1
NOTE
 41
0.7
 11
101.8
 21
-73.226056480134062
 31
0.0
 73
     3
  0
LINE
  5
33
  8
HIBINO-BASE
  6
CONTINUOUS
 62
     7
 10
170.0
 20
-116.46635210513411
 30
0.0
 11
170.0
 21
-71.466352105134064
 31
0.0
  0
TEXT
  5
34
  8
HIBINO-BASE
 62
     7
 10
171.7999999999999
 20
-76.483738771800731
 30
0.0
 40
3.2576822916666659
  1
TITLE
 41
0.7
 11
171.7999999999999
 21
-73.226056480134062
 31
0.0
 73
     3
  0
LINE
  5
35
  8
HIBINO-BASE
  6
CONTINUOUS
 62
     7
 10
100.0
 20
-96.466352105134064
 30
0.0
 11
279.99999999999989
 21
-96.466352105134064
 31
0.0
  0
TEXT
  5
36
  8
HIBINO-BASE
 62
     7
 10
196.80000000000001
 20
-101.3710987718007
 30
0.0
 40
3.2576822916666659
  1
DRAWN
 41
0.7
 11
196.80000000000001
 21
-98.113416480134106
 31
0.0
 73
     3
  0
TEXT
  5
37
  8
HIBINO-BASE
 62
     7
 10
146.7999999999999
 20
-101.3710987718007
 30
0.0
 40
3.2576822916666659
  1
DATE
 41
0.7
 11
146.7999999999999
 21
-98.113416480134106
 31
0.0
 73
     3
  0
TEXT
  5
38
  8
HIBINO-BASE
 62
     7
 10
126.8
 20
-101.3710987718007
 30
0.0
 40
3.2576822916666659
  1
SCALE
 41
0.7
 11
126.8
 21
-98.113416480134106
 31
0.0
 73
     3
  0
TEXT
  5
39
  8
HIBINO-BASE
 62
     7
 10
171.7999999999999
 20
-101.3710987718007
 30
0.0
 40
3.2576822916666659
  1
DESIGN
 41
0.7
 11
171.7999999999999
 21
-98.113416480134106
 31
0.0
 73
     3
  0
TEXT
  5
3A
  8
HIBINO-BASE
 62
     7
 10
246.7999999999999
 20
-101.3710987718007
 30
0.0
 40
3.2576822916666659
  1
DRAWING NO.
 41
0.7
 11
246.7999999999999
 21
-98.113416480134106
 31
0.0
 73
     3
  0
TEXT
  5
3B
  8
HIBINO-BASE
 62
     7
 10
221.7999999999999
 20
-101.3710987718007
 30
0.0
 40
3.2576822916666659
  1
CHECK
 41
0.7
 11
221.7999999999999
 21
-98.113416480134106
 31
0.0
 73
     3
  0
LINE
  5
3C
  8
HIBINO-BASE
  6
CONTINUOUS
 62
     7
 10
128.74999999999989
 20
-113.96635210513411
 30
0.0
 11
136.25
 21
-106.46635210513401
 31
0.0
  0
TEXT
  5
3D
  8
HIBINO-BASE
 62
     7
 10
127.5
 20
-108.68423877180069
 30
0.0
 40
3.2576822916666659
  1
1
 41
0.7
 11
127.5
 21
-105.4265564801341
 31
0.0
 73
     3
  0
LINE
  5
3E
  8
HIBINO-BASE
  6
CONTINUOUS
 62
     7
 10
125.0
 20
-116.46635210513411
 30
0.0
 11
125.0
 21
-96.466352105134064
 31
0.0
  0
LINE
  5
3F
  8
HIBINO-BASE
  6
CONTINUOUS
 62
     7
 10
145.0
 20
-116.46635210513411
 30
0.0
 11
145.0
 21
-96.466352105134064
 31
0.0
  0
LINE
  5
40
  8
HIBINO-BASE
  6
CONTINUOUS
 62
     7
 10
195.0
 20
-96.466352105134064
 30
0.0
 11
195.0
 21
-116.46635210513411
 31
0.0
  0
LINE
  5
41
  8
HIBINO-BASE
  6
CONTINUOUS
 62
     7
 10
245.0
 20
-96.466352105134064
 30
0.0
 11
245.0
 21
-116.46635210513411
 31
0.0
  0
LINE
  5
42
  8
HIBINO-BASE
  6
CONTINUOUS
 62
     7
 10
220.0
 20
-116.46635210513411
 30
0.0
 11
220.0
 21
-96.466352105134064
 31
0.0
  0
TEXT
  5
43
  8
HIBINO-BASE
 62
     7
 10
146.71307999999999
 20
-110.7390587718007
 30
0.0
 40
3.2576822916666659
  1
'11.02.
 41
0.7
 11
146.71307999999999
 21
-107.4813764801341
 31
0.0
 73
     3
  0
TEXT
  5
44
  8
HIBINO-BASE
 62
     7
 10
135.0
 20
-112.43423877180069
 30
0.0
 40
3.2576822916666659
  1
2
 41
0.7
 11
135.0
 21
-109.1765564801341
 31
0.0
 73
     3
  0
TEXT
  5
45
  8
HIBINO-BASE
 62
     7
 10
198.0116200220692
 20
-110.7390587718007
 30
0.0
 40
3.2576822916666659
  1
T.Ootake
 41
0.7
 11
198.0116200220692
 21
-107.4813764801341
 31
0.0
 73
     3
  0
TEXT
  5
46
  8
HIBINO-BASE
 62
     7
 10
107.76666666666659
 20
-112.51435210513399
 30
0.0
 40
6.5153645833333318
  1
A4
 41
0.7
 11
107.76666666666659
 21
-105.9989875218007
 31
0.0
 73
     3
  0
TEXT
  5
47
  8
HIBINO-BASE
 62
     7
 10
101.9166666666666
 20
-101.7052621051341
 30
0.0
 40
3.2576822916666659
  1
PAPER SIZE
 41
0.7
 11
101.9166666666666
 21
-98.447579813467414
 31
0.0
 73
     3
  0
TEXT
  5
48
  8
HIBINO-BASE
 62
     7
 10
-74.48072948621963
 20
-129.31683257348661
 30
0.0
 40
7.0583116319444441
  1
Hibino-Intersound Corporation
 41
0.7
 11
-74.48072948621963
 21
-122.2585209415421
 31
0.0
 73
     3
  0
TEXT
  5
49
  8
HIBINO-BASE
 62
     7
 10
140.36121936042781
 20
-128.61465606690771
 30
0.0
 40
7.0583116319444441
  1
ヒビノインターサウンド株式会社
 41
0.7
 11
140.36121936042781
 21
-121.55634443496329
 31
0.0
 73
     3
  0
LINE
  5
4A
  8
SPEC
  6
CONTINUOUS
 62
     7
 10
-64.999999999999986
 20
383.53364789486602
 30
0.0
 11
230.0
 21
383.53364789486602
 31
0.0
  0
LINE
  5
4B
  8
SPEC
  6
CONTINUOUS
 62
     7
 10
-64.999999999999986
 20
376.03364789486591
 30
0.0
 11
230.0
 21
376.03364789486591
 31
0.0
  0
LINE
  5
4C
  8
SPEC
  6
CONTINUOUS
 62
     7
 10
-64.999999999999986
 20
361.03364789486602
 30
0.0
 11
230.0
 21
361.03364789486602
 31
0.0
  0
LINE
  5
4D
  8
SPEC
  6
CONTINUOUS
 62
     7
 10
-64.999999999999986
 20
368.53364789486602
 30
0.0
 11
230.0
 21
368.53364789486602
 31
0.0
  0
LINE
  5
4E
  8
SPEC
  6
CONTINUOUS
 62
     7
 10
-64.999999999999986
 20
383.53364789486602
 30
0.0
 11
-64.999999999999986
 21
308.53364789486602
 31
0.0
  0
TEXT
  5
4F
  8
SPEC
 62
     7
 10
-62.5
 20
386.32018789486591
 30
0.0
 40
4.8865234375000002
  1
仕様
 41
0.7
 11
-62.5
 21
391.2067113323659
 31
0.0
 73
     3
  0
LINE
  5
50
  8
SPEC
  6
CONTINUOUS
 62
     7
 10
10.0
 20
383.53364789486602
 30
0.0
 11
9.999999999999984
 21
308.53364789486602
 31
0.0
  0
LINE
  5
51
  8
SPEC
  6
CONTINUOUS
 62
     7
 10
230.0
 20
383.53364789486602
 30
0.0
 11
230.0
 21
308.53364789486602
 31
0.0
  0
LINE
  5
52
  8
SPEC
  6
CONTINUOUS
 62
     7
 10
-64.999999999999986
 20
353.53364789486602
 30
0.0
 11
230.0
 21
353.53364789486602
 31
0.0
  0
LINE
  5
53
  8
SPEC
  6
CONTINUOUS
 62
     7
 10
-64.999999999999986
 20
346.03364789486602
 30
0.0
 11
230.0
 21
346.03364789486602
 31
0.0
  0
LINE
  5
54
  8
SPEC
  6
CONTINUOUS
 62
     7
 10
-64.999999999999986
 20
338.53364789486591
 30
0.0
 11
230.0
 21
338.53364789486591
 31
0.0
  0
LINE
  5
55
  8
SPEC
  6
CONTINUOUS
 62
     7
 10
-64.999999999999986
 20
331.03364789486602
 30
0.0
 11
230.0
 21
331.03364789486602
 31
0.0
  0
LINE
  5
56
  8
SPEC
  6
CONTINUOUS
 62
     7
 10
-64.999999999999986
 20
323.53364789486602
 30
0.0
 11
230.0
 21
323.53364789486602
 31
0.0
  0
LINE
  5
57
  8
SPEC
  6
CONTINUOUS
 62
     7
 10
-64.999999999999986
 20
316.03364789486602
 30
0.0
 11
230.0
 21
316.03364789486602
 31
0.0
  0
LINE
  5
58
  8
SPEC
  6
CONTINUOUS
 62
     7
 10
-64.999999999999986
 20
308.53364789486602
 30
0.0
 11
230.0
 21
308.53364789486602
 31
0.0
  0
TEXT
  5
59
  8
SPEC
 62
     7
 10
11.721227958822309
 20
332.78983808202412
 30
0.0
 40
3.8006293402777769
  1
約140g
 41
0.7
 11
11.721227958822309
 21
336.59046742230191
 31
0.0
 73
     3
  0
TEXT
  5
5A
  8
SPEC
 62
     7
 10
-63.300673976583887
 20
333.05303745402392
 30
0.0
 40
3.8006293402777769
  1
重量
 41
0.7
 11
-63.300673976583887
 21
336.85366679430172
 31
0.0
 73
     3
  0
TEXT
  5
5B
  8
SPEC
 62
     7
 10
-63.166897537905307
 20
310.53914757466578
 30
0.0
 40
3.8006293402777769
  1
使用湿度範囲
 41
0.7
 11
-63.166897537905307
 21
314.33977691494363
 31
0.0
 73
     3
  0
TEXT
  5
5C
  8
SPEC
 62
     7
 10
11.85719344349468
 20
310.3438927640866
 30
0.0
 40
3.8006293402777769
  1
90%%%以下
 41
0.7
 11
11.85719344349468
 21
314.14452210436428
 31
0.0
 73
     3
  0
TEXT
  5
5D
  8
SPEC
 62
     7
 10
-63.184328422039883
 20
318.03914757466578
 30
0.0
 40
3.8006293402777769
  1
使用温度範囲
 41
0.7
 11
-63.184328422039883
 21
321.83977691494363
 31
0.0
 73
     3
  0
TEXT
  5
5E
  8
SPEC
 62
     7
 10
11.92943929153784
 20
317.99453263740259
 30
0.0
 40
3.8006293402777769
  1
-40℃～45℃
 41
0.7
 11
11.92943929153784
 21
321.79516197768038
 31
0.0
 73
     3
  0
TEXT
  5
5F
  8
SPEC
 62
     7
 10
-63.377206585525997
 20
325.5858548978016
 30
0.0
 40
3.8006293402777769
  1
寸法
 41
0.7
 11
-63.377206585525997
 21
329.38648423807939
 31
0.0
 73
     3
  0
TEXT
  5
60
  8
SPEC
 62
     7
 10
11.303381789390169
 20
325.22643728554903
 30
0.0
 40
3.8006293402777769
  1
\U+03A619\U+00D7146mm(突起部含まず）
 41
0.7
 11
11.303381789390169
 21
329.02706662582682
 31
0.0
 73
     3
  0
TEXT
  5
61
  8
SPEC
 62
     7
 10
-63.697859884168011
 20
340.38640598538097
 30
0.0
 40
3.8006293402777769
  1
コネクター
 41
0.7
 11
-63.697859884168011
 21
344.18703532565883
 31
0.0
 73
     3
  0
TEXT
  5
62
  8
SPEC
 62
     7
 10
11.87118796494245
 20
340.12486760825271
 30
0.0
 40
3.8006293402777769
  1
XLR3ピン(オス)
 41
0.7
 11
11.87118796494245
 21
343.92549694853051
 31
0.0
 73
     3
  0
TEXT
  5
63
  8
SPEC
 62
     7
 10
-63.337253936826087
 20
347.91774900965618
 30
0.0
 40
3.8006293402777769
  1
電源
 41
0.7
 11
-63.337253936826087
 21
351.71837834993403
 31
0.0
 73
     3
  0
TEXT
  5
64
  8
SPEC
 62
     7
 10
11.176064370232639
 20
347.93860079915788
 30
0.0
 40
3.8006293402777769
  1
ファンタムDC48V/2.8mA
 41
0.7
 11
11.176064370232639
 21
351.73923013943568
 31
0.0
 73
     3
  0
TEXT
  5
65
  8
SPEC
 62
     7
 10
-63.392412361384423
 20
355.4585698930652
 30
0.0
 40
3.8006293402777769
  1
ケーブル引き伸ばし可能距離
 41
0.7
 11
-63.392412361384423
 21
359.259199233343
 31
0.0
 73
     3
  0
TEXT
  5
66
  8
SPEC
 62
     7
 10
11.76965821624974
 20
355.32715527066682
 30
0.0
 40
3.8006293402777769
  1
最大100m
 41
0.7
 11
11.76965821624974
 21
359.12778461094462
 31
0.0
 73
     3
  0
TEXT
  5
67
  8
SPEC
 62
     7
 10
-63.478641553701962
 20
362.94984115842863
 30
0.0
 40
3.8006293402777769
  1
インピーダンス
 41
0.7
 11
-63.478641553701962
 21
366.75047049870631
 31
0.0
 73
     3
  0
TEXT
  5
68
  8
SPEC
 62
     7
 10
11.867041337361339
 20
362.72710710791102
 30
0.0
 40
3.8006293402777769
  1
200\U+03A9以下
 41
0.7
 11
11.867041337361339
 21
366.52773644818882
 31
0.0
 73
     3
  0
TEXT
  5
69
  8
SPEC
 62
     7
 10
-63.465121901317637
 20
370.32450026133222
 30
0.0
 40
3.8006293402777769
  1
アッテネータースイッチ
 41
0.7
 11
-63.465121901317637
 21
374.12512960161001
 31
0.0
 73
     3
  0
TEXT
  5
6A
  8
SPEC
 62
     7
 10
11.943389616268741
 20
370.22710710791102
 30
0.0
 40
3.8006293402777769
  1
0dB、-20dB
 41
0.7
 11
11.943389616268741
 21
374.02773644818882
 31
0.0
 73
     3
  0
TEXT
  5
6B
  8
SPEC
 62
     7
 10
-63.497800059251333
 20
377.70616786834381
 30
0.0
 40
3.8006293402777769
  1
ダイナミックレンジ(代表値)
 41
0.7
 11
-63.497800059251333
 21
381.50679720862149
 31
0.0
 73
     3
  0
TEXT
  5
6C
  8
SPEC
 62
     7
 10
11.57935144107384
 20
377.54954939502142
 30
0.0
 40
3.8006293402777769
  1
138dB
 41
0.7
 11
11.57935144107384
 21
381.35017873529921
 31
0.0
 73
     3
  0
TEXT
  5
6D
  8
DIMNSIONS
 62
     7
 10
60.0
 20
-91.927372105134054
 30
0.0
 40
4.8865234375000002
  1
(単位：mm)
 41
0.7
 11
60.0
 21
-87.040848667634066
 31
0.0
 73
     3
  0
LINE
  5
6E
  8
DIMNSIONS
  6
CONTINUOUS
 62
     7
 10
11.625000000220449
 20
-9.3750000003124665
 30
0.0
 11
-13.375
 21
-9.3750000003124665
 31
0.0
  0
LINE
  5
6F
  8
DIMNSIONS
  6
CONTINUOUS
 62
     7
 10
11.625000000220449
 20
136.62499999968711
 30
0.0
 11
-13.375
 21
136.62499999968711
 31
0.0
  0
LINE
  5
70
  8
DIMNSIONS
  6
CONTINUOUS
 62
     7
 10
-9.375
 20
-9.3750000003124665
 30
0.0
 11
-9.375
 21
136.62499999968711
 31
0.0
  0
LINE
  5
71
  8
DIMNSIONS
  6
CONTINUOUS
 62
     7
 10
-9.375
 20
-9.3750000003124665
 30
0.0
 11
-10.715079590300491
 21
-4.3737548831249731
 31
0.0
  0
LINE
  5
72
  8
DIMNSIONS
  6
CONTINUOUS
 62
     7
 10
-9.375
 20
-9.3750000003124665
 30
0.0
 11
-8.0349204096995095
 21
-4.3737548831249731
 31
0.0
  0
LINE
  5
73
  8
DIMNSIONS
  6
CONTINUOUS
 62
     7
 10
-9.375
 20
136.62499999968711
 30
0.0
 11
-8.0349204096995095
 21
131.62375488249961
 31
0.0
  0
LINE
  5
74
  8
DIMNSIONS
  6
CONTINUOUS
 62
     7
 10
-9.375
 20
136.62499999968711
 30
0.0
 11
-10.715079590300491
 21
131.62375488249961
 31
0.0
  0
TEXT
  5
75
  8
DIMNSIONS
 62
     7
 10
-11.362777777777779
 20
58.333333333020661
 30
0.0
 40
5.4294704861111107
  1
146
 50
90.0
 41
0.7
 11
-16.792248263888901
 21
58.333333333020661
 31
0.0
 73
     3
  0
LINE
  5
76
  8
DIMNSIONS
  6
CONTINUOUS
 62
     7
 10
-0.874999999779547
 20
136.62499999968711
 30
0.0
 11
-13.375
 21
136.62499999968711
 31
0.0
  0
LINE
  5
77
  8
DIMNSIONS
  6
CONTINUOUS
 62
     7
 10
1.675000000220449
 20
140.6249999996875
 30
0.0
 11
-13.375
 21
140.6249999996875
 31
0.0
  0
LINE
  5
78
  8
DIMNSIONS
  6
CONTINUOUS
 62
     7
 10
-9.375
 20
140.6249999996875
 30
0.0
 11
-9.375
 21
136.62499999968711
 31
0.0
  0
LINE
  5
79
  8
DIMNSIONS
  6
CONTINUOUS
 62
     7
 10
-9.375
 20
136.62499999968711
 30
0.0
 11
-9.375
 21
126.62499999968711
 31
0.0
  0
LINE
  5
7A
  8
DIMNSIONS
  6
CONTINUOUS
 62
     7
 10
-9.375
 20
136.62499999968711
 30
0.0
 11
-8.0349204096995095
 21
131.62375488249961
 31
0.0
  0
LINE
  5
7B
  8
DIMNSIONS
  6
CONTINUOUS
 62
     7
 10
-9.375
 20
136.62499999968711
 30
0.0
 11
-10.715079590300491
 21
131.62375488249961
 31
0.0
  0
LINE
  5
7C
  8
DIMNSIONS
  6
CONTINUOUS
 62
     7
 10
-9.375
 20
140.6249999996875
 30
0.0
 11
-9.375
 21
150.40277777777769
 31
0.0
  0
LINE
  5
7D
  8
DIMNSIONS
  6
CONTINUOUS
 62
     7
 10
-9.375
 20
140.6249999996875
 30
0.0
 11
-10.715079590300491
 21
145.626245116875
 31
0.0
  0
LINE
  5
7E
  8
DIMNSIONS
  6
CONTINUOUS
 62
     7
 10
-9.375
 20
140.6249999996875
 30
0.0
 11
-8.0349204096995095
 21
145.626245116875
 31
0.0
  0
TEXT
  5
7F
  8
DIMNSIONS
 62
     7
 10
-11.362777777777771
 20
146.875
 30
0.0
 40
5.4294704861111107
  1
4
 50
90.0
 41
0.7
 11
-16.792248263888879
 21
146.875
 31
0.0
 73
     3
  0
LINE
  5
80
  8
DIMNSIONS
  6
CONTINUOUS
 62
     7
 10
31.17789634192032
 20
182.32205202635399
 30
0.0
 11
40.625
 21
193.75
 31
0.0
  0
LINE
  5
81
  8
DIMNSIONS
  6
CONTINUOUS
 62
     7
 10
31.17789634192032
 20
182.32205202635399
 30
0.0
 11
33.366074212766911
 21
187.01461461369041
 31
0.0
  0
LINE
  5
82
  8
DIMNSIONS
  6
CONTINUOUS
 62
     7
 10
31.17789634192032
 20
182.32205202635399
 30
0.0
 11
35.419195259740597
 21
185.2918415004124
 31
0.0
  0
LINE
  5
83
  8
DIMNSIONS
  6
CONTINUOUS
 62
     7
 10
40.625
 20
193.75
 30
0.0
 11
58.736111111111107
 21
193.75
 31
0.0
  0
TEXT
  5
84
  8
DIMNSIONS
 62
     7
 10
44.625
 20
195.73777777777781
 30
0.0
 40
5.4294704861111107
  1
\U+03C619
 41
0.7
 11
44.625
 21
201.16724826388889
 31
0.0
 73
     3
  0
TEXT
  5
85
  8
DATA
 62
     7
 10
200.0
 20
-94.703380257795985
 30
0.0
 40
4.8865234375000002
  1
MMP-A
 41
0.7
 11
200.0
 21
-89.816856820295968
 31
0.0
 73
     3
  0
TEXT
  5
86
  8
DATA
 62
     7
 10
200.0
 20
-79.704572105134062
 30
0.0
 40
4.8865234375000002
  1
DPA
 41
0.7
 11
200.0
 21
-74.818048667634059
 31
0.0
 73
     3
  0
TEXT
  5
87
  8
DATA
 62
     7
 10
-60.0
 20
-107.99035210513409
 30
0.0
 40
3.2576822916666659
  1
仕様および外観は予告なく変更されることがありますので、ご了承ください。
 41
0.7
 11
-60.0
 21
-104.7326698134674
 31
0.0
 73
     3
  0
LINE
  5
88
  8
DATA
  6
CONTINUOUS
 62
     7
 10
15.625000000220449
 20
136.62499999968711
 30
0.0
 11
34.625000000220453
 21
136.62499999968711
 31
0.0
  0
LINE
  5
89
  8
DATA
  6
CONTINUOUS
 62
     7
 10
15.625000000220449
 20
-9.3750000003124665
 30
0.0
 11
34.625000000220453
 21
-9.3750000003124665
 31
0.0
  0
LINE
  5
8A
  8
DATA
  6
CONTINUOUS
 62
     7
 10
15.625000000220449
 20
136.62499999968711
 30
0.0
 11
15.625000000220449
 21
-9.3750000003124665
 31
0.0
  0
LINE
  5
8B
  8
DATA
  6
CONTINUOUS
 62
     7
 10
34.625000000220453
 20
136.62499999968711
 30
0.0
 11
34.625000000220453
 21
-9.3750000003124665
 31
0.0
  0
TEXT
  5
8C
  8
DATA
 62
     7
 10
20.02064946120727
 20
-5.9811337464082017
 30
0.0
 40
3.2576822916666659
  1
MMP-A
 41
0.7
 11
20.02064946120727
 21
-2.7234514547415349
 31
0.0
 73
     3
  0
CIRCLE
  5
8D
  8
DATA
  6
CONTINUOUS
 62
     7
 10
25.12500000022046
 20
-31.250000000156231
 30
0.0
 40
9.5
  0
ARC
  5
8E
  8
DATA
  6
CONTINUOUS
 62
     7
 10
25.125000000220531
 20
-31.250000000156209
 30
0.0
 40
8.0000000000000728
 50
232.79368802197979
 51
218.89742555091959
  0
CIRCLE
  5
8F
  8
DATA
  6
CONTINUOUS
 62
     7
 10
25.12500000022046
 20
-27.250000000156241
 30
0.0
 40
1.150000000000005
  0
CIRCLE
  5
90
  8
DATA
  6
CONTINUOUS
 62
     7
 10
29.12500000022046
 20
-31.250000000156231
 30
0.0
 40
1.150000000000005
  0
CIRCLE
  5
91
  8
DATA
  6
CONTINUOUS
 62
     7
 10
21.125000000220449
 20
-31.250000000156231
 30
0.0
 40
1.150000000000005
  0
ARC
  5
92
  8
DATA
  6
CONTINUOUS
 62
     7
 10
20.025913896429071
 20
-36.50185377695442
 30
0.0
 40
1.150000000000003
 50
168.54291116051769
 51
283.14820241238237
  0
TEXT
  5
93
  8
DATA
 62
     7
 10
194.14522489073471
 20
-86.232907526103205
 30
0.0
 40
3.2576822916666659
  1
プリアンプ
 41
0.7
 11
194.14522489073471
 21
-82.97522523443655
 31
0.0
 73
     3
  0
CIRCLE
  5
94
  8
DATA
  6
CONTINUOUS
 62
     7
 10
25.12500000022046
 20
175.0
 30
0.0
 40
9.5
  0
CIRCLE
  5
95
  8
DATA
  6
CONTINUOUS
 62
     7
 10
25.12500000022046
 20
175.0
 30
0.0
 40
6.950000000000002
  0
CIRCLE
  5
96
  8
DATA
  6
CONTINUOUS
 62
     7
 10
25.12500000022046
 20
175.0
 30
0.0
 40
0.6500000000000057
  0
LINE
  5
97
  8
DATA
  6
CONTINUOUS
 62
     7
 10
18.17500000022045
 20
140.6249999996875
 30
0.0
 11
32.075000000220449
 21
140.6249999996875
 31
0.0
  0
LINE
  5
98
  8
DATA
  6
CONTINUOUS
 62
     7
 10
18.17500000022045
 20
140.6249999996875
 30
0.0
 11
18.17500000022045
 21
136.62499999968711
 31
0.0
  0
LINE
  5
99
  8
DATA
  6
CONTINUOUS
 62
     7
 10
32.075000000220449
 20
140.6249999996875
 30
0.0
 11
32.075000000220449
 21
136.62499999968711
 31
0.0
  0
LINE
  5
9A
  8
DATA
  6
CONTINUOUS
 62
     7
 10
24.975000000220451
 20
143.6249999996875
 30
0.0
 11
25.275000000220452
 21
143.6249999996875
 31
0.0
  0
LINE
  5
9B
  8
DATA
  6
CONTINUOUS
 62
     7
 10
24.475000000220451
 20
143.1249999996875
 30
0.0
 11
24.475000000220451
 21
140.6249999996875
 31
0.0
  0
LINE
  5
9C
  8
DATA
  6
CONTINUOUS
 62
     7
 10
25.775000000220452
 20
143.1249999996875
 30
0.0
 11
25.775000000220452
 21
140.6249999996875
 31
0.0
  0
LINE
  5
9D
  8
DATA
  6
CONTINUOUS
 62
     7
 10
18.17500000022045
 20
136.62499999968711
 30
0.0
 11
32.075000000220449
 21
137.5829465540927
 31
0.0
  0
LINE
  5
9E
  8
DATA
  6
CONTINUOUS
 62
     7
 10
18.17500000022045
 20
137.62499999968711
 30
0.0
 11
32.075000000220449
 21
138.5829465540927
 31
0.0
  0
LINE
  5
9F
  8
DATA
  6
CONTINUOUS
 62
     7
 10
18.17500000022045
 20
138.62499999968711
 30
0.0
 11
32.075000000220449
 21
139.5829465540927
 31
0.0
  0
LINE
  5
A0
  8
DATA
  6
CONTINUOUS
 62
     7
 10
18.17500000022045
 20
139.62499999968711
 30
0.0
 11
32.075000000220449
 21
140.5829465540927
 31
0.0
  0
ARC
  5
A1
  8
DATA
  6
CONTINUOUS
 62
     7
 10
24.975000000220451
 20
143.1249999996875
 30
0.0
 40
0.5
 50
90.0
 51
180.0
  0
ARC
  5
A2
  8
DATA
  6
CONTINUOUS
 62
     7
 10
25.275000000220452
 20
143.1249999996875
 30
0.0
 40
0.5
 50
0.0
 51
90.0
  0
CIRCLE
  5
A3
  8
DATA
  6
CONTINUOUS
 62
     7
 10
25.12500000022046
 20
-35.381020619000232
 30
0.0
 40
2.25
  0
TEXT
  5
A4
  8
DATA
 62
     7
 10
19.220705262724991
 20
-29.536919532567609
 30
0.0
 40
1.7374305555555549
  1
-20
 41
0.7
 11
19.220705262724991
 21
-27.799488977012061
 31
0.0
 73
     3
  0
TEXT
  5
A5
  8
DATA
 62
     7
 10
28.638824562125009
 20
-29.536919532567609
 30
0.0
 40
1.7374305555555549
  1
0
 41
0.7
 11
28.638824562125009
 21
-27.799488977012061
 31
0.0
 73
     3
  0
LINE
  5
A6
  8
DATA
  6
CONTINUOUS
 62
     7
 10
26.5
 20
-26.25
 30
0.0
 11
30.5
 21
-26.25
 31
0.0
  0
LINE
  5
A7
  8
DATA
  6
CONTINUOUS
 62
     7
 10
19.327851293385041
 20
-26.25
 30
0.0
 11
20.575702586770081
 21
-26.25
 31
0.0
  0
LINE
  5
A8
  8
DATA
  6
CONTINUOUS
 62
     7
 10
22.079999999999998
 20
-26.25
 30
0.0
 11
23.327851293385041
 21
-26.25
 31
0.0
  0
LINE
  5
A9
  8
DATA
  6
CONTINUOUS
 62
     7
 10
20.575702586770081
 20
-27.323642463355391
 30
0.0
 11
22.079999999999998
 21
-27.323642463355391
 31
0.0
  0
LINE
  5
AA
  8
DATA
  6
CONTINUOUS
 62
     7
 10
22.079999999999998
 20
-26.25
 30
0.0
 11
22.079999999999998
 21
-27.323642463355391
 31
0.0
  0
LINE
  5
AB
  8
DATA
  6
CONTINUOUS
 62
     7
 10
20.575702586770081
 20
-26.25
 30
0.0
 11
20.575702586770081
 21
-27.323642463355391
 31
0.0
  0
CIRCLE
  5
AC
  8
DATA
  6
CONTINUOUS
 62
     7
 10
124.83071754575759
 20
25.347361132727251
 30
0.0
 40
23.750000000000011
  0
ARC
  5
AD
  8
DATA
  6
CONTINUOUS
 62
     7
 10
124.83071754575769
 20
25.347361132727329
 30
0.0
 40
20.000000000000188
 50
232.7936880219797
 51
218.89742555091959
  0
CIRCLE
  5
AE
  8
DATA
  6
CONTINUOUS
 62
     7
 10
124.83071754575759
 20
35.347361132727258
 30
0.0
 40
2.8750000000000169
  0
CIRCLE
  5
AF
  8
DATA
  6
CONTINUOUS
 62
     7
 10
134.83071754575749
 20
25.347361132727251
 30
0.0
 40
2.874999999999996
  0
CIRCLE
  5
B0
  8
DATA
  6
CONTINUOUS
 62
     7
 10
114.83071754575749
 20
25.347361132727251
 30
0.0
 40
2.8750000000000142
  0
ARC
  5
B1
  8
DATA
  6
CONTINUOUS
 62
     7
 10
112.0830022862791
 20
12.217726690731791
 30
0.0
 40
2.8750000000000071
 50
168.54291116051769
 51
283.14820241238249
  0
CIRCLE
  5
B2
  8
DATA
  6
CONTINUOUS
 62
     7
 10
124.83071754575759
 20
15.01980958561728
 30
0.0
 40
5.625
  0
TEXT
  5
B3
  8
DATA
 62
     7
 10
110.0699807020189
 20
29.630062301698828
 30
0.0
 40
4.3435763888888896
  1
-20
 41
0.7
 11
110.0699807020189
 21
33.97363869058772
 31
0.0
 73
     3
  0
TEXT
  5
B4
  8
DATA
 62
     7
 10
133.6152789505189
 20
29.630062301698828
 30
0.0
 40
4.3435763888888896
  1
0
 41
0.7
 11
133.6152789505189
 21
33.97363869058772
 31
0.0
 73
     3
  0
LINE
  5
B5
  8
DATA
  6
CONTINUOUS
 62
     7
 10
128.2682175452064
 20
37.847361133117843
 30
0.0
 11
138.2682175452064
 21
37.847361133117843
 31
0.0
  0
LINE
  5
B6
  8
DATA
  6
CONTINUOUS
 62
     7
 10
110.33784577866901
 20
37.847361133117843
 30
0.0
 11
113.4574740121316
 21
37.847361133117843
 31
0.0
  0
LINE
  5
B7
  8
DATA
  6
CONTINUOUS
 62
     7
 10
117.2182175452064
 20
37.847361133117843
 30
0.0
 11
120.33784577866901
 21
37.847361133117843
 31
0.0
  0
LINE
  5
B8
  8
DATA
  6
CONTINUOUS
 62
     7
 10
113.4574740121316
 20
35.163254974729377
 30
0.0
 11
117.2182175452064
 21
35.163254974729377
 31
0.0
  0
LINE
  5
B9
  8
DATA
  6
CONTINUOUS
 62
     7
 10
117.2182175452064
 20
37.847361133117843
 30
0.0
 11
117.2182175452064
 21
35.163254974729377
 31
0.0
  0
LINE
  5
BA
  8
DATA
  6
CONTINUOUS
 62
     7
 10
113.4574740121316
 20
37.847361133117843
 30
0.0
 11
113.4574740121316
 21
35.163254974729377
 31
0.0
  0
TEXT
  5
BB
  8
DATA
 62
     7
 10
97.015909446464065
 20
-10.528791308546939
 30
0.0
 40
5.4294704861111107
  1
コネクター拡大図
 41
0.7
 11
97.015909446464065
 21
-5.0993208224358284
 31
0.0
 73
     3
  0
LINE
  5
BC
  8
DATA
  6
CONTINUOUS
 62
     7
 10
93.75
 20
-12.5
 30
0.0
 11
156.25
 21
-12.5
 31
0.0
  0
ENDSEC
  0
EOF
