  0
SECTION
  2
HEADER
  9
$ACADVER
  1
AC1009
  9
$INSBASE
 10
0.0
 20
0.0
 30
0.0
  9
$EXTMIN
 10
-170.0164782349211
 20
-265.74833863455001
 30
-0.0015258207003583
  9
$EXTMAX
 10
370.0164807494923
 20
537.09174839639525
 30
0.0000000349246037
  9
$LIMMIN
 10
0.0
 20
0.0
  9
$LIMMAX
 10
0.0
 20
0.0
  9
$ORTHOMODE
 70
     0
  9
$REGENMODE
 70
     1
  9
$FILLMODE
 70
     1
  9
$QTEXTMODE
 70
     0
  9
$MIRRTEXT
 70
     1
  9
$DRAGMODE
 70
     2
  9
$LTSCALE
 40
15.24
  9
$OSMODE
 70
   231
  9
$ATTMODE
 70
     1
  9
$TEXTSIZE
 40
0.0
  9
$TRACEWID
 40
1.0
  9
$TEXTSTYLE
  7
STANDARD
  9
$CLAYER
  8
DATA
  9
$CELTYPE
  6
BYLAYER
  9
$CECOLOR
 62
   256
  9
$DIMSCALE
 40
1.0
  9
$DIMASZ
 40
0.18
  9
$DIMEXO
 40
0.0625
  9
$DIMDLI
 40
0.38
  9
$DIMRND
 40
0.0
  9
$DIMDLE
 40
0.0
  9
$DIMEXE
 40
0.18
  9
$DIMTP
 40
0.0
  9
$DIMTM
 40
0.0
  9
$DIMTXT
 40
0.18
  9
$DIMCEN
 40
0.09
  9
$DIMTSZ
 40
0.0
  9
$DIMTOL
 70
     0
  9
$DIMLIM
 70
     0
  9
$DIMTIH
 70
     1
  9
$DIMTOH
 70
     1
  9
$DIMSE1
 70
     0
  9
$DIMSE2
 70
     0
  9
$DIMTAD
 70
     0
  9
$DIMZIN
 70
     0
  9
$DIMBLK
  1

  9
$DIMASO
 70
     1
  9
$DIMSHO
 70
     1
  9
$DIMPOST
  1

  9
$DIMAPOST
  1

  9
$DIMALT
 70
     0
  9
$DIMALTD
 70
     2
  9
$DIMALTF
 40
25.399999999999999
  9
$DIMLFAC
 40
1.0
  9
$DIMTOFL
 70
     0
  9
$DIMTVP
 40
0.0
  9
$DIMTIX
 70
     0
  9
$DIMSOXD
 70
     0
  9
$DIMSAH
 70
     0
  9
$DIMBLK1
  1

  9
$DIMBLK2
  1

  9
$DIMSTYLE
  2
STANDARD
  9
$DIMCLRD
 70
     0
  9
$DIMCLRE
 70
     0
  9
$DIMCLRT
 70
     0
  9
$DIMTFAC
 40
1.0
  9
$DIMGAP
 40
0.09
  9
$LUNITS
 70
     2
  9
$LUPREC
 70
     4
  9
$SKETCHINC
 40
0.1
  9
$FILLETRAD
 40
0.0
  9
$AUNITS
 70
     0
  9
$AUPREC
 70
     0
  9
$MENU
  1
acad
  9
$ELEVATION
 40
0.0
  9
$PELEVATION
 40
0.0
  9
$THICKNESS
 40
0.0
  9
$LIMCHECK
 70
     0
  9
$BLIPMODE
 70
     0
  9
$CHAMFERA
 40
0.0
  9
$CHAMFERB
 40
0.0
  9
$SKPOLY
 70
     0
  9
$TDCREATE
 40
2455618.5991550931
  9
$TDUPDATE
 40
2455618.6175910071
  9
$TDINDWG
 40
0.0002132755
  9
$TDUSRTIMER
 40
0.0002132755
  9
$USRTIMER
 70
     1
  9
$ANGBASE
 50
0.0
  9
$ANGDIR
 70
     0
  9
$PDMODE
 70
     1
  9
$PDSIZE
 40
-2.0
  9
$PLINEWID
 40
0.0
  9
$COORDS
 70
     1
  9
$SPLFRAME
 70
     0
  9
$SPLINETYPE
 70
     6
  9
$SPLINESEGS
 70
     8
  9
$ATTDIA
 70
     0
  9
$ATTREQ
 70
     1
  9
$HANDLING
 70
     1
  9
$HANDSEED
  5
1C6
  9
$SURFTAB1
 70
     6
  9
$SURFTAB2
 70
     6
  9
$SURFTYPE
 70
     6
  9
$SURFU
 70
     6
  9
$SURFV
 70
     6
  9
$UCSNAME
  2

  9
$UCSORG
 10
0.0
 20
0.0
 30
0.0
  9
$UCSXDIR
 10
1.0
 20
0.0
 30
0.0
  9
$UCSYDIR
 10
0.0
 20
1.0
 30
0.0
  9
$PUCSNAME
  2

  9
$PUCSORG
 10
0.0
 20
0.0
 30
0.0
  9
$PUCSXDIR
 10
1.0
 20
0.0
 30
0.0
  9
$PUCSYDIR
 10
0.0
 20
1.0
 30
0.0
  9
$USERI1
 70
     0
  9
$USERI2
 70
     0
  9
$USERI3
 70
     0
  9
$USERI4
 70
     0
  9
$USERI5
 70
     0
  9
$USERR1
 40
0.0
  9
$USERR2
 40
0.0
  9
$USERR3
 40
0.0
  9
$USERR4
 40
0.0
  9
$USERR5
 40
0.0
  9
$WORLDVIEW
 70
     1
  9
$SHADEDGE
 70
     3
  9
$SHADEDIF
 70
    70
  9
$TILEMODE
 70
     1
  9
$MAXACTVP
 70
    64
  9
$PLIMCHECK
 70
     0
  9
$PEXTMIN
 10
1.0000000000000000E+020
 20
1.0000000000000000E+020
 30
1.0000000000000000E+020
  9
$PEXTMAX
 10
-1.0000000000000000E+020
 20
-1.0000000000000000E+020
 30
-1.0000000000000000E+020
  9
$PLIMMIN
 10
0.0
 20
0.0
  9
$PLIMMAX
 10
12.0
 20
9.0
  9
$UNITMODE
 70
     0
  9
$VISRETAIN
 70
     0
  9
$PLINEGEN
 70
     1
  9
$PSLTSCALE
 70
     0
  0
ENDSEC
  0
SECTION
  2
TABLES
  0
TABLE
  2
VPORT
 70
     1
  0
VPORT
  2
*ACTIVE
 70
     0
 10
0.0
 20
0.0
 11
1.0
 21
1.0
 12
100.0000012572856
 22
135.6717048809227
 13
0.0
 23
0.0
 14
1.0
 24
1.0
 15
0.0
 25
0.0
 16
0.0
 26
0.0
 36
1.0
 17
0.0
 27
0.0
 37
0.0
 40
808.75056619927125
 41
1.9619164619164611
 42
50.0
 43
0.0
 44
0.0
 50
0.0
 51
0.0
 71
     0
 72
  2000
 73
     1
 74
     1
 75
     0
 76
     0
 77
     0
 78
     0
  0
ENDTAB
  0
TABLE
  2
LTYPE
 70
    11
  0
LTYPE
  2
CONTINUOUS
 70
     0
  3
Solid line
 72
    65
 73
     0
 40
0.0
  0
ENDTAB
  0
TABLE
  2
LAYER
 70
     5
  0
LAYER
  2
0
 70
     0
 62
     7
  6
CONTINUOUS
  0
LAYER
  2
DATA
 70
     0
 62
     7
  6
CONTINUOUS
  0
LAYER
  2
HIBINO-BASE
 70
     0
 62
     7
  6
CONTINUOUS
  0
LAYER
  2
SPEC
 70
     0
 62
     7
  6
CONTINUOUS
  0
LAYER
  2
DIMNSIONS
 70
     0
 62
     7
  6
CONTINUOUS
  0
ENDTAB
  0
TABLE
  2
STYLE
 70
     3
  0
STYLE
  2
STANDARD
 70
     0
 40
0.0
 41
1.0
 50
0.0
 71
     0
 42
0.0
  3
txt
  4
BIGFONT.SHX
  0
ENDTAB
  0
TABLE
  2
VIEW
 70
     0
  0
ENDTAB
  0
TABLE
  2
UCS
 70
     0
  0
ENDTAB
  0
TABLE
  2
APPID
 70
     3
  0
APPID
  2
ACAD
 70
     0
  0
APPID
  2
ACADANNOTATIVE
 70
     0
  0
APPID
  2
ACAD_MLEADERVER
 70
     0
  0
ENDTAB
  0
TABLE
  2
DIMSTYLE
 70
     2
  0
DIMSTYLE
  2
STANDARD
 70
     0
  3

  4

  5

  6

  7

 40
1.0
 41
0.18
 42
0.0625
 43
0.38
 44
0.18
 45
0.0
 46
0.0
 47
0.0
 48
0.0
140
0.18
141
0.09
142
0.0
143
25.399999999999999
144
1.0
145
0.0
146
1.0
147
0.09
 71
     0
 72
     0
 73
     1
 74
     1
 75
     0
 76
     0
 77
     0
 78
     0
170
     0
171
     2
172
     0
173
     0
174
     0
175
     0
176
     0
177
     0
178
     0
  0
ENDTAB
  0
ENDSEC
  0
SECTION
  2
BLOCKS
  0
BLOCK
  8
0
  2
$MODEL_SPACE
 70
     0
 10
0.0
 20
0.0
 30
0.0
  3
$MODEL_SPACE
  1

  0
ENDBLK
  5
15D
  8
0
  0
BLOCK
 67
     1
  8
0
  2
$PAPER_SPACE
 70
     0
 10
0.0
 20
0.0
 30
0.0
  3
$PAPER_SPACE
  1

  0
ENDBLK
  5
159
 67
     1
  8
0
  0
ENDSEC
  0
SECTION
  2
ENTITIES
  0
LINE
  5
2C
  8
HIBINO-BASE
  6
CONTINUOUS
 62
     7
 10
-169.99999999999989
 20
537.06729578973182
 30
0.0
 11
370.0
 21
537.06729578973182
 31
0.0
  0
LINE
  5
2D
  8
HIBINO-BASE
  6
CONTINUOUS
 62
     7
 10
370.0
 20
-242.93270421026821
 30
0.0
 11
-169.99999999999989
 21
-242.93270421026821
 31
0.0
  0
LINE
  5
2E
  8
HIBINO-BASE
  6
CONTINUOUS
 62
     7
 10
-169.99999999999989
 20
-242.93270421026821
 30
0.0
 11
-169.99999999999989
 21
537.06729578973182
 31
0.0
  0
LINE
  5
2F
  8
HIBINO-BASE
  6
CONTINUOUS
 62
     7
 10
370.0
 20
537.06729578973182
 30
0.0
 11
370.0
 21
-242.93270421026821
 31
0.0
  0
LINE
  5
30
  8
HIBINO-BASE
  6
CONTINUOUS
 62
     7
 10
100.0
 20
-175.4327042102681
 30
0.0
 11
370.0
 21
-175.4327042102681
 31
0.0
  0
LINE
  5
31
  8
HIBINO-BASE
  6
CONTINUOUS
 62
     7
 10
100.0
 20
-242.93270421026821
 30
0.0
 11
100.0
 21
-175.4327042102681
 31
0.0
  0
TEXT
  5
32
  8
HIBINO-BASE
 62
     7
 10
102.7
 20
-182.95878421026811
 30
0.0
 40
4.8865234374999993
  1
NOTE
 41
0.7
 11
102.7
 21
-178.0722607727682
 31
0.0
 73
     3
  0
LINE
  5
33
  8
HIBINO-BASE
  6
CONTINUOUS
 62
     7
 10
205.0
 20
-242.93270421026821
 30
0.0
 11
205.0
 21
-175.4327042102681
 31
0.0
  0
TEXT
  5
34
  8
HIBINO-BASE
 62
     7
 10
207.69999999999999
 20
-182.95878421026811
 30
0.0
 40
4.8865234374999993
  1
TITLE
 41
0.7
 11
207.69999999999999
 21
-178.0722607727682
 31
0.0
 73
     3
  0
LINE
  5
35
  8
HIBINO-BASE
  6
CONTINUOUS
 62
     7
 10
100.0
 20
-212.9327042102681
 30
0.0
 11
370.0
 21
-212.9327042102681
 31
0.0
  0
TEXT
  5
36
  8
HIBINO-BASE
 62
     7
 10
245.19999999999999
 20
-220.28982421026819
 30
0.0
 40
4.8865234374999993
  1
DRAWN
 41
0.7
 11
245.19999999999999
 21
-215.4033007727682
 31
0.0
 73
     3
  0
TEXT
  5
37
  8
HIBINO-BASE
 62
     7
 10
170.19999999999999
 20
-220.28982421026819
 30
0.0
 40
4.8865234374999993
  1
DATE
 41
0.7
 11
170.19999999999999
 21
-215.4033007727682
 31
0.0
 73
     3
  0
TEXT
  5
38
  8
HIBINO-BASE
 62
     7
 10
140.19999999999999
 20
-220.28982421026819
 30
0.0
 40
4.8865234374999993
  1
SCALE
 41
0.7
 11
140.19999999999999
 21
-215.4033007727682
 31
0.0
 73
     3
  0
TEXT
  5
39
  8
HIBINO-BASE
 62
     7
 10
207.69999999999999
 20
-220.28982421026819
 30
0.0
 40
4.8865234374999993
  1
DESIGN
 41
0.7
 11
207.69999999999999
 21
-215.4033007727682
 31
0.0
 73
     3
  0
TEXT
  5
3A
  8
HIBINO-BASE
 62
     7
 10
320.19999999999999
 20
-220.28982421026819
 30
0.0
 40
4.8865234374999993
  1
DRAWING NO.
 41
0.7
 11
320.19999999999999
 21
-215.4033007727682
 31
0.0
 73
     3
  0
TEXT
  5
3B
  8
HIBINO-BASE
 62
     7
 10
282.69999999999999
 20
-220.28982421026819
 30
0.0
 40
4.8865234374999993
  1
CHECK
 41
0.7
 11
282.69999999999999
 21
-215.4033007727682
 31
0.0
 73
     3
  0
LINE
  5
3C
  8
HIBINO-BASE
  6
CONTINUOUS
 62
     7
 10
143.12499999999989
 20
-239.18270421026821
 30
0.0
 11
154.375
 21
-227.9327042102681
 31
0.0
  0
TEXT
  5
3D
  8
HIBINO-BASE
 62
     7
 10
141.24999999999989
 20
-231.25953421026821
 30
0.0
 40
4.8865234374999993
  1
1
 41
0.7
 11
141.24999999999989
 21
-226.3730107727682
 31
0.0
 73
     3
  0
LINE
  5
3E
  8
HIBINO-BASE
  6
CONTINUOUS
 62
     7
 10
137.5
 20
-242.93270421026821
 30
0.0
 11
137.5
 21
-212.9327042102681
 31
0.0
  0
LINE
  5
3F
  8
HIBINO-BASE
  6
CONTINUOUS
 62
     7
 10
167.5
 20
-242.93270421026821
 30
0.0
 11
167.5
 21
-212.9327042102681
 31
0.0
  0
LINE
  5
40
  8
HIBINO-BASE
  6
CONTINUOUS
 62
     7
 10
242.5
 20
-212.9327042102681
 30
0.0
 11
242.5
 21
-242.93270421026821
 31
0.0
  0
LINE
  5
41
  8
HIBINO-BASE
  6
CONTINUOUS
 62
     7
 10
317.5
 20
-212.9327042102681
 30
0.0
 11
317.5
 21
-242.93270421026821
 31
0.0
  0
LINE
  5
42
  8
HIBINO-BASE
  6
CONTINUOUS
 62
     7
 10
279.99999999999989
 20
-242.93270421026821
 30
0.0
 11
279.99999999999989
 21
-212.9327042102681
 31
0.0
  0
TEXT
  5
43
  8
HIBINO-BASE
 62
     7
 10
170.06961999999999
 20
-234.3417642102682
 30
0.0
 40
4.8865234374999993
  1
'11.02.
 41
0.7
 11
170.06961999999999
 21
-229.45524077276821
 31
0.0
 73
     3
  0
TEXT
  5
44
  8
HIBINO-BASE
 62
     7
 10
152.5
 20
-236.88453421026821
 30
0.0
 40
4.8865234374999993
  1
3
 41
0.7
 11
152.5
 21
-231.9980107727682
 31
0.0
 73
     3
  0
TEXT
  5
45
  8
HIBINO-BASE
 62
     7
 10
247.01743003310389
 20
-234.3417642102682
 30
0.0
 40
4.8865234374999993
  1
T.Ootake
 41
0.7
 11
247.01743003310389
 21
-229.45524077276821
 31
0.0
 73
     3
  0
TEXT
  5
46
  8
HIBINO-BASE
 62
     7
 10
111.65000000000001
 20
-237.0047042102681
 30
0.0
 40
9.7730468749999986
  1
A4
 41
0.7
 11
111.65000000000001
 21
-227.2316573352681
 31
0.0
 73
     3
  0
TEXT
  5
47
  8
HIBINO-BASE
 62
     7
 10
102.875
 20
-220.79106921026809
 30
0.0
 40
4.8865234374999993
  1
PAPER SIZE
 41
0.7
 11
102.875
 21
-215.9045457727681
 31
0.0
 73
     3
  0
TEXT
  5
48
  8
HIBINO-BASE
 62
     7
 10
-161.7210942293294
 20
-262.20842491279689
 30
0.0
 40
10.58746744791666
  1
Hibino-Intersound Corporation
 41
0.7
 11
-161.7210942293294
 21
-251.62095746488029
 31
0.0
 73
     3
  0
TEXT
  5
49
  8
HIBINO-BASE
 62
     7
 10
160.54182904064169
 20
-261.15516015292872
 30
0.0
 40
10.58746744791666
  1
ヒビノインターサウンド株式会社
 41
0.7
 11
160.54182904064169
 21
-250.56769270501201
 31
0.0
 73
     3
  0
LINE
  5
4A
  8
SPEC
  6
CONTINUOUS
 62
     7
 10
-147.49999999999989
 20
507.0672957897317
 30
0.0
 11
295.0
 21
507.0672957897317
 31
0.0
  0
LINE
  5
4B
  8
SPEC
  6
CONTINUOUS
 62
     7
 10
-147.49999999999989
 20
495.8172957897317
 30
0.0
 11
295.0
 21
495.8172957897317
 31
0.0
  0
LINE
  5
4C
  8
SPEC
  6
CONTINUOUS
 62
     7
 10
-147.49999999999989
 20
473.3172957897317
 30
0.0
 11
295.0
 21
473.3172957897317
 31
0.0
  0
LINE
  5
4D
  8
SPEC
  6
CONTINUOUS
 62
     7
 10
-147.49999999999989
 20
484.5672957897317
 30
0.0
 11
295.0
 21
484.5672957897317
 31
0.0
  0
LINE
  5
4E
  8
SPEC
  6
CONTINUOUS
 62
     7
 10
-147.49999999999989
 20
507.0672957897317
 30
0.0
 11
-147.49999999999989
 21
394.5672957897317
 31
0.0
  0
TEXT
  5
4F
  8
SPEC
 62
     7
 10
-143.74999999999989
 20
511.24710578973179
 30
0.0
 40
7.3297851562499989
  1
仕様
 41
0.7
 11
-143.74999999999989
 21
518.57689094598175
 31
0.0
 73
     3
  0
LINE
  5
50
  8
SPEC
  6
CONTINUOUS
 62
     7
 10
-40.0
 20
507.0672957897317
 30
0.0
 11
-40.000000000000007
 21
394.5672957897317
 31
0.0
  0
LINE
  5
51
  8
SPEC
  6
CONTINUOUS
 62
     7
 10
295.0
 20
507.0672957897317
 30
0.0
 11
295.0
 21
394.5672957897317
 31
0.0
  0
LINE
  5
52
  8
SPEC
  6
CONTINUOUS
 62
     7
 10
-147.49999999999989
 20
462.0672957897317
 30
0.0
 11
295.0
 21
462.0672957897317
 31
0.0
  0
LINE
  5
53
  8
SPEC
  6
CONTINUOUS
 62
     7
 10
-147.49999999999989
 20
450.8172957897317
 30
0.0
 11
295.0
 21
450.8172957897317
 31
0.0
  0
LINE
  5
54
  8
SPEC
  6
CONTINUOUS
 62
     7
 10
-147.49999999999989
 20
439.5672957897317
 30
0.0
 11
295.0
 21
439.5672957897317
 31
0.0
  0
LINE
  5
55
  8
SPEC
  6
CONTINUOUS
 62
     7
 10
-147.49999999999989
 20
428.3172957897317
 30
0.0
 11
295.0
 21
428.3172957897317
 31
0.0
  0
LINE
  5
56
  8
SPEC
  6
CONTINUOUS
 62
     7
 10
-147.49999999999989
 20
417.0672957897317
 30
0.0
 11
295.0
 21
417.0672957897317
 31
0.0
  0
LINE
  5
57
  8
SPEC
  6
CONTINUOUS
 62
     7
 10
-147.49999999999989
 20
405.8172957897317
 30
0.0
 11
295.0
 21
405.8172957897317
 31
0.0
  0
LINE
  5
58
  8
SPEC
  6
CONTINUOUS
 62
     7
 10
-147.49999999999989
 20
394.5672957897317
 30
0.0
 11
295.0
 21
394.5672957897317
 31
0.0
  0
TEXT
  5
59
  8
SPEC
 62
     7
 10
-144.95907982882119
 20
420.02092258689288
 30
0.0
 40
5.7009440104166647
  1
寸法
 41
0.7
 11
-144.95907982882119
 21
425.72186659730971
 31
0.0
 73
     3
  0
TEXT
  5
5A
  8
SPEC
 62
     7
 10
-37.656699203138558
 20
419.7646347820625
 30
0.0
 40
5.7009440104166647
  1
\U+03A619\U+00D799mm(突起部含まず）
 41
0.7
 11
-37.656699203138558
 21
425.46557879247922
 31
0.0
 73
     3
  0
TEXT
  5
5B
  8
SPEC
 62
     7
 10
-36.450387699958597
 20
431.1416050982067
 30
0.0
 40
5.7009440104166647
  1
約40g
 41
0.7
 11
-36.450387699958597
 21
436.84254910862342
 31
0.0
 73
     3
  0
TEXT
  5
5C
  8
SPEC
 62
     7
 10
-144.82008294500901
 20
431.10746400969572
 30
0.0
 40
5.7009440104166647
  1
重量
 41
0.7
 11
-144.82008294500901
 21
436.80840802011232
 31
0.0
 73
     3
  0
TEXT
  5
5D
  8
SPEC
 62
     7
 10
-144.644280907275
 20
397.98423745757771
 30
0.0
 40
5.7009440104166647
  1
使用湿度範囲
 41
0.7
 11
-144.644280907275
 21
403.68518146799431
 31
0.0
 73
     3
  0
TEXT
  5
5E
  8
SPEC
 62
     7
 10
-36.985218886647623
 20
397.5933177766571
 30
0.0
 40
5.7009440104166647
  1
90%%%以下
 41
0.7
 11
-36.985218886647623
 21
403.29426178707371
 31
0.0
 73
     3
  0
TEXT
  5
5F
  8
SPEC
 62
     7
 10
-144.6843284220399
 20
408.8259210431662
 30
0.0
 40
5.7009440104166647
  1
使用温度範囲
 41
0.7
 11
-144.6843284220399
 21
414.52686505358281
 31
0.0
 73
     3
  0
TEXT
  5
60
  8
SPEC
 62
     7
 10
-37.111831815090703
 20
408.42672640843142
 30
0.0
 40
5.7009440104166647
  1
-40℃～45℃
 41
0.7
 11
-37.111831815090703
 21
414.12767041884803
 31
0.0
 73
     3
  0
TEXT
  5
61
  8
SPEC
 62
     7
 10
-145.2659492395247
 20
442.55469170149013
 30
0.0
 40
5.7009440104166647
  1
コネクター
 41
0.7
 11
-145.2659492395247
 21
448.25563571190668
 31
0.0
 73
     3
  0
TEXT
  5
62
  8
SPEC
 62
     7
 10
-37.020831420558132
 20
442.13276939595772
 30
0.0
 40
5.7009440104166647
  1
XLR3ピン(オス)
 41
0.7
 11
-37.020831420558132
 21
447.83371340637427
 31
0.0
 73
     3
  0
TEXT
  5
63
  8
SPEC
 62
     7
 10
-144.51387942432319
 20
453.60905892978531
 30
0.0
 40
5.7009440104166647
  1
電源
 41
0.7
 11
-144.51387942432319
 21
459.31000294020203
 31
0.0
 73
     3
  0
TEXT
  5
64
  8
SPEC
 62
     7
 10
-38.077925937017071
 20
453.87779700792203
 30
0.0
 40
5.7009440104166647
  1
ファンタムDC48V/4.5mA
 41
0.7
 11
-38.077925937017071
 21
459.57874101833858
 31
0.0
 73
     3
  0
TEXT
  5
65
  8
SPEC
 62
     7
 10
-145.12653159513201
 20
464.67151361961351
 30
0.0
 40
5.7009440104166647
  1
ケーブル引き伸ばし可能距離
 41
0.7
 11
-145.12653159513201
 21
470.37245763003011
 31
0.0
 73
     3
  0
TEXT
  5
66
  8
SPEC
 62
     7
 10
-37.066844206937787
 20
464.86232027490013
 30
0.0
 40
5.7009440104166647
  1
最大100m
 41
0.7
 11
-37.066844206937787
 21
470.56326428531668
 31
0.0
 73
     3
  0
TEXT
  5
67
  8
SPEC
 62
     7
 10
-145.17372407551639
 20
476.33594083065719
 30
0.0
 40
5.7009440104166647
  1
インピーダンス
 41
0.7
 11
-145.17372407551639
 21
482.0368848410738
 31
0.0
 73
     3
  0
TEXT
  5
68
  8
SPEC
 62
     7
 10
-37.789541799917757
 20
475.88820144914581
 30
0.0
 40
5.7009440104166647
  1
150\U+03A9以下
 41
0.7
 11
-37.789541799917757
 21
481.58914545956247
 31
0.0
 73
     3
  0
TEXT
  5
69
  8
SPEC
 62
     7
 10
-145.33332900984479
 20
498.3839971297682
 30
0.0
 40
5.7009440104166647
  1
ダイナミックレンジ(代表値)
 41
0.7
 11
-145.33332900984479
 21
504.08494114018492
 31
0.0
 73
     3
  0
TEXT
  5
6A
  8
SPEC
 62
     7
 10
-37.248023107784562
 20
498.40962464679183
 30
0.0
 40
5.7009440104166647
  1
124dB
 41
0.7
 11
-37.248023107784562
 21
504.11056865720849
 31
0.0
 73
     3
  0
TEXT
  5
6B
  8
SPEC
 62
     7
 10
-145.55122936954641
 20
487.490552491546
 30
0.0
 40
5.7009440104166647
  1
フィルター(スイッチ式)
 41
0.7
 11
-145.55122936954641
 21
493.1914965019626
 31
0.0
 73
     3
  0
TEXT
  5
6C
  8
SPEC
 62
     7
 10
-37.477312058877992
 20
487.51038475383649
 30
0.0
 40
5.7009440104166647
  1
ハイブースト：+4dB at 8kHz/ローカット：120Hz
 41
0.7
 11
-37.477312058877992
 21
493.21132876425321
 31
0.0
 73
     3
  0
TEXT
  5
6D
  8
DIMNSIONS
 62
     7
 10
40.0
 20
-206.12423421026821
 30
0.0
 40
7.3297851562499989
  1
(単位：mm)
 41
0.7
 11
40.0
 21
-198.79444905401809
 31
0.0
 73
     3
  0
LINE
  5
6E
  8
DIMNSIONS
  6
CONTINUOUS
 62
     7
 10
-30.999999999999989
 20
-56.25
 30
0.0
 11
-62.250000000000021
 21
-56.25
 31
0.0
  0
LINE
  5
6F
  8
DIMNSIONS
  6
CONTINUOUS
 62
     7
 10
-30.999999999999989
 20
42.75
 30
0.0
 11
-62.250000000000021
 21
42.75
 31
0.0
  0
LINE
  5
70
  8
DIMNSIONS
  6
CONTINUOUS
 62
     7
 10
-56.250000000000021
 20
-56.25
 30
0.0
 11
-56.250000000000021
 21
42.75
 31
0.0
  0
LINE
  5
71
  8
DIMNSIONS
  6
CONTINUOUS
 62
     7
 10
-56.250000000000021
 20
-56.25
 30
0.0
 11
-58.26011938545075
 21
-48.748132324218737
 31
0.0
  0
LINE
  5
72
  8
DIMNSIONS
  6
CONTINUOUS
 62
     7
 10
-56.250000000000021
 20
-56.25
 30
0.0
 11
-54.239880614549278
 21
-48.748132324218737
 31
0.0
  0
LINE
  5
73
  8
DIMNSIONS
  6
CONTINUOUS
 62
     7
 10
-56.250000000000021
 20
42.75
 30
0.0
 11
-54.239880614549278
 21
35.248132324218737
 31
0.0
  0
LINE
  5
74
  8
DIMNSIONS
  6
CONTINUOUS
 62
     7
 10
-56.250000000000021
 20
42.75
 30
0.0
 11
-58.26011938545075
 21
35.248132324218737
 31
0.0
  0
TEXT
  5
75
  8
DIMNSIONS
 62
     7
 10
-59.231666666666662
 20
-12.04166666666665
 30
0.0
 40
8.1442057291666661
  1
99
 50
90.0
 41
0.7
 11
-67.375872395833326
 21
-12.04166666666665
 31
0.0
 73
     3
  0
LINE
  5
76
  8
DIMNSIONS
  6
CONTINUOUS
 62
     7
 10
-9.4471036583001506
 20
88.572052026508928
 30
0.0
 11
-0.0000000002204672
 21
100.000000000155
 31
0.0
  0
LINE
  5
77
  8
DIMNSIONS
  6
CONTINUOUS
 62
     7
 10
-9.4471036583001506
 20
88.572052026508928
 30
0.0
 11
-6.1648368520302759
 21
95.610895907513523
 31
0.0
  0
LINE
  5
78
  8
DIMNSIONS
  6
CONTINUOUS
 62
     7
 10
-9.4471036583001506
 20
88.572052026508928
 30
0.0
 11
-3.0851552815697398
 21
93.026736237596623
 31
0.0
  0
LINE
  5
79
  8
DIMNSIONS
  6
CONTINUOUS
 62
     7
 10
-0.0000000002204672
 20
100.000000000155
 30
0.0
 11
20.111111783760851
 21
100.000000000155
 31
0.0
  0
TEXT
  5
7A
  8
DIMNSIONS
 62
     7
 10
5.9999999997795319
 20
101.98777777793271
 30
0.0
 40
5.4294704861111107
  1
\U+03C619
 41
0.7
 11
5.9999999997795319
 21
107.41724826404391
 31
0.0
 73
     3
  0
TEXT
  5
7B
  8
DATA
 62
     7
 10
250.0
 20
-210.288246439261
 30
0.0
 40
7.3297851562499989
  1
MMP-B
 41
0.7
 11
250.0
 21
-202.95846128301099
 31
0.0
 73
     3
  0
TEXT
  5
7C
  8
DATA
 62
     7
 10
250.0
 20
-187.7900342102682
 30
0.0
 40
7.3297851562499989
  1
DPA
 41
0.7
 11
250.0
 21
-180.46024905401811
 31
0.0
 73
     3
  0
TEXT
  5
7D
  8
DATA
 62
     7
 10
241.44737385135889
 20
-197.62233302707381
 30
0.0
 40
4.8865311328124994
  1
プリアンプ
 41
0.7
 11
241.44737385135889
 21
-192.7358018942613
 31
0.0
 73
     3
  0
TEXT
  5
7E
  8
DATA
 62
     7
 10
-139.99999999999989
 20
-230.21870421026821
 30
0.0
 40
4.8865234374999993
  1
仕様および外観は予告なく変更されることがありますので、ご了承ください。
 41
0.7
 11
-139.99999999999989
 21
-225.3321807727682
 31
0.0
 73
     3
  0
TEXT
  5
7F
  8
DATA
 62
     7
 10
-21.030914909985079
 20
-53.340666666666671
 30
0.0
 40
3.2576822916666659
  1
MMP-B
 41
0.7
 11
-21.030914909985079
 21
-50.082984375000002
 31
0.0
 73
     3
  0
LINE
  5
80
  8
DATA
  6
CONTINUOUS
 62
     7
 10
-25.000000000000011
 20
42.750000000331561
 30
0.0
 11
-6.0000000000000142
 21
42.750000000331561
 31
0.0
  0
CIRCLE
  5
81
  8
DATA
  6
CONTINUOUS
 62
     7
 10
-15.500000000000011
 20
81.250000000154984
 30
0.0
 40
9.5
  0
CIRCLE
  5
82
  8
DATA
  6
CONTINUOUS
 62
     7
 10
-15.500000000000011
 20
81.250000000154984
 30
0.0
 40
6.9499999999999877
  0
CIRCLE
  5
83
  8
DATA
  6
CONTINUOUS
 62
     7
 10
-15.500000000000011
 20
81.250000000154984
 30
0.0
 40
0.6500000000000057
  0
LINE
  5
84
  8
DATA
  6
CONTINUOUS
 62
     7
 10
-22.449999999999999
 20
46.750000000331958
 30
0.0
 11
-8.5500000000000256
 21
46.750000000331958
 31
0.0
  0
LINE
  5
85
  8
DATA
  6
CONTINUOUS
 62
     7
 10
-22.449999999999999
 20
46.750000000331958
 30
0.0
 11
-22.449999999999999
 21
42.750000000331561
 31
0.0
  0
LINE
  5
86
  8
DATA
  6
CONTINUOUS
 62
     7
 10
-8.5500000000000256
 20
46.750000000331958
 30
0.0
 11
-8.5500000000000256
 21
42.750000000331561
 31
0.0
  0
LINE
  5
87
  8
DATA
  6
CONTINUOUS
 62
     7
 10
-15.65000000000002
 20
49.750000000331973
 30
0.0
 11
-15.35000000000001
 21
49.750000000331973
 31
0.0
  0
LINE
  5
88
  8
DATA
  6
CONTINUOUS
 62
     7
 10
-16.15000000000002
 20
49.250000000331973
 30
0.0
 11
-16.15000000000002
 21
46.750000000331958
 31
0.0
  0
LINE
  5
89
  8
DATA
  6
CONTINUOUS
 62
     7
 10
-14.85000000000001
 20
49.250000000331973
 30
0.0
 11
-14.85000000000001
 21
46.750000000331958
 31
0.0
  0
LINE
  5
8A
  8
DATA
  6
CONTINUOUS
 62
     7
 10
-22.449999999999999
 20
42.750000000331561
 30
0.0
 11
-8.5500000000000256
 21
43.707946554737212
 31
0.0
  0
LINE
  5
8B
  8
DATA
  6
CONTINUOUS
 62
     7
 10
-22.449999999999999
 20
43.750000000331568
 30
0.0
 11
-8.5500000000000256
 21
44.707946554737212
 31
0.0
  0
LINE
  5
8C
  8
DATA
  6
CONTINUOUS
 62
     7
 10
-22.449999999999999
 20
44.750000000331582
 30
0.0
 11
-8.5500000000000256
 21
45.707946554737212
 31
0.0
  0
LINE
  5
8D
  8
DATA
  6
CONTINUOUS
 62
     7
 10
-22.449999999999999
 20
45.750000000331568
 30
0.0
 11
-8.5500000000000256
 21
46.707946554737212
 31
0.0
  0
ARC
  5
8E
  8
DATA
  6
CONTINUOUS
 62
     7
 10
-15.65000000000002
 20
49.250000000331973
 30
0.0
 40
0.5
 50
90.0
 51
180.0
  0
ARC
  5
8F
  8
DATA
  6
CONTINUOUS
 62
     7
 10
-15.35000000000001
 20
49.250000000331973
 30
0.0
 40
0.5
 50
0.0
 51
90.0
  0
LINE
  5
90
  8
DATA
  6
CONTINUOUS
 62
     7
 10
-25.0
 20
-56.25
 30
0.0
 11
-25.0
 21
42.75
 31
0.0
  0
LINE
  5
91
  8
DATA
  6
CONTINUOUS
 62
     7
 10
-6.0
 20
-56.25
 30
0.0
 11
-25.0
 21
-56.25
 31
0.0
  0
LINE
  5
92
  8
DATA
  6
CONTINUOUS
 62
     7
 10
-6.0
 20
42.749999999999993
 30
0.0
 11
-6.0
 21
-56.25
 31
0.0
  0
CIRCLE
  5
93
  8
DATA
  6
CONTINUOUS
 62
     7
 10
-15.5
 20
-87.5
 30
0.0
 40
9.5
  0
ARC
  5
94
  8
DATA
  6
CONTINUOUS
 62
     7
 10
-15.500000000000069
 20
-87.5
 30
0.0
 40
8.0000000000000302
 50
52.793688021979563
 51
38.897425550919401
  0
CIRCLE
  5
95
  8
DATA
  6
CONTINUOUS
 62
     7
 10
-15.5
 20
-91.5
 30
0.0
 40
1.150000000000005
  0
CIRCLE
  5
96
  8
DATA
  6
CONTINUOUS
 62
     7
 10
-19.5
 20
-87.5
 30
0.0
 40
1.150000000000005
  0
CIRCLE
  5
97
  8
DATA
  6
CONTINUOUS
 62
     7
 10
-11.5
 20
-87.5
 30
0.0
 40
1.150000000000005
  0
ARC
  5
98
  8
DATA
  6
CONTINUOUS
 62
     7
 10
-10.400913896208619
 20
-82.248146223201843
 30
0.0
 40
1.150000000000003
 50
348.54291116051758
 51
103.1482024123824
  0
LINE
  5
99
  8
DATA
  6
CONTINUOUS
 62
     7
 10
-6.0
 20
-4.25
 30
0.0
 11
-25.0
 21
-4.25
 31
0.0
  0
LINE
  5
9A
  8
DATA
  6
CONTINUOUS
 62
     7
 10
-6.0
 20
1.75
 30
0.0
 11
-25.0
 21
1.75
 31
0.0
  0
LINE
  5
9B
  8
DATA
  6
CONTINUOUS
 62
     7
 10
-6.0
 20
10.55000000000001
 30
0.0
 11
-25.0
 21
10.55000000000001
 31
0.0
  0
LINE
  5
9C
  8
DATA
  6
CONTINUOUS
 62
     7
 10
-6.0
 20
16.550000000000011
 30
0.0
 11
-25.0
 21
16.550000000000011
 31
0.0
  0
CIRCLE
  5
9D
  8
DATA
  6
CONTINUOUS
 62
     7
 10
-15.49999999999998
 20
13.55000000000001
 30
0.0
 40
0.25
  0
CIRCLE
  5
9E
  8
DATA
  6
CONTINUOUS
 62
     7
 10
-15.49999999999998
 20
-1.25
 30
0.0
 40
0.25
  0
TEXT
  5
9F
  8
DATA
 62
     7
 10
-22.874126286971119
 20
5.267032303756439
 30
0.0
 40
1.6288411458333329
  1
Off
 41
0.7
 11
-22.874126286971119
 21
6.8958734495897724
 31
0.0
 73
     3
  0
TEXT
  5
A0
  8
DATA
 62
     7
 10
-11.39489279296177
 20
5.267032303756439
 30
0.0
 40
1.6288411458333329
  1
On
 41
0.7
 11
-11.39489279296177
 21
6.8958734495897724
 31
0.0
 73
     3
  0
LINE
  5
A1
  8
DATA
  6
CONTINUOUS
 62
     7
 10
-19.25
 20
7.6499999999999773
 30
0.0
 11
-19.25
 21
10.55000000000001
 31
0.0
  0
LINE
  5
A2
  8
DATA
  6
CONTINUOUS
 62
     7
 10
-11.75
 20
7.6499999999999773
 30
0.0
 11
-11.75
 21
10.55000000000001
 31
0.0
  0
LINE
  5
A3
  8
DATA
  6
CONTINUOUS
 62
     7
 10
-19.25
 20
4.6499999999999764
 30
0.0
 11
-19.25
 21
1.75
 31
0.0
  0
LINE
  5
A4
  8
DATA
  6
CONTINUOUS
 62
     7
 10
-11.75
 20
4.6499999999999764
 30
0.0
 11
-11.75
 21
1.75
 31
0.0
  0
LINE
  5
A5
  8
DATA
  6
CONTINUOUS
 62
     7
 10
-12.699999999999999
 20
4.1499999999999764
 30
0.0
 11
-16.899999999999999
 21
4.1499999999999764
 31
0.0
  0
LINE
  5
A6
  8
DATA
  6
CONTINUOUS
 62
     7
 10
-16.899999999999999
 20
4.1499999999999764
 30
0.0
 11
-18.600000000000009
 21
2.75
 31
0.0
  0
LINE
  5
A7
  8
DATA
  6
CONTINUOUS
 62
     7
 10
-18.800000000000001
 20
8.0499999999999847
 30
0.0
 11
-16.600000000000009
 21
8.0499999999999847
 31
0.0
  0
LINE
  5
A8
  8
DATA
  6
CONTINUOUS
 62
     7
 10
-16.600000000000009
 20
8.0499999999999847
 30
0.0
 11
-14.699999999999999
 21
9.1469655114602801
 31
0.0
  0
LINE
  5
A9
  8
DATA
  6
CONTINUOUS
 62
     7
 10
-14.699999999999999
 20
9.1469655114602801
 30
0.0
 11
-12.699999999999999
 21
9.1469655114602801
 31
0.0
  0
LINE
  5
AA
  8
DATA
  6
CONTINUOUS
 62
     7
 10
-24.20000000000001
 20
-4.25
 30
0.0
 11
-24.20000000000001
 21
1.7999999999999821
 31
0.0
  0
LINE
  5
AB
  8
DATA
  6
CONTINUOUS
 62
     7
 10
-24.20000000000001
 20
-4.25
 30
0.0
 11
-24.20000000000001
 21
1.75
 31
0.0
  0
LINE
  5
AC
  8
DATA
  6
CONTINUOUS
 62
     7
 10
-24.20000000000001
 20
10.55000000000001
 30
0.0
 11
-24.20000000000001
 21
16.550000000000011
 31
0.0
  0
LINE
  5
AD
  8
DATA
  6
CONTINUOUS
 62
     7
 10
-23.400000000000009
 20
-4.25
 30
0.0
 11
-23.400000000000009
 21
1.7999999999999821
 31
0.0
  0
LINE
  5
AE
  8
DATA
  6
CONTINUOUS
 62
     7
 10
-23.400000000000009
 20
-4.25
 30
0.0
 11
-23.400000000000009
 21
1.75
 31
0.0
  0
LINE
  5
AF
  8
DATA
  6
CONTINUOUS
 62
     7
 10
-23.400000000000009
 20
10.55000000000001
 30
0.0
 11
-23.400000000000009
 21
16.550000000000011
 31
0.0
  0
LINE
  5
B0
  8
DATA
  6
CONTINUOUS
 62
     7
 10
-22.599999999999991
 20
-4.25
 30
0.0
 11
-22.599999999999991
 21
1.7999999999999821
 31
0.0
  0
LINE
  5
B1
  8
DATA
  6
CONTINUOUS
 62
     7
 10
-22.599999999999991
 20
-4.25
 30
0.0
 11
-22.599999999999991
 21
1.75
 31
0.0
  0
LINE
  5
B2
  8
DATA
  6
CONTINUOUS
 62
     7
 10
-22.599999999999991
 20
10.55000000000001
 30
0.0
 11
-22.599999999999991
 21
16.550000000000011
 31
0.0
  0
LINE
  5
B3
  8
DATA
  6
CONTINUOUS
 62
     7
 10
-21.800000000000001
 20
-4.25
 30
0.0
 11
-21.800000000000001
 21
1.7999999999999821
 31
0.0
  0
LINE
  5
B4
  8
DATA
  6
CONTINUOUS
 62
     7
 10
-21.800000000000001
 20
-4.25
 30
0.0
 11
-21.800000000000001
 21
1.75
 31
0.0
  0
LINE
  5
B5
  8
DATA
  6
CONTINUOUS
 62
     7
 10
-21.800000000000001
 20
10.55000000000001
 30
0.0
 11
-21.800000000000001
 21
16.550000000000011
 31
0.0
  0
LINE
  5
B6
  8
DATA
  6
CONTINUOUS
 62
     7
 10
-21.0
 20
-4.25
 30
0.0
 11
-21.0
 21
1.7999999999999821
 31
0.0
  0
LINE
  5
B7
  8
DATA
  6
CONTINUOUS
 62
     7
 10
-21.0
 20
-4.25
 30
0.0
 11
-21.0
 21
1.75
 31
0.0
  0
LINE
  5
B8
  8
DATA
  6
CONTINUOUS
 62
     7
 10
-21.0
 20
10.55000000000001
 30
0.0
 11
-21.0
 21
16.550000000000011
 31
0.0
  0
LINE
  5
B9
  8
DATA
  6
CONTINUOUS
 62
     7
 10
-20.20000000000001
 20
-4.25
 30
0.0
 11
-20.20000000000001
 21
1.7999999999999821
 31
0.0
  0
LINE
  5
BA
  8
DATA
  6
CONTINUOUS
 62
     7
 10
-20.20000000000001
 20
-4.25
 30
0.0
 11
-20.20000000000001
 21
1.75
 31
0.0
  0
LINE
  5
BB
  8
DATA
  6
CONTINUOUS
 62
     7
 10
-20.20000000000001
 20
10.55000000000001
 30
0.0
 11
-20.20000000000001
 21
16.550000000000011
 31
0.0
  0
LINE
  5
BC
  8
DATA
  6
CONTINUOUS
 62
     7
 10
-19.399999999999999
 20
-4.25
 30
0.0
 11
-19.399999999999999
 21
1.7999999999999821
 31
0.0
  0
LINE
  5
BD
  8
DATA
  6
CONTINUOUS
 62
     7
 10
-19.399999999999999
 20
-4.25
 30
0.0
 11
-19.399999999999999
 21
1.75
 31
0.0
  0
LINE
  5
BE
  8
DATA
  6
CONTINUOUS
 62
     7
 10
-19.399999999999999
 20
10.55000000000001
 30
0.0
 11
-19.399999999999999
 21
16.550000000000011
 31
0.0
  0
LINE
  5
BF
  8
DATA
  6
CONTINUOUS
 62
     7
 10
-18.599999999999991
 20
-4.25
 30
0.0
 11
-18.599999999999991
 21
1.7999999999999821
 31
0.0
  0
LINE
  5
C0
  8
DATA
  6
CONTINUOUS
 62
     7
 10
-18.599999999999991
 20
-4.25
 30
0.0
 11
-18.599999999999991
 21
1.75
 31
0.0
  0
LINE
  5
C1
  8
DATA
  6
CONTINUOUS
 62
     7
 10
-18.599999999999991
 20
10.55000000000001
 30
0.0
 11
-18.599999999999991
 21
16.550000000000011
 31
0.0
  0
LINE
  5
C2
  8
DATA
  6
CONTINUOUS
 62
     7
 10
-17.79999999999999
 20
-4.25
 30
0.0
 11
-17.79999999999999
 21
1.7999999999999821
 31
0.0
  0
LINE
  5
C3
  8
DATA
  6
CONTINUOUS
 62
     7
 10
-17.79999999999999
 20
-4.25
 30
0.0
 11
-17.79999999999999
 21
1.75
 31
0.0
  0
LINE
  5
C4
  8
DATA
  6
CONTINUOUS
 62
     7
 10
-17.79999999999999
 20
10.55000000000001
 30
0.0
 11
-17.79999999999999
 21
16.550000000000011
 31
0.0
  0
LINE
  5
C5
  8
DATA
  6
CONTINUOUS
 62
     7
 10
-17.0
 20
-4.25
 30
0.0
 11
-17.0
 21
1.7999999999999821
 31
0.0
  0
LINE
  5
C6
  8
DATA
  6
CONTINUOUS
 62
     7
 10
-17.0
 20
-4.25
 30
0.0
 11
-17.0
 21
1.75
 31
0.0
  0
LINE
  5
C7
  8
DATA
  6
CONTINUOUS
 62
     7
 10
-17.0
 20
10.55000000000001
 30
0.0
 11
-17.0
 21
16.550000000000011
 31
0.0
  0
LINE
  5
C8
  8
DATA
  6
CONTINUOUS
 62
     7
 10
-16.199999999999999
 20
-4.25
 30
0.0
 11
-16.199999999999999
 21
1.7999999999999821
 31
0.0
  0
LINE
  5
C9
  8
DATA
  6
CONTINUOUS
 62
     7
 10
-16.199999999999999
 20
-4.25
 30
0.0
 11
-16.199999999999999
 21
1.75
 31
0.0
  0
LINE
  5
CA
  8
DATA
  6
CONTINUOUS
 62
     7
 10
-16.199999999999999
 20
10.55000000000001
 30
0.0
 11
-16.199999999999999
 21
16.550000000000011
 31
0.0
  0
LINE
  5
CB
  8
DATA
  6
CONTINUOUS
 62
     7
 10
-15.4
 20
-4.25
 30
0.0
 11
-15.4
 21
1.7999999999999821
 31
0.0
  0
LINE
  5
CC
  8
DATA
  6
CONTINUOUS
 62
     7
 10
-15.4
 20
-4.25
 30
0.0
 11
-15.4
 21
1.75
 31
0.0
  0
LINE
  5
CD
  8
DATA
  6
CONTINUOUS
 62
     7
 10
-15.4
 20
10.55000000000001
 30
0.0
 11
-15.4
 21
16.550000000000011
 31
0.0
  0
LINE
  5
CE
  8
DATA
  6
CONTINUOUS
 62
     7
 10
-14.599999999999991
 20
-4.25
 30
0.0
 11
-14.599999999999991
 21
1.7999999999999821
 31
0.0
  0
LINE
  5
CF
  8
DATA
  6
CONTINUOUS
 62
     7
 10
-14.599999999999991
 20
-4.25
 30
0.0
 11
-14.599999999999991
 21
1.75
 31
0.0
  0
LINE
  5
D0
  8
DATA
  6
CONTINUOUS
 62
     7
 10
-14.599999999999991
 20
10.55000000000001
 30
0.0
 11
-14.599999999999991
 21
16.550000000000011
 31
0.0
  0
LINE
  5
D1
  8
DATA
  6
CONTINUOUS
 62
     7
 10
-13.79999999999999
 20
-4.25
 30
0.0
 11
-13.79999999999999
 21
1.7999999999999821
 31
0.0
  0
LINE
  5
D2
  8
DATA
  6
CONTINUOUS
 62
     7
 10
-13.79999999999999
 20
-4.25
 30
0.0
 11
-13.79999999999999
 21
1.75
 31
0.0
  0
LINE
  5
D3
  8
DATA
  6
CONTINUOUS
 62
     7
 10
-13.79999999999999
 20
10.55000000000001
 30
0.0
 11
-13.79999999999999
 21
16.550000000000011
 31
0.0
  0
LINE
  5
D4
  8
DATA
  6
CONTINUOUS
 62
     7
 10
-13.0
 20
-4.25
 30
0.0
 11
-13.0
 21
1.7999999999999821
 31
0.0
  0
LINE
  5
D5
  8
DATA
  6
CONTINUOUS
 62
     7
 10
-13.0
 20
-4.25
 30
0.0
 11
-13.0
 21
1.75
 31
0.0
  0
LINE
  5
D6
  8
DATA
  6
CONTINUOUS
 62
     7
 10
-13.0
 20
10.55000000000001
 30
0.0
 11
-13.0
 21
16.550000000000011
 31
0.0
  0
LINE
  5
D7
  8
DATA
  6
CONTINUOUS
 62
     7
 10
-12.199999999999999
 20
-4.25
 30
0.0
 11
-12.199999999999999
 21
1.7999999999999821
 31
0.0
  0
LINE
  5
D8
  8
DATA
  6
CONTINUOUS
 62
     7
 10
-12.199999999999999
 20
-4.25
 30
0.0
 11
-12.199999999999999
 21
1.75
 31
0.0
  0
LINE
  5
D9
  8
DATA
  6
CONTINUOUS
 62
     7
 10
-12.199999999999999
 20
10.55000000000001
 30
0.0
 11
-12.199999999999999
 21
16.550000000000011
 31
0.0
  0
LINE
  5
DA
  8
DATA
  6
CONTINUOUS
 62
     7
 10
-11.39999999999999
 20
-4.25
 30
0.0
 11
-11.39999999999999
 21
1.7999999999999821
 31
0.0
  0
LINE
  5
DB
  8
DATA
  6
CONTINUOUS
 62
     7
 10
-11.39999999999999
 20
-4.25
 30
0.0
 11
-11.39999999999999
 21
1.75
 31
0.0
  0
LINE
  5
DC
  8
DATA
  6
CONTINUOUS
 62
     7
 10
-11.39999999999999
 20
10.55000000000001
 30
0.0
 11
-11.39999999999999
 21
16.550000000000011
 31
0.0
  0
LINE
  5
DD
  8
DATA
  6
CONTINUOUS
 62
     7
 10
-10.599999999999991
 20
-4.25
 30
0.0
 11
-10.599999999999991
 21
1.7999999999999821
 31
0.0
  0
LINE
  5
DE
  8
DATA
  6
CONTINUOUS
 62
     7
 10
-10.599999999999991
 20
-4.25
 30
0.0
 11
-10.599999999999991
 21
1.75
 31
0.0
  0
LINE
  5
DF
  8
DATA
  6
CONTINUOUS
 62
     7
 10
-10.599999999999991
 20
10.55000000000001
 30
0.0
 11
-10.599999999999991
 21
16.550000000000011
 31
0.0
  0
LINE
  5
E0
  8
DATA
  6
CONTINUOUS
 62
     7
 10
-9.7999999999999972
 20
-4.25
 30
0.0
 11
-9.7999999999999972
 21
1.7999999999999821
 31
0.0
  0
LINE
  5
E1
  8
DATA
  6
CONTINUOUS
 62
     7
 10
-9.7999999999999972
 20
-4.25
 30
0.0
 11
-9.7999999999999972
 21
1.75
 31
0.0
  0
LINE
  5
E2
  8
DATA
  6
CONTINUOUS
 62
     7
 10
-9.7999999999999972
 20
10.55000000000001
 30
0.0
 11
-9.7999999999999972
 21
16.550000000000011
 31
0.0
  0
LINE
  5
E3
  8
DATA
  6
CONTINUOUS
 62
     7
 10
-9.0
 20
-4.25
 30
0.0
 11
-9.0
 21
1.7999999999999821
 31
0.0
  0
LINE
  5
E4
  8
DATA
  6
CONTINUOUS
 62
     7
 10
-9.0
 20
-4.25
 30
0.0
 11
-9.0
 21
1.75
 31
0.0
  0
LINE
  5
E5
  8
DATA
  6
CONTINUOUS
 62
     7
 10
-9.0
 20
10.55000000000001
 30
0.0
 11
-9.0
 21
16.550000000000011
 31
0.0
  0
LINE
  5
E6
  8
DATA
  6
CONTINUOUS
 62
     7
 10
-8.2000000000000028
 20
-4.25
 30
0.0
 11
-8.2000000000000028
 21
1.7999999999999821
 31
0.0
  0
LINE
  5
E7
  8
DATA
  6
CONTINUOUS
 62
     7
 10
-8.2000000000000028
 20
-4.25
 30
0.0
 11
-8.2000000000000028
 21
1.75
 31
0.0
  0
LINE
  5
E8
  8
DATA
  6
CONTINUOUS
 62
     7
 10
-8.2000000000000028
 20
10.55000000000001
 30
0.0
 11
-8.2000000000000028
 21
16.550000000000011
 31
0.0
  0
LINE
  5
E9
  8
DATA
  6
CONTINUOUS
 62
     7
 10
-7.3999999999999897
 20
-4.25
 30
0.0
 11
-7.3999999999999897
 21
1.7999999999999821
 31
0.0
  0
LINE
  5
EA
  8
DATA
  6
CONTINUOUS
 62
     7
 10
-7.3999999999999897
 20
-4.25
 30
0.0
 11
-7.3999999999999897
 21
1.75
 31
0.0
  0
LINE
  5
EB
  8
DATA
  6
CONTINUOUS
 62
     7
 10
-7.3999999999999897
 20
10.55000000000001
 30
0.0
 11
-7.3999999999999897
 21
16.550000000000011
 31
0.0
  0
LINE
  5
EC
  8
DATA
  6
CONTINUOUS
 62
     7
 10
-6.5999999999999934
 20
-4.25
 30
0.0
 11
-6.5999999999999934
 21
1.7999999999999821
 31
0.0
  0
LINE
  5
ED
  8
DATA
  6
CONTINUOUS
 62
     7
 10
-6.5999999999999934
 20
-4.25
 30
0.0
 11
-6.5999999999999934
 21
1.75
 31
0.0
  0
LINE
  5
EE
  8
DATA
  6
CONTINUOUS
 62
     7
 10
-6.5999999999999934
 20
10.55000000000001
 30
0.0
 11
-6.5999999999999934
 21
16.550000000000011
 31
0.0
  0
ENDSEC
  0
EOF
