  0
SECTION
  2
HEADER
  9
$ACADVER
  1
AC1009
  9
$INSBASE
 10
0.0
 20
0.0
 30
0.0
  9
$EXTMIN
 10
-80.010985489947416
 20
-131.67677505465531
 30
-0.0015258207003583
  9
$EXTMAX
 10
280.01098716632811
 20
403.54994963264153
 30
0.0000000349246037
  9
$LIMMIN
 10
0.0
 20
0.0
  9
$LIMMAX
 10
0.0
 20
0.0
  9
$ORTHOMODE
 70
     0
  9
$REGENMODE
 70
     1
  9
$FILLMODE
 70
     1
  9
$QTEXTMODE
 70
     0
  9
$MIRRTEXT
 70
     1
  9
$DRAGMODE
 70
     2
  9
$LTSCALE
 40
10.16
  9
$OSMODE
 70
   231
  9
$ATTMODE
 70
     1
  9
$TEXTSIZE
 40
0.0
  9
$TRACEWID
 40
1.0
  9
$TEXTSTYLE
  7
STANDARD
  9
$CLAYER
  8
DATA
  9
$CELTYPE
  6
BYLAYER
  9
$CECOLOR
 62
   256
  9
$DIMSCALE
 40
1.0
  9
$DIMASZ
 40
0.18
  9
$DIMEXO
 40
0.0625
  9
$DIMDLI
 40
0.38
  9
$DIMRND
 40
0.0
  9
$DIMDLE
 40
0.0
  9
$DIMEXE
 40
0.18
  9
$DIMTP
 40
0.0
  9
$DIMTM
 40
0.0
  9
$DIMTXT
 40
0.18
  9
$DIMCEN
 40
0.09
  9
$DIMTSZ
 40
0.0
  9
$DIMTOL
 70
     0
  9
$DIMLIM
 70
     0
  9
$DIMTIH
 70
     1
  9
$DIMTOH
 70
     1
  9
$DIMSE1
 70
     0
  9
$DIMSE2
 70
     0
  9
$DIMTAD
 70
     0
  9
$DIMZIN
 70
     0
  9
$DIMBLK
  1

  9
$DIMASO
 70
     1
  9
$DIMSHO
 70
     1
  9
$DIMPOST
  1

  9
$DIMAPOST
  1

  9
$DIMALT
 70
     0
  9
$DIMALTD
 70
     2
  9
$DIMALTF
 40
25.399999999999999
  9
$DIMLFAC
 40
1.0
  9
$DIMTOFL
 70
     0
  9
$DIMTVP
 40
0.0
  9
$DIMTIX
 70
     0
  9
$DIMSOXD
 70
     0
  9
$DIMSAH
 70
     0
  9
$DIMBLK1
  1

  9
$DIMBLK2
  1

  9
$DIMSTYLE
  2
STANDARD
  9
$DIMCLRD
 70
     0
  9
$DIMCLRE
 70
     0
  9
$DIMCLRT
 70
     0
  9
$DIMTFAC
 40
1.0
  9
$DIMGAP
 40
0.09
  9
$LUNITS
 70
     2
  9
$LUPREC
 70
     4
  9
$SKETCHINC
 40
0.1
  9
$FILLETRAD
 40
0.0
  9
$AUNITS
 70
     0
  9
$AUPREC
 70
     0
  9
$MENU
  1
acad
  9
$ELEVATION
 40
0.0
  9
$PELEVATION
 40
0.0
  9
$THICKNESS
 40
0.0
  9
$LIMCHECK
 70
     0
  9
$BLIPMODE
 70
     0
  9
$CHAMFERA
 40
0.0
  9
$CHAMFERB
 40
0.0
  9
$SKPOLY
 70
     0
  9
$TDCREATE
 40
2455618.5994560178
  9
$TDUPDATE
 40
2455618.6041202201
  9
$TDINDWG
 40
0.0011170833
  9
$TDUSRTIMER
 40
0.0011167245
  9
$USRTIMER
 70
     1
  9
$ANGBASE
 50
0.0
  9
$ANGDIR
 70
     0
  9
$PDMODE
 70
     1
  9
$PDSIZE
 40
-2.0
  9
$PLINEWID
 40
0.0
  9
$COORDS
 70
     1
  9
$SPLFRAME
 70
     0
  9
$SPLINETYPE
 70
     6
  9
$SPLINESEGS
 70
     8
  9
$ATTDIA
 70
     0
  9
$ATTREQ
 70
     1
  9
$HANDLING
 70
     1
  9
$HANDSEED
  5
177
  9
$SURFTAB1
 70
     6
  9
$SURFTAB2
 70
     6
  9
$SURFTYPE
 70
     6
  9
$SURFU
 70
     6
  9
$SURFV
 70
     6
  9
$UCSNAME
  2

  9
$UCSORG
 10
0.0
 20
0.0
 30
0.0
  9
$UCSXDIR
 10
1.0
 20
0.0
 30
0.0
  9
$UCSYDIR
 10
0.0
 20
1.0
 30
0.0
  9
$PUCSNAME
  2

  9
$PUCSORG
 10
0.0
 20
0.0
 30
0.0
  9
$PUCSXDIR
 10
1.0
 20
0.0
 30
0.0
  9
$PUCSYDIR
 10
0.0
 20
1.0
 30
0.0
  9
$USERI1
 70
     0
  9
$USERI2
 70
     0
  9
$USERI3
 70
     0
  9
$USERI4
 70
     0
  9
$USERI5
 70
     0
  9
$USERR1
 40
0.0
  9
$USERR2
 40
0.0
  9
$USERR3
 40
0.0
  9
$USERR4
 40
0.0
  9
$USERR5
 40
0.0
  9
$WORLDVIEW
 70
     1
  9
$SHADEDGE
 70
     3
  9
$SHADEDIF
 70
    70
  9
$TILEMODE
 70
     1
  9
$MAXACTVP
 70
    64
  9
$PLIMCHECK
 70
     0
  9
$PEXTMIN
 10
1.0000000000000000E+020
 20
1.0000000000000000E+020
 30
1.0000000000000000E+020
  9
$PEXTMAX
 10
-1.0000000000000000E+020
 20
-1.0000000000000000E+020
 30
-1.0000000000000000E+020
  9
$PLIMMIN
 10
0.0
 20
0.0
  9
$PLIMMAX
 10
12.0
 20
9.0
  9
$UNITMODE
 70
     0
  9
$VISRETAIN
 70
     0
  9
$PLINEGEN
 70
     1
  9
$PSLTSCALE
 70
     0
  0
ENDSEC
  0
SECTION
  2
TABLES
  0
TABLE
  2
VPORT
 70
     1
  0
VPORT
  2
*ACTIVE
 70
     0
 10
0.0
 20
0.0
 11
1.0
 21
1.0
 12
100.0000008381904
 22
135.93658728899311
 13
0.0
 23
0.0
 14
1.0
 24
1.0
 15
0.0
 25
0.0
 16
0.0
 26
0.0
 36
1.0
 17
0.0
 27
0.0
 37
0.0
 40
539.16704413284754
 41
1.9619164619164611
 42
50.0
 43
0.0
 44
0.0
 50
0.0
 51
0.0
 71
     0
 72
  2000
 73
     1
 74
     1
 75
     0
 76
     0
 77
     0
 78
     0
  0
ENDTAB
  0
TABLE
  2
LTYPE
 70
    11
  0
LTYPE
  2
CONTINUOUS
 70
     0
  3
Solid line
 72
    65
 73
     0
 40
0.0
  0
ENDTAB
  0
TABLE
  2
LAYER
 70
     5
  0
LAYER
  2
0
 70
     0
 62
     7
  6
CONTINUOUS
  0
LAYER
  2
DATA
 70
     0
 62
     7
  6
CONTINUOUS
  0
LAYER
  2
HIBINO-BASE
 70
     0
 62
     7
  6
CONTINUOUS
  0
LAYER
  2
SPEC
 70
     0
 62
     7
  6
CONTINUOUS
  0
LAYER
  2
DIMNSIONS
 70
     0
 62
     7
  6
CONTINUOUS
  0
ENDTAB
  0
TABLE
  2
STYLE
 70
     3
  0
STYLE
  2
STANDARD
 70
     0
 40
0.0
 41
1.0
 50
0.0
 71
     0
 42
0.0
  3
txt
  4
BIGFONT.SHX
  0
ENDTAB
  0
TABLE
  2
VIEW
 70
     0
  0
ENDTAB
  0
TABLE
  2
UCS
 70
     0
  0
ENDTAB
  0
TABLE
  2
APPID
 70
     3
  0
APPID
  2
ACAD
 70
     0
  0
APPID
  2
ACADANNOTATIVE
 70
     0
  0
APPID
  2
ACAD_MLEADERVER
 70
     0
  0
ENDTAB
  0
TABLE
  2
DIMSTYLE
 70
     2
  0
DIMSTYLE
  2
STANDARD
 70
     0
  3

  4

  5

  6

  7

 40
1.0
 41
0.18
 42
0.0625
 43
0.38
 44
0.18
 45
0.0
 46
0.0
 47
0.0
 48
0.0
140
0.18
141
0.09
142
0.0
143
25.399999999999999
144
1.0
145
0.0
146
1.0
147
0.09
 71
     0
 72
     0
 73
     1
 74
     1
 75
     0
 76
     0
 77
     0
 78
     0
170
     0
171
     2
172
     0
173
     0
174
     0
175
     0
176
     0
177
     0
178
     0
  0
ENDTAB
  0
ENDSEC
  0
SECTION
  2
BLOCKS
  0
BLOCK
  8
0
  2
$MODEL_SPACE
 70
     0
 10
0.0
 20
0.0
 30
0.0
  3
$MODEL_SPACE
  1

  0
ENDBLK
  5
10E
  8
0
  0
BLOCK
 67
     1
  8
0
  2
$PAPER_SPACE
 70
     0
 10
0.0
 20
0.0
 30
0.0
  3
$PAPER_SPACE
  1

  0
ENDBLK
  5
10A
 67
     1
  8
0
  0
ENDSEC
  0
SECTION
  2
ENTITIES
  0
LINE
  5
2C
  8
HIBINO-BASE
  6
CONTINUOUS
 62
     7
 10
-79.999999999999986
 20
403.53364789486591
 30
0.0
 11
279.99999999999989
 21
403.53364789486591
 31
0.0
  0
LINE
  5
2D
  8
HIBINO-BASE
  6
CONTINUOUS
 62
     7
 10
279.99999999999989
 20
-116.46635210513411
 30
0.0
 11
-79.999999999999986
 21
-116.46635210513411
 31
0.0
  0
LINE
  5
2E
  8
HIBINO-BASE
  6
CONTINUOUS
 62
     7
 10
-79.999999999999986
 20
-116.46635210513411
 30
0.0
 11
-79.999999999999986
 21
403.53364789486591
 31
0.0
  0
LINE
  5
2F
  8
HIBINO-BASE
  6
CONTINUOUS
 62
     7
 10
279.99999999999989
 20
403.53364789486591
 30
0.0
 11
279.99999999999989
 21
-116.46635210513411
 31
0.0
  0
LINE
  5
30
  8
HIBINO-BASE
  6
CONTINUOUS
 62
     7
 10
100.0
 20
-71.466352105134064
 30
0.0
 11
279.99999999999989
 21
-71.466352105134064
 31
0.0
  0
LINE
  5
31
  8
HIBINO-BASE
  6
CONTINUOUS
 62
     7
 10
100.0
 20
-116.46635210513411
 30
0.0
 11
100.0
 21
-71.466352105134064
 31
0.0
  0
TEXT
  5
32
  8
HIBINO-BASE
 62
     7
 10
101.8
 20
-76.483738771800731
 30
0.0
 40
3.2576822916666659
  1
NOTE
 41
0.7
 11
101.8
 21
-73.226056480134062
 31
0.0
 73
     3
  0
LINE
  5
33
  8
HIBINO-BASE
  6
CONTINUOUS
 62
     7
 10
170.0
 20
-116.46635210513411
 30
0.0
 11
170.0
 21
-71.466352105134064
 31
0.0
  0
TEXT
  5
34
  8
HIBINO-BASE
 62
     7
 10
171.7999999999999
 20
-76.483738771800731
 30
0.0
 40
3.2576822916666659
  1
TITLE
 41
0.7
 11
171.7999999999999
 21
-73.226056480134062
 31
0.0
 73
     3
  0
LINE
  5
35
  8
HIBINO-BASE
  6
CONTINUOUS
 62
     7
 10
100.0
 20
-96.466352105134064
 30
0.0
 11
279.99999999999989
 21
-96.466352105134064
 31
0.0
  0
TEXT
  5
36
  8
HIBINO-BASE
 62
     7
 10
196.80000000000001
 20
-101.3710987718007
 30
0.0
 40
3.2576822916666659
  1
DRAWN
 41
0.7
 11
196.80000000000001
 21
-98.113416480134106
 31
0.0
 73
     3
  0
TEXT
  5
37
  8
HIBINO-BASE
 62
     7
 10
146.7999999999999
 20
-101.3710987718007
 30
0.0
 40
3.2576822916666659
  1
DATE
 41
0.7
 11
146.7999999999999
 21
-98.113416480134106
 31
0.0
 73
     3
  0
TEXT
  5
38
  8
HIBINO-BASE
 62
     7
 10
126.8
 20
-101.3710987718007
 30
0.0
 40
3.2576822916666659
  1
SCALE
 41
0.7
 11
126.8
 21
-98.113416480134106
 31
0.0
 73
     3
  0
TEXT
  5
39
  8
HIBINO-BASE
 62
     7
 10
171.7999999999999
 20
-101.3710987718007
 30
0.0
 40
3.2576822916666659
  1
DESIGN
 41
0.7
 11
171.7999999999999
 21
-98.113416480134106
 31
0.0
 73
     3
  0
TEXT
  5
3A
  8
HIBINO-BASE
 62
     7
 10
246.7999999999999
 20
-101.3710987718007
 30
0.0
 40
3.2576822916666659
  1
DRAWING NO.
 41
0.7
 11
246.7999999999999
 21
-98.113416480134106
 31
0.0
 73
     3
  0
TEXT
  5
3B
  8
HIBINO-BASE
 62
     7
 10
221.7999999999999
 20
-101.3710987718007
 30
0.0
 40
3.2576822916666659
  1
CHECK
 41
0.7
 11
221.7999999999999
 21
-98.113416480134106
 31
0.0
 73
     3
  0
LINE
  5
3C
  8
HIBINO-BASE
  6
CONTINUOUS
 62
     7
 10
128.74999999999989
 20
-113.96635210513411
 30
0.0
 11
136.25
 21
-106.46635210513401
 31
0.0
  0
TEXT
  5
3D
  8
HIBINO-BASE
 62
     7
 10
127.5
 20
-108.68423877180069
 30
0.0
 40
3.2576822916666659
  1
1
 41
0.7
 11
127.5
 21
-105.4265564801341
 31
0.0
 73
     3
  0
LINE
  5
3E
  8
HIBINO-BASE
  6
CONTINUOUS
 62
     7
 10
125.0
 20
-116.46635210513411
 30
0.0
 11
125.0
 21
-96.466352105134064
 31
0.0
  0
LINE
  5
3F
  8
HIBINO-BASE
  6
CONTINUOUS
 62
     7
 10
145.0
 20
-116.46635210513411
 30
0.0
 11
145.0
 21
-96.466352105134064
 31
0.0
  0
LINE
  5
40
  8
HIBINO-BASE
  6
CONTINUOUS
 62
     7
 10
195.0
 20
-96.466352105134064
 30
0.0
 11
195.0
 21
-116.46635210513411
 31
0.0
  0
LINE
  5
41
  8
HIBINO-BASE
  6
CONTINUOUS
 62
     7
 10
245.0
 20
-96.466352105134064
 30
0.0
 11
245.0
 21
-116.46635210513411
 31
0.0
  0
LINE
  5
42
  8
HIBINO-BASE
  6
CONTINUOUS
 62
     7
 10
220.0
 20
-116.46635210513411
 30
0.0
 11
220.0
 21
-96.466352105134064
 31
0.0
  0
TEXT
  5
43
  8
HIBINO-BASE
 62
     7
 10
146.71307999999999
 20
-110.7390587718007
 30
0.0
 40
3.2576822916666659
  1
'11.02.
 41
0.7
 11
146.71307999999999
 21
-107.4813764801341
 31
0.0
 73
     3
  0
TEXT
  5
44
  8
HIBINO-BASE
 62
     7
 10
135.0
 20
-112.43423877180069
 30
0.0
 40
3.2576822916666659
  1
2
 41
0.7
 11
135.0
 21
-109.1765564801341
 31
0.0
 73
     3
  0
TEXT
  5
45
  8
HIBINO-BASE
 62
     7
 10
198.0116200220692
 20
-110.7390587718007
 30
0.0
 40
3.2576822916666659
  1
T.Ootake
 41
0.7
 11
198.0116200220692
 21
-107.4813764801341
 31
0.0
 73
     3
  0
TEXT
  5
46
  8
HIBINO-BASE
 62
     7
 10
107.76666666666659
 20
-112.51435210513399
 30
0.0
 40
6.5153645833333318
  1
A4
 41
0.7
 11
107.76666666666659
 21
-105.9989875218007
 31
0.0
 73
     3
  0
TEXT
  5
47
  8
HIBINO-BASE
 62
     7
 10
101.9166666666666
 20
-101.7052621051341
 30
0.0
 40
3.2576822916666659
  1
PAPER SIZE
 41
0.7
 11
101.9166666666666
 21
-98.447579813467414
 31
0.0
 73
     3
  0
TEXT
  5
48
  8
HIBINO-BASE
 62
     7
 10
-74.48072948621963
 20
-129.31683257348661
 30
0.0
 40
7.0583116319444441
  1
Hibino-Intersound Corporation
 41
0.7
 11
-74.48072948621963
 21
-122.2585209415421
 31
0.0
 73
     3
  0
TEXT
  5
49
  8
HIBINO-BASE
 62
     7
 10
140.36121936042781
 20
-128.61465606690771
 30
0.0
 40
7.0583116319444441
  1
ヒビノインターサウンド株式会社
 41
0.7
 11
140.36121936042781
 21
-121.55634443496329
 31
0.0
 73
     3
  0
LINE
  5
4A
  8
SPEC
  6
CONTINUOUS
 62
     7
 10
-64.999999999999986
 20
383.53364789486602
 30
0.0
 11
230.0
 21
383.53364789486602
 31
0.0
  0
LINE
  5
4B
  8
SPEC
  6
CONTINUOUS
 62
     7
 10
-64.999999999999986
 20
376.03364789486591
 30
0.0
 11
230.0
 21
376.03364789486591
 31
0.0
  0
LINE
  5
4C
  8
SPEC
  6
CONTINUOUS
 62
     7
 10
-64.999999999999986
 20
361.03364789486602
 30
0.0
 11
230.0
 21
361.03364789486602
 31
0.0
  0
LINE
  5
4D
  8
SPEC
  6
CONTINUOUS
 62
     7
 10
-64.999999999999986
 20
368.53364789486602
 30
0.0
 11
230.0
 21
368.53364789486602
 31
0.0
  0
LINE
  5
4E
  8
SPEC
  6
CONTINUOUS
 62
     7
 10
-64.999999999999986
 20
383.53364789486602
 30
0.0
 11
-64.999999999999986
 21
316.03364789486602
 31
0.0
  0
TEXT
  5
4F
  8
SPEC
 62
     7
 10
-62.5
 20
386.32018789486591
 30
0.0
 40
4.8865234375000002
  1
仕様
 41
0.7
 11
-62.5
 21
391.2067113323659
 31
0.0
 73
     3
  0
LINE
  5
50
  8
SPEC
  6
CONTINUOUS
 62
     7
 10
10.0
 20
383.53364789486602
 30
0.0
 11
9.999999999999984
 21
316.03364789486602
 31
0.0
  0
LINE
  5
51
  8
SPEC
  6
CONTINUOUS
 62
     7
 10
230.0
 20
383.53364789486602
 30
0.0
 11
230.0
 21
316.03364789486602
 31
0.0
  0
LINE
  5
52
  8
SPEC
  6
CONTINUOUS
 62
     7
 10
-64.999999999999986
 20
353.53364789486602
 30
0.0
 11
230.0
 21
353.53364789486602
 31
0.0
  0
LINE
  5
53
  8
SPEC
  6
CONTINUOUS
 62
     7
 10
-64.999999999999986
 20
346.03364789486602
 30
0.0
 11
230.0
 21
346.03364789486602
 31
0.0
  0
LINE
  5
54
  8
SPEC
  6
CONTINUOUS
 62
     7
 10
-64.999999999999986
 20
338.53364789486591
 30
0.0
 11
230.0
 21
338.53364789486591
 31
0.0
  0
LINE
  5
55
  8
SPEC
  6
CONTINUOUS
 62
     7
 10
-64.999999999999986
 20
331.03364789486602
 30
0.0
 11
230.0
 21
331.03364789486602
 31
0.0
  0
LINE
  5
56
  8
SPEC
  6
CONTINUOUS
 62
     7
 10
-64.999999999999986
 20
323.53364789486602
 30
0.0
 11
230.0
 21
323.53364789486602
 31
0.0
  0
LINE
  5
57
  8
SPEC
  6
CONTINUOUS
 62
     7
 10
-64.999999999999986
 20
316.03364789486602
 30
0.0
 11
230.0
 21
316.03364789486602
 31
0.0
  0
TEXT
  5
58
  8
SPEC
 62
     7
 10
-63.395336516510973
 20
333.17867194073972
 30
0.0
 40
3.8006293402777769
  1
寸法
 41
0.7
 11
-63.395336516510973
 21
336.97930128101751
 31
0.0
 73
     3
  0
TEXT
  5
59
  8
SPEC
 62
     7
 10
11.328867197907631
 20
332.77458678633241
 30
0.0
 40
3.8006293402777769
  1
\U+03A619\U+00D741mm(突起部含まず）
 41
0.7
 11
11.328867197907631
 21
336.57521612661031
 31
0.0
 73
     3
  0
TEXT
  5
5A
  8
SPEC
 62
     7
 10
11.834903711273411
 20
340.66943160820631
 30
0.0
 40
3.8006293402777769
  1
約40g
 41
0.7
 11
11.834903711273411
 21
344.47006094848399
 31
0.0
 73
     3
  0
TEXT
  5
5B
  8
SPEC
 62
     7
 10
-63.23872329199375
 20
340.58344392441461
 30
0.0
 40
3.8006293402777769
  1
重量
 41
0.7
 11
-63.23872329199375
 21
344.3840732646924
 31
0.0
 73
     3
  0
TEXT
  5
5C
  8
SPEC
 62
     7
 10
-63.75468384247074
 20
348.29603070380131
 30
0.0
 40
3.8006293402777769
  1
コネクター
 41
0.7
 11
-63.75468384247074
 21
352.09666004407899
 31
0.0
 73
     3
  0
TEXT
  5
5D
  8
SPEC
 62
     7
 10
11.893038150814879
 20
347.80221268451851
 30
0.0
 40
3.8006293402777769
  1
XLR3ピン(オス)
 41
0.7
 11
11.893038150814879
 21
351.6028420247963
 31
0.0
 73
     3
  0
TEXT
  5
5E
  8
SPEC
 62
     7
 10
-63.25455376694935
 20
355.5492616440676
 30
0.0
 40
3.8006293402777769
  1
電源
 41
0.7
 11
-63.25455376694935
 21
359.34989098434539
 31
0.0
 73
     3
  0
TEXT
  5
5F
  8
SPEC
 62
     7
 10
11.33070568473169
 20
355.42687591772147
 30
0.0
 40
3.8006293402777769
  1
ファンタムDC48V/2.8mA
 41
0.7
 11
11.33070568473169
 21
359.22750525799933
 31
0.0
 73
     3
  0
TEXT
  5
60
  8
SPEC
 62
     7
 10
-63.383456722688543
 20
363.01527794696977
 30
0.0
 40
3.8006293402777769
  1
ケーブル引き伸ばし可能距離
 41
0.7
 11
-63.383456722688543
 21
366.81590728724763
 31
0.0
 73
     3
  0
TEXT
  5
61
  8
SPEC
 62
     7
 10
11.86656369849945
 20
362.85031391463991
 30
0.0
 40
3.8006293402777769
  1
最大100m
 41
0.7
 11
11.86656369849945
 21
366.65094325491782
 31
0.0
 73
     3
  0
TEXT
  5
62
  8
SPEC
 62
     7
 10
-63.530539486533272
 20
370.37086765824199
 30
0.0
 40
3.8006293402777769
  1
インピーダンス
 41
0.7
 11
-63.530539486533272
 21
374.17149699851979
 31
0.0
 73
     3
  0
TEXT
  5
63
  8
SPEC
 62
     7
 10
12.01227628368845
 20
370.322
 30
0.0
 40
3.8006293402777769
  1
200\U+03A9以下
 41
0.7
 11
12.01227628368845
 21
374.1226293402778
 31
0.0
 73
     3
  0
TEXT
  5
64
  8
SPEC
 62
     7
 10
-63.587493343617432
 20
377.75979332395929
 30
0.0
 40
3.8006293402777769
  1
ダイナミックレンジ(代表値)
 41
0.7
 11
-63.587493343617432
 21
381.56042266423708
 31
0.0
 73
     3
  0
TEXT
  5
65
  8
SPEC
 62
     7
 10
11.63009666800475
 20
377.70345403066938
 30
0.0
 40
3.8006293402777769
  1
136dB
 41
0.7
 11
11.63009666800475
 21
381.50408337094723
 31
0.0
 73
     3
  0
TEXT
  5
66
  8
SPEC
 62
     7
 10
-63.086132050164807
 20
318.13618991818862
 30
0.0
 40
3.8006293402777769
  1
使用湿度範囲
 41
0.7
 11
-63.086132050164807
 21
321.93681925846641
 31
0.0
 73
     3
  0
TEXT
  5
67
  8
SPEC
 62
     7
 10
11.789330063064449
 20
318.08657628609308
 30
0.0
 40
3.8006293402777769
  1
90%%%以下
 41
0.7
 11
11.789330063064449
 21
321.88720562637093
 31
0.0
 73
     3
  0
TEXT
  5
68
  8
SPEC
 62
     7
 10
-63.101158662547057
 20
325.46883600137312
 30
0.0
 40
3.8006293402777769
  1
使用温度範囲
 41
0.7
 11
-63.101158662547057
 21
329.26946534165091
 31
0.0
 73
     3
  0
TEXT
  5
69
  8
SPEC
 62
     7
 10
11.972496606949321
 20
325.2163516341663
 30
0.0
 40
3.8006293402777769
  1
-40℃～45℃
 41
0.7
 11
11.972496606949321
 21
329.01698097444398
 31
0.0
 73
     3
  0
TEXT
  5
6A
  8
DIMNSIONS
 62
     7
 10
60.0
 20
-91.927372105134054
 30
0.0
 40
4.8865234375000002
  1
(単位：mm)
 41
0.7
 11
60.0
 21
-87.040848667634066
 31
0.0
 73
     3
  0
LINE
  5
6B
  8
DIMNSIONS
  6
CONTINUOUS
 62
     7
 10
31.177896341755929
 20
154.19705202629839
 30
0.0
 11
40.624999999835602
 21
165.62499999994441
 31
0.0
  0
LINE
  5
6C
  8
DIMNSIONS
  6
CONTINUOUS
 62
     7
 10
31.177896341755929
 20
154.19705202629839
 30
0.0
 11
33.366074212602513
 21
158.88961461363479
 31
0.0
  0
LINE
  5
6D
  8
DIMNSIONS
  6
CONTINUOUS
 62
     7
 10
31.177896341755929
 20
154.19705202629839
 30
0.0
 11
35.419195259576199
 21
157.1668415003569
 31
0.0
  0
LINE
  5
6E
  8
DIMNSIONS
  6
CONTINUOUS
 62
     7
 10
40.624999999835602
 20
165.62499999994441
 30
0.0
 11
58.736111110946723
 21
165.62499999994441
 31
0.0
  0
TEXT
  5
6F
  8
DIMNSIONS
 62
     7
 10
44.624999999835609
 20
167.61277777772219
 30
0.0
 40
5.4294704861111107
  1
\U+03C619
 41
0.7
 11
44.624999999835609
 21
173.0422482638333
 31
0.0
 73
     3
  0
LINE
  5
70
  8
DIMNSIONS
  6
CONTINUOUS
 62
     7
 10
11.625000000220449
 20
68.749999999687105
 30
0.0
 11
-13.375
 21
68.749999999687105
 31
0.0
  0
LINE
  5
71
  8
DIMNSIONS
  6
CONTINUOUS
 62
     7
 10
11.625000000220449
 20
109.74999999968711
 30
0.0
 11
-13.375
 21
109.74999999968711
 31
0.0
  0
LINE
  5
72
  8
DIMNSIONS
  6
CONTINUOUS
 62
     7
 10
-9.375
 20
68.749999999687105
 30
0.0
 11
-9.375
 21
109.74999999968711
 31
0.0
  0
LINE
  5
73
  8
DIMNSIONS
  6
CONTINUOUS
 62
     7
 10
-9.375
 20
68.749999999687105
 30
0.0
 11
-10.715079590300491
 21
73.751245116874586
 31
0.0
  0
LINE
  5
74
  8
DIMNSIONS
  6
CONTINUOUS
 62
     7
 10
-9.375
 20
68.749999999687105
 30
0.0
 11
-8.0349204096995095
 21
73.751245116874586
 31
0.0
  0
LINE
  5
75
  8
DIMNSIONS
  6
CONTINUOUS
 62
     7
 10
-9.375
 20
109.74999999968711
 30
0.0
 11
-8.0349204096995095
 21
104.7487548824996
 31
0.0
  0
LINE
  5
76
  8
DIMNSIONS
  6
CONTINUOUS
 62
     7
 10
-9.375
 20
109.74999999968711
 30
0.0
 11
-10.715079590300491
 21
104.7487548824996
 31
0.0
  0
TEXT
  5
77
  8
DIMNSIONS
 62
     7
 10
-11.362777777777771
 20
85.722222221909334
 30
0.0
 40
5.4294704861111107
  1
41
 50
90.0
 41
0.7
 11
-16.792248263888879
 21
85.722222221909334
 31
0.0
 73
     3
  0
LINE
  5
78
  8
DIMNSIONS
  6
CONTINUOUS
 62
     7
 10
11.625000000220449
 20
109.74999999968711
 30
0.0
 11
-13.375
 21
109.74999999968711
 31
0.0
  0
LINE
  5
79
  8
DIMNSIONS
  6
CONTINUOUS
 62
     7
 10
14.174999999999979
 20
113.75
 30
0.0
 11
-13.375
 21
113.75
 31
0.0
  0
LINE
  5
7A
  8
DIMNSIONS
  6
CONTINUOUS
 62
     7
 10
-9.375
 20
113.75
 30
0.0
 11
-9.375
 21
109.74999999968711
 31
0.0
  0
LINE
  5
7B
  8
DIMNSIONS
  6
CONTINUOUS
 62
     7
 10
-9.375
 20
109.74999999968711
 30
0.0
 11
-9.375
 21
99.749999999687105
 31
0.0
  0
LINE
  5
7C
  8
DIMNSIONS
  6
CONTINUOUS
 62
     7
 10
-9.375
 20
109.74999999968711
 30
0.0
 11
-8.0349204096995095
 21
104.7487548824996
 31
0.0
  0
LINE
  5
7D
  8
DIMNSIONS
  6
CONTINUOUS
 62
     7
 10
-9.375
 20
109.74999999968711
 30
0.0
 11
-10.715079590300491
 21
104.7487548824996
 31
0.0
  0
LINE
  5
7E
  8
DIMNSIONS
  6
CONTINUOUS
 62
     7
 10
-9.375
 20
113.75
 30
0.0
 11
-9.375
 21
122.2777777777777
 31
0.0
  0
LINE
  5
7F
  8
DIMNSIONS
  6
CONTINUOUS
 62
     7
 10
-9.375
 20
113.75
 30
0.0
 11
-10.715079590300491
 21
118.75124511718749
 31
0.0
  0
LINE
  5
80
  8
DIMNSIONS
  6
CONTINUOUS
 62
     7
 10
-9.375
 20
113.75
 30
0.0
 11
-8.0349204096995095
 21
118.75124511718749
 31
0.0
  0
TEXT
  5
81
  8
DIMNSIONS
 62
     7
 10
-11.362777777777771
 20
118.75
 30
0.0
 40
5.4294704861111107
  1
4
 50
90.0
 41
0.7
 11
-16.792248263888879
 21
118.75
 31
0.0
 73
     3
  0
TEXT
  5
82
  8
DATA
 62
     7
 10
200.0
 20
-94.703380257795985
 30
0.0
 40
4.8865234375000002
  1
MMP-C
 41
0.7
 11
200.0
 21
-89.816856820295968
 31
0.0
 73
     3
  0
TEXT
  5
83
  8
DATA
 62
     7
 10
200.0
 20
-79.704572105134062
 30
0.0
 40
4.8865234375000002
  1
DPA
 41
0.7
 11
200.0
 21
-74.818048667634059
 31
0.0
 73
     3
  0
TEXT
  5
84
  8
DATA
 62
     7
 10
-60.0
 20
-107.99035210513409
 30
0.0
 40
3.2576822916666659
  1
仕様および外観は予告なく変更されることがありますので、ご了承ください。
 41
0.7
 11
-60.0
 21
-104.7326698134674
 31
0.0
 73
     3
  0
LINE
  5
85
  8
DATA
  6
CONTINUOUS
 62
     7
 10
15.625000000220449
 20
109.74999999968711
 30
0.0
 11
34.625000000220453
 21
109.74999999968711
 31
0.0
  0
LINE
  5
86
  8
DATA
  6
CONTINUOUS
 62
     7
 10
15.625000000220449
 20
109.74999999968711
 30
0.0
 11
15.625000000220449
 21
68.749999999687105
 31
0.0
  0
LINE
  5
87
  8
DATA
  6
CONTINUOUS
 62
     7
 10
34.625000000220453
 20
109.74999999968711
 30
0.0
 11
34.625000000220453
 21
68.749999999687105
 31
0.0
  0
TEXT
  5
88
  8
DATA
 62
     7
 10
20.147747989845591
 20
73.241095872892558
 30
0.0
 40
3.2576822916666659
  1
MMP-C
 41
0.7
 11
20.147747989845591
 21
76.498778164559226
 31
0.0
 73
     3
  0
CIRCLE
  5
89
  8
DATA
  6
CONTINUOUS
 62
     7
 10
25.12500000022046
 20
35.624999999843773
 30
0.0
 40
9.5
  0
ARC
  5
8A
  8
DATA
  6
CONTINUOUS
 62
     7
 10
25.125000000220378
 20
35.624999999843737
 30
0.0
 40
8.0000000000000728
 50
52.793688021979818
 51
38.897425550919721
  0
CIRCLE
  5
8B
  8
DATA
  6
CONTINUOUS
 62
     7
 10
25.12500000022046
 20
31.624999999843769
 30
0.0
 40
1.150000000000005
  0
CIRCLE
  5
8C
  8
DATA
  6
CONTINUOUS
 62
     7
 10
21.125000000220449
 20
35.624999999843773
 30
0.0
 40
1.150000000000005
  0
CIRCLE
  5
8D
  8
DATA
  6
CONTINUOUS
 62
     7
 10
29.12500000022046
 20
35.624999999843773
 30
0.0
 40
1.150000000000005
  0
ARC
  5
8E
  8
DATA
  6
CONTINUOUS
 62
     7
 10
30.224086104011828
 20
40.876853776641958
 30
0.0
 40
1.150000000000003
 50
348.54291116051758
 51
103.1482024123824
  0
LINE
  5
8F
  8
DATA
  6
CONTINUOUS
 62
     7
 10
15.625000000220449
 20
68.749999999687105
 30
0.0
 11
34.625000000220453
 21
68.749999999687105
 31
0.0
  0
CIRCLE
  5
90
  8
DATA
  6
CONTINUOUS
 62
     7
 10
25.125000000056069
 20
146.87499999994441
 30
0.0
 40
9.5
  0
CIRCLE
  5
91
  8
DATA
  6
CONTINUOUS
 62
     7
 10
25.125000000056069
 20
146.87499999994441
 30
0.0
 40
6.9499999999999877
  0
CIRCLE
  5
92
  8
DATA
  6
CONTINUOUS
 62
     7
 10
25.125000000056069
 20
146.87499999994441
 30
0.0
 40
0.6500000000000057
  0
LINE
  5
93
  8
DATA
  6
CONTINUOUS
 62
     7
 10
18.174999999999979
 20
113.75
 30
0.0
 11
32.074999999999989
 21
113.75
 31
0.0
  0
LINE
  5
94
  8
DATA
  6
CONTINUOUS
 62
     7
 10
18.174999999999979
 20
113.75
 30
0.0
 11
18.174999999999979
 21
109.7499999999995
 31
0.0
  0
LINE
  5
95
  8
DATA
  6
CONTINUOUS
 62
     7
 10
32.074999999999989
 20
113.75
 30
0.0
 11
32.074999999999989
 21
109.7499999999995
 31
0.0
  0
LINE
  5
96
  8
DATA
  6
CONTINUOUS
 62
     7
 10
24.97499999999998
 20
116.75
 30
0.0
 11
25.274999999999991
 21
116.75
 31
0.0
  0
LINE
  5
97
  8
DATA
  6
CONTINUOUS
 62
     7
 10
24.47499999999998
 20
116.25
 30
0.0
 11
24.47499999999998
 21
113.75
 31
0.0
  0
LINE
  5
98
  8
DATA
  6
CONTINUOUS
 62
     7
 10
25.774999999999991
 20
116.25
 30
0.0
 11
25.774999999999991
 21
113.75
 31
0.0
  0
LINE
  5
99
  8
DATA
  6
CONTINUOUS
 62
     7
 10
18.174999999999979
 20
109.7499999999995
 30
0.0
 11
32.074999999999989
 21
110.7079465544052
 31
0.0
  0
LINE
  5
9A
  8
DATA
  6
CONTINUOUS
 62
     7
 10
18.174999999999979
 20
110.7499999999995
 30
0.0
 11
32.074999999999989
 21
111.7079465544052
 31
0.0
  0
LINE
  5
9B
  8
DATA
  6
CONTINUOUS
 62
     7
 10
18.174999999999979
 20
111.7499999999995
 30
0.0
 11
32.074999999999989
 21
112.7079465544052
 31
0.0
  0
LINE
  5
9C
  8
DATA
  6
CONTINUOUS
 62
     7
 10
18.174999999999979
 20
112.7499999999995
 30
0.0
 11
32.074999999999989
 21
113.7079465544052
 31
0.0
  0
ARC
  5
9D
  8
DATA
  6
CONTINUOUS
 62
     7
 10
24.97499999999998
 20
116.25
 30
0.0
 40
0.5
 50
90.0
 51
180.0
  0
ARC
  5
9E
  8
DATA
  6
CONTINUOUS
 62
     7
 10
25.274999999999991
 20
116.25
 30
0.0
 40
0.5
 50
0.0
 51
90.0
  0
TEXT
  5
9F
  8
DATA
 62
     7
 10
194.1903028351031
 20
-86.362477059285155
 30
0.0
 40
3.2576822916666659
  1
プリアンプ
 41
0.7
 11
194.1903028351031
 21
-83.1047947676185
 31
0.0
 73
     3
  0
ENDSEC
  0
EOF
