  0
SECTION
  2
HEADER
  9
$ACADVER
  1
AC1009
  9
$INSBASE
 10
0.0
 20
0.0
 30
0.0
  9
$EXTMIN
 10
-1700.1098548994751
 20
-2544.8932001208882
 30
-0.0348484153337267
  9
$EXTMAX
 10
1900.10987166328
 20
2807.30232738021
 30
1142.0348537331849
  9
$LIMMIN
 10
0.0
 20
0.0
  9
$LIMMAX
 10
0.0
 20
0.0
  9
$ORTHOMODE
 70
     0
  9
$REGENMODE
 70
     1
  9
$FILLMODE
 70
     1
  9
$QTEXTMODE
 70
     0
  9
$MIRRTEXT
 70
     1
  9
$DRAGMODE
 70
     2
  9
$LTSCALE
 40
101.59999999999999
  9
$OSMODE
 70
   231
  9
$ATTMODE
 70
     1
  9
$TEXTSIZE
 40
0.0
  9
$TRACEWID
 40
1.0
  9
$TEXTSTYLE
  7
STANDARD
  9
$CLAYER
  8
DATA
  9
$CELTYPE
  6
BYLAYER
  9
$CECOLOR
 62
   256
  9
$DIMSCALE
 40
1.0
  9
$DIMASZ
 40
0.18
  9
$DIMEXO
 40
0.0625
  9
$DIMDLI
 40
0.38
  9
$DIMRND
 40
0.0
  9
$DIMDLE
 40
0.0
  9
$DIMEXE
 40
0.18
  9
$DIMTP
 40
0.0
  9
$DIMTM
 40
0.0
  9
$DIMTXT
 40
0.18
  9
$DIMCEN
 40
0.09
  9
$DIMTSZ
 40
0.0
  9
$DIMTOL
 70
     0
  9
$DIMLIM
 70
     0
  9
$DIMTIH
 70
     1
  9
$DIMTOH
 70
     1
  9
$DIMSE1
 70
     0
  9
$DIMSE2
 70
     0
  9
$DIMTAD
 70
     0
  9
$DIMZIN
 70
     0
  9
$DIMBLK
  1

  9
$DIMASO
 70
     1
  9
$DIMSHO
 70
     1
  9
$DIMPOST
  1

  9
$DIMAPOST
  1

  9
$DIMALT
 70
     0
  9
$DIMALTD
 70
     2
  9
$DIMALTF
 40
25.399999999999999
  9
$DIMLFAC
 40
1.0
  9
$DIMTOFL
 70
     0
  9
$DIMTVP
 40
0.0
  9
$DIMTIX
 70
     0
  9
$DIMSOXD
 70
     0
  9
$DIMSAH
 70
     0
  9
$DIMBLK1
  1

  9
$DIMBLK2
  1

  9
$DIMSTYLE
  2
STANDARD
  9
$DIMCLRD
 70
     0
  9
$DIMCLRE
 70
     0
  9
$DIMCLRT
 70
     0
  9
$DIMTFAC
 40
1.0
  9
$DIMGAP
 40
0.09
  9
$LUNITS
 70
     2
  9
$LUPREC
 70
     4
  9
$SKETCHINC
 40
0.1
  9
$FILLETRAD
 40
0.0
  9
$AUNITS
 70
     0
  9
$AUPREC
 70
     0
  9
$MENU
  1
acad
  9
$ELEVATION
 40
0.0
  9
$PELEVATION
 40
0.0
  9
$THICKNESS
 40
0.0
  9
$LIMCHECK
 70
     0
  9
$BLIPMODE
 70
     0
  9
$CHAMFERA
 40
0.0
  9
$CHAMFERB
 40
0.0
  9
$SKPOLY
 70
     0
  9
$TDCREATE
 40
2456114.6036458332
  9
$TDUPDATE
 40
2456114.6044652308
  9
$TDINDWG
 40
0.0003235417
  9
$TDUSRTIMER
 40
0.0003233565
  9
$USRTIMER
 70
     1
  9
$ANGBASE
 50
0.0
  9
$ANGDIR
 70
     0
  9
$PDMODE
 70
     1
  9
$PDSIZE
 40
-2.0
  9
$PLINEWID
 40
0.0
  9
$COORDS
 70
     2
  9
$SPLFRAME
 70
     0
  9
$SPLINETYPE
 70
     6
  9
$SPLINESEGS
 70
     8
  9
$ATTDIA
 70
     0
  9
$ATTREQ
 70
     1
  9
$HANDLING
 70
     1
  9
$HANDSEED
  5
477
  9
$SURFTAB1
 70
     6
  9
$SURFTAB2
 70
     6
  9
$SURFTYPE
 70
     6
  9
$SURFU
 70
     6
  9
$SURFV
 70
     6
  9
$UCSNAME
  2

  9
$UCSORG
 10
0.0
 20
0.0
 30
0.0
  9
$UCSXDIR
 10
1.0
 20
0.0
 30
0.0
  9
$UCSYDIR
 10
0.0
 20
1.0
 30
0.0
  9
$PUCSNAME
  2

  9
$PUCSORG
 10
0.0
 20
0.0
 30
0.0
  9
$PUCSXDIR
 10
1.0
 20
0.0
 30
0.0
  9
$PUCSYDIR
 10
0.0
 20
1.0
 30
0.0
  9
$USERI1
 70
     0
  9
$USERI2
 70
     0
  9
$USERI3
 70
     0
  9
$USERI4
 70
     0
  9
$USERI5
 70
     0
  9
$USERR1
 40
0.0
  9
$USERR2
 40
0.0
  9
$USERR3
 40
0.0
  9
$USERR4
 40
0.0
  9
$USERR5
 40
0.0
  9
$WORLDVIEW
 70
     1
  9
$SHADEDGE
 70
     3
  9
$SHADEDIF
 70
    70
  9
$TILEMODE
 70
     1
  9
$MAXACTVP
 70
    64
  9
$PLIMCHECK
 70
     0
  9
$PEXTMIN
 10
1.0000000000000000E+020
 20
1.0000000000000000E+020
 30
1.0000000000000000E+020
  9
$PEXTMAX
 10
-1.0000000000000000E+020
 20
-1.0000000000000000E+020
 30
-1.0000000000000000E+020
  9
$PLIMMIN
 10
0.0
 20
0.0
  9
$PLIMMAX
 10
12.0
 20
9.0
  9
$UNITMODE
 70
     0
  9
$VISRETAIN
 70
     0
  9
$PLINEGEN
 70
     1
  9
$PSLTSCALE
 70
     0
  0
ENDSEC
  0
SECTION
  2
TABLES
  0
TABLE
  2
VPORT
 70
     1
  0
VPORT
  2
*ACTIVE
 70
     0
 10
0.0
 20
0.0
 11
1.0
 21
1.0
 12
100.0000083819031
 22
136.4663645414239
 13
0.0
 23
0.0
 14
1.0
 24
1.0
 15
0.0
 25
0.0
 16
0.0
 26
0.0
 36
1.0
 17
0.0
 27
0.0
 37
0.0
 40
5383.1875105921654
 41
2.172503242542152
 42
50.0
 43
0.0
 44
0.0
 50
0.0
 51
0.0
 71
     0
 72
  2000
 73
     1
 74
     1
 75
     0
 76
     0
 77
     0
 78
     0
  0
ENDTAB
  0
TABLE
  2
LTYPE
 70
    12
  0
LTYPE
  2
CONTINUOUS
 70
     0
  3
Solid line
 72
    65
 73
     0
 40
0.0
  0
LTYPE
  2
PHANTOM2
 70
     0
  3
___ _ _ ___ _ _ ___ _ _ ___ _ _
 72
    65
 73
     6
 40
1.25
 49
0.625
 49
-0.125
 49
0.125
 49
-0.125
 49
0.125
 49
-0.125
  0
ENDTAB
  0
TABLE
  2
LAYER
 70
     5
  0
LAYER
  2
0
 70
     0
 62
     7
  6
CONTINUOUS
  0
LAYER
  2
DATA
 70
     0
 62
     7
  6
CONTINUOUS
  0
LAYER
  2
HIBINO-BASE
 70
     0
 62
     7
  6
CONTINUOUS
  0
LAYER
  2
SPEC
 70
     0
 62
     7
  6
CONTINUOUS
  0
LAYER
  2
DIMNSIONS
 70
     0
 62
     7
  6
CONTINUOUS
  0
ENDTAB
  0
TABLE
  2
STYLE
 70
     3
  0
STYLE
  2
STANDARD
 70
     0
 40
0.0
 41
1.0
 50
0.0
 71
     0
 42
0.0
  3
txt
  4
BIGFONT.SHX
  0
ENDTAB
  0
TABLE
  2
VIEW
 70
     0
  0
ENDTAB
  0
TABLE
  2
UCS
 70
     0
  0
ENDTAB
  0
TABLE
  2
APPID
 70
     4
  0
APPID
  2
ACAD
 70
     0
  0
APPID
  2
ACADANNOTATIVE
 70
     0
  0
APPID
  2
ACAD_NAV_VCDISPLAY
 70
     0
  0
APPID
  2
ACAD_MLEADERVER
 70
     0
  0
ENDTAB
  0
TABLE
  2
DIMSTYLE
 70
     2
  0
DIMSTYLE
  2
STANDARD
 70
     0
  3

  4

  5

  6

  7

 40
1.0
 41
0.18
 42
0.0625
 43
0.38
 44
0.18
 45
0.0
 46
0.0
 47
0.0
 48
0.0
140
0.18
141
0.09
142
0.0
143
25.399999999999999
144
1.0
145
0.0
146
1.0
147
0.09
 71
     0
 72
     0
 73
     1
 74
     1
 75
     0
 76
     0
 77
     0
 78
     0
170
     0
171
     2
172
     0
173
     0
174
     0
175
     0
176
     0
177
     0
178
     0
  0
ENDTAB
  0
ENDSEC
  0
SECTION
  2
BLOCKS
  0
BLOCK
  8
0
  2
$MODEL_SPACE
 70
     0
 10
0.0
 20
0.0
 30
0.0
  3
$MODEL_SPACE
  1

  0
ENDBLK
  5
40A
  8
0
  0
BLOCK
 67
     1
  8
0
  2
$PAPER_SPACE
 70
     0
 10
0.0
 20
0.0
 30
0.0
  3
$PAPER_SPACE
  1

  0
ENDBLK
  5
406
 67
     1
  8
0
  0
ENDSEC
  0
SECTION
  2
ENTITIES
  0
LINE
  5
2C
  8
HIBINO-BASE
  6
CONTINUOUS
 62
     7
 10
-1700.0
 20
2807.1393100024529
 30
0.0
 11
1900.0
 21
2807.1393100024529
 31
0.0
  0
LINE
  5
2D
  8
HIBINO-BASE
  6
CONTINUOUS
 62
     7
 10
1900.0
 20
-2392.860689997548
 30
0.0
 11
-1700.0
 21
-2392.860689997548
 31
0.0
  0
LINE
  5
2E
  8
HIBINO-BASE
  6
CONTINUOUS
 62
     7
 10
-1700.0
 20
-2392.860689997548
 30
0.0
 11
-1700.0
 21
2807.1393100024529
 31
0.0
  0
LINE
  5
2F
  8
HIBINO-BASE
  6
CONTINUOUS
 62
     7
 10
1900.0
 20
2807.1393100024529
 30
0.0
 11
1900.0
 21
-2392.860689997548
 31
0.0
  0
LINE
  5
30
  8
HIBINO-BASE
  6
CONTINUOUS
 62
     7
 10
100.0
 20
-1942.8606899975471
 30
0.0
 11
1900.0
 21
-1942.8606899975471
 31
0.0
  0
LINE
  5
31
  8
HIBINO-BASE
  6
CONTINUOUS
 62
     7
 10
100.0
 20
-2392.860689997548
 30
0.0
 11
100.0
 21
-1942.8606899975471
 31
0.0
  0
TEXT
  5
32
  8
HIBINO-BASE
 62
     7
 10
118.0
 20
-1993.0345566642141
 30
0.0
 40
32.576822916666671
  1
NOTE
 41
0.7
 11
118.0
 21
-1960.4577337475471
 31
0.0
 73
     3
  0
LINE
  5
33
  8
HIBINO-BASE
  6
CONTINUOUS
 62
     7
 10
800.0
 20
-2392.860689997548
 30
0.0
 11
800.0
 21
-1942.8606899975471
 31
0.0
  0
TEXT
  5
34
  8
HIBINO-BASE
 62
     7
 10
818.0
 20
-1993.0345566642141
 30
0.0
 40
32.576822916666671
  1
TITLE
 41
0.7
 11
818.0
 21
-1960.4577337475471
 31
0.0
 73
     3
  0
LINE
  5
35
  8
HIBINO-BASE
  6
CONTINUOUS
 62
     7
 10
100.0
 20
-2192.860689997548
 30
0.0
 11
1900.0
 21
-2192.860689997548
 31
0.0
  0
TEXT
  5
36
  8
HIBINO-BASE
 62
     7
 10
1068.0
 20
-2241.9081566642139
 30
0.0
 40
32.576822916666671
  1
DRAWN
 41
0.7
 11
1068.0
 21
-2209.331333747547
 31
0.0
 73
     3
  0
TEXT
  5
37
  8
HIBINO-BASE
 62
     7
 10
568.0
 20
-2241.9081566642139
 30
0.0
 40
32.576822916666671
  1
DATE
 41
0.7
 11
568.0
 21
-2209.331333747547
 31
0.0
 73
     3
  0
TEXT
  5
38
  8
HIBINO-BASE
 62
     7
 10
368.0
 20
-2241.9081566642139
 30
0.0
 40
32.576822916666671
  1
SCALE
 41
0.7
 11
368.0
 21
-2209.331333747547
 31
0.0
 73
     3
  0
TEXT
  5
39
  8
HIBINO-BASE
 62
     7
 10
818.0
 20
-2241.9081566642139
 30
0.0
 40
32.576822916666671
  1
DESIGN
 41
0.7
 11
818.0
 21
-2209.331333747547
 31
0.0
 73
     3
  0
TEXT
  5
3A
  8
HIBINO-BASE
 62
     7
 10
1568.0
 20
-2241.9081566642139
 30
0.0
 40
32.576822916666671
  1
DRAWING NO.
 41
0.7
 11
1568.0
 21
-2209.331333747547
 31
0.0
 73
     3
  0
TEXT
  5
3B
  8
HIBINO-BASE
 62
     7
 10
1318.0
 20
-2241.9081566642139
 30
0.0
 40
32.576822916666671
  1
CHECK
 41
0.7
 11
1318.0
 21
-2209.331333747547
 31
0.0
 73
     3
  0
LINE
  5
3C
  8
HIBINO-BASE
  6
CONTINUOUS
 62
     7
 10
387.5
 20
-2367.8606899975471
 30
0.0
 11
462.5
 21
-2292.860689997548
 31
0.0
  0
TEXT
  5
3D
  8
HIBINO-BASE
 62
     7
 10
375.0
 20
-2315.0395566642151
 30
0.0
 40
32.576822916666671
  1
1
 41
0.7
 11
375.0
 21
-2282.4627337475481
 31
0.0
 73
     3
  0
LINE
  5
3E
  8
HIBINO-BASE
  6
CONTINUOUS
 62
     7
 10
350.0
 20
-2392.860689997548
 30
0.0
 11
350.0
 21
-2192.860689997548
 31
0.0
  0
LINE
  5
3F
  8
HIBINO-BASE
  6
CONTINUOUS
 62
     7
 10
549.99999999999989
 20
-2392.860689997548
 30
0.0
 11
549.99999999999989
 21
-2192.860689997548
 31
0.0
  0
LINE
  5
40
  8
HIBINO-BASE
  6
CONTINUOUS
 62
     7
 10
1050.0
 20
-2192.860689997548
 30
0.0
 11
1050.0
 21
-2392.860689997548
 31
0.0
  0
LINE
  5
41
  8
HIBINO-BASE
  6
CONTINUOUS
 62
     7
 10
1550.0
 20
-2192.860689997548
 30
0.0
 11
1550.0
 21
-2392.860689997548
 31
0.0
  0
LINE
  5
42
  8
HIBINO-BASE
  6
CONTINUOUS
 62
     7
 10
1300.0
 20
-2392.860689997548
 30
0.0
 11
1300.0
 21
-2192.860689997548
 31
0.0
  0
TEXT
  5
43
  8
HIBINO-BASE
 62
     7
 10
567.13079999999979
 20
-2335.5877566642139
 30
0.0
 40
32.576822916666671
  1
'11.05.
 41
0.7
 11
567.13079999999979
 21
-2303.0109337475478
 31
0.0
 73
     3
  0
TEXT
  5
44
  8
HIBINO-BASE
 62
     7
 10
450.0
 20
-2352.5395566642151
 30
0.0
 40
32.576822916666671
  1
20
 41
0.7
 11
450.0
 21
-2319.9627337475481
 31
0.0
 73
     3
  0
TEXT
  5
45
  8
HIBINO-BASE
 62
     7
 10
1080.116200220692
 20
-2335.5877566642139
 30
0.0
 40
32.576822916666671
  1
T.Ootake
 41
0.7
 11
1080.116200220692
 21
-2303.0109337475478
 31
0.0
 73
     3
  0
TEXT
  5
46
  8
HIBINO-BASE
 62
     7
 10
177.666666666667
 20
-2353.340689997548
 30
0.0
 40
65.153645833333329
  1
A4
 41
0.7
 11
177.666666666667
 21
-2288.187044164215
 31
0.0
 73
     3
  0
TEXT
  5
47
  8
HIBINO-BASE
 62
     7
 10
119.1666666666666
 20
-2245.2497899975469
 30
0.0
 40
32.576822916666671
  1
PAPER SIZE
 41
0.7
 11
119.1666666666666
 21
-2212.6729670808809
 31
0.0
 73
     3
  0
TEXT
  5
48
  8
HIBINO-BASE
 62
     7
 10
-1644.8072948621959
 20
-2521.3654946810739
 30
0.0
 40
70.583116319444414
  1
Hibino-Intersound Corporation
 41
0.7
 11
-1644.8072948621959
 21
-2450.7823783616291
 31
0.0
 73
     3
  0
TEXT
  5
49
  8
HIBINO-BASE
 62
     7
 10
503.61219360427799
 20
-2514.3437296152852
 30
0.0
 40
70.583116319444414
  1
ヒビノインターサウンド株式会社
 41
0.7
 11
503.61219360427799
 21
-2443.7606132958399
 31
0.0
 73
     3
  0
LINE
  5
4A
  8
SPEC
  6
CONTINUOUS
 62
     7
 10
-1550.0
 20
2607.139310002452
 30
0.0
 11
1400.0
 21
2607.139310002452
 31
0.0
  0
LINE
  5
4B
  8
SPEC
  6
CONTINUOUS
 62
     7
 10
-1550.0
 20
2532.139310002452
 30
0.0
 11
1400.0
 21
2532.139310002452
 31
0.0
  0
LINE
  5
4C
  8
SPEC
  6
CONTINUOUS
 62
     7
 10
-1550.0
 20
2382.139310002452
 30
0.0
 11
1400.0
 21
2382.139310002452
 31
0.0
  0
LINE
  5
4D
  8
SPEC
  6
CONTINUOUS
 62
     7
 10
-1550.0
 20
2457.139310002452
 30
0.0
 11
1400.0
 21
2457.139310002452
 31
0.0
  0
LINE
  5
4E
  8
SPEC
  6
CONTINUOUS
 62
     7
 10
-1550.0
 20
2607.139310002452
 30
0.0
 11
-1550.0
 21
1707.139310002452
 31
0.0
  0
TEXT
  5
4F
  8
SPEC
 62
     7
 10
-1525.0
 20
2635.0047100024522
 30
0.0
 40
48.865234375000007
  1
仕様
 41
0.7
 11
-1525.0
 21
2683.8699443774522
 31
0.0
 73
     3
  0
LINE
  5
50
  8
SPEC
  6
CONTINUOUS
 62
     7
 10
-900.0
 20
2607.139310002452
 30
0.0
 11
-900.0
 21
1707.139310002452
 31
0.0
  0
LINE
  5
51
  8
SPEC
  6
CONTINUOUS
 62
     7
 10
1400.0
 20
2607.139310002452
 30
0.0
 11
1400.0
 21
1707.139310002452
 31
0.0
  0
LINE
  5
52
  8
SPEC
  6
CONTINUOUS
 62
     7
 10
-1550.0
 20
2307.139310002452
 30
0.0
 11
1400.0
 21
2307.139310002452
 31
0.0
  0
LINE
  5
53
  8
SPEC
  6
CONTINUOUS
 62
     7
 10
-1550.0
 20
2232.139310002452
 30
0.0
 11
1400.0
 21
2232.139310002452
 31
0.0
  0
LINE
  5
54
  8
SPEC
  6
CONTINUOUS
 62
     7
 10
-1550.0
 20
2157.139310002452
 30
0.0
 11
1400.0
 21
2157.139310002452
 31
0.0
  0
LINE
  5
55
  8
SPEC
  6
CONTINUOUS
 62
     7
 10
-1550.0
 20
2082.139310002452
 30
0.0
 11
1400.0
 21
2082.139310002452
 31
0.0
  0
LINE
  5
56
  8
SPEC
  6
CONTINUOUS
 62
     7
 10
-1550.0
 20
2007.139310002452
 30
0.0
 11
1400.0
 21
2007.139310002452
 31
0.0
  0
LINE
  5
57
  8
SPEC
  6
CONTINUOUS
 62
     7
 10
-1550.0
 20
1932.139310002452
 30
0.0
 11
1400.0
 21
1932.139310002452
 31
0.0
  0
LINE
  5
58
  8
SPEC
  6
CONTINUOUS
 62
     7
 10
-1550.0
 20
1857.139310002452
 30
0.0
 11
1400.0
 21
1857.139310002452
 31
0.0
  0
LINE
  5
59
  8
SPEC
  6
CONTINUOUS
 62
     7
 10
-1550.0
 20
1782.139310002452
 30
0.0
 11
1400.0
 21
1782.139310002452
 31
0.0
  0
LINE
  5
5A
  8
SPEC
  6
CONTINUOUS
 62
     7
 10
-1550.0
 20
1707.139310002452
 30
0.0
 11
1400.0
 21
1707.139310002452
 31
0.0
  0
TEXT
  5
5B
  8
SPEC
 62
     7
 10
-1535.7377228210851
 20
1950.020004866765
 30
0.0
 40
38.006293402777779
  1
エンクロージャー
 41
0.7
 11
-1535.7377228210851
 21
1988.0262982695431
 31
0.0
 73
     3
  0
TEXT
  5
5C
  8
SPEC
 62
     7
 10
-881.18156442048223
 20
1799.983963790273
 30
0.0
 40
38.006293402777779
  1
630(W)\U+00D7500(H)\U+00D7780(D)mm(突起部含まず）
 41
0.7
 11
-881.18156442048223
 21
1837.9902571930511
 31
0.0
 73
     3
  0
TEXT
  5
5D
  8
SPEC
 62
     7
 10
-883.102625093857
 20
1875.4445419482381
 30
0.0
 40
38.006293402777779
  1
黒
 41
0.7
 11
-883.102625093857
 21
1913.4508353510159
 31
0.0
 73
     3
  0
TEXT
  5
5E
  8
SPEC
 62
     7
 10
-1532.364480235776
 20
1875.2908545545861
 30
0.0
 40
38.006293402777779
  1
仕上げ
 41
0.7
 11
-1532.364480235776
 21
1913.2971479573639
 31
0.0
 73
     3
  0
TEXT
  5
5F
  8
SPEC
 62
     7
 10
-1532.2924895021019
 20
2100.3640240129198
 30
0.0
 40
38.006293402777779
  1
入力コネクター
 41
0.7
 11
-1532.2924895021019
 21
2138.3703174156981
 31
0.0
 73
     3
  0
TEXT
  5
60
  8
SPEC
 62
     7
 10
-882.19156177600962
 20
2100.0796697768928
 30
0.0
 40
38.006293402777779
  1
2\U+00D7Neutrik NL4MP
 41
0.7
 11
-882.19156177600962
 21
2138.0859631796711
 31
0.0
 73
     3
  0
TEXT
  5
61
  8
SPEC
 62
     7
 10
-1532.061017809674
 20
2025.9737844564061
 30
0.0
 40
38.006293402777779
  1
公称インピーダンス
 41
0.7
 11
-1532.061017809674
 21
2063.980077859183
 31
0.0
 73
     3
  0
TEXT
  5
62
  8
SPEC
 62
     7
 10
-881.73126930350816
 20
2024.5918769835739
 30
0.0
 40
38.006293402777779
  1
8\U+03A9(+1/-1）
 41
0.7
 11
-881.73126930350816
 21
2062.5981703863522
 31
0.0
 73
     3
  0
TEXT
  5
63
  8
SPEC
 62
     7
 10
-1533.0960639338191
 20
2550.356186215949
 30
0.0
 40
38.006293402777779
  1
形式
 41
0.7
 11
-1533.0960639338191
 21
2588.3624796187269
 31
0.0
 73
     3
  0
TEXT
  5
64
  8
SPEC
 62
     7
 10
-882.66454611955521
 20
2549.107872936786
 30
0.0
 40
38.006293402777779
  1
サブウーファー
 41
0.7
 11
-882.66454611955521
 21
2587.1141663395638
 31
0.0
 73
     3
  0
TEXT
  5
65
  8
SPEC
 62
     7
 10
-1532.601691600262
 20
2474.0899306068118
 30
0.0
 40
38.006293402777779
  1
周波数特性
 41
0.7
 11
-1532.601691600262
 21
2512.0962240095892
 31
0.0
 73
     3
  0
TEXT
  5
66
  8
SPEC
 62
     7
 10
-1532.9273215389469
 20
2399.855350962795
 30
0.0
 40
38.006293402777779
  1
許容入力(AES/ピーク）
 41
0.7
 11
-1532.9273215389469
 21
2437.8616443655742
 31
0.0
 73
     3
  0
TEXT
  5
67
  8
SPEC
 62
     7
 10
-1533.0609454445089
 20
2326.2001018438568
 30
0.0
 40
38.006293402777779
  1
感度
 41
0.7
 11
-1533.0609454445089
 21
2364.2063952466351
 31
0.0
 73
     3
  0
TEXT
  5
68
  8
SPEC
 62
     7
 10
-1531.1571602795011
 20
2249.3902736775572
 30
0.0
 40
38.006293402777779
  1
最大音圧
 41
0.7
 11
-1531.1571602795011
 21
2287.396567080335
 31
0.0
 73
     3
  0
TEXT
  5
69
  8
SPEC
 62
     7
 10
-1547.5532728681869
 20
2175.0138217751469
 30
0.0
 40
38.006293402777779
  1
ドライバー構成
 41
0.7
 11
-1547.5532728681869
 21
2213.0201151779252
 31
0.0
 73
     3
  0
TEXT
  5
6A
  8
SPEC
 62
     7
 10
-1533.8477168766119
 20
1801.6177549398401
 30
0.0
 40
38.006293402777779
  1
寸法
 41
0.7
 11
-1533.8477168766119
 21
1839.6240483426179
 31
0.0
 73
     3
  0
TEXT
  5
6B
  8
SPEC
 62
     7
 10
-881.11740501845725
 20
1725.436059112943
 30
0.0
 40
38.006293402777779
  1
約33kg
 41
0.7
 11
-881.11740501845725
 21
1763.442352515721
 31
0.0
 73
     3
  0
TEXT
  5
6C
  8
SPEC
 62
     7
 10
-1533.361066587895
 20
1725.4467901166761
 30
0.0
 40
38.006293402777779
  1
重量
 41
0.7
 11
-1533.361066587895
 21
1763.4530835194539
 31
0.0
 73
     3
  0
TEXT
  5
6D
  8
SPEC
 62
     7
 10
-881.85664444800921
 20
2473.8602764568791
 30
0.0
 40
38.006293402777779
  1
28Hz～120Hz(-6dB)
 41
0.7
 11
-881.85664444800921
 21
2511.8665698596569
 31
0.0
 73
     3
  0
TEXT
  5
6E
  8
SPEC
 62
     7
 10
-884.51260820144591
 20
2398.6004639371231
 30
0.0
 40
38.006293402777779
  1
1250W/5000W
 41
0.7
 11
-884.51260820144591
 21
2436.6067573399009
 31
0.0
 73
     3
  0
TEXT
  5
6F
  8
SPEC
 62
     7
 10
-884.06456319760957
 20
2325.2181473606502
 30
0.0
 40
38.006293402777779
  1
102dB(＊1)
 41
0.7
 11
-884.06456319760957
 21
2363.224440763428
 31
0.0
 73
     3
  0
TEXT
  5
70
  8
SPEC
 62
     7
 10
-884.09268391150499
 20
2249.7304043838431
 30
0.0
 40
38.006293402777779
  1
139dB(＊2）
 41
0.7
 11
-884.09268391150499
 21
2287.7366977866209
 31
0.0
 73
     3
  0
TEXT
  5
71
  8
SPEC
 62
     7
 10
-884.83591436070958
 20
2174.265608927175
 30
0.0
 40
38.006293402777779
  1
1\U+00D718インチネオジム磁石採用、4インチボイスコイル
 41
0.7
 11
-884.83591436070958
 21
2212.2719023299542
 31
0.0
 73
     3
  0
TEXT
  5
72
  8
SPEC
 62
     7
 10
-883.2115399254227
 20
1950.235399266865
 30
0.0
 40
38.006293402777779
  1
合板
 41
0.7
 11
-883.2115399254227
 21
1988.241692669643
 31
0.0
 73
     3
  0
TEXT
  5
73
  8
SPEC
 62
     7
 10
-1506.0
 20
1644.1308609619391
 30
0.0
 40
38.006293402777779
  1
＊1.半空間　＊2.ピンクノイズ、クレストファクター6dB
 41
0.7
 11
-1506.0
 21
1682.1371543647169
 31
0.0
 73
     3
  0
TEXT
  5
74
  8
DIMNSIONS
 62
     7
 10
-300.0
 20
-2147.4708899975481
 30
0.0
 40
48.865234375000007
  1
(単位：mm)
 41
0.7
 11
-300.0
 21
-2098.6056556225481
 31
0.0
 73
     3
  0
LINE
  5
75
  8
DIMNSIONS
  6
CONTINUOUS
 62
     7
 10
-799.9999999999892
 20
-640.0
 30
0.0
 11
-799.9999999999892
 21
-839.9999999999236
 31
0.0
  0
LINE
  5
76
  8
DIMNSIONS
  6
CONTINUOUS
 62
     7
 10
-169.99999999998869
 20
-640.0
 30
0.0
 11
-169.99999999998869
 21
-839.9999999999236
 31
0.0
  0
LINE
  5
77
  8
DIMNSIONS
  6
CONTINUOUS
 62
     7
 10
-799.9999999999892
 20
-799.9999999999236
 30
0.0
 11
-169.99999999998869
 21
-799.9999999999236
 31
0.0
  0
LINE
  5
78
  8
DIMNSIONS
  6
CONTINUOUS
 62
     7
 10
-799.9999999999892
 20
-799.9999999999236
 30
0.0
 11
-749.9875488281142
 21
-786.59920409691881
 31
0.0
  0
LINE
  5
79
  8
DIMNSIONS
  6
CONTINUOUS
 62
     7
 10
-799.9999999999892
 20
-799.9999999999236
 30
0.0
 11
-749.9875488281142
 21
-813.40079590292862
 31
0.0
  0
LINE
  5
7A
  8
DIMNSIONS
  6
CONTINUOUS
 62
     7
 10
-169.99999999998869
 20
-799.9999999999236
 30
0.0
 11
-220.01245117186369
 21
-813.40079590292862
 31
0.0
  0
LINE
  5
7B
  8
DIMNSIONS
  6
CONTINUOUS
 62
     7
 10
-169.99999999998869
 20
-799.9999999999236
 30
0.0
 11
-220.01245117186369
 21
-786.59920409691881
 31
0.0
  0
TEXT
  5
7C
  8
DIMNSIONS
 62
     7
 10
-537.91666666665526
 20
-780.12222222214598
 30
0.0
 40
54.294704861111107
  1
630
 41
0.7
 11
-537.91666666665526
 21
-725.82751736103489
 31
0.0
 73
     3
  0
LINE
  5
7D
  8
DIMNSIONS
  6
CONTINUOUS
 62
     7
 10
-525.05132091890778
 20
200.00000131691829
 30
0.0
 11
-1040.0
 21
200.00000131691829
 31
0.0
  0
LINE
  5
7E
  8
DIMNSIONS
  6
CONTINUOUS
 62
     7
 10
-840.0
 20
979.99999999999841
 30
0.0
 11
-1040.0
 21
979.99999999999841
 31
0.0
  0
LINE
  5
7F
  8
DIMNSIONS
  6
CONTINUOUS
 62
     7
 10
-1000.0
 20
200.00000131691829
 30
0.0
 11
-1000.0
 21
979.99999999999841
 31
0.0
  0
LINE
  5
80
  8
DIMNSIONS
  6
CONTINUOUS
 62
     7
 10
-1000.0
 20
200.00000131691829
 30
0.0
 11
-1013.400795903005
 21
250.01245248879329
 31
0.0
  0
LINE
  5
81
  8
DIMNSIONS
  6
CONTINUOUS
 62
     7
 10
-1000.0
 20
200.00000131691829
 30
0.0
 11
-986.59920409699532
 21
250.01245248879329
 31
0.0
  0
LINE
  5
82
  8
DIMNSIONS
  6
CONTINUOUS
 62
     7
 10
-1000.0
 20
979.99999999999841
 30
0.0
 11
-986.59920409699532
 21
929.98754882812364
 31
0.0
  0
LINE
  5
83
  8
DIMNSIONS
  6
CONTINUOUS
 62
     7
 10
-1000.0
 20
979.99999999999841
 30
0.0
 11
-1013.400795903005
 21
929.98754882812364
 31
0.0
  0
TEXT
  5
84
  8
DIMNSIONS
 62
     7
 10
-1019.877777777778
 20
537.08333399179173
 30
0.0
 40
54.294704861111107
  1
780
 50
90.0
 41
0.7
 11
-1074.1724826388891
 21
537.08333399179173
 31
0.0
 73
     3
  0
LINE
  5
85
  8
DIMNSIONS
  6
CONTINUOUS
 62
     7
 10
-839.99999999998909
 20
-600.0
 30
0.0
 11
-1040.0
 21
-600.0
 31
0.0
  0
LINE
  5
86
  8
DIMNSIONS
  6
CONTINUOUS
 62
     7
 10
-840.0
 20
-100.00000000007999
 30
0.0
 11
-1040.0
 21
-100.00000000007999
 31
0.0
  0
LINE
  5
87
  8
DIMNSIONS
  6
CONTINUOUS
 62
     7
 10
-1000.0
 20
-600.0
 30
0.0
 11
-1000.0
 21
-100.00000000007999
 31
0.0
  0
LINE
  5
88
  8
DIMNSIONS
  6
CONTINUOUS
 62
     7
 10
-1000.0
 20
-600.0
 30
0.0
 11
-1013.400795903005
 21
-549.987548828125
 31
0.0
  0
LINE
  5
89
  8
DIMNSIONS
  6
CONTINUOUS
 62
     7
 10
-1000.0
 20
-600.0
 30
0.0
 11
-986.59920409699532
 21
-549.987548828125
 31
0.0
  0
LINE
  5
8A
  8
DIMNSIONS
  6
CONTINUOUS
 62
     7
 10
-1000.0
 20
-100.00000000007999
 30
0.0
 11
-986.59920409699532
 21
-150.01245117195501
 31
0.0
  0
LINE
  5
8B
  8
DIMNSIONS
  6
CONTINUOUS
 62
     7
 10
-1000.0
 20
-100.00000000007999
 30
0.0
 11
-1013.400795903005
 21
-150.01245117195501
 31
0.0
  0
TEXT
  5
8C
  8
DIMNSIONS
 62
     7
 10
-1019.877777777778
 20
-402.91666666670687
 30
0.0
 40
54.294704861111107
  1
500
 50
90.0
 41
0.7
 11
-1074.1724826388891
 21
-402.91666666670687
 31
0.0
 73
     3
  0
LINE
  5
8D
  8
DIMNSIONS
  6
CONTINUOUS
 62
     7
 10
-708.17570341103226
 20
-605.00000000004002
 30
0.0
 11
-1040.0
 21
-605.00000000004002
 31
0.0
  0
LINE
  5
8E
  8
DIMNSIONS
  6
CONTINUOUS
 62
     7
 10
-839.99999999998909
 20
-600.0
 30
0.0
 11
-1040.0
 21
-600.0
 31
0.0
  0
LINE
  5
8F
  8
DIMNSIONS
  6
CONTINUOUS
 62
     7
 10
-1000.0
 20
-600.0
 30
0.0
 11
-1000.0
 21
-605.00000000004002
 31
0.0
  0
LINE
  5
90
  8
DIMNSIONS
  6
CONTINUOUS
 62
     7
 10
-1000.0
 20
-605.00000000004002
 30
0.0
 11
-1000.0
 21
-685.27777777770154
 31
0.0
  0
LINE
  5
91
  8
DIMNSIONS
  6
CONTINUOUS
 62
     7
 10
-1000.0
 20
-605.00000000004002
 30
0.0
 11
-986.59920409699532
 21
-655.01245117191502
 31
0.0
  0
LINE
  5
92
  8
DIMNSIONS
  6
CONTINUOUS
 62
     7
 10
-1000.0
 20
-605.00000000004002
 30
0.0
 11
-1013.400795903005
 21
-655.01245117191502
 31
0.0
  0
LINE
  5
93
  8
DIMNSIONS
  6
CONTINUOUS
 62
     7
 10
-1000.0
 20
-600.0
 30
0.0
 11
-1000.0
 21
-500.0
 31
0.0
  0
LINE
  5
94
  8
DIMNSIONS
  6
CONTINUOUS
 62
     7
 10
-1000.0
 20
-600.0
 30
0.0
 11
-1013.400795903005
 21
-549.987548828125
 31
0.0
  0
LINE
  5
95
  8
DIMNSIONS
  6
CONTINUOUS
 62
     7
 10
-1000.0
 20
-600.0
 30
0.0
 11
-986.59920409699532
 21
-549.987548828125
 31
0.0
  0
TEXT
  5
96
  8
DIMNSIONS
 62
     7
 10
-1019.877777777778
 20
-685.27777777770154
 30
0.0
 40
54.294704861111107
  1
5
 50
90.0
 41
0.7
 11
-1074.1724826388891
 21
-685.27777777770154
 31
0.0
 73
     3
  0
TEXT
  5
97
  8
DATA
 62
     7
 10
-1500.0
 20
-2308.1006899975469
 30
0.0
 40
32.576822916666671
  1
仕様および外観は予告なく変更されることがありますので、ご了承ください。
 41
0.7
 11
-1500.0
 21
-2275.5238670808808
 31
0.0
 73
     3
  0
ARC
  5
98
  8
DATA
  6
CONTINUOUS
 62
     7
 10
1185.499999999987
 20
-350.00000000002018
 30
0.0
 40
5.9999999999997264
 50
225.000000000086
 51
314.99999999991411
  0
ARC
  5
99
  8
DATA
  6
CONTINUOUS
 62
     7
 10
1185.499999999987
 20
-350.00000000002018
 30
0.0
 40
5.9999999999984404
 50
45.000000000073697
 51
134.999999999914
  0
LINE
  5
9A
  8
DATA
  6
CONTINUOUS
 62
     7
 10
1264.4999999999879
 20
-394.00000000002041
 30
0.0
 11
1165.499999999987
 21
-394.00000000002041
 31
0.0
  0
LINE
  5
9B
  8
DATA
  6
CONTINUOUS
 62
     7
 10
1165.499999999987
 20
-306.00000000002029
 30
0.0
 11
1264.4999999999879
 21
-306.00000000002029
 31
0.0
  0
CIRCLE
  5
9C
  8
DATA
  6
CONTINUOUS
 62
     7
 10
1182.499999999987
 20
-312.00000000002029
 30
0.0
 40
4.0
  0
LINE
  5
9D
  8
DATA
  6
CONTINUOUS
 62
     7
 10
1180.499999999987
 20
-312.00000000002029
 30
0.0
 11
1184.499999999987
 21
-312.00000000002029
 31
0.0
  0
ARC
  5
9E
  8
DATA
  6
CONTINUOUS
 62
     7
 10
1185.499999999987
 20
-350.00000000002018
 30
0.0
 40
4.000000000000675
 50
45.000000000073697
 51
134.9999999999263
  0
LINE
  5
9F
  8
DATA
  6
CONTINUOUS
 62
     7
 10
1183.3786796564291
 20
-347.87867965646029
 30
0.0
 11
1182.6715728752481
 21
-347.17157287528079
 31
0.0
  0
LINE
  5
A0
  8
DATA
  6
CONTINUOUS
 62
     7
 10
1183.3786796564291
 20
-352.12132034358018
 30
0.0
 11
1182.6715728752481
 21
-352.82842712477049
 31
0.0
  0
ARC
  5
A1
  8
DATA
  6
CONTINUOUS
 62
     7
 10
1185.499999999987
 20
-350.00000000002018
 30
0.0
 40
3.0000000000005058
 50
134.9999999999508
 51
225.0000000000492
  0
ARC
  5
A2
  8
DATA
  6
CONTINUOUS
 62
     7
 10
1185.499999999987
 20
-350.00000000002018
 30
0.0
 40
10.500000000000879
 50
256.22585300195402
 51
283.77414699804598
  0
ARC
  5
A3
  8
DATA
  6
CONTINUOUS
 62
     7
 10
1185.499999999987
 20
-350.00000000002018
 30
0.0
 40
4.000000000000675
 50
225.0000000000737
 51
314.99999999992639
  0
CIRCLE
  5
A4
  8
DATA
  6
CONTINUOUS
 62
     7
 10
1185.499999999987
 20
-350.00000000002018
 30
0.0
 40
12.0
  0
ARC
  5
A5
  8
DATA
  6
CONTINUOUS
 62
     7
 10
1185.499999999987
 20
-350.00000000002018
 30
0.0
 40
8.9999999999992966
 50
99.594068226931697
 51
253.87237978686511
  0
LINE
  5
A6
  8
DATA
  6
CONTINUOUS
 62
     7
 10
1180.499999999987
 20
-388.00000000002041
 30
0.0
 11
1184.499999999987
 21
-388.00000000002041
 31
0.0
  0
CIRCLE
  5
A7
  8
DATA
  6
CONTINUOUS
 62
     7
 10
1182.499999999987
 20
-388.00000000002041
 30
0.0
 40
4.0
  0
LINE
  5
A8
  8
DATA
  6
CONTINUOUS
 62
     7
 10
1147.499999999987
 20
-376.00000000002041
 30
0.0
 11
1147.499999999987
 21
-324.00000000002018
 31
0.0
  0
LINE
  5
A9
  8
DATA
  6
CONTINUOUS
 62
     7
 10
1182.999999999987
 20
-358.64580823291931
 30
0.0
 11
1182.999999999987
 21
-360.19803902720952
 31
0.0
  0
ARC
  5
AA
  8
DATA
  6
CONTINUOUS
 62
     7
 10
1165.499999999987
 20
-376.00000000002041
 30
0.0
 40
18.0
 50
180.0
 51
270.0
  0
LINE
  5
AB
  8
DATA
  6
CONTINUOUS
 62
     7
 10
1182.499999999987
 20
-386.00000000002041
 30
0.0
 11
1182.499999999987
 21
-390.00000000002041
 31
0.0
  0
ARC
  5
AC
  8
DATA
  6
CONTINUOUS
 62
     7
 10
1165.499999999987
 20
-324.00000000002018
 30
0.0
 40
18.0
 50
90.0
 51
180.0
  0
LINE
  5
AD
  8
DATA
  6
CONTINUOUS
 62
     7
 10
1182.499999999987
 20
-314.00000000002029
 30
0.0
 11
1182.499999999987
 21
-310.00000000002029
 31
0.0
  0
LINE
  5
AE
  8
DATA
  6
CONTINUOUS
 62
     7
 10
1181.964466094056
 20
-353.53553390596079
 30
0.0
 11
1181.257359312867
 21
-354.24264068714029
 31
0.0
  0
ARC
  5
AF
  8
DATA
  6
CONTINUOUS
 62
     7
 10
1185.499999999987
 20
-350.00000000002018
 30
0.0
 40
4.9999999999995568
 50
134.9999999999263
 51
225.0000000000737
  0
LINE
  5
B0
  8
DATA
  6
CONTINUOUS
 62
     7
 10
1181.257359312867
 20
-345.75735931290018
 30
0.0
 11
1181.964466094056
 21
-346.46446609409048
 31
0.0
  0
CIRCLE
  5
B1
  8
DATA
  6
CONTINUOUS
 62
     7
 10
1174.1862915010081
 20
-338.68629150104078
 30
0.0
 40
3.0
  0
CIRCLE
  5
B2
  8
DATA
  6
CONTINUOUS
 62
     7
 10
1174.1862915010081
 20
-338.68629150104078
 30
0.0
 40
1.0
  0
LINE
  5
B3
  8
DATA
  6
CONTINUOUS
 62
     7
 10
1151.499999999987
 20
-350.00000000002018
 30
0.0
 11
1155.499999999987
 21
-350.00000000002018
 31
0.0
  0
LINE
  5
B4
  8
DATA
  6
CONTINUOUS
 62
     7
 10
1153.499999999987
 20
-352.00000000002018
 30
0.0
 11
1153.499999999987
 21
-348.00000000002018
 31
0.0
  0
CIRCLE
  5
B5
  8
DATA
  6
CONTINUOUS
 62
     7
 10
1153.499999999987
 20
-350.00000000002018
 30
0.0
 40
4.0
  0
LINE
  5
B6
  8
DATA
  6
CONTINUOUS
 62
     7
 10
1282.4999999999891
 20
-324.00000000002018
 30
0.0
 11
1282.4999999999891
 21
-376.00000000002041
 31
0.0
  0
LINE
  5
B7
  8
DATA
  6
CONTINUOUS
 62
     7
 10
1246.9999999999891
 20
-358.64580823291931
 30
0.0
 11
1246.9999999999891
 21
-360.19803902720952
 31
0.0
  0
LINE
  5
B8
  8
DATA
  6
CONTINUOUS
 62
     7
 10
1241.9999999999879
 20
-358.64580823291931
 30
0.0
 11
1241.9999999999879
 21
-360.19803902720952
 31
0.0
  0
CIRCLE
  5
B9
  8
DATA
  6
CONTINUOUS
 62
     7
 10
1255.8137084989789
 20
-361.3137084990106
 30
0.0
 40
3.0
  0
CIRCLE
  5
BA
  8
DATA
  6
CONTINUOUS
 62
     7
 10
1244.4999999999879
 20
-350.00000000002018
 30
0.0
 40
12.000000000000449
  0
LINE
  5
BB
  8
DATA
  6
CONTINUOUS
 62
     7
 10
1187.999999999987
 20
-358.64580823291931
 30
0.0
 11
1187.999999999987
 21
-360.19803902720952
 31
0.0
  0
CIRCLE
  5
BC
  8
DATA
  6
CONTINUOUS
 62
     7
 10
1196.813708498978
 20
-361.3137084990106
 30
0.0
 40
3.0
  0
ARC
  5
BD
  8
DATA
  6
CONTINUOUS
 62
     7
 10
1244.4999999999879
 20
-350.00000000002018
 30
0.0
 40
10.500000000000879
 50
256.22585300195402
 51
283.77414699804842
  0
CIRCLE
  5
BE
  8
DATA
  6
CONTINUOUS
 62
     7
 10
1247.4999999999879
 20
-388.00000000002041
 30
0.0
 40
4.0
  0
CIRCLE
  5
BF
  8
DATA
  6
CONTINUOUS
 62
     7
 10
1196.813708498978
 20
-361.3137084990106
 30
0.0
 40
1.0
  0
ARC
  5
C0
  8
DATA
  6
CONTINUOUS
 62
     7
 10
1264.4999999999879
 20
-376.00000000002041
 30
0.0
 40
18.0
 50
270.0
 51
0.0
  0
CIRCLE
  5
C1
  8
DATA
  6
CONTINUOUS
 62
     7
 10
1255.8137084989789
 20
-361.3137084990106
 30
0.0
 40
1.0
  0
LINE
  5
C2
  8
DATA
  6
CONTINUOUS
 62
     7
 10
1247.4999999999879
 20
-386.00000000002041
 30
0.0
 11
1247.4999999999879
 21
-390.00000000002041
 31
0.0
  0
LINE
  5
C3
  8
DATA
  6
CONTINUOUS
 62
     7
 10
1249.4999999999879
 20
-388.00000000002041
 30
0.0
 11
1245.4999999999879
 21
-388.00000000002041
 31
0.0
  0
ARC
  5
C4
  8
DATA
  6
CONTINUOUS
 62
     7
 10
1264.4999999999879
 20
-324.00000000002018
 30
0.0
 40
18.000000000000451
 50
0.0
 51
90.0
  0
LINE
  5
C5
  8
DATA
  6
CONTINUOUS
 62
     7
 10
1247.4999999999879
 20
-314.00000000002029
 30
0.0
 11
1247.4999999999879
 21
-310.00000000002029
 31
0.0
  0
CIRCLE
  5
C6
  8
DATA
  6
CONTINUOUS
 62
     7
 10
1247.4999999999879
 20
-312.00000000002029
 30
0.0
 40
4.0
  0
ARC
  5
C7
  8
DATA
  6
CONTINUOUS
 62
     7
 10
1244.4999999999879
 20
-350.00000000002018
 30
0.0
 40
5.9999999999997264
 50
225.000000000086
 51
314.99999999991712
  0
ARC
  5
C8
  8
DATA
  6
CONTINUOUS
 62
     7
 10
1244.4999999999879
 20
-350.00000000002018
 30
0.0
 40
5.9999999999987619
 50
45.000000000070607
 51
134.999999999914
  0
LINE
  5
C9
  8
DATA
  6
CONTINUOUS
 62
     7
 10
1245.9999999999891
 20
-339.50000000002018
 30
0.0
 11
1242.9999999999879
 21
-339.50000000002018
 31
0.0
  0
ARC
  5
CA
  8
DATA
  6
CONTINUOUS
 62
     7
 10
1244.4999999999879
 20
-350.00000000002018
 30
0.0
 40
4.0000000000009956
 50
45.000000000069093
 51
134.9999999999263
  0
ARC
  5
CB
  8
DATA
  6
CONTINUOUS
 62
     7
 10
1244.4999999999879
 20
-350.00000000002018
 30
0.0
 40
4.000000000000675
 50
225.0000000000737
 51
314.99999999993088
  0
ARC
  5
CC
  8
DATA
  6
CONTINUOUS
 62
     7
 10
1244.4999999999879
 20
-350.00000000002018
 30
0.0
 40
4.9999999999995568
 50
134.9999999999263
 51
225.0000000000737
  0
LINE
  5
CD
  8
DATA
  6
CONTINUOUS
 62
     7
 10
1240.2573593128679
 20
-354.24264068714029
 30
0.0
 11
1240.964466094056
 21
-353.53553390596079
 31
0.0
  0
LINE
  5
CE
  8
DATA
  6
CONTINUOUS
 62
     7
 10
1240.964466094056
 20
-346.46446609409048
 30
0.0
 11
1240.2573593128679
 21
-345.75735931290018
 31
0.0
  0
ARC
  5
CF
  8
DATA
  6
CONTINUOUS
 62
     7
 10
1185.499999999987
 20
-350.00000000002018
 30
0.0
 40
4.9999999999995568
 50
314.99999999992639
 51
45.000000000073712
  0
LINE
  5
D0
  8
DATA
  6
CONTINUOUS
 62
     7
 10
1189.742640687107
 20
-354.24264068714029
 30
0.0
 11
1189.0355339059261
 21
-353.53553390596079
 31
0.0
  0
LINE
  5
D1
  8
DATA
  6
CONTINUOUS
 62
     7
 10
1189.0355339059261
 20
-346.46446609409048
 30
0.0
 11
1189.742640687107
 21
-345.75735931290018
 31
0.0
  0
LINE
  5
D2
  8
DATA
  6
CONTINUOUS
 62
     7
 10
1242.9999999999879
 20
-341.12588032536968
 30
0.0
 11
1242.9999999999879
 21
-339.50000000002018
 31
0.0
  0
CIRCLE
  5
D3
  8
DATA
  6
CONTINUOUS
 62
     7
 10
1233.186291501009
 20
-338.68629150104078
 30
0.0
 40
1.0
  0
CIRCLE
  5
D4
  8
DATA
  6
CONTINUOUS
 62
     7
 10
1233.186291501009
 20
-338.68629150104078
 30
0.0
 40
3.0
  0
ARC
  5
D5
  8
DATA
  6
CONTINUOUS
 62
     7
 10
1244.4999999999879
 20
-350.00000000002018
 30
0.0
 40
3.0000000000005058
 50
134.9999999999508
 51
225.0000000000492
  0
LINE
  5
D6
  8
DATA
  6
CONTINUOUS
 62
     7
 10
1242.37867965643
 20
-352.12132034358018
 30
0.0
 11
1241.6715728752481
 21
-352.82842712477049
 31
0.0
  0
LINE
  5
D7
  8
DATA
  6
CONTINUOUS
 62
     7
 10
1242.37867965643
 20
-347.87867965646029
 30
0.0
 11
1241.6715728752381
 21
-347.17157287528079
 31
0.0
  0
ARC
  5
D8
  8
DATA
  6
CONTINUOUS
 62
     7
 10
1244.4999999999879
 20
-350.00000000002018
 30
0.0
 40
8.9999999999992966
 50
99.594068226931697
 51
253.87237978686511
  0
LINE
  5
D9
  8
DATA
  6
CONTINUOUS
 62
     7
 10
1183.999999999987
 20
-339.50000000002018
 30
0.0
 11
1186.999999999987
 21
-339.50000000002018
 31
0.0
  0
LINE
  5
DA
  8
DATA
  6
CONTINUOUS
 62
     7
 10
1186.999999999987
 20
-341.12588032536968
 30
0.0
 11
1186.999999999987
 21
-339.50000000002018
 31
0.0
  0
LINE
  5
DB
  8
DATA
  6
CONTINUOUS
 62
     7
 10
1183.999999999987
 20
-341.12588032536968
 30
0.0
 11
1183.999999999987
 21
-339.50000000002018
 31
0.0
  0
LINE
  5
DC
  8
DATA
  6
CONTINUOUS
 62
     7
 10
1187.6213203435491
 20
-347.87867965646029
 30
0.0
 11
1188.328427124738
 21
-347.17157287528079
 31
0.0
  0
LINE
  5
DD
  8
DATA
  6
CONTINUOUS
 62
     7
 10
1187.6213203435491
 20
-352.12132034358018
 30
0.0
 11
1188.328427124738
 21
-352.82842712477049
 31
0.0
  0
ARC
  5
DE
  8
DATA
  6
CONTINUOUS
 62
     7
 10
1185.499999999987
 20
-350.00000000002018
 30
0.0
 40
3.0000000000005058
 50
314.99999999995089
 51
45.000000000049099
  0
ARC
  5
DF
  8
DATA
  6
CONTINUOUS
 62
     7
 10
1185.499999999987
 20
-350.00000000002018
 30
0.0
 40
9.0000000000008722
 50
286.127620213135
 51
80.405931773068346
  0
LINE
  5
E0
  8
DATA
  6
CONTINUOUS
 62
     7
 10
1248.035533905927
 20
-353.53553390596079
 30
0.0
 11
1248.742640687108
 21
-354.24264068714029
 31
0.0
  0
ARC
  5
E1
  8
DATA
  6
CONTINUOUS
 62
     7
 10
1244.4999999999879
 20
-350.00000000002018
 30
0.0
 40
4.9999999999998792
 50
314.99999999993003
 51
45.000000000070038
  0
LINE
  5
E2
  8
DATA
  6
CONTINUOUS
 62
     7
 10
1248.742640687108
 20
-345.75735931290018
 30
0.0
 11
1248.035533905927
 21
-346.46446609409048
 31
0.0
  0
LINE
  5
E3
  8
DATA
  6
CONTINUOUS
 62
     7
 10
1249.4999999999879
 20
-312.00000000002029
 30
0.0
 11
1245.4999999999879
 21
-312.00000000002029
 31
0.0
  0
LINE
  5
E4
  8
DATA
  6
CONTINUOUS
 62
     7
 10
1245.9999999999891
 20
-341.12588032536968
 30
0.0
 11
1245.9999999999891
 21
-339.50000000002018
 31
0.0
  0
LINE
  5
E5
  8
DATA
  6
CONTINUOUS
 62
     7
 10
1276.4999999999891
 20
-352.00000000002018
 30
0.0
 11
1276.4999999999891
 21
-348.00000000002018
 31
0.0
  0
LINE
  5
E6
  8
DATA
  6
CONTINUOUS
 62
     7
 10
1278.4999999999891
 20
-350.00000000002018
 30
0.0
 11
1274.4999999999891
 21
-350.00000000002018
 31
0.0
  0
CIRCLE
  5
E7
  8
DATA
  6
CONTINUOUS
 62
     7
 10
1276.4999999999891
 20
-350.00000000002018
 30
0.0
 40
4.0
  0
ARC
  5
E8
  8
DATA
  6
CONTINUOUS
 62
     7
 10
1244.4999999999879
 20
-350.00000000002018
 30
0.0
 40
3.0000000000008269
 50
314.99999999995691
 51
45.000000000042967
  0
LINE
  5
E9
  8
DATA
  6
CONTINUOUS
 62
     7
 10
1246.62132034355
 20
-352.12132034358018
 30
0.0
 11
1247.328427124738
 21
-352.82842712477049
 31
0.0
  0
LINE
  5
EA
  8
DATA
  6
CONTINUOUS
 62
     7
 10
1246.62132034355
 20
-347.87867965646029
 30
0.0
 11
1247.328427124738
 21
-347.17157287528079
 31
0.0
  0
ARC
  5
EB
  8
DATA
  6
CONTINUOUS
 62
     7
 10
1244.4999999999879
 20
-350.00000000002018
 30
0.0
 40
9.0000000000010001
 50
286.12762021313779
 51
80.405931773065475
  0
LINE
  5
EC
  8
DATA
  6
CONTINUOUS
 62
     7
 10
-327.99999999998829
 20
-582.00000000002899
 30
0.0
 11
-187.99999999999969
 21
-442.00000000002052
 31
0.0
  0
LINE
  5
ED
  8
DATA
  6
CONTINUOUS
 62
     7
 10
-782.0
 20
-442.00000000002962
 30
0.0
 11
-641.99999999998875
 21
-582.00000000002899
 31
0.0
  0
LINE
  5
EE
  8
DATA
  6
CONTINUOUS
 62
     7
 10
-800.0
 20
-582.00000000002899
 30
0.0
 11
-800.0
 21
-118.000000000029
 31
0.0
  0
LINE
  5
EF
  8
DATA
  6
CONTINUOUS
 62
     7
 10
-796.0
 20
-582.00000000002899
 30
0.0
 11
-796.0
 21
-118.000000000029
 31
0.0
  0
LINE
  5
F0
  8
DATA
  6
CONTINUOUS
 62
     7
 10
-782.0
 20
-118.000000000029
 30
0.0
 11
-782.0
 21
-582.00000000002899
 31
0.0
  0
LINE
  5
F1
  8
DATA
  6
CONTINUOUS
 62
     7
 10
-783.27421469795809
 20
-118.000000000029
 30
0.0
 11
-783.2742146979507
 21
-582.00000000002899
 31
0.0
  0
LINE
  5
F2
  8
DATA
  6
CONTINUOUS
 62
     7
 10
-169.99999999998869
 20
-118.0000000000199
 30
0.0
 11
-169.99999999998869
 21
-582.00000000002001
 31
0.0
  0
LINE
  5
F3
  8
DATA
  6
CONTINUOUS
 62
     7
 10
-173.99999999998869
 20
-582.00000000002001
 30
0.0
 11
-173.99999999998869
 21
-118.0000000000199
 31
0.0
  0
LINE
  5
F4
  8
DATA
  6
CONTINUOUS
 62
     7
 10
-187.99999999998869
 20
-582.00000000002001
 30
0.0
 11
-187.99999999999969
 21
-118.0000000000199
 31
0.0
  0
LINE
  5
F5
  8
DATA
  6
CONTINUOUS
 62
     7
 10
-186.72578530203791
 20
-582.00000000002001
 30
0.0
 11
-186.72578530203791
 21
-118.0000000000199
 31
0.0
  0
ARC
  5
F6
  8
DATA
  6
CONTINUOUS
 62
     7
 10
-484.9999999999992
 20
-351.0000000000403
 30
0.0
 40
226.10000000000039
 50
271.12098915149141
 51
313.87901084859232
  0
ARC
  5
F7
  8
DATA
  6
CONTINUOUS
 62
     7
 10
-484.9999999999992
 20
-351.0000000000403
 30
0.0
 40
226.10000000000031
 50
226.12098915140771
 51
268.87901084871697
  0
CIRCLE
  5
F8
  8
DATA
  6
CONTINUOUS
 62
     7
 10
-484.9999999999992
 20
-351.0000000000403
 30
0.0
 40
200.97067921089561
  0
CIRCLE
  5
F9
  8
DATA
  6
CONTINUOUS
 62
     7
 10
-484.9999999999992
 20
-351.0000000000403
 30
0.0
 40
189.23626853087279
  0
LINE
  5
FA
  8
DATA
  6
CONTINUOUS
 62
     7
 10
-778.7251672671083
 20
-582.00000000000887
 30
0.0
 11
-191.27483273288041
 21
-582.00000000000887
 31
0.0
  0
LINE
  5
FB
  8
DATA
  6
CONTINUOUS
 62
     7
 10
-779.90478641276047
 20
-600.0
 30
0.0
 11
-190.09521358722799
 21
-600.0
 31
0.0
  0
LINE
  5
FC
  8
DATA
  6
CONTINUOUS
 62
     7
 10
-779.90478641276047
 20
-587.00000000000887
 30
0.0
 11
-190.09521358722799
 21
-587.00000000000887
 31
0.0
  0
LINE
  5
FD
  8
DATA
  6
CONTINUOUS
 62
     7
 10
-796.0
 20
-582.00000000000887
 30
0.0
 11
-778.7251672671083
 21
-582.00000000000887
 31
0.0
  0
LINE
  5
FE
  8
DATA
  6
CONTINUOUS
 62
     7
 10
-779.90478641276047
 20
-600.0
 30
0.0
 11
-799.9999999999892
 21
-600.0
 31
0.0
  0
LINE
  5
FF
  8
DATA
  6
CONTINUOUS
 62
     7
 10
-800.0
 20
-587.00000000000887
 30
0.0
 11
-779.90478641276047
 21
-587.00000000000887
 31
0.0
  0
LINE
  5
100
  8
DATA
  6
CONTINUOUS
 62
     7
 10
-796.0
 20
-582.00000000002899
 30
0.0
 11
-783.2742146979507
 21
-582.00000000002899
 31
0.0
  0
LINE
  5
101
  8
DATA
  6
CONTINUOUS
 62
     7
 10
-800.0
 20
-582.0
 30
0.0
 11
-796.0
 21
-582.00000000000887
 31
0.0
  0
LINE
  5
102
  8
DATA
  6
CONTINUOUS
 62
     7
 10
-800.0
 20
-587.00000000000887
 30
0.0
 11
-800.0
 21
-582.0
 31
0.0
  0
LINE
  5
103
  8
DATA
  6
CONTINUOUS
 62
     7
 10
-796.0
 20
-582.00000000000887
 30
0.0
 11
-796.0
 21
-587.00000000000887
 31
0.0
  0
LINE
  5
104
  8
DATA
  6
CONTINUOUS
 62
     7
 10
-799.9999999999892
 20
-600.0
 30
0.0
 11
-800.0
 21
-587.00000000000887
 31
0.0
  0
LINE
  5
105
  8
DATA
  6
CONTINUOUS
 62
     7
 10
-800.0
 20
-582.00000000002899
 30
0.0
 11
-796.0
 21
-582.00000000002899
 31
0.0
  0
LINE
  5
106
  8
DATA
  6
CONTINUOUS
 62
     7
 10
-778.7251672671083
 20
-587.00000000000887
 30
0.0
 11
-778.7251672671083
 21
-582.00000000000887
 31
0.0
  0
LINE
  5
107
  8
DATA
  6
CONTINUOUS
 62
     7
 10
-779.90478641276047
 20
-587.00000000000887
 30
0.0
 11
-779.90478641276047
 21
-600.0
 31
0.0
  0
ARC
  5
108
  8
DATA
  6
CONTINUOUS
 62
     7
 10
-640.99999999998875
 20
-599.0000000000399
 30
0.0
 40
6.0
 50
270.0
 51
350.4059317734928
  0
ARC
  5
109
  8
DATA
  6
CONTINUOUS
 62
     7
 10
-668.99999999999966
 20
-599.0000000000399
 30
0.0
 40
6.0000000000006226
 50
189.59406822650709
 51
270.0
  0
ARC
  5
10A
  8
DATA
  6
CONTINUOUS
 62
     7
 10
-484.9999999999992
 20
-571.00000000004013
 30
0.0
 40
7.500000000000786
 50
233.85857054415209
 51
306.14142945584712
  0
ARC
  5
10B
  8
DATA
  6
CONTINUOUS
 62
     7
 10
-328.9999999999992
 20
-599.0000000000291
 30
0.0
 40
6.0000000000006226
 50
189.59406822650709
 51
270.0
  0
ARC
  5
10C
  8
DATA
  6
CONTINUOUS
 62
     7
 10
-300.99999999998812
 20
-599.0000000000291
 30
0.0
 40
6.0
 50
270.0
 51
350.4059317734928
  0
LINE
  5
10D
  8
DATA
  6
CONTINUOUS
 62
     7
 10
-191.27483273288041
 20
-582.00000000000887
 30
0.0
 11
-173.99999999998869
 21
-582.00000000002001
 31
0.0
  0
LINE
  5
10E
  8
DATA
  6
CONTINUOUS
 62
     7
 10
-190.09521358722799
 20
-600.0
 30
0.0
 11
-169.99999999998869
 21
-600.0
 31
0.0
  0
LINE
  5
10F
  8
DATA
  6
CONTINUOUS
 62
     7
 10
-190.09521358722799
 20
-587.00000000000887
 30
0.0
 11
-169.99999999998869
 21
-587.00000000000887
 31
0.0
  0
LINE
  5
110
  8
DATA
  6
CONTINUOUS
 62
     7
 10
-191.27483273288041
 20
-587.00000000000887
 30
0.0
 11
-191.27483273288041
 21
-582.00000000000887
 31
0.0
  0
LINE
  5
111
  8
DATA
  6
CONTINUOUS
 62
     7
 10
-190.09521358722799
 20
-600.0
 30
0.0
 11
-190.09521358722799
 21
-587.00000000000887
 31
0.0
  0
LINE
  5
112
  8
DATA
  6
CONTINUOUS
 62
     7
 10
-173.99999999998869
 20
-582.00000000002001
 30
0.0
 11
-169.99999999998869
 21
-582.0
 31
0.0
  0
LINE
  5
113
  8
DATA
  6
CONTINUOUS
 62
     7
 10
-169.99999999998869
 20
-582.0
 30
0.0
 11
-169.99999999998869
 21
-587.00000000000887
 31
0.0
  0
LINE
  5
114
  8
DATA
  6
CONTINUOUS
 62
     7
 10
-173.99999999998869
 20
-587.00000000000887
 30
0.0
 11
-173.99999999998869
 21
-582.00000000002001
 31
0.0
  0
LINE
  5
115
  8
DATA
  6
CONTINUOUS
 62
     7
 10
-169.99999999998869
 20
-587.00000000000887
 30
0.0
 11
-169.99999999998869
 21
-600.0
 31
0.0
  0
LINE
  5
116
  8
DATA
  6
CONTINUOUS
 62
     7
 10
-173.99999999998869
 20
-582.00000000002001
 30
0.0
 11
-169.99999999998869
 21
-582.00000000002001
 31
0.0
  0
LINE
  5
117
  8
DATA
  6
CONTINUOUS
 62
     7
 10
-186.72578530203791
 20
-582.00000000002001
 30
0.0
 11
-173.99999999998869
 21
-582.00000000002001
 31
0.0
  0
LINE
  5
118
  8
DATA
  6
CONTINUOUS
 62
     7
 10
-799.9999999999892
 20
-1780.0000000000009
 30
0.0
 11
-799.9999999999892
 21
-1071.70586557923
 31
0.0
  0
LINE
  5
119
  8
DATA
  6
CONTINUOUS
 62
     7
 10
-169.99999999998869
 20
-1071.70586557923
 30
0.0
 11
-169.99999999998869
 21
-1780.0000000000009
 31
0.0
  0
LINE
  5
11A
  8
DATA
  6
CONTINUOUS
 62
     7
 10
-675.99999999999977
 20
-1115.0000000000091
 30
0.0
 11
-675.99999999999977
 21
-1675.0000000000091
 31
0.0
  0
LINE
  5
11B
  8
DATA
  6
CONTINUOUS
 62
     7
 10
-633.99999999998875
 20
-1675.0000000000091
 30
0.0
 11
-633.99999999998875
 21
-1115.0000000000091
 31
0.0
  0
LINE
  5
11C
  8
DATA
  6
CONTINUOUS
 62
     7
 10
-335.99999999998818
 20
-1115.0000000000091
 30
0.0
 11
-335.99999999998818
 21
-1675.0000000000091
 31
0.0
  0
LINE
  5
11D
  8
DATA
  6
CONTINUOUS
 62
     7
 10
-293.99999999998818
 20
-1675.0000000000091
 30
0.0
 11
-293.99999999998818
 21
-1115.0000000000091
 31
0.0
  0
LINE
  5
11E
  8
DATA
  6
CONTINUOUS
 62
     7
 10
-169.99999999998869
 20
-1780.0000000000009
 30
0.0
 11
-800.0
 21
-1780.0000000000009
 31
0.0
  0
LINE
  5
11F
  8
DATA
  6
CONTINUOUS
 62
     7
 10
-191.27483273288769
 20
-118.0000000000599
 30
0.0
 11
-778.7251672671083
 21
-118.00000000006899
 31
0.0
  0
LINE
  5
120
  8
DATA
  6
CONTINUOUS
 62
     7
 10
-190.09521358722799
 20
-100.00000000007999
 30
0.0
 11
-779.90478641276047
 21
-100.00000000007999
 31
0.0
  0
LINE
  5
121
  8
DATA
  6
CONTINUOUS
 62
     7
 10
-190.09521358722799
 20
-113.0000000000599
 30
0.0
 11
-779.90478641276047
 21
-113.00000000006899
 31
0.0
  0
ARC
  5
122
  8
DATA
  6
CONTINUOUS
 62
     7
 10
-484.9999999999992
 20
-351.0000000000403
 30
0.0
 40
226.10000000000119
 50
91.120989151283055
 51
133.87901084859189
  0
ARC
  5
123
  8
DATA
  6
CONTINUOUS
 62
     7
 10
-484.86650642812958
 20
-350.49232481354039
 30
0.0
 40
65.80275862945399
 50
153.36552806600719
 51
328.93746199189002
  0
ARC
  5
124
  8
DATA
  6
CONTINUOUS
 62
     7
 10
-485.05132091890772
 20
-350.82782802145101
 30
0.0
 40
65.789074274825609
 50
329.27080385561578
 51
153.0321862021907
  0
ARC
  5
125
  8
DATA
  6
CONTINUOUS
 62
     7
 10
-484.9999999999992
 20
-351.0000000000403
 30
0.0
 40
226.10000000000039
 50
136.1209891514078
 51
178.87901084861281
  0
ARC
  5
126
  8
DATA
  6
CONTINUOUS
 62
     7
 10
-484.9999999999992
 20
-351.0000000000403
 30
0.0
 40
226.10000000000031
 50
181.12098915138679
 51
223.87901084859209
  0
ARC
  5
127
  8
DATA
  6
CONTINUOUS
 62
     7
 10
-704.99999999999966
 20
-351.0000000000403
 30
0.0
 40
7.4999999999994591
 50
143.8585705442147
 51
216.1414294557853
  0
ARC
  5
128
  8
DATA
  6
CONTINUOUS
 62
     7
 10
-640.56349186104092
 20
-506.56349186107968
 30
0.0
 40
7.500000000000548
 50
188.8585705441393
 51
261.14142945587452
  0
LINE
  5
129
  8
DATA
  6
CONTINUOUS
 62
     7
 10
-641.99999999999955
 20
-118.000000000029
 30
0.0
 11
-782.0
 21
-258.00000000002922
 31
0.0
  0
LINE
  5
12A
  8
DATA
  6
CONTINUOUS
 62
     7
 10
-778.7251672671083
 20
-118.00000000006899
 30
0.0
 11
-796.0
 21
-118.00000000006899
 31
0.0
  0
LINE
  5
12B
  8
DATA
  6
CONTINUOUS
 62
     7
 10
-779.90478641276047
 20
-113.00000000006899
 30
0.0
 11
-800.0
 21
-113.00000000006899
 31
0.0
  0
LINE
  5
12C
  8
DATA
  6
CONTINUOUS
 62
     7
 10
-779.90478641276047
 20
-100.00000000007999
 30
0.0
 11
-800.0
 21
-100.00000000007999
 31
0.0
  0
LINE
  5
12D
  8
DATA
  6
CONTINUOUS
 62
     7
 10
-796.0
 20
-118.000000000029
 30
0.0
 11
-783.27421469795809
 21
-118.000000000029
 31
0.0
  0
LINE
  5
12E
  8
DATA
  6
CONTINUOUS
 62
     7
 10
-796.0
 20
-118.00000000006899
 30
0.0
 11
-800.0
 21
-118.00000000007989
 31
0.0
  0
LINE
  5
12F
  8
DATA
  6
CONTINUOUS
 62
     7
 10
-800.0
 20
-118.00000000007989
 30
0.0
 11
-800.0
 21
-113.00000000006899
 31
0.0
  0
LINE
  5
130
  8
DATA
  6
CONTINUOUS
 62
     7
 10
-796.0
 20
-113.00000000006899
 30
0.0
 11
-796.0
 21
-118.00000000006899
 31
0.0
  0
LINE
  5
131
  8
DATA
  6
CONTINUOUS
 62
     7
 10
-800.0
 20
-113.00000000006899
 30
0.0
 11
-800.0
 21
-100.00000000007999
 31
0.0
  0
LINE
  5
132
  8
DATA
  6
CONTINUOUS
 62
     7
 10
-800.0
 20
-118.000000000029
 30
0.0
 11
-796.0
 21
-118.000000000029
 31
0.0
  0
LINE
  5
133
  8
DATA
  6
CONTINUOUS
 62
     7
 10
-778.7251672671083
 20
-118.00000000006899
 30
0.0
 11
-778.7251672671083
 21
-113.00000000006899
 31
0.0
  0
LINE
  5
134
  8
DATA
  6
CONTINUOUS
 62
     7
 10
-779.90478641276047
 20
-100.00000000007999
 30
0.0
 11
-779.90478641276047
 21
-113.00000000006899
 31
0.0
  0
ARC
  5
135
  8
DATA
  6
CONTINUOUS
 62
     7
 10
-640.56349186104092
 20
-195.43650813900049
 30
0.0
 40
7.5000000000002691
 50
98.858570544125556
 51
171.1414294558607
  0
ARC
  5
136
  8
DATA
  6
CONTINUOUS
 62
     7
 10
-654.99999999999966
 20
-1675.0000000000091
 30
0.0
 40
21.000000000000121
 50
180.0
 51
0.0
  0
CIRCLE
  5
137
  8
DATA
  6
CONTINUOUS
 62
     7
 10
-654.99999999999966
 20
-1665.0000000000091
 30
0.0
 40
3.5
  0
CIRCLE
  5
138
  8
DATA
  6
CONTINUOUS
 62
     7
 10
-654.99999999999966
 20
-1485.0000000000091
 30
0.0
 40
3.5
  0
LINE
  5
139
  8
DATA
  6
CONTINUOUS
 62
     7
 10
-187.99999999999969
 20
-258.00000000002012
 30
0.0
 11
-327.9999999999992
 21
-118.000000000029
 31
0.0
  0
ARC
  5
13A
  8
DATA
  6
CONTINUOUS
 62
     7
 10
-264.99999999999909
 20
-351.0000000000403
 30
0.0
 40
7.4999999999993667
 50
323.85857054421427
 51
36.141429455785783
  0
ARC
  5
13B
  8
DATA
  6
CONTINUOUS
 62
     7
 10
-484.9999999999992
 20
-351.0000000000403
 30
0.0
 40
226.09999999999991
 50
1.1209891513867589
 51
43.879010848592252
  0
ARC
  5
13C
  8
DATA
  6
CONTINUOUS
 62
     7
 10
-484.9999999999992
 20
-351.0000000000403
 30
0.0
 40
226.10000000000011
 50
316.1209891514078
 51
358.87901084861329
  0
ARC
  5
13D
  8
DATA
  6
CONTINUOUS
 62
     7
 10
-329.43650813895789
 20
-506.56349186107968
 30
0.0
 40
7.5000000000002691
 50
278.85857054412548
 51
351.14142945586082
  0
ARC
  5
13E
  8
DATA
  6
CONTINUOUS
 62
     7
 10
-484.9999999999992
 20
-351.0000000000403
 30
0.0
 40
226.10000000000031
 50
46.120989151407777
 51
88.879010848716973
  0
ARC
  5
13F
  8
DATA
  6
CONTINUOUS
 62
     7
 10
-484.9999999999992
 20
-131.00000000003999
 30
0.0
 40
7.500000000000858
 50
53.858570544153679
 51
126.141429455847
  0
ARC
  5
140
  8
DATA
  6
CONTINUOUS
 62
     7
 10
-329.43650813895789
 20
-195.43650813900049
 30
0.0
 40
7.500000000000548
 50
8.8585705441392673
 51
81.141429455874444
  0
LINE
  5
141
  8
DATA
  6
CONTINUOUS
 62
     7
 10
-173.99999999998869
 20
-118.0000000000199
 30
0.0
 11
-191.27483273288769
 21
-118.0000000000599
 31
0.0
  0
LINE
  5
142
  8
DATA
  6
CONTINUOUS
 62
     7
 10
-169.99999999998869
 20
-113.0000000000599
 30
0.0
 11
-190.09521358722799
 21
-113.0000000000599
 31
0.0
  0
LINE
  5
143
  8
DATA
  6
CONTINUOUS
 62
     7
 10
-190.09521358722799
 20
-100.00000000007999
 30
0.0
 11
-169.99999999998869
 21
-100.00000000007999
 31
0.0
  0
LINE
  5
144
  8
DATA
  6
CONTINUOUS
 62
     7
 10
-191.27483273288769
 20
-113.0000000000599
 30
0.0
 11
-191.27483273288769
 21
-118.0000000000599
 31
0.0
  0
LINE
  5
145
  8
DATA
  6
CONTINUOUS
 62
     7
 10
-190.09521358722799
 20
-113.0000000000599
 30
0.0
 11
-190.09521358722799
 21
-100.00000000007999
 31
0.0
  0
LINE
  5
146
  8
DATA
  6
CONTINUOUS
 62
     7
 10
-169.99999999998869
 20
-118.00000000007989
 30
0.0
 11
-173.99999999998869
 21
-118.0000000000199
 31
0.0
  0
LINE
  5
147
  8
DATA
  6
CONTINUOUS
 62
     7
 10
-169.99999999998869
 20
-113.0000000000599
 30
0.0
 11
-169.99999999998869
 21
-118.00000000007989
 31
0.0
  0
LINE
  5
148
  8
DATA
  6
CONTINUOUS
 62
     7
 10
-173.99999999998869
 20
-113.0000000000599
 30
0.0
 11
-173.99999999998869
 21
-118.0000000000199
 31
0.0
  0
LINE
  5
149
  8
DATA
  6
CONTINUOUS
 62
     7
 10
-169.99999999998869
 20
-100.00000000007999
 30
0.0
 11
-169.99999999998869
 21
-113.0000000000599
 31
0.0
  0
LINE
  5
14A
  8
DATA
  6
CONTINUOUS
 62
     7
 10
-173.99999999998869
 20
-118.0000000000199
 30
0.0
 11
-169.99999999998869
 21
-118.0000000000199
 31
0.0
  0
LINE
  5
14B
  8
DATA
  6
CONTINUOUS
 62
     7
 10
-186.72578530203791
 20
-118.0000000000199
 30
0.0
 11
-173.99999999998869
 21
-118.0000000000199
 31
0.0
  0
ARC
  5
14C
  8
DATA
  6
CONTINUOUS
 62
     7
 10
-314.99999999998812
 20
-1675.0000000000091
 30
0.0
 40
21.000000000000171
 50
180.0
 51
0.0
  0
CIRCLE
  5
14D
  8
DATA
  6
CONTINUOUS
 62
     7
 10
-314.99999999998812
 20
-1665.0000000000091
 30
0.0
 40
3.4999999999999432
  0
CIRCLE
  5
14E
  8
DATA
  6
CONTINUOUS
 62
     7
 10
-314.99999999998812
 20
-1485.0000000000091
 30
0.0
 40
3.4999999999999432
  0
ARC
  5
14F
  8
DATA
  6
CONTINUOUS
 62
     7
 10
-484.9999999999992
 20
-2000.0000000000009
 30
0.0
 40
1000.0
 50
72.84817196210571
 51
107.1518280378944
  0
CIRCLE
  5
150
  8
DATA
  6
CONTINUOUS
 62
     7
 10
-654.99999999999966
 20
-1305.0000000000091
 30
0.0
 40
3.5
  0
ARC
  5
151
  8
DATA
  6
CONTINUOUS
 62
     7
 10
-654.99999999999966
 20
-1115.0000000000091
 30
0.0
 40
21.0
 50
0.0
 51
180.0
  0
CIRCLE
  5
152
  8
DATA
  6
CONTINUOUS
 62
     7
 10
-654.99999999999966
 20
-1125.0000000000091
 30
0.0
 40
3.5
  0
ARC
  5
153
  8
DATA
  6
CONTINUOUS
 62
     7
 10
-771.4999999999892
 20
-1071.70586557923
 30
0.0
 40
28.500000000002078
 50
107.151828037893
 51
180.0
  0
CIRCLE
  5
154
  8
DATA
  6
CONTINUOUS
 62
     7
 10
-314.99999999998812
 20
-1305.0000000000091
 30
0.0
 40
3.4999999999999432
  0
ARC
  5
155
  8
DATA
  6
CONTINUOUS
 62
     7
 10
-314.99999999998812
 20
-1115.0000000000091
 30
0.0
 40
20.99999999999995
 50
0.0
 51
180.0
  0
CIRCLE
  5
156
  8
DATA
  6
CONTINUOUS
 62
     7
 10
-314.99999999998812
 20
-1125.0000000000091
 30
0.0
 40
3.4999999999999432
  0
ARC
  5
157
  8
DATA
  6
CONTINUOUS
 62
     7
 10
-198.4999999999994
 20
-1071.70586557923
 30
0.0
 40
28.499999999999829
 50
0.0
 51
72.848171962106051
  0
ARC
  5
158
  8
DATA
  6
CONTINUOUS
 62
     7
 10
-198.4999999999994
 20
271.70586557923059
 30
0.0
 40
28.50000000000033
 50
287.15182803789389
 51
0.0
  0
ARC
  5
159
  8
DATA
  6
CONTINUOUS
 62
     7
 10
-771.49999999999989
 20
271.70586557923059
 30
0.0
 40
28.500000000003642
 50
180.0
 51
252.8481719621071
  0
ARC
  5
15A
  8
DATA
  6
CONTINUOUS
 62
     7
 10
-484.9999999999992
 20
1199.999999999998
 30
0.0
 40
999.99999999999818
 50
252.8481719621056
 51
287.1518280378944
  0
LINE
  5
15B
  8
DATA
  6
CONTINUOUS
 62
     7
 10
-800.0
 20
979.99999999999841
 30
0.0
 11
-169.99999999998869
 21
979.99999999999841
 31
0.0
  0
LINE
  5
15C
  8
DATA
  6
CONTINUOUS
 62
     7
 10
-800.0
 20
271.70586557923059
 30
0.0
 11
-800.0
 21
979.99999999999841
 31
0.0
  0
LINE
  5
15D
  8
DATA
  6
CONTINUOUS
 62
     7
 10
-675.99999999999977
 20
875.00000000001012
 30
0.0
 11
-675.99999999999977
 21
315.00000000001182
 31
0.0
  0
LINE
  5
15E
  8
DATA
  6
CONTINUOUS
 62
     7
 10
-633.99999999999955
 20
315.00000000001182
 30
0.0
 11
-633.99999999999955
 21
875.00000000001012
 31
0.0
  0
ARC
  5
15F
  8
DATA
  6
CONTINUOUS
 62
     7
 10
-654.99999999999966
 20
315.00000000001182
 30
0.0
 40
21.000000000000121
 50
180.0
 51
0.0
  0
ARC
  5
160
  8
DATA
  6
CONTINUOUS
 62
     7
 10
-654.99999999999966
 20
875.00000000001012
 30
0.0
 40
21.0
 50
0.0
 51
180.0
  0
LINE
  5
161
  8
DATA
  6
CONTINUOUS
 62
     7
 10
-169.99999999998869
 20
979.99999999999841
 30
0.0
 11
-169.99999999998869
 21
271.70586557923059
 31
0.0
  0
LINE
  5
162
  8
DATA
  6
CONTINUOUS
 62
     7
 10
-335.9999999999992
 20
875.00000000001012
 30
0.0
 11
-335.9999999999992
 21
315.00000000001182
 31
0.0
  0
LINE
  5
163
  8
DATA
  6
CONTINUOUS
 62
     7
 10
-293.99999999998818
 20
315.00000000001182
 30
0.0
 11
-293.99999999998818
 21
875.00000000001012
 31
0.0
  0
ARC
  5
164
  8
DATA
  6
CONTINUOUS
 62
     7
 10
-314.99999999998812
 20
315.00000000001182
 30
0.0
 40
21.000000000000171
 50
180.0
 51
0.0
  0
CIRCLE
  5
165
  8
DATA
  6
CONTINUOUS
 62
     7
 10
-484.9999999999992
 20
590.0000000000008
 30
0.0
 40
53.5
  0
CIRCLE
  5
166
  8
DATA
  6
CONTINUOUS
 62
     7
 10
-484.9999999999992
 20
590.0000000000008
 30
0.0
 40
10.25
  0
CIRCLE
  5
167
  8
DATA
  6
CONTINUOUS
 62
     7
 10
-513.28427124745883
 20
561.71572875254139
 30
0.0
 40
6.5000000000472928
  0
CIRCLE
  5
168
  8
DATA
  6
CONTINUOUS
 62
     7
 10
-513.28427124745883
 20
561.71572875254139
 30
0.0
 40
3.9999999999963611
  0
CIRCLE
  5
169
  8
DATA
  6
CONTINUOUS
 62
     7
 10
-513.28427124745883
 20
618.28427124746042
 30
0.0
 40
6.5000000000545688
  0
CIRCLE
  5
16A
  8
DATA
  6
CONTINUOUS
 62
     7
 10
-513.28427124745883
 20
618.28427124746042
 30
0.0
 40
4.0
  0
CIRCLE
  5
16B
  8
DATA
  6
CONTINUOUS
 62
     7
 10
-456.71572875252889
 20
561.71572875254139
 30
0.0
 40
3.5
  0
CIRCLE
  5
16C
  8
DATA
  6
CONTINUOUS
 62
     7
 10
-456.71572875252889
 20
561.71572875254139
 30
0.0
 40
6.5000000000545688
  0
CIRCLE
  5
16D
  8
DATA
  6
CONTINUOUS
 62
     7
 10
-456.71572875252889
 20
618.28427124746042
 30
0.0
 40
4.000000000007276
  0
CIRCLE
  5
16E
  8
DATA
  6
CONTINUOUS
 62
     7
 10
-456.71572875252889
 20
618.28427124746042
 30
0.0
 40
6.5000000000582068
  0
ARC
  5
16F
  8
DATA
  6
CONTINUOUS
 62
     7
 10
-314.99999999999909
 20
875.00000000001012
 30
0.0
 40
20.99999999999995
 50
0.0
 51
180.0
  0
LINE
  5
170
  8
DATA
  6
CONTINUOUS
 62
     7
 10
1512.000000000005
 20
-118.000000000029
 30
0.0
 11
1511.9999999999941
 21
-582.00000000002899
 31
0.0
  0
LINE
  5
171
  8
DATA
  6
CONTINUOUS
 62
     7
 10
917.99999999998863
 20
-582.00000000002001
 30
0.0
 11
917.99999999999955
 21
-118.0000000000199
 31
0.0
  0
LINE
  5
172
  8
DATA
  6
CONTINUOUS
 62
     7
 10
1512.000000000005
 20
-118.000000000029
 30
0.0
 11
1511.9999999999941
 21
-582.00000000002899
 31
0.0
  0
LINE
  5
173
  8
DATA
  6
CONTINUOUS
 62
     7
 10
1530.000000000005
 20
-118.000000000029
 30
0.0
 11
1529.9999999999941
 21
-582.00000000002899
 31
0.0
  0
LINE
  5
174
  8
DATA
  6
CONTINUOUS
 62
     7
 10
917.99999999999955
 20
-118.0000000000199
 30
0.0
 11
917.99999999998863
 21
-582.00000000002001
 31
0.0
  0
LINE
  5
175
  8
DATA
  6
CONTINUOUS
 62
     7
 10
900.0
 20
-582.00000000002001
 30
0.0
 11
900.0
 21
-118.0000000000199
 31
0.0
  0
LINE
  5
176
  8
DATA
  6
CONTINUOUS
 62
     7
 10
900.0
 20
-600.0
 30
0.0
 11
1529.9999999999941
 21
-600.0
 31
0.0
  0
LINE
  5
177
  8
DATA
  6
CONTINUOUS
 62
     7
 10
900.0
 20
-582.0
 30
0.0
 11
1529.9999999999941
 21
-582.0
 31
0.0
  0
LINE
  5
178
  8
DATA
  6
CONTINUOUS
 62
     7
 10
917.99999999998863
 20
-582.00000000002001
 30
0.0
 11
1511.9999999999941
 21
-582.00000000002899
 31
0.0
  0
CIRCLE
  5
179
  8
DATA
  6
CONTINUOUS
 62
     7
 10
997.49999999998749
 20
-567.00000000002922
 30
0.0
 40
7.5
  0
LINE
  5
17A
  8
DATA
  6
CONTINUOUS
 62
     7
 10
900.0
 20
-582.0
 30
0.0
 11
900.0
 21
-600.0
 31
0.0
  0
LINE
  5
17B
  8
DATA
  6
CONTINUOUS
 62
     7
 10
900.0
 20
-582.00000000002001
 30
0.0
 11
917.99999999998863
 21
-582.00000000002001
 31
0.0
  0
CIRCLE
  5
17C
  8
DATA
  6
CONTINUOUS
 62
     7
 10
937.49999999998795
 20
-567.00000000002922
 30
0.0
 40
4.0
  0
CIRCLE
  5
17D
  8
DATA
  6
CONTINUOUS
 62
     7
 10
937.49999999998795
 20
-567.00000000002922
 30
0.0
 40
7.5
  0
ARC
  5
17E
  8
DATA
  6
CONTINUOUS
 62
     7
 10
1058.999999999987
 20
-599.0000000000291
 30
0.0
 40
6.0
 50
270.0
 51
350.4059317734928
  0
ARC
  5
17F
  8
DATA
  6
CONTINUOUS
 62
     7
 10
1030.9999999999879
 20
-599.0000000000291
 30
0.0
 40
6.0000000000006226
 50
189.59406822650709
 51
270.0
  0
CIRCLE
  5
180
  8
DATA
  6
CONTINUOUS
 62
     7
 10
997.49999999998749
 20
-567.00000000002922
 30
0.0
 40
4.0
  0
ARC
  5
181
  8
DATA
  6
CONTINUOUS
 62
     7
 10
1370.99999999999
 20
-599.0000000000399
 30
0.0
 40
6.0000000000006226
 50
189.59406822650709
 51
270.0
  0
ARC
  5
182
  8
DATA
  6
CONTINUOUS
 62
     7
 10
1399.000000000002
 20
-599.0000000000399
 30
0.0
 40
6.0
 50
270.0
 51
350.4059317734928
  0
CIRCLE
  5
183
  8
DATA
  6
CONTINUOUS
 62
     7
 10
1492.5000000000041
 20
-567.00000000002922
 30
0.0
 40
7.5
  0
CIRCLE
  5
184
  8
DATA
  6
CONTINUOUS
 62
     7
 10
1432.499999999992
 20
-567.00000000002922
 30
0.0
 40
4.0
  0
CIRCLE
  5
185
  8
DATA
  6
CONTINUOUS
 62
     7
 10
1432.499999999992
 20
-567.00000000002922
 30
0.0
 40
7.5
  0
LINE
  5
186
  8
DATA
  6
CONTINUOUS
 62
     7
 10
1511.9999999999941
 20
-582.00000000002899
 30
0.0
 11
1529.9999999999941
 21
-582.00000000002899
 31
0.0
  0
CIRCLE
  5
187
  8
DATA
  6
CONTINUOUS
 62
     7
 10
1492.5000000000041
 20
-567.00000000002922
 30
0.0
 40
4.0
  0
LINE
  5
188
  8
DATA
  6
CONTINUOUS
 62
     7
 10
1529.9999999999941
 20
-582.0
 30
0.0
 11
1529.9999999999941
 21
-600.0
 31
0.0
  0
LINE
  5
189
  8
DATA
  6
CONTINUOUS
 62
     7
 10
1530.000000000005
 20
-118.00000000007989
 30
0.0
 11
900.0
 21
-118.00000000007989
 31
0.0
  0
LINE
  5
18A
  8
DATA
  6
CONTINUOUS
 62
     7
 10
1530.000000000005
 20
-100.00000000007999
 30
0.0
 11
900.0
 21
-100.00000000007999
 31
0.0
  0
LINE
  5
18B
  8
DATA
  6
CONTINUOUS
 62
     7
 10
917.99999999999955
 20
-118.0000000000199
 30
0.0
 11
1512.000000000005
 21
-118.000000000029
 31
0.0
  0
CIRCLE
  5
18C
  8
DATA
  6
CONTINUOUS
 62
     7
 10
997.49999999998749
 20
-487.00000000002922
 30
0.0
 40
7.5
  0
CIRCLE
  5
18D
  8
DATA
  6
CONTINUOUS
 62
     7
 10
937.49999999999875
 20
-487.00000000002922
 30
0.0
 40
4.0
  0
CIRCLE
  5
18E
  8
DATA
  6
CONTINUOUS
 62
     7
 10
937.49999999998795
 20
-487.00000000002922
 30
0.0
 40
7.5
  0
CIRCLE
  5
18F
  8
DATA
  6
CONTINUOUS
 62
     7
 10
997.49999999999829
 20
-487.00000000002922
 30
0.0
 40
4.0
  0
CIRCLE
  5
190
  8
DATA
  6
CONTINUOUS
 62
     7
 10
997.49999999999829
 20
-133.00000000002001
 30
0.0
 40
7.5
  0
CIRCLE
  5
191
  8
DATA
  6
CONTINUOUS
 62
     7
 10
997.49999999999829
 20
-213.00000000002009
 30
0.0
 40
7.5
  0
CIRCLE
  5
192
  8
DATA
  6
CONTINUOUS
 62
     7
 10
937.49999999999875
 20
-133.00000000002001
 30
0.0
 40
4.0
  0
CIRCLE
  5
193
  8
DATA
  6
CONTINUOUS
 62
     7
 10
937.49999999999875
 20
-133.00000000002001
 30
0.0
 40
7.5
  0
CIRCLE
  5
194
  8
DATA
  6
CONTINUOUS
 62
     7
 10
937.49999999999875
 20
-213.00000000002009
 30
0.0
 40
4.0
  0
CIRCLE
  5
195
  8
DATA
  6
CONTINUOUS
 62
     7
 10
937.49999999999875
 20
-213.00000000002009
 30
0.0
 40
7.5
  0
LINE
  5
196
  8
DATA
  6
CONTINUOUS
 62
     7
 10
900.0
 20
-118.00000000007989
 30
0.0
 11
900.0
 21
-100.00000000007999
 31
0.0
  0
LINE
  5
197
  8
DATA
  6
CONTINUOUS
 62
     7
 10
900.0
 20
-118.0000000000199
 30
0.0
 11
917.99999999999955
 21
-118.0000000000199
 31
0.0
  0
CIRCLE
  5
198
  8
DATA
  6
CONTINUOUS
 62
     7
 10
997.49999999999829
 20
-133.00000000002001
 30
0.0
 40
4.0
  0
CIRCLE
  5
199
  8
DATA
  6
CONTINUOUS
 62
     7
 10
997.49999999999829
 20
-213.00000000002009
 30
0.0
 40
4.0
  0
LINE
  5
19A
  8
DATA
  6
CONTINUOUS
 62
     7
 10
1183.999999999987
 20
-278.00000000002012
 30
0.0
 11
1183.999999999987
 21
-210.00000000002009
 31
0.0
  0
LINE
  5
19B
  8
DATA
  6
CONTINUOUS
 62
     7
 10
1245.9999999999891
 20
-210.00000000002009
 30
0.0
 11
1245.9999999999891
 21
-278.00000000002012
 31
0.0
  0
LINE
  5
19C
  8
DATA
  6
CONTINUOUS
 62
     7
 10
1238.9999999999879
 20
-285.00000000002012
 30
0.0
 11
1190.999999999987
 21
-285.00000000002012
 31
0.0
  0
ARC
  5
19D
  8
DATA
  6
CONTINUOUS
 62
     7
 10
1190.999999999987
 20
-278.00000000002012
 30
0.0
 40
7.0
 50
180.0
 51
270.0
  0
ARC
  5
19E
  8
DATA
  6
CONTINUOUS
 62
     7
 10
1238.9999999999879
 20
-278.00000000002012
 30
0.0
 40
7.0
 50
270.0
 51
0.0
  0
LINE
  5
19F
  8
DATA
  6
CONTINUOUS
 62
     7
 10
1190.999999999987
 20
-203.00000000002009
 30
0.0
 11
1238.9999999999879
 21
-203.00000000002009
 31
0.0
  0
ARC
  5
1A0
  8
DATA
  6
CONTINUOUS
 62
     7
 10
1190.999999999987
 20
-210.00000000002009
 30
0.0
 40
7.0
 50
90.0
 51
180.0
  0
ARC
  5
1A1
  8
DATA
  6
CONTINUOUS
 62
     7
 10
1238.9999999999879
 20
-210.00000000002009
 30
0.0
 40
7.0000000000004547
 50
0.0
 51
90.0
  0
CIRCLE
  5
1A2
  8
DATA
  6
CONTINUOUS
 62
     7
 10
1492.5000000000041
 20
-487.00000000002922
 30
0.0
 40
7.5
  0
CIRCLE
  5
1A3
  8
DATA
  6
CONTINUOUS
 62
     7
 10
1432.499999999992
 20
-487.00000000002922
 30
0.0
 40
4.0
  0
CIRCLE
  5
1A4
  8
DATA
  6
CONTINUOUS
 62
     7
 10
1432.499999999992
 20
-487.00000000002922
 30
0.0
 40
7.5
  0
CIRCLE
  5
1A5
  8
DATA
  6
CONTINUOUS
 62
     7
 10
1492.5000000000041
 20
-487.00000000002922
 30
0.0
 40
4.0
  0
CIRCLE
  5
1A6
  8
DATA
  6
CONTINUOUS
 62
     7
 10
1492.5000000000041
 20
-133.00000000002899
 30
0.0
 40
4.0
  0
CIRCLE
  5
1A7
  8
DATA
  6
CONTINUOUS
 62
     7
 10
1432.500000000003
 20
-133.00000000002899
 30
0.0
 40
4.0
  0
CIRCLE
  5
1A8
  8
DATA
  6
CONTINUOUS
 62
     7
 10
1492.5000000000041
 20
-133.00000000002899
 30
0.0
 40
7.5
  0
CIRCLE
  5
1A9
  8
DATA
  6
CONTINUOUS
 62
     7
 10
1432.500000000003
 20
-133.00000000002899
 30
0.0
 40
7.5
  0
CIRCLE
  5
1AA
  8
DATA
  6
CONTINUOUS
 62
     7
 10
1492.5000000000041
 20
-213.00000000002919
 30
0.0
 40
7.5
  0
CIRCLE
  5
1AB
  8
DATA
  6
CONTINUOUS
 62
     7
 10
1432.500000000003
 20
-213.00000000002919
 30
0.0
 40
4.0
  0
CIRCLE
  5
1AC
  8
DATA
  6
CONTINUOUS
 62
     7
 10
1432.500000000003
 20
-213.00000000002919
 30
0.0
 40
7.5
  0
CIRCLE
  5
1AD
  8
DATA
  6
CONTINUOUS
 62
     7
 10
1492.5000000000041
 20
-213.00000000002919
 30
0.0
 40
4.0
  0
LINE
  5
1AE
  8
DATA
  6
CONTINUOUS
 62
     7
 10
1512.000000000005
 20
-118.000000000029
 30
0.0
 11
1530.000000000005
 21
-118.000000000029
 31
0.0
  0
LINE
  5
1AF
  8
DATA
  6
CONTINUOUS
 62
     7
 10
1530.000000000005
 20
-118.00000000007989
 30
0.0
 11
1530.000000000005
 21
-100.00000000007999
 31
0.0
  0
LINE
  5
1B0
  8
DATA
  6
CONTINUOUS
 62
     7
 10
-668.99999999999966
 20
-605.00000000004002
 30
0.0
 11
-640.84999999971524
 21
-605.00000000004002
 31
0.0
  0
LINE
  5
1B1
  8
DATA
  6
CONTINUOUS
 62
     7
 10
0.2205713474469206
 20
-582.00000000002001
 30
0.0
 11
0.2205713474469206
 21
-118.0000000000199
 31
0.0
  0
LINE
  5
1B2
  8
DATA
  6
CONTINUOUS
 62
     7
 10
21.70586557969737
 20
-582.00000000002001
 30
0.0
 11
21.70586557969737
 21
-118.0000000000199
 31
0.0
  0
LINE
  5
1B3
  8
DATA
  6
CONTINUOUS
 62
     7
 10
48.705865579697381
 20
-118.0000000000199
 30
0.0
 11
48.705865579697381
 21
-582.00000000002001
 31
0.0
  0
LINE
  5
1B4
  8
DATA
  6
CONTINUOUS
 62
     7
 10
730.00000000047032
 20
-582.00000000002001
 30
0.0
 11
730.00000000047032
 21
-118.0000000000199
 31
0.0
  0
LINE
  5
1B5
  8
DATA
  6
CONTINUOUS
 62
     7
 10
-2.4560496375924141
 20
-557.00365362539935
 30
0.0
 11
-2.4560496375924141
 21
-443.36617586206972
 31
0.0
  0
LINE
  5
1B6
  8
DATA
  6
CONTINUOUS
 62
     7
 10
48.705865579697381
 20
-582.0
 30
0.0
 11
730.00000000047032
 21
-582.0
 31
0.0
  0
LINE
  5
1B7
  8
DATA
  6
CONTINUOUS
 62
     7
 10
21.70586557969737
 20
-600.0
 30
0.0
 11
730.00000000047032
 21
-600.0
 31
0.0
  0
POLYLINE
  5
1B8
  8
DATA
  6
CONTINUOUS
 62
     7
 66
     1
 10
0.0
 20
0.0
 30
0.0
 70
     8
  0
VERTEX
  5
1B9
  8
DATA
  6
CONTINUOUS
 62
     7
 10
625.04806049983767
 20
-604.95313437876007
 30
1142.0
 70
    32
  0
VERTEX
  5
1BA
  8
DATA
  6
CONTINUOUS
 62
     7
 10
625.14806049983963
 20
-604.95313437876007
 30
1142.0
 70
    32
  0
VERTEX
  5
1BB
  8
DATA
  6
CONTINUOUS
 62
     7
 10
625.2480604998384
 20
-604.95313437876007
 30
1142.0
 70
    32
  0
VERTEX
  5
1BC
  8
DATA
  6
CONTINUOUS
 62
     7
 10
625.34806049983672
 20
-604.95313437876007
 30
1142.0
 70
    32
  0
VERTEX
  5
1BD
  8
DATA
  6
CONTINUOUS
 62
     7
 10
625.44806049983902
 20
-604.95313437876007
 30
1142.0
 70
    32
  0
VERTEX
  5
1BE
  8
DATA
  6
CONTINUOUS
 62
     7
 10
625.54806049983767
 20
-604.95313437876007
 30
1142.0
 70
    32
  0
VERTEX
  5
1BF
  8
DATA
  6
CONTINUOUS
 62
     7
 10
625.64806049983963
 20
-604.95313437876007
 30
1142.0
 70
    32
  0
VERTEX
  5
1C0
  8
DATA
  6
CONTINUOUS
 62
     7
 10
625.84806049983672
 20
-604.95313437876007
 30
1142.0
 70
    32
  0
VERTEX
  5
1C1
  8
DATA
  6
CONTINUOUS
 62
     7
 10
625.9480604998389
 20
-604.95313437876007
 30
1142.0
 70
    32
  0
VERTEX
  5
1C2
  8
DATA
  6
CONTINUOUS
 62
     7
 10
626.04806049983756
 20
-604.95313437876007
 30
1142.0
 70
    32
  0
VERTEX
  5
1C3
  8
DATA
  6
CONTINUOUS
 62
     7
 10
626.14806049983963
 20
-604.95313437876007
 30
1142.0
 70
    32
  0
VERTEX
  5
1C4
  8
DATA
  6
CONTINUOUS
 62
     7
 10
626.24806049983829
 20
-604.95313437876007
 30
1142.0
 70
    32
  0
VERTEX
  5
1C5
  8
DATA
  6
CONTINUOUS
 62
     7
 10
626.34806049983672
 20
-604.95313437876007
 30
1142.0
 70
    32
  0
VERTEX
  5
1C6
  8
DATA
  6
CONTINUOUS
 62
     7
 10
626.54806049983756
 20
-604.95313437876007
 30
1142.0
 70
    32
  0
VERTEX
  5
1C7
  8
DATA
  6
CONTINUOUS
 62
     7
 10
626.64806049983963
 20
-604.95313437876007
 30
1142.0
 70
    32
  0
VERTEX
  5
1C8
  8
DATA
  6
CONTINUOUS
 62
     7
 10
626.74806049983829
 20
-604.95313437876007
 30
1142.0
 70
    32
  0
VERTEX
  5
1C9
  8
DATA
  6
CONTINUOUS
 62
     7
 10
626.84806049983672
 20
-604.95313437876007
 30
1142.0
 70
    32
  0
VERTEX
  5
1CA
  8
DATA
  6
CONTINUOUS
 62
     7
 10
626.94806049983902
 20
-604.95313437876007
 30
1142.0
 70
    32
  0
VERTEX
  5
1CB
  8
DATA
  6
CONTINUOUS
 62
     7
 10
627.04806049983756
 20
-604.95313437876007
 30
1142.0
 70
    32
  0
VERTEX
  5
1CC
  8
DATA
  6
CONTINUOUS
 62
     7
 10
627.14806049983963
 20
-604.95313437876007
 30
1142.0
 70
    32
  0
VERTEX
  5
1CD
  8
DATA
  6
CONTINUOUS
 62
     7
 10
627.34806049983672
 20
-604.95313437876007
 30
1142.0
 70
    32
  0
VERTEX
  5
1CE
  8
DATA
  6
CONTINUOUS
 62
     7
 10
627.44806049983902
 20
-604.95313437876007
 30
1142.0
 70
    32
  0
VERTEX
  5
1CF
  8
DATA
  6
CONTINUOUS
 62
     7
 10
627.54806049983756
 20
-604.95313437876007
 30
1142.0
 70
    32
  0
VERTEX
  5
1D0
  8
DATA
  6
CONTINUOUS
 62
     7
 10
627.64806049983963
 20
-604.95313437876007
 30
1142.0
 70
    32
  0
VERTEX
  5
1D1
  8
DATA
  6
CONTINUOUS
 62
     7
 10
627.7480604998384
 20
-604.95313437876007
 30
1142.0
 70
    32
  0
VERTEX
  5
1D2
  8
DATA
  6
CONTINUOUS
 62
     7
 10
627.84806049983672
 20
-604.95313437876007
 30
1142.0
 70
    32
  0
VERTEX
  5
1D3
  8
DATA
  6
CONTINUOUS
 62
     7
 10
627.94806049983902
 20
-604.95313437876007
 30
1142.0
 70
    32
  0
VERTEX
  5
1D4
  8
DATA
  6
CONTINUOUS
 62
     7
 10
628.04806049983756
 20
-604.95313437876007
 30
1142.0
 70
    32
  0
VERTEX
  5
1D5
  8
DATA
  6
CONTINUOUS
 62
     7
 10
628.2480604998384
 20
-604.95313437876007
 30
1142.0
 70
    32
  0
VERTEX
  5
1D6
  8
DATA
  6
CONTINUOUS
 62
     7
 10
628.34806049983661
 20
-604.95313437876007
 30
1142.0
 70
    32
  0
VERTEX
  5
1D7
  8
DATA
  6
CONTINUOUS
 62
     7
 10
628.44806049983902
 20
-604.95313437876007
 30
1142.0
 70
    32
  0
VERTEX
  5
1D8
  8
DATA
  6
CONTINUOUS
 62
     7
 10
628.54806049983756
 20
-604.95313437876007
 30
1142.0
 70
    32
  0
VERTEX
  5
1D9
  8
DATA
  6
CONTINUOUS
 62
     7
 10
628.64806049983963
 20
-604.95313437876007
 30
1142.0
 70
    32
  0
VERTEX
  5
1DA
  8
DATA
  6
CONTINUOUS
 62
     7
 10
628.7480604998384
 20
-604.95313437876007
 30
1142.0
 70
    32
  0
VERTEX
  5
1DB
  8
DATA
  6
CONTINUOUS
 62
     7
 10
628.84806049983672
 20
-604.95313437876007
 30
1142.0
 70
    32
  0
VERTEX
  5
1DC
  8
DATA
  6
CONTINUOUS
 62
     7
 10
628.94806049983902
 20
-604.95313437876007
 30
1142.0
 70
    32
  0
VERTEX
  5
1DD
  8
DATA
  6
CONTINUOUS
 62
     7
 10
629.04806049983767
 20
-604.95313437876007
 30
1142.0
 70
    32
  0
VERTEX
  5
1DE
  8
DATA
  6
CONTINUOUS
 62
     7
 10
629.2480604998384
 20
-604.95313437876007
 30
1142.0
 70
    32
  0
VERTEX
  5
1DF
  8
DATA
  6
CONTINUOUS
 62
     7
 10
629.34806049983672
 20
-604.95313437876007
 30
1142.0
 70
    32
  0
VERTEX
  5
1E0
  8
DATA
  6
CONTINUOUS
 62
     7
 10
629.44806049983902
 20
-604.95313437876007
 30
1142.0
 70
    32
  0
VERTEX
  5
1E1
  8
DATA
  6
CONTINUOUS
 62
     7
 10
629.54806049983767
 20
-604.95313437876007
 30
1142.0
 70
    32
  0
VERTEX
  5
1E2
  8
DATA
  6
CONTINUOUS
 62
     7
 10
629.64806049983963
 20
-604.95313437876007
 30
1142.0
 70
    32
  0
VERTEX
  5
1E3
  8
DATA
  6
CONTINUOUS
 62
     7
 10
629.7480604998384
 20
-604.95313437876007
 30
1142.0
 70
    32
  0
VERTEX
  5
1E4
  8
DATA
  6
CONTINUOUS
 62
     7
 10
629.84806049983672
 20
-604.95313437876007
 30
1142.0
 70
    32
  0
VERTEX
  5
1E5
  8
DATA
  6
CONTINUOUS
 62
     7
 10
629.94806049983902
 20
-604.95313437876007
 30
1142.0
 70
    32
  0
VERTEX
  5
1E6
  8
DATA
  6
CONTINUOUS
 62
     7
 10
630.04806049983767
 20
-604.95313437876007
 30
1142.0
 70
    32
  0
VERTEX
  5
1E7
  8
DATA
  6
CONTINUOUS
 62
     7
 10
630.14806049983963
 20
-604.95313437876007
 30
1142.0
 70
    32
  0
VERTEX
  5
1E8
  8
DATA
  6
CONTINUOUS
 62
     7
 10
630.24806049983829
 20
-604.95313437876007
 30
1142.0
 70
    32
  0
VERTEX
  5
1E9
  8
DATA
  6
CONTINUOUS
 62
     7
 10
630.34806049983672
 20
-604.95313437876007
 30
1142.0
 70
    32
  0
VERTEX
  5
1EA
  8
DATA
  6
CONTINUOUS
 62
     7
 10
630.4480604998389
 20
-604.95313437876007
 30
1142.0
 70
    32
  0
VERTEX
  5
1EB
  8
DATA
  6
CONTINUOUS
 62
     7
 10
630.54806049983756
 20
-604.95313437876007
 30
1142.0
 70
    32
  0
VERTEX
  5
1EC
  8
DATA
  6
CONTINUOUS
 62
     7
 10
630.74806049983829
 20
-604.95313437876007
 30
1142.0
 70
    32
  0
VERTEX
  5
1ED
  8
DATA
  6
CONTINUOUS
 62
     7
 10
630.84806049983672
 20
-604.95313437876007
 30
1142.0
 70
    32
  0
VERTEX
  5
1EE
  8
DATA
  6
CONTINUOUS
 62
     7
 10
630.94806049983902
 20
-604.95313437876007
 30
1142.0
 70
    32
  0
VERTEX
  5
1EF
  8
DATA
  6
CONTINUOUS
 62
     7
 10
631.04806049983756
 20
-604.95313437876007
 30
1142.0
 70
    32
  0
VERTEX
  5
1F0
  8
DATA
  6
CONTINUOUS
 62
     7
 10
631.14806049983963
 20
-604.95313437876007
 30
1142.0
 70
    32
  0
VERTEX
  5
1F1
  8
DATA
  6
CONTINUOUS
 62
     7
 10
631.2480604998384
 20
-604.95313437876007
 30
1142.0
 70
    32
  0
VERTEX
  5
1F2
  8
DATA
  6
CONTINUOUS
 62
     7
 10
631.34806049983672
 20
-604.95313437876007
 30
1142.0
 70
    32
  0
VERTEX
  5
1F3
  8
DATA
  6
CONTINUOUS
 62
     7
 10
631.44806049983902
 20
-604.95313437876007
 30
1142.0
 70
    32
  0
VERTEX
  5
1F4
  8
DATA
  6
CONTINUOUS
 62
     7
 10
631.54806049983756
 20
-604.95313437876007
 30
1142.0
 70
    32
  0
VERTEX
  5
1F5
  8
DATA
  6
CONTINUOUS
 62
     7
 10
631.64806049983963
 20
-604.95313437876007
 30
1142.0
 70
    32
  0
VERTEX
  5
1F6
  8
DATA
  6
CONTINUOUS
 62
     7
 10
631.7480604998384
 20
-604.95313437876007
 30
1142.0
 70
    32
  0
VERTEX
  5
1F7
  8
DATA
  6
CONTINUOUS
 62
     7
 10
631.84806049983672
 20
-604.95313437876007
 30
1142.0
 70
    32
  0
VERTEX
  5
1F8
  8
DATA
  6
CONTINUOUS
 62
     7
 10
631.94806049983902
 20
-604.95313437876007
 30
1142.0
 70
    32
  0
VERTEX
  5
1F9
  8
DATA
  6
CONTINUOUS
 62
     7
 10
632.04806049983756
 20
-604.95313437876007
 30
1142.0
 70
    32
  0
VERTEX
  5
1FA
  8
DATA
  6
CONTINUOUS
 62
     7
 10
632.14806049983963
 20
-604.95313437876007
 30
1142.0
 70
    32
  0
VERTEX
  5
1FB
  8
DATA
  6
CONTINUOUS
 62
     7
 10
632.2480604998384
 20
-604.95313437876007
 30
1142.0
 70
    32
  0
VERTEX
  5
1FC
  8
DATA
  6
CONTINUOUS
 62
     7
 10
632.34806049983661
 20
-604.95313437876007
 30
1142.0
 70
    32
  0
VERTEX
  5
1FD
  8
DATA
  6
CONTINUOUS
 62
     7
 10
632.44806049983902
 20
-604.95313437876007
 30
1142.0
 70
    32
  0
VERTEX
  5
1FE
  8
DATA
  6
CONTINUOUS
 62
     7
 10
632.54806049983756
 20
-604.95313437876007
 30
1142.0
 70
    32
  0
VERTEX
  5
1FF
  8
DATA
  6
CONTINUOUS
 62
     7
 10
632.64806049983963
 20
-604.95313437876007
 30
1142.0
 70
    32
  0
VERTEX
  5
200
  8
DATA
  6
CONTINUOUS
 62
     7
 10
632.7480604998384
 20
-604.95313437876007
 30
1142.0
 70
    32
  0
VERTEX
  5
201
  8
DATA
  6
CONTINUOUS
 62
     7
 10
632.84806049983672
 20
-604.95313437876007
 30
1142.0
 70
    32
  0
VERTEX
  5
202
  8
DATA
  6
CONTINUOUS
 62
     7
 10
632.94806049983902
 20
-604.95313437876007
 30
1142.0
 70
    32
  0
VERTEX
  5
203
  8
DATA
  6
CONTINUOUS
 62
     7
 10
632.94806049983902
 20
-604.95313437876007
 30
1142.0
 70
    32
  0
VERTEX
  5
204
  8
DATA
  6
CONTINUOUS
 62
     7
 10
633.04806049983767
 20
-604.95313437876007
 30
1142.0
 70
    32
  0
VERTEX
  5
205
  8
DATA
  6
CONTINUOUS
 62
     7
 10
633.14806049983963
 20
-604.95313437876007
 30
1142.0
 70
    32
  0
VERTEX
  5
206
  8
DATA
  6
CONTINUOUS
 62
     7
 10
633.2480604998384
 20
-604.95313437876007
 30
1142.0
 70
    32
  0
VERTEX
  5
207
  8
DATA
  6
CONTINUOUS
 62
     7
 10
633.34806049983672
 20
-604.95313437876007
 30
1142.0
 70
    32
  0
VERTEX
  5
208
  8
DATA
  6
CONTINUOUS
 62
     7
 10
633.44806049983902
 20
-604.95313437876007
 30
1142.0
 70
    32
  0
VERTEX
  5
209
  8
DATA
  6
CONTINUOUS
 62
     7
 10
633.54806049983767
 20
-604.95313437876007
 30
1142.0
 70
    32
  0
VERTEX
  5
20A
  8
DATA
  6
CONTINUOUS
 62
     7
 10
633.64806049983963
 20
-604.95313437876007
 30
1142.0
 70
    32
  0
VERTEX
  5
20B
  8
DATA
  6
CONTINUOUS
 62
     7
 10
633.7480604998384
 20
-604.95313437876007
 30
1142.0
 70
    32
  0
VERTEX
  5
20C
  8
DATA
  6
CONTINUOUS
 62
     7
 10
633.84806049983672
 20
-604.95313437876007
 30
1142.0
 70
    32
  0
VERTEX
  5
20D
  8
DATA
  6
CONTINUOUS
 62
     7
 10
633.94806049983902
 20
-604.95313437876007
 30
1142.0
 70
    32
  0
VERTEX
  5
20E
  8
DATA
  6
CONTINUOUS
 62
     7
 10
634.04806049983767
 20
-604.95313437876007
 30
1142.0
 70
    32
  0
VERTEX
  5
20F
  8
DATA
  6
CONTINUOUS
 62
     7
 10
634.04806049983767
 20
-604.95313437876007
 30
1142.0
 70
    32
  0
VERTEX
  5
210
  8
DATA
  6
CONTINUOUS
 62
     7
 10
634.14806049983963
 20
-604.95313437876007
 30
1142.0
 70
    32
  0
VERTEX
  5
211
  8
DATA
  6
CONTINUOUS
 62
     7
 10
634.24806049983829
 20
-604.95313437876007
 30
1142.0
 70
    32
  0
VERTEX
  5
212
  8
DATA
  6
CONTINUOUS
 62
     7
 10
634.34806049983672
 20
-604.95313437876007
 30
1142.0
 70
    32
  0
VERTEX
  5
213
  8
DATA
  6
CONTINUOUS
 62
     7
 10
634.4480604998389
 20
-604.95313437876007
 30
1142.0
 70
    32
  0
VERTEX
  5
214
  8
DATA
  6
CONTINUOUS
 62
     7
 10
634.54806049983756
 20
-604.95313437876007
 30
1142.0
 70
    32
  0
VERTEX
  5
215
  8
DATA
  6
CONTINUOUS
 62
     7
 10
634.64806049983963
 20
-604.95313437876007
 30
1142.0
 70
    32
  0
VERTEX
  5
216
  8
DATA
  6
CONTINUOUS
 62
     7
 10
634.64806049983963
 20
-604.95313437876007
 30
1142.0
 70
    32
  0
VERTEX
  5
217
  8
DATA
  6
CONTINUOUS
 62
     7
 10
634.74806049983829
 20
-604.95313437876007
 30
1142.0
 70
    32
  0
VERTEX
  5
218
  8
DATA
  6
CONTINUOUS
 62
     7
 10
634.84806049983672
 20
-604.95313437876007
 30
1142.0
 70
    32
  0
VERTEX
  5
219
  8
DATA
  6
CONTINUOUS
 62
     7
 10
634.94806049983902
 20
-604.95313437876007
 30
1142.0
 70
    32
  0
VERTEX
  5
21A
  8
DATA
  6
CONTINUOUS
 62
     7
 10
635.04806049983756
 20
-604.95313437876007
 30
1142.0
 70
    32
  0
VERTEX
  5
21B
  8
DATA
  6
CONTINUOUS
 62
     7
 10
635.14806049983963
 20
-604.95313437876007
 30
1142.0
 70
    32
  0
VERTEX
  5
21C
  8
DATA
  6
CONTINUOUS
 62
     7
 10
635.14806049983963
 20
-604.95313437876007
 30
1142.0
 70
    32
  0
VERTEX
  5
21D
  8
DATA
  6
CONTINUOUS
 62
     7
 10
635.24806049983829
 20
-604.95313437876007
 30
1142.0
 70
    32
  0
VERTEX
  5
21E
  8
DATA
  6
CONTINUOUS
 62
     7
 10
635.34806049983672
 20
-604.95313437876007
 30
1142.0
 70
    32
  0
VERTEX
  5
21F
  8
DATA
  6
CONTINUOUS
 62
     7
 10
635.44806049983902
 20
-604.95313437876007
 30
1142.0
 70
    32
  0
VERTEX
  5
220
  8
DATA
  6
CONTINUOUS
 62
     7
 10
635.44806049983902
 20
-604.95313437876007
 30
1142.0
 70
    32
  0
VERTEX
  5
221
  8
DATA
  6
CONTINUOUS
 62
     7
 10
635.54806049983756
 20
-604.95313437876007
 30
1142.0
 70
    32
  0
VERTEX
  5
222
  8
DATA
  6
CONTINUOUS
 62
     7
 10
635.64806049983963
 20
-604.95313437876007
 30
1142.0
 70
    32
  0
VERTEX
  5
223
  8
DATA
  6
CONTINUOUS
 62
     7
 10
635.7480604998384
 20
-604.95313437876007
 30
1142.0
 70
    32
  0
VERTEX
  5
224
  8
DATA
  6
CONTINUOUS
 62
     7
 10
635.7480604998384
 20
-604.95313437876007
 30
1142.0
 70
    32
  0
VERTEX
  5
225
  8
DATA
  6
CONTINUOUS
 62
     7
 10
635.84806049983672
 20
-604.95313437876007
 30
1142.0
 70
    32
  0
VERTEX
  5
226
  8
DATA
  6
CONTINUOUS
 62
     7
 10
635.94806049983902
 20
-604.95313437876007
 30
1142.0
 70
    32
  0
VERTEX
  5
227
  8
DATA
  6
CONTINUOUS
 62
     7
 10
636.04806049983756
 20
-604.95313437876007
 30
1142.0
 70
    32
  0
VERTEX
  5
228
  8
DATA
  6
CONTINUOUS
 62
     7
 10
636.04806049983756
 20
-604.95313437876007
 30
1142.0
 70
    32
  0
VERTEX
  5
229
  8
DATA
  6
CONTINUOUS
 62
     7
 10
636.14806049983963
 20
-604.95313437876007
 30
1142.0
 70
    32
  0
VERTEX
  5
22A
  8
DATA
  6
CONTINUOUS
 62
     7
 10
636.2480604998384
 20
-604.95313437876007
 30
1142.0
 70
    32
  0
VERTEX
  5
22B
  8
DATA
  6
CONTINUOUS
 62
     7
 10
636.2480604998384
 20
-604.95313437876007
 30
1142.0
 70
    32
  0
VERTEX
  5
22C
  8
DATA
  6
CONTINUOUS
 62
     7
 10
636.34806049983661
 20
-604.95313437876007
 30
1142.0
 70
    32
  0
VERTEX
  5
22D
  8
DATA
  6
CONTINUOUS
 62
     7
 10
636.44806049983902
 20
-604.95313437876007
 30
1142.0
 70
    32
  0
VERTEX
  5
22E
  8
DATA
  6
CONTINUOUS
 62
     7
 10
636.44806049983902
 20
-604.95313437876007
 30
1142.0
 70
    32
  0
VERTEX
  5
22F
  8
DATA
  6
CONTINUOUS
 62
     7
 10
636.54806049983756
 20
-604.95313437876007
 30
1142.0
 70
    32
  0
VERTEX
  5
230
  8
DATA
  6
CONTINUOUS
 62
     7
 10
636.64806049983963
 20
-604.95313437876007
 30
1142.0
 70
    32
  0
VERTEX
  5
231
  8
DATA
  6
CONTINUOUS
 62
     7
 10
636.64806049983963
 20
-604.95313437876007
 30
1142.0
 70
    32
  0
VERTEX
  5
232
  8
DATA
  6
CONTINUOUS
 62
     7
 10
636.7480604998384
 20
-604.95313437876007
 30
1142.0
 70
    32
  0
VERTEX
  5
233
  8
DATA
  6
CONTINUOUS
 62
     7
 10
636.84806049983672
 20
-604.95313437876007
 30
1142.0
 70
    32
  0
VERTEX
  5
234
  8
DATA
  6
CONTINUOUS
 62
     7
 10
636.84806049983672
 20
-604.95313437876007
 30
1142.0
 70
    32
  0
VERTEX
  5
235
  8
DATA
  6
CONTINUOUS
 62
     7
 10
636.94806049983902
 20
-604.95313437876007
 30
1142.0
 70
    32
  0
VERTEX
  5
236
  8
DATA
  6
CONTINUOUS
 62
     7
 10
636.94806049983902
 20
-604.95313437876007
 30
1142.0
 70
    32
  0
VERTEX
  5
237
  8
DATA
  6
CONTINUOUS
 62
     7
 10
637.04806049983767
 20
-604.95313437876007
 30
1142.0
 70
    32
  0
VERTEX
  5
238
  8
DATA
  6
CONTINUOUS
 62
     7
 10
637.14806049983963
 20
-604.95313437876007
 30
1142.0
 70
    32
  0
VERTEX
  5
239
  8
DATA
  6
CONTINUOUS
 62
     7
 10
637.14806049983963
 20
-604.95313437876007
 30
1142.0
 70
    32
  0
VERTEX
  5
23A
  8
DATA
  6
CONTINUOUS
 62
     7
 10
637.2480604998384
 20
-604.95313437876007
 30
1142.0
 70
    32
  0
VERTEX
  5
23B
  8
DATA
  6
CONTINUOUS
 62
     7
 10
637.2480604998384
 20
-604.95313437876007
 30
1142.0
 70
    32
  0
VERTEX
  5
23C
  8
DATA
  6
CONTINUOUS
 62
     7
 10
637.34806049983672
 20
-604.95313437876007
 30
1142.0
 70
    32
  0
VERTEX
  5
23D
  8
DATA
  6
CONTINUOUS
 62
     7
 10
637.34806049983672
 20
-604.95313437876007
 30
1142.0
 70
    32
  0
VERTEX
  5
23E
  8
DATA
  6
CONTINUOUS
 62
     7
 10
637.44806049983902
 20
-604.95313437876007
 30
1142.0
 70
    32
  0
VERTEX
  5
23F
  8
DATA
  6
CONTINUOUS
 62
     7
 10
637.44806049983902
 20
-604.95313437876007
 30
1142.0
 70
    32
  0
VERTEX
  5
240
  8
DATA
  6
CONTINUOUS
 62
     7
 10
637.54806049983767
 20
-604.95313437876007
 30
1142.0
 70
    32
  0
VERTEX
  5
241
  8
DATA
  6
CONTINUOUS
 62
     7
 10
637.54806049983767
 20
-604.95313437876007
 30
1142.0
 70
    32
  0
VERTEX
  5
242
  8
DATA
  6
CONTINUOUS
 62
     7
 10
637.64806049983963
 20
-604.95313437876007
 30
1142.0
 70
    32
  0
VERTEX
  5
243
  8
DATA
  6
CONTINUOUS
 62
     7
 10
637.64806049983963
 20
-604.95313437876007
 30
1142.0
 70
    32
  0
VERTEX
  5
244
  8
DATA
  6
CONTINUOUS
 62
     7
 10
637.7480604998384
 20
-604.95313437876007
 30
1142.0
 70
    32
  0
VERTEX
  5
245
  8
DATA
  6
CONTINUOUS
 62
     7
 10
637.7480604998384
 20
-604.95313437876007
 30
1142.0
 70
    32
  0
VERTEX
  5
246
  8
DATA
  6
CONTINUOUS
 62
     7
 10
637.84806049983672
 20
-604.95313437876007
 30
1142.0
 70
    32
  0
VERTEX
  5
247
  8
DATA
  6
CONTINUOUS
 62
     7
 10
637.84806049983672
 20
-604.95313437876007
 30
1142.0
 70
    32
  0
VERTEX
  5
248
  8
DATA
  6
CONTINUOUS
 62
     7
 10
637.94806049983902
 20
-604.95313437876007
 30
1142.0
 70
    32
  0
VERTEX
  5
249
  8
DATA
  6
CONTINUOUS
 62
     7
 10
637.94806049983902
 20
-604.95313437876007
 30
1142.0
 70
    32
  0
VERTEX
  5
24A
  8
DATA
  6
CONTINUOUS
 62
     7
 10
638.04806049983767
 20
-604.95313437876007
 30
1142.0
 70
    32
  0
VERTEX
  5
24B
  8
DATA
  6
CONTINUOUS
 62
     7
 10
638.04806049983767
 20
-604.95313437876007
 30
1142.0
 70
    32
  0
VERTEX
  5
24C
  8
DATA
  6
CONTINUOUS
 62
     7
 10
638.04806049983767
 20
-604.95313437876007
 30
1142.0
 70
    32
  0
VERTEX
  5
24D
  8
DATA
  6
CONTINUOUS
 62
     7
 10
638.14806049983963
 20
-604.95313437876007
 30
1142.0
 70
    32
  0
VERTEX
  5
24E
  8
DATA
  6
CONTINUOUS
 62
     7
 10
638.14806049983963
 20
-604.95313437876007
 30
1142.0
 70
    32
  0
VERTEX
  5
24F
  8
DATA
  6
CONTINUOUS
 62
     7
 10
638.24806049983829
 20
-604.95313437876007
 30
1142.0
 70
    32
  0
VERTEX
  5
250
  8
DATA
  6
CONTINUOUS
 62
     7
 10
638.24806049983829
 20
-604.95313437876007
 30
1142.0
 70
    32
  0
VERTEX
  5
251
  8
DATA
  6
CONTINUOUS
 62
     7
 10
638.24806049983829
 20
-604.95313437876007
 30
1142.0
 70
    32
  0
VERTEX
  5
252
  8
DATA
  6
CONTINUOUS
 62
     7
 10
638.34806049983672
 20
-604.95313437876007
 30
1142.0
 70
    32
  0
VERTEX
  5
253
  8
DATA
  6
CONTINUOUS
 62
     7
 10
638.34806049983672
 20
-604.95313437876007
 30
1142.0
 70
    32
  0
VERTEX
  5
254
  8
DATA
  6
CONTINUOUS
 62
     7
 10
638.34806049983672
 20
-604.95313437876007
 30
1142.0
 70
    32
  0
VERTEX
  5
255
  8
DATA
  6
CONTINUOUS
 62
     7
 10
638.4480604998389
 20
-604.95313437876007
 30
1142.0
 70
    32
  0
VERTEX
  5
256
  8
DATA
  6
CONTINUOUS
 62
     7
 10
638.4480604998389
 20
-604.95313437876007
 30
1142.0
 70
    32
  0
VERTEX
  5
257
  8
DATA
  6
CONTINUOUS
 62
     7
 10
638.4480604998389
 20
-604.95313437876007
 30
1142.0
 70
    32
  0
VERTEX
  5
258
  8
DATA
  6
CONTINUOUS
 62
     7
 10
638.54806049983756
 20
-604.95313437876007
 30
1142.0
 70
    32
  0
VERTEX
  5
259
  8
DATA
  6
CONTINUOUS
 62
     7
 10
638.54806049983756
 20
-604.95313437876007
 30
1142.0
 70
    32
  0
VERTEX
  5
25A
  8
DATA
  6
CONTINUOUS
 62
     7
 10
638.54806049983756
 20
-604.95313437876007
 30
1142.0
 70
    32
  0
VERTEX
  5
25B
  8
DATA
  6
CONTINUOUS
 62
     7
 10
638.64806049983963
 20
-604.95313437876007
 30
1142.0
 70
    32
  0
VERTEX
  5
25C
  8
DATA
  6
CONTINUOUS
 62
     7
 10
638.64806049983963
 20
-604.95313437876007
 30
1142.0
 70
    32
  0
VERTEX
  5
25D
  8
DATA
  6
CONTINUOUS
 62
     7
 10
638.64806049983963
 20
-604.95313437876007
 30
1142.0
 70
    32
  0
VERTEX
  5
25E
  8
DATA
  6
CONTINUOUS
 62
     7
 10
638.64806049983963
 20
-604.95313437876007
 30
1142.0
 70
    32
  0
VERTEX
  5
25F
  8
DATA
  6
CONTINUOUS
 62
     7
 10
638.74806049983829
 20
-604.95313437876007
 30
1142.0
 70
    32
  0
VERTEX
  5
260
  8
DATA
  6
CONTINUOUS
 62
     7
 10
638.74806049983829
 20
-604.95313437876007
 30
1142.0
 70
    32
  0
VERTEX
  5
261
  8
DATA
  6
CONTINUOUS
 62
     7
 10
638.74806049983829
 20
-604.95313437876007
 30
1142.0
 70
    32
  0
VERTEX
  5
262
  8
DATA
  6
CONTINUOUS
 62
     7
 10
638.74806049983829
 20
-604.95313437876007
 30
1142.0
 70
    32
  0
VERTEX
  5
263
  8
DATA
  6
CONTINUOUS
 62
     7
 10
638.74806049983829
 20
-604.95313437876007
 30
1142.0
 70
    32
  0
VERTEX
  5
264
  8
DATA
  6
CONTINUOUS
 62
     7
 10
638.84806049983672
 20
-604.95313437876007
 30
1142.0
 70
    32
  0
VERTEX
  5
265
  8
DATA
  6
CONTINUOUS
 62
     7
 10
638.84806049983672
 20
-604.95313437876007
 30
1142.0
 70
    32
  0
VERTEX
  5
266
  8
DATA
  6
CONTINUOUS
 62
     7
 10
638.84806049983672
 20
-604.95313437876007
 30
1142.0
 70
    32
  0
VERTEX
  5
267
  8
DATA
  6
CONTINUOUS
 62
     7
 10
638.84806049983672
 20
-604.95313437876007
 30
1142.0
 70
    32
  0
VERTEX
  5
268
  8
DATA
  6
CONTINUOUS
 62
     7
 10
638.84806049983672
 20
-604.95313437876007
 30
1142.0
 70
    32
  0
VERTEX
  5
269
  8
DATA
  6
CONTINUOUS
 62
     7
 10
638.84806049983672
 20
-604.95313437876007
 30
1142.0
 70
    32
  0
VERTEX
  5
26A
  8
DATA
  6
CONTINUOUS
 62
     7
 10
638.9480604998389
 20
-604.95313437876007
 30
1142.0
 70
    32
  0
VERTEX
  5
26B
  8
DATA
  6
CONTINUOUS
 62
     7
 10
638.9480604998389
 20
-604.95313437876007
 30
1142.0
 70
    32
  0
VERTEX
  5
26C
  8
DATA
  6
CONTINUOUS
 62
     7
 10
638.9480604998389
 20
-604.95313437876007
 30
1142.0
 70
    32
  0
VERTEX
  5
26D
  8
DATA
  6
CONTINUOUS
 62
     7
 10
638.9480604998389
 20
-604.95313437876007
 30
1142.0
 70
    32
  0
VERTEX
  5
26E
  8
DATA
  6
CONTINUOUS
 62
     7
 10
638.9480604998389
 20
-604.95313437876007
 30
1142.0
 70
    32
  0
VERTEX
  5
26F
  8
DATA
  6
CONTINUOUS
 62
     7
 10
638.9480604998389
 20
-604.95313437876007
 30
1142.0
 70
    32
  0
VERTEX
  5
270
  8
DATA
  6
CONTINUOUS
 62
     7
 10
638.9480604998389
 20
-604.95313437876007
 30
1142.0
 70
    32
  0
VERTEX
  5
271
  8
DATA
  6
CONTINUOUS
 62
     7
 10
638.9480604998389
 20
-604.95313437876007
 30
1142.0
 70
    32
  0
VERTEX
  5
272
  8
DATA
  6
CONTINUOUS
 62
     7
 10
638.9480604998389
 20
-604.95313437876007
 30
1142.0
 70
    32
  0
VERTEX
  5
273
  8
DATA
  6
CONTINUOUS
 62
     7
 10
638.9480604998389
 20
-604.95313437876007
 30
1142.0
 70
    32
  0
VERTEX
  5
274
  8
DATA
  6
CONTINUOUS
 62
     7
 10
638.9480604998389
 20
-604.95313437876007
 30
1142.0
 70
    32
  0
VERTEX
  5
275
  8
DATA
  6
CONTINUOUS
 62
     7
 10
638.9480604998389
 20
-604.95313437876007
 30
1142.0
 70
    32
  0
VERTEX
  5
276
  8
DATA
  6
CONTINUOUS
 62
     7
 10
639.04806049983756
 20
-604.95313437876007
 30
1142.0
 70
    32
  0
VERTEX
  5
277
  8
DATA
  6
CONTINUOUS
 62
     7
 10
639.04806049983756
 20
-604.95313437876007
 30
1142.0
 70
    32
  0
VERTEX
  5
278
  8
DATA
  6
CONTINUOUS
 62
     7
 10
639.04806049983756
 20
-604.95313437876007
 30
1142.0
 70
    32
  0
SEQEND
  5
279
  8
DATA
  6
CONTINUOUS
 62
     7
  0
LINE
  5
27A
  8
DATA
  6
CONTINUOUS
 62
     7
 10
48.705865579697381
 20
-582.00000000002001
 30
0.0
 11
730.00000000047032
 21
-582.00000000002001
 31
0.0
  0
POLYLINE
  5
27B
  8
DATA
  6
CONTINUOUS
 62
     7
 66
     1
 10
0.0
 20
0.0
 30
0.0
 70
     8
  0
VERTEX
  5
27C
  8
DATA
  6
CONTINUOUS
 62
     7
 10
51.048060499837533
 20
-604.95313437876007
 30
1142.0
 70
    32
  0
VERTEX
  5
27D
  8
DATA
  6
CONTINUOUS
 62
     7
 10
51.048060499837533
 20
-604.95313437876007
 30
1142.0
 70
    32
  0
VERTEX
  5
27E
  8
DATA
  6
CONTINUOUS
 62
     7
 10
51.048060499837533
 20
-604.95313437876007
 30
1142.0
 70
    32
  0
VERTEX
  5
27F
  8
DATA
  6
CONTINUOUS
 62
     7
 10
51.048060499837533
 20
-604.95313437876007
 30
1142.0
 70
    32
  0
VERTEX
  5
280
  8
DATA
  6
CONTINUOUS
 62
     7
 10
51.048060499837533
 20
-604.95313437876007
 30
1142.0
 70
    32
  0
VERTEX
  5
281
  8
DATA
  6
CONTINUOUS
 62
     7
 10
51.048060499837533
 20
-604.95313437876007
 30
1142.0
 70
    32
  0
VERTEX
  5
282
  8
DATA
  6
CONTINUOUS
 62
     7
 10
51.048060499837533
 20
-604.95313437876007
 30
1142.0
 70
    32
  0
VERTEX
  5
283
  8
DATA
  6
CONTINUOUS
 62
     7
 10
51.048060499837533
 20
-604.95313437876007
 30
1142.0
 70
    32
  0
VERTEX
  5
284
  8
DATA
  6
CONTINUOUS
 62
     7
 10
51.048060499837533
 20
-604.95313437876007
 30
1142.0
 70
    32
  0
VERTEX
  5
285
  8
DATA
  6
CONTINUOUS
 62
     7
 10
51.048060499837533
 20
-604.95313437876007
 30
1142.0
 70
    32
  0
VERTEX
  5
286
  8
DATA
  6
CONTINUOUS
 62
     7
 10
51.048060499837533
 20
-604.95313437876007
 30
1142.0
 70
    32
  0
VERTEX
  5
287
  8
DATA
  6
CONTINUOUS
 62
     7
 10
51.048060499837533
 20
-604.95313437876007
 30
1142.0
 70
    32
  0
VERTEX
  5
288
  8
DATA
  6
CONTINUOUS
 62
     7
 10
51.048060499837533
 20
-604.95313437876007
 30
1142.0
 70
    32
  0
VERTEX
  5
289
  8
DATA
  6
CONTINUOUS
 62
     7
 10
51.048060499837533
 20
-604.95313437876007
 30
1142.0
 70
    32
  0
VERTEX
  5
28A
  8
DATA
  6
CONTINUOUS
 62
     7
 10
51.048060499837533
 20
-604.95313437876007
 30
1142.0
 70
    32
  0
VERTEX
  5
28B
  8
DATA
  6
CONTINUOUS
 62
     7
 10
51.148060499839723
 20
-604.95313437876007
 30
1142.0
 70
    32
  0
VERTEX
  5
28C
  8
DATA
  6
CONTINUOUS
 62
     7
 10
51.148060499839723
 20
-604.95313437876007
 30
1142.0
 70
    32
  0
VERTEX
  5
28D
  8
DATA
  6
CONTINUOUS
 62
     7
 10
51.148060499839723
 20
-604.95313437876007
 30
1142.0
 70
    32
  0
VERTEX
  5
28E
  8
DATA
  6
CONTINUOUS
 62
     7
 10
51.148060499839723
 20
-604.95313437876007
 30
1142.0
 70
    32
  0
VERTEX
  5
28F
  8
DATA
  6
CONTINUOUS
 62
     7
 10
51.148060499839723
 20
-604.95313437876007
 30
1142.0
 70
    32
  0
VERTEX
  5
290
  8
DATA
  6
CONTINUOUS
 62
     7
 10
51.148060499839723
 20
-604.95313437876007
 30
1142.0
 70
    32
  0
VERTEX
  5
291
  8
DATA
  6
CONTINUOUS
 62
     7
 10
51.248060499838282
 20
-604.95313437876007
 30
1142.0
 70
    32
  0
VERTEX
  5
292
  8
DATA
  6
CONTINUOUS
 62
     7
 10
51.248060499838282
 20
-604.95313437876007
 30
1142.0
 70
    32
  0
VERTEX
  5
293
  8
DATA
  6
CONTINUOUS
 62
     7
 10
51.248060499838282
 20
-604.95313437876007
 30
1142.0
 70
    32
  0
VERTEX
  5
294
  8
DATA
  6
CONTINUOUS
 62
     7
 10
51.248060499838282
 20
-604.95313437876007
 30
1142.0
 70
    32
  0
VERTEX
  5
295
  8
DATA
  6
CONTINUOUS
 62
     7
 10
51.248060499838282
 20
-604.95313437876007
 30
1142.0
 70
    32
  0
VERTEX
  5
296
  8
DATA
  6
CONTINUOUS
 62
     7
 10
51.348060499836819
 20
-604.95313437876007
 30
1142.0
 70
    32
  0
VERTEX
  5
297
  8
DATA
  6
CONTINUOUS
 62
     7
 10
51.348060499836819
 20
-604.95313437876007
 30
1142.0
 70
    32
  0
VERTEX
  5
298
  8
DATA
  6
CONTINUOUS
 62
     7
 10
51.348060499836819
 20
-604.95313437876007
 30
1142.0
 70
    32
  0
VERTEX
  5
299
  8
DATA
  6
CONTINUOUS
 62
     7
 10
51.448060499839002
 20
-604.95313437876007
 30
1142.0
 70
    32
  0
VERTEX
  5
29A
  8
DATA
  6
CONTINUOUS
 62
     7
 10
51.448060499839002
 20
-604.95313437876007
 30
1142.0
 70
    32
  0
VERTEX
  5
29B
  8
DATA
  6
CONTINUOUS
 62
     7
 10
51.448060499839002
 20
-604.95313437876007
 30
1142.0
 70
    32
  0
VERTEX
  5
29C
  8
DATA
  6
CONTINUOUS
 62
     7
 10
51.448060499839002
 20
-604.95313437876007
 30
1142.0
 70
    32
  0
VERTEX
  5
29D
  8
DATA
  6
CONTINUOUS
 62
     7
 10
51.54806049983754
 20
-604.95313437876007
 30
1142.0
 70
    32
  0
VERTEX
  5
29E
  8
DATA
  6
CONTINUOUS
 62
     7
 10
51.54806049983754
 20
-604.95313437876007
 30
1142.0
 70
    32
  0
VERTEX
  5
29F
  8
DATA
  6
CONTINUOUS
 62
     7
 10
51.54806049983754
 20
-604.95313437876007
 30
1142.0
 70
    32
  0
VERTEX
  5
2A0
  8
DATA
  6
CONTINUOUS
 62
     7
 10
51.648060499839723
 20
-604.95313437876007
 30
1142.0
 70
    32
  0
VERTEX
  5
2A1
  8
DATA
  6
CONTINUOUS
 62
     7
 10
51.648060499839723
 20
-604.95313437876007
 30
1142.0
 70
    32
  0
VERTEX
  5
2A2
  8
DATA
  6
CONTINUOUS
 62
     7
 10
51.648060499839723
 20
-604.95313437876007
 30
1142.0
 70
    32
  0
VERTEX
  5
2A3
  8
DATA
  6
CONTINUOUS
 62
     7
 10
51.748060499838267
 20
-604.95313437876007
 30
1142.0
 70
    32
  0
VERTEX
  5
2A4
  8
DATA
  6
CONTINUOUS
 62
     7
 10
51.748060499838267
 20
-604.95313437876007
 30
1142.0
 70
    32
  0
VERTEX
  5
2A5
  8
DATA
  6
CONTINUOUS
 62
     7
 10
51.748060499838267
 20
-604.95313437876007
 30
1142.0
 70
    32
  0
VERTEX
  5
2A6
  8
DATA
  6
CONTINUOUS
 62
     7
 10
51.848060499836819
 20
-604.95313437876007
 30
1142.0
 70
    32
  0
VERTEX
  5
2A7
  8
DATA
  6
CONTINUOUS
 62
     7
 10
51.848060499836819
 20
-604.95313437876007
 30
1142.0
 70
    32
  0
VERTEX
  5
2A8
  8
DATA
  6
CONTINUOUS
 62
     7
 10
51.948060499839002
 20
-604.95313437876007
 30
1142.0
 70
    32
  0
VERTEX
  5
2A9
  8
DATA
  6
CONTINUOUS
 62
     7
 10
51.948060499839002
 20
-604.95313437876007
 30
1142.0
 70
    32
  0
VERTEX
  5
2AA
  8
DATA
  6
CONTINUOUS
 62
     7
 10
51.948060499839002
 20
-604.95313437876007
 30
1142.0
 70
    32
  0
VERTEX
  5
2AB
  8
DATA
  6
CONTINUOUS
 62
     7
 10
52.04806049983754
 20
-604.95313437876007
 30
1142.0
 70
    32
  0
VERTEX
  5
2AC
  8
DATA
  6
CONTINUOUS
 62
     7
 10
52.04806049983754
 20
-604.95313437876007
 30
1142.0
 70
    32
  0
VERTEX
  5
2AD
  8
DATA
  6
CONTINUOUS
 62
     7
 10
52.148060499839723
 20
-604.95313437876007
 30
1142.0
 70
    32
  0
VERTEX
  5
2AE
  8
DATA
  6
CONTINUOUS
 62
     7
 10
52.148060499839723
 20
-604.95313437876007
 30
1142.0
 70
    32
  0
VERTEX
  5
2AF
  8
DATA
  6
CONTINUOUS
 62
     7
 10
52.248060499838267
 20
-604.95313437876007
 30
1142.0
 70
    32
  0
VERTEX
  5
2B0
  8
DATA
  6
CONTINUOUS
 62
     7
 10
52.248060499838267
 20
-604.95313437876007
 30
1142.0
 70
    32
  0
VERTEX
  5
2B1
  8
DATA
  6
CONTINUOUS
 62
     7
 10
52.348060499836812
 20
-604.95313437876007
 30
1142.0
 70
    32
  0
VERTEX
  5
2B2
  8
DATA
  6
CONTINUOUS
 62
     7
 10
52.348060499836812
 20
-604.95313437876007
 30
1142.0
 70
    32
  0
VERTEX
  5
2B3
  8
DATA
  6
CONTINUOUS
 62
     7
 10
52.448060499839002
 20
-604.95313437876007
 30
1142.0
 70
    32
  0
VERTEX
  5
2B4
  8
DATA
  6
CONTINUOUS
 62
     7
 10
52.448060499839002
 20
-604.95313437876007
 30
1142.0
 70
    32
  0
VERTEX
  5
2B5
  8
DATA
  6
CONTINUOUS
 62
     7
 10
52.54806049983754
 20
-604.95313437876007
 30
1142.0
 70
    32
  0
VERTEX
  5
2B6
  8
DATA
  6
CONTINUOUS
 62
     7
 10
52.54806049983754
 20
-604.95313437876007
 30
1142.0
 70
    32
  0
VERTEX
  5
2B7
  8
DATA
  6
CONTINUOUS
 62
     7
 10
52.648060499839723
 20
-604.95313437876007
 30
1142.0
 70
    32
  0
VERTEX
  5
2B8
  8
DATA
  6
CONTINUOUS
 62
     7
 10
52.648060499839723
 20
-604.95313437876007
 30
1142.0
 70
    32
  0
VERTEX
  5
2B9
  8
DATA
  6
CONTINUOUS
 62
     7
 10
52.748060499838267
 20
-604.95313437876007
 30
1142.0
 70
    32
  0
VERTEX
  5
2BA
  8
DATA
  6
CONTINUOUS
 62
     7
 10
52.748060499838267
 20
-604.95313437876007
 30
1142.0
 70
    32
  0
VERTEX
  5
2BB
  8
DATA
  6
CONTINUOUS
 62
     7
 10
52.848060499836819
 20
-604.95313437876007
 30
1142.0
 70
    32
  0
VERTEX
  5
2BC
  8
DATA
  6
CONTINUOUS
 62
     7
 10
52.848060499836819
 20
-604.95313437876007
 30
1142.0
 70
    32
  0
VERTEX
  5
2BD
  8
DATA
  6
CONTINUOUS
 62
     7
 10
52.948060499839002
 20
-604.95313437876007
 30
1142.0
 70
    32
  0
VERTEX
  5
2BE
  8
DATA
  6
CONTINUOUS
 62
     7
 10
53.04806049983754
 20
-604.95313437876007
 30
1142.0
 70
    32
  0
VERTEX
  5
2BF
  8
DATA
  6
CONTINUOUS
 62
     7
 10
53.04806049983754
 20
-604.95313437876007
 30
1142.0
 70
    32
  0
VERTEX
  5
2C0
  8
DATA
  6
CONTINUOUS
 62
     7
 10
53.148060499839723
 20
-604.95313437876007
 30
1142.0
 70
    32
  0
VERTEX
  5
2C1
  8
DATA
  6
CONTINUOUS
 62
     7
 10
53.148060499839723
 20
-604.95313437876007
 30
1142.0
 70
    32
  0
VERTEX
  5
2C2
  8
DATA
  6
CONTINUOUS
 62
     7
 10
53.248060499838267
 20
-604.95313437876007
 30
1142.0
 70
    32
  0
VERTEX
  5
2C3
  8
DATA
  6
CONTINUOUS
 62
     7
 10
53.348060499836819
 20
-604.95313437876007
 30
1142.0
 70
    32
  0
VERTEX
  5
2C4
  8
DATA
  6
CONTINUOUS
 62
     7
 10
53.348060499836819
 20
-604.95313437876007
 30
1142.0
 70
    32
  0
VERTEX
  5
2C5
  8
DATA
  6
CONTINUOUS
 62
     7
 10
53.448060499839002
 20
-604.95313437876007
 30
1142.0
 70
    32
  0
VERTEX
  5
2C6
  8
DATA
  6
CONTINUOUS
 62
     7
 10
53.548060499837533
 20
-604.95313437876007
 30
1142.0
 70
    32
  0
VERTEX
  5
2C7
  8
DATA
  6
CONTINUOUS
 62
     7
 10
53.548060499837533
 20
-604.95313437876007
 30
1142.0
 70
    32
  0
VERTEX
  5
2C8
  8
DATA
  6
CONTINUOUS
 62
     7
 10
53.648060499839723
 20
-604.95313437876007
 30
1142.0
 70
    32
  0
VERTEX
  5
2C9
  8
DATA
  6
CONTINUOUS
 62
     7
 10
53.748060499838282
 20
-604.95313437876007
 30
1142.0
 70
    32
  0
VERTEX
  5
2CA
  8
DATA
  6
CONTINUOUS
 62
     7
 10
53.748060499838282
 20
-604.95313437876007
 30
1142.0
 70
    32
  0
VERTEX
  5
2CB
  8
DATA
  6
CONTINUOUS
 62
     7
 10
53.848060499836819
 20
-604.95313437876007
 30
1142.0
 70
    32
  0
VERTEX
  5
2CC
  8
DATA
  6
CONTINUOUS
 62
     7
 10
53.948060499839002
 20
-604.95313437876007
 30
1142.0
 70
    32
  0
VERTEX
  5
2CD
  8
DATA
  6
CONTINUOUS
 62
     7
 10
53.948060499839002
 20
-604.95313437876007
 30
1142.0
 70
    32
  0
VERTEX
  5
2CE
  8
DATA
  6
CONTINUOUS
 62
     7
 10
54.04806049983754
 20
-604.95313437876007
 30
1142.0
 70
    32
  0
VERTEX
  5
2CF
  8
DATA
  6
CONTINUOUS
 62
     7
 10
54.148060499839723
 20
-604.95313437876007
 30
1142.0
 70
    32
  0
VERTEX
  5
2D0
  8
DATA
  6
CONTINUOUS
 62
     7
 10
54.248060499838267
 20
-604.95313437876007
 30
1142.0
 70
    32
  0
VERTEX
  5
2D1
  8
DATA
  6
CONTINUOUS
 62
     7
 10
54.248060499838267
 20
-604.95313437876007
 30
1142.0
 70
    32
  0
VERTEX
  5
2D2
  8
DATA
  6
CONTINUOUS
 62
     7
 10
54.348060499836819
 20
-604.95313437876007
 30
1142.0
 70
    32
  0
VERTEX
  5
2D3
  8
DATA
  6
CONTINUOUS
 62
     7
 10
54.448060499839002
 20
-604.95313437876007
 30
1142.0
 70
    32
  0
VERTEX
  5
2D4
  8
DATA
  6
CONTINUOUS
 62
     7
 10
54.54806049983754
 20
-604.95313437876007
 30
1142.0
 70
    32
  0
VERTEX
  5
2D5
  8
DATA
  6
CONTINUOUS
 62
     7
 10
54.54806049983754
 20
-604.95313437876007
 30
1142.0
 70
    32
  0
VERTEX
  5
2D6
  8
DATA
  6
CONTINUOUS
 62
     7
 10
54.648060499839723
 20
-604.95313437876007
 30
1142.0
 70
    32
  0
VERTEX
  5
2D7
  8
DATA
  6
CONTINUOUS
 62
     7
 10
54.748060499838267
 20
-604.95313437876007
 30
1142.0
 70
    32
  0
VERTEX
  5
2D8
  8
DATA
  6
CONTINUOUS
 62
     7
 10
54.848060499836812
 20
-604.95313437876007
 30
1142.0
 70
    32
  0
VERTEX
  5
2D9
  8
DATA
  6
CONTINUOUS
 62
     7
 10
54.848060499836812
 20
-604.95313437876007
 30
1142.0
 70
    32
  0
VERTEX
  5
2DA
  8
DATA
  6
CONTINUOUS
 62
     7
 10
54.948060499839002
 20
-604.95313437876007
 30
1142.0
 70
    32
  0
VERTEX
  5
2DB
  8
DATA
  6
CONTINUOUS
 62
     7
 10
55.04806049983754
 20
-604.95313437876007
 30
1142.0
 70
    32
  0
VERTEX
  5
2DC
  8
DATA
  6
CONTINUOUS
 62
     7
 10
55.148060499839723
 20
-604.95313437876007
 30
1142.0
 70
    32
  0
VERTEX
  5
2DD
  8
DATA
  6
CONTINUOUS
 62
     7
 10
55.248060499838267
 20
-604.95313437876007
 30
1142.0
 70
    32
  0
VERTEX
  5
2DE
  8
DATA
  6
CONTINUOUS
 62
     7
 10
55.348060499836819
 20
-604.95313437876007
 30
1142.0
 70
    32
  0
VERTEX
  5
2DF
  8
DATA
  6
CONTINUOUS
 62
     7
 10
55.348060499836819
 20
-604.95313437876007
 30
1142.0
 70
    32
  0
VERTEX
  5
2E0
  8
DATA
  6
CONTINUOUS
 62
     7
 10
55.448060499839002
 20
-604.95313437876007
 30
1142.0
 70
    32
  0
VERTEX
  5
2E1
  8
DATA
  6
CONTINUOUS
 62
     7
 10
55.54806049983754
 20
-604.95313437876007
 30
1142.0
 70
    32
  0
VERTEX
  5
2E2
  8
DATA
  6
CONTINUOUS
 62
     7
 10
55.648060499839723
 20
-604.95313437876007
 30
1142.0
 70
    32
  0
VERTEX
  5
2E3
  8
DATA
  6
CONTINUOUS
 62
     7
 10
55.748060499838267
 20
-604.95313437876007
 30
1142.0
 70
    32
  0
VERTEX
  5
2E4
  8
DATA
  6
CONTINUOUS
 62
     7
 10
55.848060499836819
 20
-604.95313437876007
 30
1142.0
 70
    32
  0
VERTEX
  5
2E5
  8
DATA
  6
CONTINUOUS
 62
     7
 10
55.948060499839002
 20
-604.95313437876007
 30
1142.0
 70
    32
  0
VERTEX
  5
2E6
  8
DATA
  6
CONTINUOUS
 62
     7
 10
56.048060499837533
 20
-604.95313437876007
 30
1142.0
 70
    32
  0
VERTEX
  5
2E7
  8
DATA
  6
CONTINUOUS
 62
     7
 10
56.048060499837533
 20
-604.95313437876007
 30
1142.0
 70
    32
  0
VERTEX
  5
2E8
  8
DATA
  6
CONTINUOUS
 62
     7
 10
56.148060499839723
 20
-604.95313437876007
 30
1142.0
 70
    32
  0
VERTEX
  5
2E9
  8
DATA
  6
CONTINUOUS
 62
     7
 10
56.248060499838282
 20
-604.95313437876007
 30
1142.0
 70
    32
  0
VERTEX
  5
2EA
  8
DATA
  6
CONTINUOUS
 62
     7
 10
56.348060499836819
 20
-604.95313437876007
 30
1142.0
 70
    32
  0
VERTEX
  5
2EB
  8
DATA
  6
CONTINUOUS
 62
     7
 10
56.448060499839002
 20
-604.95313437876007
 30
1142.0
 70
    32
  0
VERTEX
  5
2EC
  8
DATA
  6
CONTINUOUS
 62
     7
 10
56.54806049983754
 20
-604.95313437876007
 30
1142.0
 70
    32
  0
VERTEX
  5
2ED
  8
DATA
  6
CONTINUOUS
 62
     7
 10
56.648060499839723
 20
-604.95313437876007
 30
1142.0
 70
    32
  0
VERTEX
  5
2EE
  8
DATA
  6
CONTINUOUS
 62
     7
 10
56.748060499838267
 20
-604.95313437876007
 30
1142.0
 70
    32
  0
VERTEX
  5
2EF
  8
DATA
  6
CONTINUOUS
 62
     7
 10
56.848060499836819
 20
-604.95313437876007
 30
1142.0
 70
    32
  0
VERTEX
  5
2F0
  8
DATA
  6
CONTINUOUS
 62
     7
 10
56.948060499839002
 20
-604.95313437876007
 30
1142.0
 70
    32
  0
VERTEX
  5
2F1
  8
DATA
  6
CONTINUOUS
 62
     7
 10
57.04806049983754
 20
-604.95313437876007
 30
1142.0
 70
    32
  0
VERTEX
  5
2F2
  8
DATA
  6
CONTINUOUS
 62
     7
 10
57.148060499839723
 20
-604.95313437876007
 30
1142.0
 70
    32
  0
VERTEX
  5
2F3
  8
DATA
  6
CONTINUOUS
 62
     7
 10
57.148060499839723
 20
-604.95313437876007
 30
1142.0
 70
    32
  0
VERTEX
  5
2F4
  8
DATA
  6
CONTINUOUS
 62
     7
 10
57.248060499838267
 20
-604.95313437876007
 30
1142.0
 70
    32
  0
VERTEX
  5
2F5
  8
DATA
  6
CONTINUOUS
 62
     7
 10
57.348060499836812
 20
-604.95313437876007
 30
1142.0
 70
    32
  0
VERTEX
  5
2F6
  8
DATA
  6
CONTINUOUS
 62
     7
 10
57.448060499839002
 20
-604.95313437876007
 30
1142.0
 70
    32
  0
VERTEX
  5
2F7
  8
DATA
  6
CONTINUOUS
 62
     7
 10
57.54806049983754
 20
-604.95313437876007
 30
1142.0
 70
    32
  0
VERTEX
  5
2F8
  8
DATA
  6
CONTINUOUS
 62
     7
 10
57.648060499839723
 20
-604.95313437876007
 30
1142.0
 70
    32
  0
VERTEX
  5
2F9
  8
DATA
  6
CONTINUOUS
 62
     7
 10
57.748060499838267
 20
-604.95313437876007
 30
1142.0
 70
    32
  0
VERTEX
  5
2FA
  8
DATA
  6
CONTINUOUS
 62
     7
 10
57.848060499836819
 20
-604.95313437876007
 30
1142.0
 70
    32
  0
VERTEX
  5
2FB
  8
DATA
  6
CONTINUOUS
 62
     7
 10
57.948060499839002
 20
-604.95313437876007
 30
1142.0
 70
    32
  0
VERTEX
  5
2FC
  8
DATA
  6
CONTINUOUS
 62
     7
 10
58.04806049983754
 20
-604.95313437876007
 30
1142.0
 70
    32
  0
VERTEX
  5
2FD
  8
DATA
  6
CONTINUOUS
 62
     7
 10
58.148060499839723
 20
-604.95313437876007
 30
1142.0
 70
    32
  0
VERTEX
  5
2FE
  8
DATA
  6
CONTINUOUS
 62
     7
 10
58.248060499838267
 20
-604.95313437876007
 30
1142.0
 70
    32
  0
VERTEX
  5
2FF
  8
DATA
  6
CONTINUOUS
 62
     7
 10
58.348060499836819
 20
-604.95313437876007
 30
1142.0
 70
    32
  0
VERTEX
  5
300
  8
DATA
  6
CONTINUOUS
 62
     7
 10
58.448060499839002
 20
-604.95313437876007
 30
1142.0
 70
    32
  0
VERTEX
  5
301
  8
DATA
  6
CONTINUOUS
 62
     7
 10
58.548060499837533
 20
-604.95313437876007
 30
1142.0
 70
    32
  0
VERTEX
  5
302
  8
DATA
  6
CONTINUOUS
 62
     7
 10
58.648060499839723
 20
-604.95313437876007
 30
1142.0
 70
    32
  0
VERTEX
  5
303
  8
DATA
  6
CONTINUOUS
 62
     7
 10
58.748060499838282
 20
-604.95313437876007
 30
1142.0
 70
    32
  0
VERTEX
  5
304
  8
DATA
  6
CONTINUOUS
 62
     7
 10
58.848060499836819
 20
-604.95313437876007
 30
1142.0
 70
    32
  0
VERTEX
  5
305
  8
DATA
  6
CONTINUOUS
 62
     7
 10
58.948060499839002
 20
-604.95313437876007
 30
1142.0
 70
    32
  0
VERTEX
  5
306
  8
DATA
  6
CONTINUOUS
 62
     7
 10
59.04806049983754
 20
-604.95313437876007
 30
1142.0
 70
    32
  0
VERTEX
  5
307
  8
DATA
  6
CONTINUOUS
 62
     7
 10
59.148060499839723
 20
-604.95313437876007
 30
1142.0
 70
    32
  0
VERTEX
  5
308
  8
DATA
  6
CONTINUOUS
 62
     7
 10
59.348060499836819
 20
-604.95313437876007
 30
1142.0
 70
    32
  0
VERTEX
  5
309
  8
DATA
  6
CONTINUOUS
 62
     7
 10
59.448060499839002
 20
-604.95313437876007
 30
1142.0
 70
    32
  0
VERTEX
  5
30A
  8
DATA
  6
CONTINUOUS
 62
     7
 10
59.54806049983754
 20
-604.95313437876007
 30
1142.0
 70
    32
  0
VERTEX
  5
30B
  8
DATA
  6
CONTINUOUS
 62
     7
 10
59.648060499839723
 20
-604.95313437876007
 30
1142.0
 70
    32
  0
VERTEX
  5
30C
  8
DATA
  6
CONTINUOUS
 62
     7
 10
59.748060499838267
 20
-604.95313437876007
 30
1142.0
 70
    32
  0
VERTEX
  5
30D
  8
DATA
  6
CONTINUOUS
 62
     7
 10
59.848060499836812
 20
-604.95313437876007
 30
1142.0
 70
    32
  0
VERTEX
  5
30E
  8
DATA
  6
CONTINUOUS
 62
     7
 10
59.948060499839002
 20
-604.95313437876007
 30
1142.0
 70
    32
  0
VERTEX
  5
30F
  8
DATA
  6
CONTINUOUS
 62
     7
 10
60.04806049983754
 20
-604.95313437876007
 30
1142.0
 70
    32
  0
VERTEX
  5
310
  8
DATA
  6
CONTINUOUS
 62
     7
 10
60.148060499839723
 20
-604.95313437876007
 30
1142.0
 70
    32
  0
VERTEX
  5
311
  8
DATA
  6
CONTINUOUS
 62
     7
 10
60.248060499838267
 20
-604.95313437876007
 30
1142.0
 70
    32
  0
VERTEX
  5
312
  8
DATA
  6
CONTINUOUS
 62
     7
 10
60.348060499836819
 20
-604.95313437876007
 30
1142.0
 70
    32
  0
VERTEX
  5
313
  8
DATA
  6
CONTINUOUS
 62
     7
 10
60.448060499839002
 20
-604.95313437876007
 30
1142.0
 70
    32
  0
VERTEX
  5
314
  8
DATA
  6
CONTINUOUS
 62
     7
 10
60.54806049983754
 20
-604.95313437876007
 30
1142.0
 70
    32
  0
VERTEX
  5
315
  8
DATA
  6
CONTINUOUS
 62
     7
 10
60.648060499839723
 20
-604.95313437876007
 30
1142.0
 70
    32
  0
VERTEX
  5
316
  8
DATA
  6
CONTINUOUS
 62
     7
 10
60.848060499836819
 20
-604.95313437876007
 30
1142.0
 70
    32
  0
VERTEX
  5
317
  8
DATA
  6
CONTINUOUS
 62
     7
 10
60.948060499839002
 20
-604.95313437876007
 30
1142.0
 70
    32
  0
VERTEX
  5
318
  8
DATA
  6
CONTINUOUS
 62
     7
 10
61.048060499837533
 20
-604.95313437876007
 30
1142.0
 70
    32
  0
VERTEX
  5
319
  8
DATA
  6
CONTINUOUS
 62
     7
 10
61.148060499839723
 20
-604.95313437876007
 30
1142.0
 70
    32
  0
VERTEX
  5
31A
  8
DATA
  6
CONTINUOUS
 62
     7
 10
61.248060499838282
 20
-604.95313437876007
 30
1142.0
 70
    32
  0
VERTEX
  5
31B
  8
DATA
  6
CONTINUOUS
 62
     7
 10
61.348060499836819
 20
-604.95313437876007
 30
1142.0
 70
    32
  0
VERTEX
  5
31C
  8
DATA
  6
CONTINUOUS
 62
     7
 10
61.448060499839002
 20
-604.95313437876007
 30
1142.0
 70
    32
  0
VERTEX
  5
31D
  8
DATA
  6
CONTINUOUS
 62
     7
 10
61.54806049983754
 20
-604.95313437876007
 30
1142.0
 70
    32
  0
VERTEX
  5
31E
  8
DATA
  6
CONTINUOUS
 62
     7
 10
61.648060499839723
 20
-604.95313437876007
 30
1142.0
 70
    32
  0
VERTEX
  5
31F
  8
DATA
  6
CONTINUOUS
 62
     7
 10
61.748060499838267
 20
-604.95313437876007
 30
1142.0
 70
    32
  0
VERTEX
  5
320
  8
DATA
  6
CONTINUOUS
 62
     7
 10
61.948060499839002
 20
-604.95313437876007
 30
1142.0
 70
    32
  0
VERTEX
  5
321
  8
DATA
  6
CONTINUOUS
 62
     7
 10
62.04806049983754
 20
-604.95313437876007
 30
1142.0
 70
    32
  0
VERTEX
  5
322
  8
DATA
  6
CONTINUOUS
 62
     7
 10
62.148060499839723
 20
-604.95313437876007
 30
1142.0
 70
    32
  0
VERTEX
  5
323
  8
DATA
  6
CONTINUOUS
 62
     7
 10
62.248060499838267
 20
-604.95313437876007
 30
1142.0
 70
    32
  0
VERTEX
  5
324
  8
DATA
  6
CONTINUOUS
 62
     7
 10
62.348060499836812
 20
-604.95313437876007
 30
1142.0
 70
    32
  0
VERTEX
  5
325
  8
DATA
  6
CONTINUOUS
 62
     7
 10
62.448060499839002
 20
-604.95313437876007
 30
1142.0
 70
    32
  0
VERTEX
  5
326
  8
DATA
  6
CONTINUOUS
 62
     7
 10
62.54806049983754
 20
-604.95313437876007
 30
1142.0
 70
    32
  0
VERTEX
  5
327
  8
DATA
  6
CONTINUOUS
 62
     7
 10
62.648060499839723
 20
-604.95313437876007
 30
1142.0
 70
    32
  0
VERTEX
  5
328
  8
DATA
  6
CONTINUOUS
 62
     7
 10
62.848060499836819
 20
-604.95313437876007
 30
1142.0
 70
    32
  0
VERTEX
  5
329
  8
DATA
  6
CONTINUOUS
 62
     7
 10
62.948060499839002
 20
-604.95313437876007
 30
1142.0
 70
    32
  0
VERTEX
  5
32A
  8
DATA
  6
CONTINUOUS
 62
     7
 10
63.04806049983754
 20
-604.95313437876007
 30
1142.0
 70
    32
  0
VERTEX
  5
32B
  8
DATA
  6
CONTINUOUS
 62
     7
 10
63.148060499839723
 20
-604.95313437876007
 30
1142.0
 70
    32
  0
VERTEX
  5
32C
  8
DATA
  6
CONTINUOUS
 62
     7
 10
63.248060499838267
 20
-604.95313437876007
 30
1142.0
 70
    32
  0
VERTEX
  5
32D
  8
DATA
  6
CONTINUOUS
 62
     7
 10
63.348060499836819
 20
-604.95313437876007
 30
1142.0
 70
    32
  0
VERTEX
  5
32E
  8
DATA
  6
CONTINUOUS
 62
     7
 10
63.448060499839002
 20
-604.95313437876007
 30
1142.0
 70
    32
  0
VERTEX
  5
32F
  8
DATA
  6
CONTINUOUS
 62
     7
 10
63.648060499839723
 20
-604.95313437876007
 30
1142.0
 70
    32
  0
VERTEX
  5
330
  8
DATA
  6
CONTINUOUS
 62
     7
 10
63.748060499838282
 20
-604.95313437876007
 30
1142.0
 70
    32
  0
VERTEX
  5
331
  8
DATA
  6
CONTINUOUS
 62
     7
 10
63.848060499836819
 20
-604.95313437876007
 30
1142.0
 70
    32
  0
VERTEX
  5
332
  8
DATA
  6
CONTINUOUS
 62
     7
 10
63.948060499839002
 20
-604.95313437876007
 30
1142.0
 70
    32
  0
VERTEX
  5
333
  8
DATA
  6
CONTINUOUS
 62
     7
 10
64.048060499837547
 20
-604.95313437876007
 30
1142.0
 70
    32
  0
VERTEX
  5
334
  8
DATA
  6
CONTINUOUS
 62
     7
 10
64.148060499839715
 20
-604.95313437876007
 30
1142.0
 70
    32
  0
VERTEX
  5
335
  8
DATA
  6
CONTINUOUS
 62
     7
 10
64.348060499836819
 20
-604.95313437876007
 30
1142.0
 70
    32
  0
VERTEX
  5
336
  8
DATA
  6
CONTINUOUS
 62
     7
 10
64.448060499839002
 20
-604.95313437876007
 30
1142.0
 70
    32
  0
VERTEX
  5
337
  8
DATA
  6
CONTINUOUS
 62
     7
 10
64.548060499837547
 20
-604.95313437876007
 30
1142.0
 70
    32
  0
VERTEX
  5
338
  8
DATA
  6
CONTINUOUS
 62
     7
 10
64.64806049983973
 20
-604.95313437876007
 30
1142.0
 70
    32
  0
VERTEX
  5
339
  8
DATA
  6
CONTINUOUS
 62
     7
 10
64.748060499838274
 20
-604.95313437876007
 30
1142.0
 70
    32
  0
VERTEX
  5
33A
  8
DATA
  6
CONTINUOUS
 62
     7
 10
64.848060499836805
 20
-604.95313437876007
 30
1142.0
 70
    32
  0
VERTEX
  5
33B
  8
DATA
  6
CONTINUOUS
 62
     7
 10
65.048060499837547
 20
-604.95313437876007
 30
1142.0
 70
    32
  0
SEQEND
  5
33C
  8
DATA
  6
CONTINUOUS
 62
     7
  0
LINE
  5
33D
  8
DATA
  6
CONTINUOUS
 62
     7
 10
-45.999999999530601
 20
-582.00000000000887
 30
0.0
 11
-1.704537192621401
 21
-582.00000000000887
 31
0.0
  0
LINE
  5
33E
  8
DATA
  6
CONTINUOUS
 62
     7
 10
-49.999999999530601
 20
-600.0
 30
0.0
 11
-5.5266437676908851
 21
-600.0
 31
0.0
  0
LINE
  5
33F
  8
DATA
  6
CONTINUOUS
 62
     7
 10
-49.999999999530601
 20
-587.00000000000887
 30
0.0
 11
-5.5266437676908851
 21
-587.00000000000887
 31
0.0
  0
LINE
  5
340
  8
DATA
  6
CONTINUOUS
 62
     7
 10
-45.999999999530601
 20
-582.00000000000887
 30
0.0
 11
-45.999999999530601
 21
-587.00000000000887
 31
0.0
  0
LINE
  5
341
  8
DATA
  6
CONTINUOUS
 62
     7
 10
-49.999999999530601
 20
-587.00000000000887
 30
0.0
 11
-49.999999999530601
 21
-600.0
 31
0.0
  0
ARC
  5
342
  8
DATA
  6
CONTINUOUS
 62
     7
 10
51.000000000476682
 20
-599.0000000000291
 30
0.0
 40
6.0000000000006226
 50
189.59406822650709
 51
270.0
  0
LINE
  5
343
  8
DATA
  6
CONTINUOUS
 62
     7
 10
21.70586557969737
 20
-582.0
 30
0.0
 11
48.705865579697381
 21
-582.0
 31
0.0
  0
LINE
  5
344
  8
DATA
  6
CONTINUOUS
 62
     7
 10
48.705865579697381
 20
-587.00000000000887
 30
0.0
 11
21.70586557969737
 21
-587.00000000000887
 31
0.0
  0
LINE
  5
345
  8
DATA
  6
CONTINUOUS
 62
     7
 10
21.70586557969737
 20
-582.00000000002001
 30
0.0
 11
48.705865579697381
 21
-582.00000000002001
 31
0.0
  0
LINE
  5
346
  8
DATA
  6
CONTINUOUS
 62
     7
 10
-1.704537192621401
 20
-582.00000000000887
 30
0.0
 11
21.70586557969737
 21
-582.0
 31
0.0
  0
LINE
  5
347
  8
DATA
  6
CONTINUOUS
 62
     7
 10
-1.704537192621401
 20
-587.00000000000887
 30
0.0
 11
-1.704537192621401
 21
-582.00000000000887
 31
0.0
  0
LINE
  5
348
  8
DATA
  6
CONTINUOUS
 62
     7
 10
21.70586557969737
 20
-587.00000000000887
 30
0.0
 11
21.70586557969737
 21
-582.0
 31
0.0
  0
LINE
  5
349
  8
DATA
  6
CONTINUOUS
 62
     7
 10
-5.5266437676908851
 20
-600.0
 30
0.0
 11
21.70586557969737
 21
-600.0
 31
0.0
  0
LINE
  5
34A
  8
DATA
  6
CONTINUOUS
 62
     7
 10
-5.5266437676908851
 20
-587.00000000000887
 30
0.0
 11
21.70586557969737
 21
-587.00000000000887
 31
0.0
  0
LINE
  5
34B
  8
DATA
  6
CONTINUOUS
 62
     7
 10
-5.5266437676908851
 20
-600.0
 30
0.0
 11
-5.5266437676908851
 21
-587.00000000000887
 31
0.0
  0
LINE
  5
34C
  8
DATA
  6
CONTINUOUS
 62
     7
 10
21.70586557969737
 20
-587.00000000000887
 30
0.0
 11
21.70586557969737
 21
-600.0
 31
0.0
  0
LINE
  5
34D
  8
DATA
  6
CONTINUOUS
 62
     7
 10
0.2205713474469206
 20
-582.00000000002001
 30
0.0
 11
21.70586557969737
 21
-582.00000000002001
 31
0.0
  0
LINE
  5
34E
  8
DATA
  6
CONTINUOUS
 62
     7
 10
-2.4560496375924141
 20
-557.00365362539935
 30
0.0
 11
-2.4560496375924141
 21
-561.97932973205025
 31
0.0
  0
LINE
  5
34F
  8
DATA
  6
CONTINUOUS
 62
     7
 10
-2.4560496375924141
 20
-576.76318510862973
 30
0.0
 11
-2.4560496375924141
 21
-561.97932973205025
 31
0.0
  0
LINE
  5
350
  8
DATA
  6
CONTINUOUS
 62
     7
 10
-2.4560496375924141
 20
-561.97932973205025
 30
0.0
 11
0.2205713474469206
 21
-561.97932973205025
 31
0.0
  0
LINE
  5
351
  8
DATA
  6
CONTINUOUS
 62
     7
 10
0.2205713474469206
 20
-557.00365362539935
 30
0.0
 11
-2.4560496375924141
 21
-557.00365362539935
 31
0.0
  0
LINE
  5
352
  8
DATA
  6
CONTINUOUS
 62
     7
 10
-2.4560496375924141
 20
-576.76318510862973
 30
0.0
 11
0.2205713474469206
 21
-576.76318510862973
 31
0.0
  0
LINE
  5
353
  8
DATA
  6
CONTINUOUS
 62
     7
 10
48.705865579697381
 20
-582.0
 30
0.0
 11
48.705865579697381
 21
-587.00000000000887
 31
0.0
  0
CIRCLE
  5
354
  8
DATA
  6
CONTINUOUS
 62
     7
 10
35.705865579697367
 20
-561.00000000002001
 30
0.0
 40
4.0
  0
LINE
  5
355
  8
DATA
  6
CONTINUOUS
 62
     7
 10
65.000000000476675
 20
-605.0000000000291
 30
0.0
 11
625.00000000047669
 21
-605.0000000000291
 31
0.0
  0
LINE
  5
356
  8
DATA
  6
CONTINUOUS
 62
     7
 10
65.000000000476675
 20
-600.0
 30
0.0
 11
65.000000000476675
 21
-605.0000000000291
 31
0.0
  0
LINE
  5
357
  8
DATA
  6
CONTINUOUS
 62
     7
 10
625.00000000047669
 20
-600.0
 30
0.0
 11
625.00000000047669
 21
-605.0000000000291
 31
0.0
  0
ARC
  5
358
  8
DATA
  6
CONTINUOUS
 62
     7
 10
639.0000000004768
 20
-599.0000000000291
 30
0.0
 40
6.0
 50
270.0
 51
350.4059317734928
  0
LINE
  5
359
  8
DATA
  6
CONTINUOUS
 62
     7
 10
730.00000000047032
 20
-582.0
 30
0.0
 11
730.00000000047032
 21
-600.0
 31
0.0
  0
LINE
  5
35A
  8
DATA
  6
CONTINUOUS
 62
     7
 10
730.00000000047032
 20
-118.00000000007989
 30
0.0
 11
48.705865579697381
 21
-118.00000000007989
 31
0.0
  0
LINE
  5
35B
  8
DATA
  6
CONTINUOUS
 62
     7
 10
730.00000000047032
 20
-100.00000000007999
 30
0.0
 11
21.70586557969737
 21
-100.00000000007999
 31
0.0
  0
LINE
  5
35C
  8
DATA
  6
CONTINUOUS
 62
     7
 10
48.705865579697381
 20
-118.0000000000199
 30
0.0
 11
730.00000000047032
 21
-118.0000000000199
 31
0.0
  0
LINE
  5
35D
  8
DATA
  6
CONTINUOUS
 62
     7
 10
-2.4560496375924141
 20
-266.3855271031299
 30
0.0
 11
-2.4560496375924141
 21
-265.90264762355048
 31
0.0
  0
LINE
  5
35E
  8
DATA
  6
CONTINUOUS
 62
     7
 10
-2.4560496375924141
 20
-431.3538311234301
 30
0.0
 11
-2.4560496375924141
 21
-270.64616887665051
 31
0.0
  0
LINE
  5
35F
  8
DATA
  6
CONTINUOUS
 62
     7
 10
0.2205713474469206
 20
-436.09735237653001
 30
0.0
 11
-2.4560496375924141
 21
-436.09735237653001
 31
0.0
  0
LINE
  5
360
  8
DATA
  6
CONTINUOUS
 62
     7
 10
-2.4560496375924141
 20
-440.91416489506128
 30
0.0
 11
0.2205713474469206
 21
-440.91416489506128
 31
0.0
  0
LINE
  5
361
  8
DATA
  6
CONTINUOUS
 62
     7
 10
-2.4560496375924141
 20
-435.6144728969507
 30
0.0
 11
-2.4560496375924141
 21
-436.09735237653001
 31
0.0
  0
LINE
  5
362
  8
DATA
  6
CONTINUOUS
 62
     7
 10
-2.4560496375924141
 20
-436.09735237653001
 30
0.0
 11
-2.4560496375924141
 21
-440.91416489506128
 31
0.0
  0
LINE
  5
363
  8
DATA
  6
CONTINUOUS
 62
     7
 10
-2.4560496375924141
 20
-440.91416489506128
 30
0.0
 11
-2.4560496375924141
 21
-443.36617586206972
 31
0.0
  0
LINE
  5
364
  8
DATA
  6
CONTINUOUS
 62
     7
 10
-2.4560496375924141
 20
-443.36617586206972
 30
0.0
 11
0.2205713474469206
 21
-443.36617586206972
 31
0.0
  0
LINE
  5
365
  8
DATA
  6
CONTINUOUS
 62
     7
 10
0.2205713474469206
 20
-431.3538311234301
 30
0.0
 11
-2.4560496375924141
 21
-431.3538311234301
 31
0.0
  0
LINE
  5
366
  8
DATA
  6
CONTINUOUS
 62
     7
 10
0.2205713474469206
 20
-435.6144728969507
 30
0.0
 11
-2.4560496375924141
 21
-435.6144728969507
 31
0.0
  0
CIRCLE
  5
367
  8
DATA
  6
CONTINUOUS
 62
     7
 10
35.705865579697367
 20
-350.00000000002018
 30
0.0
 40
4.0
  0
LINE
  5
368
  8
DATA
  6
CONTINUOUS
 62
     7
 10
-2.4560496375924141
 20
-270.64616887665051
 30
0.0
 11
0.2205713474469206
 21
-270.64616887665051
 31
0.0
  0
LINE
  5
369
  8
DATA
  6
CONTINUOUS
 62
     7
 10
-2.4560496375924141
 20
-266.3855271031299
 30
0.0
 11
0.2205713474469206
 21
-266.3855271031299
 31
0.0
  0
LINE
  5
36A
  8
DATA
  6
CONTINUOUS
 62
     7
 10
-2.4560496375924141
 20
-140.02067026802979
 30
0.0
 11
-2.4560496375924141
 21
-125.2368148914592
 31
0.0
  0
LINE
  5
36B
  8
DATA
  6
CONTINUOUS
 62
     7
 10
-2.4560496375924141
 20
-258.63382413801088
 30
0.0
 11
-2.4560496375924141
 21
-144.9963463746808
 31
0.0
  0
LINE
  5
36C
  8
DATA
  6
CONTINUOUS
 62
     7
 10
-2.4560496375924141
 20
-265.90264762355048
 30
0.0
 11
0.2205713474469206
 21
-265.90264762355048
 31
0.0
  0
LINE
  5
36D
  8
DATA
  6
CONTINUOUS
 62
     7
 10
0.2205713474469206
 20
-261.08583510501029
 30
0.0
 11
-2.4560496375924141
 21
-261.08583510501029
 31
0.0
  0
LINE
  5
36E
  8
DATA
  6
CONTINUOUS
 62
     7
 10
-2.4560496375924141
 20
-261.08583510501029
 30
0.0
 11
-2.4560496375924141
 21
-265.90264762355048
 31
0.0
  0
LINE
  5
36F
  8
DATA
  6
CONTINUOUS
 62
     7
 10
-2.4560496375924141
 20
-261.08583510501029
 30
0.0
 11
-2.4560496375924141
 21
-258.63382413801088
 31
0.0
  0
LINE
  5
370
  8
DATA
  6
CONTINUOUS
 62
     7
 10
0.2205713474469206
 20
-258.63382413801088
 30
0.0
 11
-2.4560496375924141
 21
-258.63382413801088
 31
0.0
  0
LINE
  5
371
  8
DATA
  6
CONTINUOUS
 62
     7
 10
0.2205713474469206
 20
-140.02067026802979
 30
0.0
 11
-2.4560496375924141
 21
-140.02067026802979
 31
0.0
  0
LINE
  5
372
  8
DATA
  6
CONTINUOUS
 62
     7
 10
-2.4560496375924141
 20
-144.9963463746808
 30
0.0
 11
-2.4560496375924141
 21
-140.02067026802979
 31
0.0
  0
LINE
  5
373
  8
DATA
  6
CONTINUOUS
 62
     7
 10
-2.4560496375924141
 20
-144.9963463746808
 30
0.0
 11
0.2205713474469206
 21
-144.9963463746808
 31
0.0
  0
CIRCLE
  5
374
  8
DATA
  6
CONTINUOUS
 62
     7
 10
35.705865579697367
 20
-139.00000000002001
 30
0.0
 40
4.0
  0
LINE
  5
375
  8
DATA
  6
CONTINUOUS
 62
     7
 10
-1.704537192621401
 20
-118.0000000000599
 30
0.0
 11
-45.999999999530601
 21
-118.00000000006899
 31
0.0
  0
LINE
  5
376
  8
DATA
  6
CONTINUOUS
 62
     7
 10
-5.5266437676908851
 20
-100.00000000007999
 30
0.0
 11
-49.999999999530601
 21
-100.00000000007999
 31
0.0
  0
LINE
  5
377
  8
DATA
  6
CONTINUOUS
 62
     7
 10
-5.5266437676908851
 20
-113.0000000000599
 30
0.0
 11
-49.999999999530601
 21
-113.00000000006899
 31
0.0
  0
LINE
  5
378
  8
DATA
  6
CONTINUOUS
 62
     7
 10
-45.999999999530601
 20
-113.00000000006899
 30
0.0
 11
-45.999999999530601
 21
-118.00000000006899
 31
0.0
  0
LINE
  5
379
  8
DATA
  6
CONTINUOUS
 62
     7
 10
-49.999999999530601
 20
-100.00000000007999
 30
0.0
 11
-49.999999999530601
 21
-113.00000000006899
 31
0.0
  0
LINE
  5
37A
  8
DATA
  6
CONTINUOUS
 62
     7
 10
48.705865579697381
 20
-118.00000000007989
 30
0.0
 11
21.70586557969737
 21
-118.00000000006899
 31
0.0
  0
LINE
  5
37B
  8
DATA
  6
CONTINUOUS
 62
     7
 10
21.70586557969737
 20
-113.0000000000599
 30
0.0
 11
48.705865579697381
 21
-113.0000000000599
 31
0.0
  0
LINE
  5
37C
  8
DATA
  6
CONTINUOUS
 62
     7
 10
21.70586557969737
 20
-118.0000000000199
 30
0.0
 11
48.705865579697381
 21
-118.0000000000199
 31
0.0
  0
LINE
  5
37D
  8
DATA
  6
CONTINUOUS
 62
     7
 10
21.70586557969737
 20
-118.00000000006899
 30
0.0
 11
-1.704537192621401
 21
-118.0000000000599
 31
0.0
  0
LINE
  5
37E
  8
DATA
  6
CONTINUOUS
 62
     7
 10
-1.704537192621401
 20
-113.0000000000599
 30
0.0
 11
-1.704537192621401
 21
-118.0000000000599
 31
0.0
  0
LINE
  5
37F
  8
DATA
  6
CONTINUOUS
 62
     7
 10
21.70586557969737
 20
-113.0000000000599
 30
0.0
 11
21.70586557969737
 21
-118.00000000006899
 31
0.0
  0
LINE
  5
380
  8
DATA
  6
CONTINUOUS
 62
     7
 10
-5.5266437676908851
 20
-100.00000000007999
 30
0.0
 11
21.70586557969737
 21
-100.00000000007999
 31
0.0
  0
LINE
  5
381
  8
DATA
  6
CONTINUOUS
 62
     7
 10
21.70586557969737
 20
-113.0000000000599
 30
0.0
 11
-5.5266437676908851
 21
-113.0000000000599
 31
0.0
  0
LINE
  5
382
  8
DATA
  6
CONTINUOUS
 62
     7
 10
-5.5266437676908851
 20
-113.0000000000599
 30
0.0
 11
-5.5266437676908851
 21
-100.00000000007999
 31
0.0
  0
LINE
  5
383
  8
DATA
  6
CONTINUOUS
 62
     7
 10
21.70586557969737
 20
-100.00000000007999
 30
0.0
 11
21.70586557969737
 21
-113.0000000000599
 31
0.0
  0
LINE
  5
384
  8
DATA
  6
CONTINUOUS
 62
     7
 10
0.2205713474469206
 20
-118.0000000000199
 30
0.0
 11
21.70586557969737
 21
-118.0000000000199
 31
0.0
  0
LINE
  5
385
  8
DATA
  6
CONTINUOUS
 62
     7
 10
0.2205713474469206
 20
-125.2368148914592
 30
0.0
 11
-2.4560496375924141
 21
-125.2368148914592
 31
0.0
  0
LINE
  5
386
  8
DATA
  6
CONTINUOUS
 62
     7
 10
48.705865579697381
 20
-113.0000000000599
 30
0.0
 11
48.705865579697381
 21
-118.00000000007989
 31
0.0
  0
ARC
  5
387
  8
DATA
  6
CONTINUOUS
 62
     7
 10
340.00000000047669
 20
-315.00000000000921
 30
0.0
 40
14.999999999985739
 50
356.97336985136388
 51
93.026630148740466
  0
ARC
  5
388
  8
DATA
  6
CONTINUOUS
 62
     7
 10
340.00000000047669
 20
-385.00000000004042
 30
0.0
 40
14.999999999984301
 50
266.97336985146802
 51
3.0266301487408209
  0
ARC
  5
389
  8
DATA
  6
CONTINUOUS
 62
     7
 10
305.00000000047669
 20
-514.99999999998909
 30
0.0
 40
119.99999999996341
 50
73.437167113998839
 51
106.5628328860011
  0
ARC
  5
38A
  8
DATA
  6
CONTINUOUS
 62
     7
 10
270.00000000050937
 20
-384.99999999996032
 30
0.0
 40
15.00000000006183
 50
176.9732669435665
 51
273.0266301485301
  0
ARC
  5
38B
  8
DATA
  6
CONTINUOUS
 62
     7
 10
305.00000000046941
 20
-185.0
 30
0.0
 40
120.0000000000246
 50
253.4371671139985
 51
286.5628328860015
  0
ARC
  5
38C
  8
DATA
  6
CONTINUOUS
 62
     7
 10
140.00000000036761
 20
-349.99997787933012
 30
0.0
 40
120.00000000009641
 50
343.43716949656948
 51
16.56283526851308
  0
ARC
  5
38D
  8
DATA
  6
CONTINUOUS
 62
     7
 10
270.00000000047669
 20
-315.0000000000602
 30
0.0
 40
15.000000000025439
 50
86.97336985126762
 51
183.0265272403243
  0
ARC
  5
38E
  8
DATA
  6
CONTINUOUS
 62
     7
 10
470.00000000047669
 20
-350.00000000002018
 30
0.0
 40
120.00000000001469
 50
163.4371671139989
 51
196.56283288600119
  0
LINE
  5
38F
  8
DATA
  6
CONTINUOUS
 62
     7
 10
730.00000000047032
 20
-118.00000000007989
 30
0.0
 11
730.00000000047032
 21
-100.00000000007999
 31
0.0
  0
TEXT
  5
390
  8
DATA
 62
     7
 10
1231.8270901476969
 20
-2173.3784441688399
 30
0.0
 40
48.865234375000007
  1
G18-SUB
 41
0.7
 11
1231.8270901476969
 21
-2124.5132097938399
 31
0.0
 73
     3
  0
TEXT
  5
391
  8
DATA
 62
     7
 10
1231.905500555094
 20
-2011.3050145661291
 30
0.0
 40
48.865234375000007
  1
CODA
 41
0.7
 11
1231.905500555094
 21
-1962.4397801911291
 31
0.0
 73
     3
  0
TEXT
  5
392
  8
DATA
 62
     7
 10
1193.8940837511279
 20
-2081.1394701909112
 30
0.0
 40
32.576822916666671
  1
サブウーファー
 41
0.7
 11
1193.8940837511279
 21
-2048.5626472742438
 31
0.0
 73
     3
  0
LINE
  5
393
  8
DATA
  6
CONTINUOUS
 62
     7
 10
1030.9999999999879
 20
-605.0000000000291
 30
0.0
 11
1058.999999999987
 21
-605.0000000000291
 31
0.0
  0
LINE
  5
394
  8
DATA
  6
CONTINUOUS
 62
     7
 10
1370.99999999999
 20
-605.00000000004002
 30
0.0
 11
1399.020000000103
 21
-605.00000000004002
 31
0.0
  0
LINE
  5
395
  8
DATA
  6
CONTINUOUS
 62
     7
 10
-328.9999999999992
 20
-605.0000000000291
 30
0.0
 11
-300.83999999971519
 21
-605.0000000000291
 31
0.0
  0
LINE
  5
396
  8
DATA
  6
CONTINUOUS
 62
     7
 10
-49.999999999530601
 20
-587.00000000000887
 30
0.0
 11
-49.999999999530601
 21
-113.00000000006899
 31
0.0
  0
ENDSEC
  0
EOF
