  0
SECTION
  2
HEADER
  9
$ACADVER
  1
AC1009
  9
$INSBASE
 10
0.0
 20
0.0
 30
0.0
  9
$EXTMIN
 10
-1250.0823911746049
 20
-1874.553312064382
 30
-0.0015258207003583
  9
$EXTMAX
 10
1450.0824037474611
 20
2139.5933335614391
 30
0.0000000349246037
  9
$LIMMIN
 10
0.0
 20
0.0
  9
$LIMMAX
 10
0.0
 20
0.0
  9
$ORTHOMODE
 70
     0
  9
$REGENMODE
 70
     1
  9
$FILLMODE
 70
     1
  9
$QTEXTMODE
 70
     0
  9
$MIRRTEXT
 70
     1
  9
$DRAGMODE
 70
     2
  9
$LTSCALE
 40
76.200000000000003
  9
$OSMODE
 70
   231
  9
$ATTMODE
 70
     1
  9
$TEXTSIZE
 40
0.0
  9
$TRACEWID
 40
1.0
  9
$TEXTSTYLE
  7
STANDARD
  9
$CLAYER
  8
DATA
  9
$CELTYPE
  6
BYLAYER
  9
$CECOLOR
 62
   256
  9
$DIMSCALE
 40
1.0
  9
$DIMASZ
 40
0.18
  9
$DIMEXO
 40
0.0625
  9
$DIMDLI
 40
0.38
  9
$DIMRND
 40
0.0
  9
$DIMDLE
 40
0.0
  9
$DIMEXE
 40
0.18
  9
$DIMTP
 40
0.0
  9
$DIMTM
 40
0.0
  9
$DIMTXT
 40
0.18
  9
$DIMCEN
 40
0.09
  9
$DIMTSZ
 40
0.0
  9
$DIMTOL
 70
     0
  9
$DIMLIM
 70
     0
  9
$DIMTIH
 70
     1
  9
$DIMTOH
 70
     1
  9
$DIMSE1
 70
     0
  9
$DIMSE2
 70
     0
  9
$DIMTAD
 70
     0
  9
$DIMZIN
 70
     0
  9
$DIMBLK
  1

  9
$DIMASO
 70
     1
  9
$DIMSHO
 70
     1
  9
$DIMPOST
  1

  9
$DIMAPOST
  1

  9
$DIMALT
 70
     0
  9
$DIMALTD
 70
     2
  9
$DIMALTF
 40
25.399999999999999
  9
$DIMLFAC
 40
1.0
  9
$DIMTOFL
 70
     0
  9
$DIMTVP
 40
0.0
  9
$DIMTIX
 70
     0
  9
$DIMSOXD
 70
     0
  9
$DIMSAH
 70
     0
  9
$DIMBLK1
  1

  9
$DIMBLK2
  1

  9
$DIMSTYLE
  2
STANDARD
  9
$DIMCLRD
 70
     0
  9
$DIMCLRE
 70
     0
  9
$DIMCLRT
 70
     0
  9
$DIMTFAC
 40
1.0
  9
$DIMGAP
 40
0.09
  9
$LUNITS
 70
     2
  9
$LUPREC
 70
     4
  9
$SKETCHINC
 40
0.1
  9
$FILLETRAD
 40
0.0
  9
$AUNITS
 70
     0
  9
$AUPREC
 70
     0
  9
$MENU
  1
acad
  9
$ELEVATION
 40
0.0
  9
$PELEVATION
 40
0.0
  9
$THICKNESS
 40
0.0
  9
$LIMCHECK
 70
     0
  9
$BLIPMODE
 70
     0
  9
$CHAMFERA
 40
0.0
  9
$CHAMFERB
 40
0.0
  9
$SKPOLY
 70
     0
  9
$TDCREATE
 40
2456114.6262384262
  9
$TDUPDATE
 40
2456114.626866308
  9
$TDINDWG
 40
0.0003363889
  9
$TDUSRTIMER
 40
0.0003362037
  9
$USRTIMER
 70
     1
  9
$ANGBASE
 50
0.0
  9
$ANGDIR
 70
     0
  9
$PDMODE
 70
     1
  9
$PDSIZE
 40
-2.0
  9
$PLINEWID
 40
0.0
  9
$COORDS
 70
     2
  9
$SPLFRAME
 70
     0
  9
$SPLINETYPE
 70
     6
  9
$SPLINESEGS
 70
     8
  9
$ATTDIA
 70
     0
  9
$ATTREQ
 70
     1
  9
$HANDLING
 70
     1
  9
$HANDSEED
  5
9AD
  9
$SURFTAB1
 70
     6
  9
$SURFTAB2
 70
     6
  9
$SURFTYPE
 70
     6
  9
$SURFU
 70
     6
  9
$SURFV
 70
     6
  9
$UCSNAME
  2

  9
$UCSORG
 10
0.0
 20
0.0
 30
0.0
  9
$UCSXDIR
 10
1.0
 20
0.0
 30
0.0
  9
$UCSYDIR
 10
0.0
 20
1.0
 30
0.0
  9
$PUCSNAME
  2

  9
$PUCSORG
 10
0.0
 20
0.0
 30
0.0
  9
$PUCSXDIR
 10
1.0
 20
0.0
 30
0.0
  9
$PUCSYDIR
 10
0.0
 20
1.0
 30
0.0
  9
$USERI1
 70
     0
  9
$USERI2
 70
     0
  9
$USERI3
 70
     0
  9
$USERI4
 70
     0
  9
$USERI5
 70
     0
  9
$USERR1
 40
0.0
  9
$USERR2
 40
0.0
  9
$USERR3
 40
0.0
  9
$USERR4
 40
0.0
  9
$USERR5
 40
0.0
  9
$WORLDVIEW
 70
     1
  9
$SHADEDGE
 70
     3
  9
$SHADEDIF
 70
    70
  9
$TILEMODE
 70
     1
  9
$MAXACTVP
 70
    64
  9
$PLIMCHECK
 70
     0
  9
$PEXTMIN
 10
1.0000000000000000E+020
 20
1.0000000000000000E+020
 30
1.0000000000000000E+020
  9
$PEXTMAX
 10
-1.0000000000000000E+020
 20
-1.0000000000000000E+020
 30
-1.0000000000000000E+020
  9
$PLIMMIN
 10
0.0
 20
0.0
  9
$PLIMMAX
 10
12.0
 20
9.0
  9
$UNITMODE
 70
     0
  9
$VISRETAIN
 70
     0
  9
$PLINEGEN
 70
     1
  9
$PSLTSCALE
 70
     0
  0
ENDSEC
  0
SECTION
  2
TABLES
  0
TABLE
  2
VPORT
 70
     1
  0
VPORT
  2
*ACTIVE
 70
     0
 10
0.0
 20
0.0
 11
1.0
 21
1.0
 12
100.0000062864278
 22
136.46636143234969
 13
0.0
 23
0.0
 14
1.0
 24
1.0
 15
0.0
 25
0.0
 16
0.0
 26
0.0
 36
1.0
 17
0.0
 27
0.0
 37
0.0
 40
4037.3906329441229
 41
2.172503242542152
 42
50.0
 43
0.0
 44
0.0
 50
0.0
 51
0.0
 71
     0
 72
  2000
 73
     1
 74
     1
 75
     0
 76
     0
 77
     0
 78
     0
  0
ENDTAB
  0
TABLE
  2
LTYPE
 70
    12
  0
LTYPE
  2
CONTINUOUS
 70
     0
  3
Solid line
 72
    65
 73
     0
 40
0.0
  0
LTYPE
  2
PHANTOM2
 70
     0
  3
___ _ _ ___ _ _ ___ _ _ ___ _ _
 72
    65
 73
     6
 40
1.25
 49
0.625
 49
-0.125
 49
0.125
 49
-0.125
 49
0.125
 49
-0.125
  0
ENDTAB
  0
TABLE
  2
LAYER
 70
     5
  0
LAYER
  2
0
 70
     0
 62
     7
  6
CONTINUOUS
  0
LAYER
  2
DATA
 70
     0
 62
     7
  6
CONTINUOUS
  0
LAYER
  2
HIBINO-BASE
 70
     0
 62
     7
  6
CONTINUOUS
  0
LAYER
  2
SPEC
 70
     0
 62
     7
  6
CONTINUOUS
  0
LAYER
  2
DIMNSIONS
 70
     0
 62
     7
  6
CONTINUOUS
  0
ENDTAB
  0
TABLE
  2
STYLE
 70
     3
  0
STYLE
  2
STANDARD
 70
     0
 40
0.0
 41
1.0
 50
0.0
 71
     0
 42
0.0
  3
txt
  4
BIGFONT.SHX
  0
ENDTAB
  0
TABLE
  2
VIEW
 70
     0
  0
ENDTAB
  0
TABLE
  2
UCS
 70
     0
  0
ENDTAB
  0
TABLE
  2
APPID
 70
     4
  0
APPID
  2
ACAD
 70
     0
  0
APPID
  2
ACADANNOTATIVE
 70
     0
  0
APPID
  2
ACAD_NAV_VCDISPLAY
 70
     0
  0
APPID
  2
ACAD_MLEADERVER
 70
     0
  0
ENDTAB
  0
TABLE
  2
DIMSTYLE
 70
     2
  0
DIMSTYLE
  2
STANDARD
 70
     0
  3

  4

  5

  6

  7

 40
1.0
 41
0.18
 42
0.0625
 43
0.38
 44
0.18
 45
0.0
 46
0.0
 47
0.0
 48
0.0
140
0.18
141
0.09
142
0.0
143
25.399999999999999
144
1.0
145
0.0
146
1.0
147
0.09
 71
     0
 72
     0
 73
     1
 74
     1
 75
     0
 76
     0
 77
     0
 78
     0
170
     0
171
     2
172
     0
173
     0
174
     0
175
     0
176
     0
177
     0
178
     0
  0
ENDTAB
  0
ENDSEC
  0
SECTION
  2
BLOCKS
  0
BLOCK
  8
0
  2
$MODEL_SPACE
 70
     0
 10
0.0
 20
0.0
 30
0.0
  3
$MODEL_SPACE
  1

  0
ENDBLK
  5
92C
  8
0
  0
BLOCK
 67
     1
  8
0
  2
$PAPER_SPACE
 70
     0
 10
0.0
 20
0.0
 30
0.0
  3
$PAPER_SPACE
  1

  0
ENDBLK
  5
928
 67
     1
  8
0
  0
ENDSEC
  0
SECTION
  2
ENTITIES
  0
LINE
  5
2C
  8
HIBINO-BASE
  6
CONTINUOUS
 62
     7
 10
-1250.0
 20
2139.4710705281232
 30
0.0
 11
1450.0
 21
2139.4710705281232
 31
0.0
  0
LINE
  5
2D
  8
HIBINO-BASE
  6
CONTINUOUS
 62
     7
 10
1450.0
 20
-1760.5289294718771
 30
0.0
 11
-1250.0
 21
-1760.5289294718771
 31
0.0
  0
LINE
  5
2E
  8
HIBINO-BASE
  6
CONTINUOUS
 62
     7
 10
-1250.0
 20
-1760.5289294718771
 30
0.0
 11
-1250.0
 21
2139.4710705281232
 31
0.0
  0
LINE
  5
2F
  8
HIBINO-BASE
  6
CONTINUOUS
 62
     7
 10
1450.0
 20
2139.4710705281232
 30
0.0
 11
1450.0
 21
-1760.5289294718771
 31
0.0
  0
LINE
  5
30
  8
HIBINO-BASE
  6
CONTINUOUS
 62
     7
 10
100.0
 20
-1423.0289294718771
 30
0.0
 11
1450.0
 21
-1423.0289294718771
 31
0.0
  0
LINE
  5
31
  8
HIBINO-BASE
  6
CONTINUOUS
 62
     7
 10
100.0
 20
-1760.5289294718771
 30
0.0
 11
100.0
 21
-1423.0289294718771
 31
0.0
  0
TEXT
  5
32
  8
HIBINO-BASE
 62
     7
 10
113.5
 20
-1460.6593294718771
 30
0.0
 40
24.4326171875
  1
NOTE
 41
0.7
 11
113.5
 21
-1436.2267122843771
 31
0.0
 73
     3
  0
LINE
  5
33
  8
HIBINO-BASE
  6
CONTINUOUS
 62
     7
 10
625.0
 20
-1760.5289294718771
 30
0.0
 11
625.0
 21
-1423.0289294718771
 31
0.0
  0
TEXT
  5
34
  8
HIBINO-BASE
 62
     7
 10
638.49999999999989
 20
-1460.6593294718771
 30
0.0
 40
24.4326171875
  1
TITLE
 41
0.7
 11
638.49999999999989
 21
-1436.2267122843771
 31
0.0
 73
     3
  0
LINE
  5
35
  8
HIBINO-BASE
  6
CONTINUOUS
 62
     7
 10
100.0
 20
-1610.5289294718771
 30
0.0
 11
1450.0
 21
-1610.5289294718771
 31
0.0
  0
TEXT
  5
36
  8
HIBINO-BASE
 62
     7
 10
826.0
 20
-1647.314529471877
 30
0.0
 40
24.4326171875
  1
DRAWN
 41
0.7
 11
826.0
 21
-1622.881912284377
 31
0.0
 73
     3
  0
TEXT
  5
37
  8
HIBINO-BASE
 62
     7
 10
451.0
 20
-1647.314529471877
 30
0.0
 40
24.4326171875
  1
DATE
 41
0.7
 11
451.0
 21
-1622.881912284377
 31
0.0
 73
     3
  0
TEXT
  5
38
  8
HIBINO-BASE
 62
     7
 10
300.99999999999989
 20
-1647.314529471877
 30
0.0
 40
24.4326171875
  1
SCALE
 41
0.7
 11
300.99999999999989
 21
-1622.881912284377
 31
0.0
 73
     3
  0
TEXT
  5
39
  8
HIBINO-BASE
 62
     7
 10
638.49999999999989
 20
-1647.314529471877
 30
0.0
 40
24.4326171875
  1
DESIGN
 41
0.7
 11
638.49999999999989
 21
-1622.881912284377
 31
0.0
 73
     3
  0
TEXT
  5
3A
  8
HIBINO-BASE
 62
     7
 10
1201.0
 20
-1647.314529471877
 30
0.0
 40
24.4326171875
  1
DRAWING NO.
 41
0.7
 11
1201.0
 21
-1622.881912284377
 31
0.0
 73
     3
  0
TEXT
  5
3B
  8
HIBINO-BASE
 62
     7
 10
1013.5
 20
-1647.314529471877
 30
0.0
 40
24.4326171875
  1
CHECK
 41
0.7
 11
1013.5
 21
-1622.881912284377
 31
0.0
 73
     3
  0
LINE
  5
3C
  8
HIBINO-BASE
  6
CONTINUOUS
 62
     7
 10
315.625
 20
-1741.7789294718771
 30
0.0
 11
371.875
 21
-1685.5289294718771
 31
0.0
  0
TEXT
  5
3D
  8
HIBINO-BASE
 62
     7
 10
306.25
 20
-1702.1630794718769
 30
0.0
 40
24.4326171875
  1
1
 41
0.7
 11
306.25
 21
-1677.7304622843769
 31
0.0
 73
     3
  0
LINE
  5
3E
  8
HIBINO-BASE
  6
CONTINUOUS
 62
     7
 10
287.5
 20
-1760.5289294718771
 30
0.0
 11
287.5
 21
-1610.5289294718771
 31
0.0
  0
LINE
  5
3F
  8
HIBINO-BASE
  6
CONTINUOUS
 62
     7
 10
437.5
 20
-1760.5289294718771
 30
0.0
 11
437.5
 21
-1610.5289294718771
 31
0.0
  0
LINE
  5
40
  8
HIBINO-BASE
  6
CONTINUOUS
 62
     7
 10
812.5
 20
-1610.5289294718771
 30
0.0
 11
812.5
 21
-1760.5289294718771
 31
0.0
  0
LINE
  5
41
  8
HIBINO-BASE
  6
CONTINUOUS
 62
     7
 10
1187.5
 20
-1610.5289294718771
 30
0.0
 11
1187.5
 21
-1760.5289294718771
 31
0.0
  0
LINE
  5
42
  8
HIBINO-BASE
  6
CONTINUOUS
 62
     7
 10
1000.0
 20
-1760.5289294718771
 30
0.0
 11
1000.0
 21
-1610.5289294718771
 31
0.0
  0
TEXT
  5
43
  8
HIBINO-BASE
 62
     7
 10
450.34809999999987
 20
-1717.5742294718771
 30
0.0
 40
24.4326171875
  1
'11.05.
 41
0.7
 11
450.34809999999987
 21
-1693.1416122843771
 31
0.0
 73
     3
  0
TEXT
  5
44
  8
HIBINO-BASE
 62
     7
 10
362.5
 20
-1730.2880794718769
 30
0.0
 40
24.4326171875
  1
15
 41
0.7
 11
362.5
 21
-1705.8554622843769
 31
0.0
 73
     3
  0
TEXT
  5
45
  8
HIBINO-BASE
 62
     7
 10
835.08715016551946
 20
-1717.5742294718771
 30
0.0
 40
24.4326171875
  1
T.Ootake
 41
0.7
 11
835.08715016551946
 21
-1693.1416122843771
 31
0.0
 73
     3
  0
TEXT
  5
46
  8
HIBINO-BASE
 62
     7
 10
158.2500000000002
 20
-1730.888929471877
 30
0.0
 40
48.865234374999993
  1
A4
 41
0.7
 11
158.2500000000002
 21
-1682.023695096877
 31
0.0
 73
     3
  0
TEXT
  5
47
  8
HIBINO-BASE
 62
     7
 10
114.3749999999999
 20
-1649.8207544718771
 30
0.0
 40
24.4326171875
  1
PAPER SIZE
 41
0.7
 11
114.3749999999999
 21
-1625.3881372843771
 31
0.0
 73
     3
  0
TEXT
  5
48
  8
HIBINO-BASE
 62
     7
 10
-1208.605471146647
 20
-1856.9075329845209
 30
0.0
 40
52.937337239583321
  1
Hibino-Intersound Corporation
 41
0.7
 11
-1208.605471146647
 21
-1803.970195744937
 31
0.0
 73
     3
  0
TEXT
  5
49
  8
HIBINO-BASE
 62
     7
 10
402.70914520320849
 20
-1851.6412091851801
 30
0.0
 40
52.937337239583321
  1
ヒビノインターサウンド株式会社
 41
0.7
 11
402.70914520320849
 21
-1798.703871945597
 31
0.0
 73
     3
  0
TEXT
  5
4A
  8
SPEC
 62
     7
 10
-1118.75
 20
2010.3701205281229
 30
0.0
 40
36.64892578125
  1
仕様
 41
0.7
 11
-1118.75
 21
2047.0190463093729
 31
0.0
 73
     3
  0
LINE
  5
4B
  8
SPEC
  6
CONTINUOUS
 62
     7
 10
-1137.5
 20
1989.471070528122
 30
0.0
 11
1075.0
 21
1989.471070528122
 31
0.0
  0
LINE
  5
4C
  8
SPEC
  6
CONTINUOUS
 62
     7
 10
-1137.5
 20
1933.221070528122
 30
0.0
 11
1075.0
 21
1933.221070528122
 31
0.0
  0
LINE
  5
4D
  8
SPEC
  6
CONTINUOUS
 62
     7
 10
-1137.5
 20
1989.471070528122
 30
0.0
 11
-1137.5
 21
1033.221070528122
 31
0.0
  0
LINE
  5
4E
  8
SPEC
  6
CONTINUOUS
 62
     7
 10
-649.99999999999989
 20
1989.471070528122
 30
0.0
 11
-649.99999999999989
 21
1033.221070528122
 31
0.0
  0
LINE
  5
4F
  8
SPEC
  6
CONTINUOUS
 62
     7
 10
1075.0
 20
1989.471070528122
 30
0.0
 11
1075.0
 21
1033.221070528122
 31
0.0
  0
TEXT
  5
50
  8
SPEC
 62
     7
 10
-1125.090152746109
 20
1889.949431420973
 30
0.0
 40
28.504720052083329
  1
形式
 41
0.7
 11
-1125.090152746109
 21
1918.454151473057
 31
0.0
 73
     3
  0
TEXT
  5
51
  8
SPEC
 62
     7
 10
-636.47188952454235
 20
1890.599805042159
 30
0.0
 40
28.504720052083329
  1
3-Way フルレンジ・スピーカーシステム
 41
0.7
 11
-636.47188952454235
 21
1919.104525094242
 31
0.0
 73
     3
  0
LINE
  5
52
  8
SPEC
  6
CONTINUOUS
 62
     7
 10
300.0
 20
1989.471070528122
 30
0.0
 11
300.0
 21
1933.221070528122
 31
0.0
  0
LINE
  5
53
  8
SPEC
  6
CONTINUOUS
 62
     7
 10
-649.99999999999989
 20
1876.971070528122
 30
0.0
 11
1075.0
 21
1876.971070528122
 31
0.0
  0
LINE
  5
54
  8
SPEC
  6
CONTINUOUS
 62
     7
 10
-1137.5
 20
1820.721070528122
 30
0.0
 11
1075.0
 21
1820.721070528122
 31
0.0
  0
LINE
  5
55
  8
SPEC
  6
CONTINUOUS
 62
     7
 10
-1137.5
 20
1708.221070528122
 30
0.0
 11
1075.0
 21
1708.221070528122
 31
0.0
  0
LINE
  5
56
  8
SPEC
  6
CONTINUOUS
 62
     7
 10
-1137.5
 20
1764.471070528122
 30
0.0
 11
1075.0
 21
1764.471070528122
 31
0.0
  0
LINE
  5
57
  8
SPEC
  6
CONTINUOUS
 62
     7
 10
-1137.5
 20
1651.971070528122
 30
0.0
 11
1075.0
 21
1651.971070528122
 31
0.0
  0
LINE
  5
58
  8
SPEC
  6
CONTINUOUS
 62
     7
 10
-1137.5
 20
1595.721070528122
 30
0.0
 11
1075.0
 21
1595.721070528122
 31
0.0
  0
LINE
  5
59
  8
SPEC
  6
CONTINUOUS
 62
     7
 10
-1137.5
 20
1539.471070528122
 30
0.0
 11
1075.0
 21
1539.471070528122
 31
0.0
  0
LINE
  5
5A
  8
SPEC
  6
CONTINUOUS
 62
     7
 10
-649.99999999999989
 20
1483.221070528122
 30
0.0
 11
1075.0
 21
1483.221070528122
 31
0.0
  0
LINE
  5
5B
  8
SPEC
  6
CONTINUOUS
 62
     7
 10
-1137.5
 20
1426.971070528122
 30
0.0
 11
1075.0
 21
1426.971070528122
 31
0.0
  0
LINE
  5
5C
  8
SPEC
  6
CONTINUOUS
 62
     7
 10
-1137.5
 20
1370.721070528122
 30
0.0
 11
1075.0
 21
1370.721070528122
 31
0.0
  0
LINE
  5
5D
  8
SPEC
  6
CONTINUOUS
 62
     7
 10
-1137.5
 20
1314.471070528122
 30
0.0
 11
1075.0
 21
1314.471070528122
 31
0.0
  0
LINE
  5
5E
  8
SPEC
  6
CONTINUOUS
 62
     7
 10
-1137.5
 20
1258.221070528122
 30
0.0
 11
1075.0
 21
1258.221070528122
 31
0.0
  0
LINE
  5
5F
  8
SPEC
  6
CONTINUOUS
 62
     7
 10
-1137.5
 20
1201.971070528122
 30
0.0
 11
1075.0
 21
1201.971070528122
 31
0.0
  0
LINE
  5
60
  8
SPEC
  6
CONTINUOUS
 62
     7
 10
-1137.5
 20
1145.721070528122
 30
0.0
 11
1075.0
 21
1145.721070528122
 31
0.0
  0
TEXT
  5
61
  8
SPEC
 62
     7
 10
-1126.4228900902799
 20
1159.999693859836
 30
0.0
 40
28.504720052083329
  1
エンクロージャー
 41
0.7
 11
-1126.4228900902799
 21
1188.5044139119191
 31
0.0
 73
     3
  0
TEXT
  5
62
  8
SPEC
 62
     7
 10
-636.17330685809725
 20
1101.566770772733
 30
0.0
 40
28.504720052083329
  1
420(W)\U+00D7700(H)\U+00D7370(D)mm(突起部含まず）
 41
0.7
 11
-636.17330685809725
 21
1130.071490824816
 31
0.0
 73
     3
  0
TEXT
  5
63
  8
SPEC
 62
     7
 10
-637.19240131990387
 20
1161.033401594359
 30
0.0
 40
28.504720052083329
  1
黒
 41
0.7
 11
-637.19240131990387
 21
1189.538121646443
 31
0.0
 73
     3
  0
TEXT
  5
64
  8
SPEC
 62
     7
 10
-1123.4313124154289
 20
1217.4584839932841
 30
0.0
 40
28.504720052083329
  1
仕上げ
 41
0.7
 11
-1123.4313124154289
 21
1245.9632040453671
 31
0.0
 73
     3
  0
TEXT
  5
65
  8
SPEC
 62
     7
 10
-1124.9900153198889
 20
1330.0221392320391
 30
0.0
 40
28.504720052083329
  1
入力コネクター
 41
0.7
 11
-1124.9900153198889
 21
1358.5268592841221
 31
0.0
 73
     3
  0
TEXT
  5
66
  8
SPEC
 62
     7
 10
-636.21014254402428
 20
1328.693107300149
 30
0.0
 40
28.504720052083329
  1
2\U+00D7Neutrik NL4MP
 41
0.7
 11
-636.21014254402428
 21
1357.197827352232
 31
0.0
 73
     3
  0
TEXT
  5
67
  8
SPEC
 62
     7
 10
-1125.1613089117029
 20
1271.67142718377
 30
0.0
 40
28.504720052083329
  1
公称インピーダンス
 41
0.7
 11
-1125.1613089117029
 21
1300.176147235853
 31
0.0
 73
     3
  0
TEXT
  5
68
  8
SPEC
 62
     7
 10
-636.04484660667913
 20
1271.023354525101
 30
0.0
 40
28.504720052083329
  1
8\U+03A9
 41
0.7
 11
-636.04484660667913
 21
1299.528074577184
 31
0.0
 73
     3
  0
TEXT
  5
69
  8
SPEC
 62
     7
 10
-1124.4104224168029
 20
1777.7262511500271
 30
0.0
 40
28.504720052083329
  1
周波数特性
 41
0.7
 11
-1124.4104224168029
 21
1806.230971202111
 31
0.0
 73
     3
  0
TEXT
  5
6A
  8
SPEC
 62
     7
 10
-1124.523730432672
 20
1723.3669375442801
 30
0.0
 40
28.504720052083329
  1
許容入力(AES/ピーク）
 41
0.7
 11
-1124.523730432672
 21
1751.8716575963631
 31
0.0
 73
     3
  0
TEXT
  5
6B
  8
SPEC
 62
     7
 10
-1124.33974620392
 20
1667.1484483836839
 30
0.0
 40
28.504720052083329
  1
感度
 41
0.7
 11
-1124.33974620392
 21
1695.6531684357681
 31
0.0
 73
     3
  0
TEXT
  5
6C
  8
SPEC
 62
     7
 10
-1124.034876465882
 20
1611.8528360082589
 30
0.0
 40
28.504720052083329
  1
最大音圧
 41
0.7
 11
-1124.034876465882
 21
1640.3575560603419
 31
0.0
 73
     3
  0
TEXT
  5
6D
  8
SPEC
 62
     7
 10
-1126.923891804433
 20
1554.5137446778019
 30
0.0
 40
28.504720052083329
  1
カバレージ角
 41
0.7
 11
-1126.923891804433
 21
1583.018464729885
 31
0.0
 73
     3
  0
TEXT
  5
6E
  8
SPEC
 62
     7
 10
-1136.2001270582889
 20
1497.4013379372841
 30
0.0
 40
28.504720052083329
  1
ドライバー構成
 41
0.7
 11
-1136.2001270582889
 21
1525.9060579893669
 31
0.0
 73
     3
  0
TEXT
  5
6F
  8
SPEC
 62
     7
 10
-1126.5571047629769
 20
1385.0987272224149
 30
0.0
 40
28.504720052083329
  1
クロスオーバー
 41
0.7
 11
-1126.5571047629769
 21
1413.6034472744991
 31
0.0
 73
     3
  0
TEXT
  5
70
  8
SPEC
 62
     7
 10
-1125.535399997402
 20
1103.758450654756
 30
0.0
 40
28.504720052083329
  1
寸法
 41
0.7
 11
-1125.535399997402
 21
1132.263170706839
 31
0.0
 73
     3
  0
TEXT
  5
71
  8
SPEC
 62
     7
 10
-636.55450721494162
 20
1049.892358441532
 30
0.0
 40
28.504720052083329
  1
約24.5kg
 41
0.7
 11
-636.55450721494162
 21
1078.397078493615
 31
0.0
 73
     3
  0
TEXT
  5
72
  8
SPEC
 62
     7
 10
-1125.3472222222219
 20
1048.047391493626
 30
0.0
 40
28.504720052083329
  1
重量
 41
0.7
 11
-1125.3472222222219
 21
1076.5521115457091
 31
0.0
 73
     3
  0
TEXT
  5
73
  8
SPEC
 62
     7
 10
-636.55197375486011
 20
1778.2677411610371
 30
0.0
 40
28.504720052083329
  1
50Hz～21kHz(-3dB)
 41
0.7
 11
-636.55197375486011
 21
1806.772461213121
 31
0.0
 73
     3
  0
TEXT
  5
74
  8
SPEC
 62
     7
 10
-638.28125
 20
1721.869751532638
 30
0.0
 40
28.504720052083329
  1
1000W/4000W
 41
0.7
 11
-638.28125
 21
1750.3744715847211
 31
0.0
 73
     3
  0
TEXT
  5
75
  8
SPEC
 62
     7
 10
-636.18462266564507
 20
1665.6882128848031
 30
0.0
 40
28.504720052083329
  1
98dB
 41
0.7
 11
-636.18462266564507
 21
1694.192932936887
 31
0.0
 73
     3
  0
TEXT
  5
76
  8
SPEC
 62
     7
 10
-637.43402777777783
 20
1609.644166666666
 30
0.0
 40
28.504720052083329
  1
134dB
 41
0.7
 11
-637.43402777777783
 21
1638.14888671875
 31
0.0
 73
     3
  0
TEXT
  5
77
  8
SPEC
 62
     7
 10
-636.25784605429294
 20
1552.2013464856909
 30
0.0
 40
28.504720052083329
  1
90\U+00B0\U+00D760\U+00B0
 41
0.7
 11
-636.25784605429294
 21
1580.7060665377739
 31
0.0
 73
     3
  0
TEXT
  5
78
  8
SPEC
 62
     7
 10
-636.66070978563346
 20
1497.6657768965749
 30
0.0
 40
28.504720052083329
  1
低域：1\U+00D715インチネオジム磁石採用、4インチボイスコイル
 41
0.7
 11
-636.66070978563346
 21
1526.1704969486591
 31
0.0
 73
     3
  0
TEXT
  5
79
  8
SPEC
 62
     7
 10
-636.96580804938753
 20
1440.5446460784669
 30
0.0
 40
28.504720052083329
  1
中高域：1.4インチネオジム磁石採用コアキシャルドライバー、 3.5インチ+1.75インチボイスコイル 
 41
0.7
 11
-636.96580804938753
 21
1469.0493661305511
 31
0.0
 73
     3
  0
TEXT
  5
7A
  8
SPEC
 62
     7
 10
-636.72602223315175
 20
1384.557063177366
 30
0.0
 40
28.504720052083329
  1
バッシブ：750Hz、6.3kHz
 41
0.7
 11
-636.72602223315175
 21
1413.061783229449
 31
0.0
 73
     3
  0
TEXT
  5
7B
  8
SPEC
 62
     7
 10
-636.98410629599277
 20
1216.0068045597229
 30
0.0
 40
28.504720052083329
  1
合板
 41
0.7
 11
-636.98410629599277
 21
1244.511524611806
 31
0.0
 73
     3
  0
LINE
  5
7C
  8
SPEC
  6
CONTINUOUS
 62
     7
 10
-1137.5
 20
1089.471070528122
 30
0.0
 11
1075.0
 21
1089.471070528122
 31
0.0
  0
LINE
  5
7D
  8
SPEC
  6
CONTINUOUS
 62
     7
 10
-1137.5
 20
1033.221070528122
 30
0.0
 11
1075.0
 21
1033.221070528122
 31
0.0
  0
LINE
  5
7E
  8
SPEC
  6
CONTINUOUS
 62
     7
 10
300.0
 20
1876.971070528122
 30
0.0
 11
300.0
 21
1820.721070528122
 31
0.0
  0
TEXT
  5
7F
  8
SPEC
 62
     7
 10
-264.82291666666657
 20
1946.849805042159
 30
0.0
 40
28.504720052083329
  1
G715-96-L
 41
0.7
 11
-264.82291666666657
 21
1975.3545250942429
 31
0.0
 73
     3
  0
TEXT
  5
80
  8
SPEC
 62
     7
 10
535.17708333333337
 20
1946.849805042159
 30
0.0
 40
28.504720052083329
  1
G715-96-R
 41
0.7
 11
535.17708333333337
 21
1975.3545250942429
 31
0.0
 73
     3
  0
TEXT
  5
81
  8
SPEC
 62
     7
 10
-636.47188952454235
 20
1834.349805042159
 30
0.0
 40
28.504720052083329
  1
L仕様
 41
0.7
 11
-636.47188952454235
 21
1862.8545250942429
 31
0.0
 73
     3
  0
TEXT
  5
82
  8
SPEC
 62
     7
 10
313.52811047545759
 20
1834.349805042159
 30
0.0
 40
28.504720052083329
  1
R仕様
 41
0.7
 11
313.52811047545759
 21
1862.8545250942429
 31
0.0
 73
     3
  0
TEXT
  5
83
  8
DIMNSIONS
 62
     7
 10
-200.0
 20
-1576.4865794718769
 30
0.0
 40
36.64892578125
  1
(単位：mm)
 41
0.7
 11
-200.0
 21
-1539.8376536906269
 31
0.0
 73
     3
  0
LINE
  5
84
  8
DIMNSIONS
  6
CONTINUOUS
 62
     7
 10
-200.0
 20
-630.0
 30
0.0
 11
-200.0
 21
-779.9999999996304
 31
0.0
  0
LINE
  5
85
  8
DIMNSIONS
  6
CONTINUOUS
 62
     7
 10
219.99999999999639
 20
-629.99999999999807
 30
0.0
 11
219.99999999999639
 21
-779.9999999996304
 31
0.0
  0
LINE
  5
86
  8
DIMNSIONS
  6
CONTINUOUS
 62
     7
 10
-200.0
 20
-749.9999999996304
 30
0.0
 11
219.99999999999639
 21
-749.9999999996304
 31
0.0
  0
LINE
  5
87
  8
DIMNSIONS
  6
CONTINUOUS
 62
     7
 10
-200.0
 20
-749.9999999996304
 30
0.0
 11
-162.49066162109369
 21
-739.94940307237675
 31
0.0
  0
LINE
  5
88
  8
DIMNSIONS
  6
CONTINUOUS
 62
     7
 10
-200.0
 20
-749.9999999996304
 30
0.0
 11
-162.49066162109369
 21
-760.05059692688417
 31
0.0
  0
LINE
  5
89
  8
DIMNSIONS
  6
CONTINUOUS
 62
     7
 10
219.99999999999639
 20
-749.9999999996304
 30
0.0
 11
182.4906616210902
 21
-760.05059692688417
 31
0.0
  0
LINE
  5
8A
  8
DIMNSIONS
  6
CONTINUOUS
 62
     7
 10
219.99999999999639
 20
-749.9999999996304
 30
0.0
 11
182.4906616210902
 21
-739.94940307237675
 31
0.0
  0
TEXT
  5
8B
  8
DIMNSIONS
 62
     7
 10
-29.687500000001769
 20
-735.09166666629721
 30
0.0
 40
40.721028645833343
  1
420
 41
0.7
 11
-29.687500000001769
 21
-694.37063802046384
 31
0.0
 73
     3
  0
LINE
  5
8C
  8
DIMNSIONS
  6
CONTINUOUS
 62
     7
 10
-230.0
 20
-600.0
 30
0.0
 11
-380.00000000025238
 21
-600.0
 31
0.0
  0
LINE
  5
8D
  8
DIMNSIONS
  6
CONTINUOUS
 62
     7
 10
-230.0
 20
99.999971389769556
 30
0.0
 11
-380.00000000025238
 21
99.999971389769556
 31
0.0
  0
LINE
  5
8E
  8
DIMNSIONS
  6
CONTINUOUS
 62
     7
 10
-350.00000000025238
 20
-600.0
 30
0.0
 11
-350.00000000025238
 21
99.999971389769556
 31
0.0
  0
LINE
  5
8F
  8
DIMNSIONS
  6
CONTINUOUS
 62
     7
 10
-350.00000000025238
 20
-600.0
 30
0.0
 11
-360.05059692750598
 21
-562.49066162109375
 31
0.0
  0
LINE
  5
90
  8
DIMNSIONS
  6
CONTINUOUS
 62
     7
 10
-350.00000000025238
 20
-600.0
 30
0.0
 11
-339.94940307299868
 21
-562.49066162109375
 31
0.0
  0
LINE
  5
91
  8
DIMNSIONS
  6
CONTINUOUS
 62
     7
 10
-350.00000000025238
 20
99.999971389769556
 30
0.0
 11
-339.94940307299868
 21
62.490633010863277
 31
0.0
  0
LINE
  5
92
  8
DIMNSIONS
  6
CONTINUOUS
 62
     7
 10
-350.00000000025238
 20
99.999971389769556
 30
0.0
 11
-360.05059692750598
 21
62.490633010863277
 31
0.0
  0
TEXT
  5
93
  8
DIMNSIONS
 62
     7
 10
-364.90833333358557
 20
-289.6875143051152
 30
0.0
 40
40.721028645833343
  1
700
 50
90.0
 41
0.7
 11
-405.62936197941889
 21
-289.6875143051152
 31
0.0
 73
     3
  0
LINE
  5
94
  8
DIMNSIONS
  6
CONTINUOUS
 62
     7
 10
-101.0000000002524
 20
300.02307704661882
 30
0.0
 11
-380.00000000025238
 21
300.02307704661882
 31
0.0
  0
LINE
  5
95
  8
DIMNSIONS
  6
CONTINUOUS
 62
     7
 10
-254.00000000025241
 20
669.99519537919355
 30
0.0
 11
-380.00000000025238
 21
669.99519537919355
 31
0.0
  0
LINE
  5
96
  8
DIMNSIONS
  6
CONTINUOUS
 62
     7
 10
-350.00000000025238
 20
300.02307704661882
 30
0.0
 11
-350.00000000025238
 21
669.99519537919355
 31
0.0
  0
LINE
  5
97
  8
DIMNSIONS
  6
CONTINUOUS
 62
     7
 10
-350.00000000025238
 20
300.02307704661882
 30
0.0
 11
-360.05059692750598
 21
337.5324154255249
 31
0.0
  0
LINE
  5
98
  8
DIMNSIONS
  6
CONTINUOUS
 62
     7
 10
-350.00000000025238
 20
300.02307704661882
 30
0.0
 11
-339.94940307299868
 21
337.5324154255249
 31
0.0
  0
LINE
  5
99
  8
DIMNSIONS
  6
CONTINUOUS
 62
     7
 10
-350.00000000025238
 20
669.99519537919355
 30
0.0
 11
-339.94940307299868
 21
632.4858570002873
 31
0.0
  0
LINE
  5
9A
  8
DIMNSIONS
  6
CONTINUOUS
 62
     7
 10
-350.00000000025238
 20
669.99519537919355
 30
0.0
 11
-360.05059692750598
 21
632.4858570002873
 31
0.0
  0
TEXT
  5
9B
  8
DIMNSIONS
 62
     7
 10
-364.90833333358557
 20
445.32163621290601
 30
0.0
 40
40.721028645833343
  1
370
 50
90.0
 41
0.7
 11
-405.62936197941889
 21
445.32163621290601
 31
0.0
 73
     3
  0
LINE
  5
9C
  8
DIMNSIONS
  6
CONTINUOUS
 62
     7
 10
219.9999226411035
 20
556.39380132382269
 30
0.0
 11
219.9999226411035
 21
743.23735048449544
 31
0.0
  0
ARC
  5
9D
  8
DIMNSIONS
  6
CONTINUOUS
 62
     7
 10
219.9999226411035
 20
506.39380132382269
 30
0.0
 40
206.8435491606725
 50
90.0
 51
144.9999874691317
  0
LINE
  5
9E
  8
DIMNSIONS
  6
CONTINUOUS
 62
     7
 10
50.563632445430599
 20
625.03442419015505
 30
0.0
 11
64.479964650038923
 21
661.28770903702639
 31
0.0
  0
LINE
  5
9F
  8
DIMNSIONS
  6
CONTINUOUS
 62
     7
 10
50.563632445430599
 20
625.03442419015505
 30
0.0
 11
80.742172085560583
 21
649.47252373587492
 31
0.0
  0
LINE
  5
A0
  8
DIMNSIONS
  6
CONTINUOUS
 62
     7
 10
219.9999226411035
 20
713.2373504844951
 30
0.0
 11
182.4905842621973
 21
703.18675355724156
 31
0.0
  0
LINE
  5
A1
  8
DIMNSIONS
  6
CONTINUOUS
 62
     7
 10
219.9999226411035
 20
713.2373504844951
 30
0.0
 11
182.4905842621973
 21
723.28794741174886
 31
0.0
  0
TEXT
  5
A2
  8
DIMNSIONS
 62
     7
 10
87.120867908464035
 20
691.64290915797551
 30
0.0
 40
40.721046849555528
  1
55\U+00B0
 50
22.23034776782174
 41
0.7
 11
71.714827903163354
 21
729.33717381294355
 31
0.0
 73
     3
  0
LINE
  5
A3
  8
DIMNSIONS
  6
CONTINUOUS
 62
     7
 10
-70.410241060656546
 20
679.54765089006685
 30
0.0
 11
-33.449545426395972
 21
732.33214295636265
 31
0.0
  0
LINE
  5
A4
  8
DIMNSIONS
  6
CONTINUOUS
 62
     7
 10
-199.99991523426269
 20
544.47740232174806
 30
0.0
 11
-199.99991523426269
 21
784.84596695211042
 31
0.0
  0
ARC
  5
A5
  8
DIMNSIONS
  6
CONTINUOUS
 62
     7
 10
-199.99991523426269
 20
494.47740232174812
 30
0.0
 40
260.36856463036253
 50
54.999565617271827
 51
90.0
  0
LINE
  5
A6
  8
DIMNSIONS
  6
CONTINUOUS
 62
     7
 10
-199.99991523426269
 20
754.84596695211042
 30
0.0
 11
-162.49057685535641
 21
764.89656387936407
 31
0.0
  0
LINE
  5
A7
  8
DIMNSIONS
  6
CONTINUOUS
 62
     7
 10
-199.99991523426269
 20
754.84596695211042
 30
0.0
 11
-162.49057685535641
 21
744.79537002485699
 31
0.0
  0
LINE
  5
A8
  8
DIMNSIONS
  6
CONTINUOUS
 62
     7
 10
-50.657024826228849
 20
707.75771208392268
 30
0.0
 11
-86.910309673100187
 21
721.67404428853104
 31
0.0
  0
LINE
  5
A9
  8
DIMNSIONS
  6
CONTINUOUS
 62
     7
 10
-50.657024826228849
 20
707.75771208392268
 30
0.0
 11
-75.095124371948671
 21
737.93625172405268
 31
0.0
  0
TEXT
  5
AA
  8
DIMNSIONS
 62
     7
 10
-141.74614025620809
 20
768.6744963220342
 30
0.0
 40
40.721046849555528
  1
35\U+00B0
 50
337.12444421104732
 41
0.7
 11
-125.91661075601949
 21
806.19288717673828
 31
0.0
 73
     3
  0
TEXT
  5
AB
  8
DATA
 62
     7
 10
850.0
 20
-1593.600198222782
 30
0.0
 40
36.64892578125
  1
G715-96
 41
0.7
 11
850.0
 21
-1556.9512724415331
 31
0.0
 73
     3
  0
TEXT
  5
AC
  8
DATA
 62
     7
 10
850.0
 20
-1476.1593031250829
 30
0.0
 40
36.64892578125
  1
CODA
 41
0.7
 11
850.0
 21
-1439.5103773438329
 31
0.0
 73
     3
  0
TEXT
  5
AD
  8
DATA
 62
     7
 10
-1100.0
 20
-1696.9589294718769
 30
0.0
 40
24.4326171875
  1
仕様および外観は予告なく変更されることがありますので、ご了承ください。
 41
0.7
 11
-1100.0
 21
-1672.5263122843769
 31
0.0
 73
     3
  0
ARC
  5
AE
  8
DATA
  6
CONTINUOUS
 62
     7
 10
9.9999716410990942
 20
1080.0000000000059
 30
0.0
 40
780.00000000000534
 50
256.02390976926262
 51
283.9760902307375
  0
LINE
  5
AF
  8
DATA
  6
CONTINUOUS
 62
     7
 10
219.9999226411035
 20
506.39380132382269
 30
0.0
 11
7.8066207631588469
 21
654.97322001736279
 31
0.0
  0
LINE
  5
B0
  8
DATA
  6
CONTINUOUS
 62
     7
 10
219.99992870810351
 20
-1106.393801323823
 30
0.0
 11
7.8066268301588622
 21
-1254.973220017363
 31
0.0
  0
ARC
  5
B1
  8
DATA
  6
CONTINUOUS
 62
     7
 10
9.9999777080991077
 20
-1680.000000000005
 30
0.0
 40
780.00000000000534
 50
76.023909769262573
 51
103.9760902307374
  0
CIRCLE
  5
B2
  8
DATA
  6
CONTINUOUS
 62
     7
 10
9.9999777080991077
 20
-1080.999999999998
 30
0.0
 40
53.500000000000057
  0
ARC
  5
B3
  8
DATA
  6
CONTINUOUS
 62
     7
 10
-22.998079214733458
 20
82.500000000001748
 30
0.0
 40
278.00000000000261
 50
247.40646832568149
 51
292.5935316743184
  0
ARC
  5
B4
  8
DATA
  6
CONTINUOUS
 62
     7
 10
-22.998079214732559
 20
-193.49999999999909
 30
0.0
 40
277.99999999999852
 50
67.406468325681558
 51
112.5935316743184
  0
LINE
  5
B5
  8
DATA
  6
CONTINUOUS
 62
     7
 10
17.001920785270169
 20
-572.99999999999795
 30
0.0
 11
197.4171656686631
 21
-572.99999999999795
 31
0.0
  0
LINE
  5
B6
  8
DATA
  6
CONTINUOUS
 62
     7
 10
-178.38323353293521
 20
-600.0
 30
0.0
 11
198.3832335329289
 21
-599.99999999999795
 31
0.0
  0
LINE
  5
B7
  8
DATA
  6
CONTINUOUS
 62
     7
 10
198.3832335329289
 20
-584.99999999999795
 30
0.0
 11
-178.38323353293521
 21
-585.00000000000125
 31
0.0
  0
LINE
  5
B8
  8
DATA
  6
CONTINUOUS
 62
     7
 10
-175.9980500986357
 20
91.000006198883895
 30
0.0
 11
140.00193464257521
 21
91.000006198884805
 31
0.0
  0
ARC
  5
B9
  8
DATA
  6
CONTINUOUS
 62
     7
 10
10.001920785267441
 20
-389.0
 30
0.0
 40
180.00000000000011
 50
91.36901016307273
 51
88.630989836926972
  0
LINE
  5
BA
  8
DATA
  6
CONTINUOUS
 62
     7
 10
24.203615670084229
 20
85.000000000000824
 30
0.0
 11
146.00192078526649
 21
85.000000000000824
 31
0.0
  0
ARC
  5
BB
  8
DATA
  6
CONTINUOUS
 62
     7
 10
-22.998079214732559
 20
-193.50000000000821
 30
0.0
 40
278.50000000000767
 50
67.406468325681615
 51
80.312345464509193
  0
ARC
  5
BC
  8
DATA
  6
CONTINUOUS
 62
     7
 10
-22.99807921473711
 20
82.500000000003581
 30
0.0
 40
278.50000000000392
 50
280.47456253705371
 51
292.5935316743184
  0
ARC
  5
BD
  8
DATA
  6
CONTINUOUS
 62
     7
 10
10.00192078526926
 20
-389.0
 30
0.0
 40
194.5000000000002
 50
10.83021597997063
 51
84.745741288835418
  0
LINE
  5
BE
  8
DATA
  6
CONTINUOUS
 62
     7
 10
-87.617720460489423
 20
654.97322001762689
 30
0.0
 11
-199.99991523426269
 21
494.47740232174812
 31
0.0
  0
LINE
  5
BF
  8
DATA
  6
CONTINUOUS
 62
     7
 10
-199.99991523426269
 20
494.47740232174812
 30
0.0
 11
-200.0000283588999
 21
350.74695749692108
 31
0.0
  0
ARC
  5
C0
  8
DATA
  6
CONTINUOUS
 62
     7
 10
-171.50002835890001
 20
350.74695749692108
 30
0.0
 40
28.500000000001819
 50
180.0
 51
256.02390976926222
  0
CIRCLE
  5
C1
  8
DATA
  6
CONTINUOUS
 62
     7
 10
9.9999716410990942
 20
440.99999999999801
 30
0.0
 40
4.0
  0
CIRCLE
  5
C2
  8
DATA
  6
CONTINUOUS
 62
     7
 10
9.9999716410981847
 20
520.99999999999875
 30
0.0
 40
4.0
  0
ARC
  5
C3
  8
DATA
  6
CONTINUOUS
 62
     7
 10
115.0019207852729
 20
-55.500000000000057
 30
0.0
 40
278.00000000000512
 50
157.4064683256766
 51
202.59353167433551
  0
CIRCLE
  5
C4
  8
DATA
  6
CONTINUOUS
 62
     7
 10
-128.35698961152951
 20
49.858910396794691
 30
0.0
 40
3.25
  0
LINE
  5
C5
  8
DATA
  6
CONTINUOUS
 62
     7
 10
-200.0
 20
-585.00000000000125
 30
0.0
 11
-199.9998868753691
 21
85.000023841857868
 31
0.0
  0
LINE
  5
C6
  8
DATA
  6
CONTINUOUS
 62
     7
 10
-185.00002038976709
 20
-572.9999685287471
 30
0.0
 11
-185.00002038977249
 21
85.000023841857868
 31
0.0
  0
LINE
  5
C7
  8
DATA
  6
CONTINUOUS
 62
     7
 10
-196.001845722415
 20
85.000023841857868
 30
0.0
 11
-196.00184572240869
 21
-585.0000524520874
 31
0.0
  0
LINE
  5
C8
  8
DATA
  6
CONTINUOUS
 62
     7
 10
-184.9981130411397
 20
85.000023841857868
 30
0.0
 11
-184.99807921473339
 21
-352.07778446518438
 31
0.0
  0
ARC
  5
C9
  8
DATA
  6
CONTINUOUS
 62
     7
 10
115.0019207852438
 20
-55.49999999999914
 30
0.0
 40
278.49999999998062
 50
157.4064683256646
 51
202.5935316743354
  0
LINE
  5
CA
  8
DATA
  6
CONTINUOUS
 62
     7
 10
-184.99807921473339
 20
-352.07778446518438
 30
0.0
 11
-184.99807921473339
 21
-425.92221553481829
 31
0.0
  0
LINE
  5
CB
  8
DATA
  6
CONTINUOUS
 62
     7
 10
-177.4171656686658
 20
-573.0
 30
0.0
 11
3.0019207852710821
 21
-572.9999999999992
 31
0.0
  0
ARC
  5
CC
  8
DATA
  6
CONTINUOUS
 62
     7
 10
10.00192078526835
 20
-389.0
 30
0.0
 40
194.50000000000111
 50
190.83021597997049
 51
251.08763358116209
  0
LINE
  5
CD
  8
DATA
  6
CONTINUOUS
 62
     7
 10
-184.9981130411343
 20
-572.9999685287471
 30
0.0
 11
-184.99807921473339
 21
-425.92221553481829
 31
0.0
  0
LINE
  5
CE
  8
DATA
  6
CONTINUOUS
 62
     7
 10
-196.00000000000091
 20
-573.00000000000125
 30
0.0
 11
-177.4171656686658
 21
-573.0
 31
0.0
  0
LINE
  5
CF
  8
DATA
  6
CONTINUOUS
 62
     7
 10
-200.0
 20
-600.0
 30
0.0
 11
-178.38323353293521
 21
-600.0
 31
0.0
  0
LINE
  5
D0
  8
DATA
  6
CONTINUOUS
 62
     7
 10
-178.38323353293521
 20
-585.00000000000125
 30
0.0
 11
-200.0
 21
-585.00000000000125
 31
0.0
  0
LINE
  5
D1
  8
DATA
  6
CONTINUOUS
 62
     7
 10
-195.99993837377579
 20
-585.0000524520874
 30
0.0
 11
-196.00000000000091
 21
-573.00000000000125
 31
0.0
  0
LINE
  5
D2
  8
DATA
  6
CONTINUOUS
 62
     7
 10
-200.0
 20
-600.0
 30
0.0
 11
-200.0
 21
-585.00000000000125
 31
0.0
  0
LINE
  5
D3
  8
DATA
  6
CONTINUOUS
 62
     7
 10
-177.4171656686658
 20
-573.0
 30
0.0
 11
-177.41711748144189
 21
-585.0000524520874
 31
0.0
  0
LINE
  5
D4
  8
DATA
  6
CONTINUOUS
 62
     7
 10
-178.38323353293521
 20
-585.00000000000125
 30
0.0
 11
-178.38323353293521
 21
-600.0
 31
0.0
  0
ARC
  5
D5
  8
DATA
  6
CONTINUOUS
 62
     7
 10
-182.99807921473351
 20
-425.92221553481829
 30
0.0
 40
2.0000000000003619
 50
10.83021597998343
 51
180.0
  0
ARC
  5
D6
  8
DATA
  6
CONTINUOUS
 62
     7
 10
-40.385808654754591
 20
563.57408041909696
 30
0.0
 40
86.366864687267324
 50
66.868638335326793
 51
113.13136166467319
  0
LINE
  5
D7
  8
DATA
  6
CONTINUOUS
 62
     7
 10
-10.38580865475368
 20
624.9409451063641
 30
0.0
 11
-70.385808654756389
 21
624.9409451063641
 31
0.0
  0
ARC
  5
D8
  8
DATA
  6
CONTINUOUS
 62
     7
 10
-39.905549848854477
 20
586.74013514378078
 30
0.0
 40
83.259864856216964
 50
55.036725217666692
 51
124.96327478201501
  0
ARC
  5
D9
  8
DATA
  6
CONTINUOUS
 62
     7
 10
-70.385808654754555
 20
633.80155383345596
 30
0.0
 40
9.9999999999927738
 50
113.13136166467601
 51
176.73411622762811
  0
ARC
  5
DA
  8
DATA
  6
CONTINUOUS
 62
     7
 10
-70.385808654756389
 20
634.94094510636182
 30
0.0
 40
9.9999999999975362
 50
183.26588377307249
 51
270.0
  0
ARC
  5
DB
  8
DATA
  6
CONTINUOUS
 62
     7
 10
-10.385808654755509
 20
634.94094510636501
 30
0.0
 40
10.000000000001821
 50
270.0
 51
356.73411622682198
  0
ARC
  5
DC
  8
DATA
  6
CONTINUOUS
 62
     7
 10
-10.385808654752781
 20
633.80155383346016
 30
0.0
 40
9.9999999999887024
 50
3.2658837722768319
 51
66.868638335320526
  0
CIRCLE
  5
DD
  8
DATA
  6
CONTINUOUS
 62
     7
 10
-121.87349390602409
 20
-520.8754146912911
 30
0.0
 40
4.0
  0
LINE
  5
DE
  8
DATA
  6
CONTINUOUS
 62
     7
 10
3.0019207852710821
 20
-583.49999999999989
 30
0.0
 11
17.001920785270169
 21
-583.49999999999989
 31
0.0
  0
LINE
  5
DF
  8
DATA
  6
CONTINUOUS
 62
     7
 10
17.001920785270169
 20
-583.49999999999989
 30
0.0
 11
17.001920785270169
 21
-572.99999999999795
 31
0.0
  0
LINE
  5
E0
  8
DATA
  6
CONTINUOUS
 62
     7
 10
3.0019207852710821
 20
-572.9999999999992
 30
0.0
 11
3.0019207852710821
 21
-583.49999999999989
 31
0.0
  0
CIRCLE
  5
E1
  8
DATA
  6
CONTINUOUS
 62
     7
 10
10.00192078527108
 20
-575.49999999999909
 30
0.0
 40
4.0
  0
ARC
  5
E2
  8
DATA
  6
CONTINUOUS
 62
     7
 10
10.001920785267441
 20
-389.0
 30
0.0
 40
194.5000000000004
 50
103.2613953361337
 51
169.1697840200294
  0
CIRCLE
  5
E3
  8
DATA
  6
CONTINUOUS
 62
     7
 10
-176.49807921473069
 20
-389.00000000000142
 30
0.0
 40
4.0
  0
ARC
  5
E4
  8
DATA
  6
CONTINUOUS
 62
     7
 10
-182.99807921473351
 20
-352.07778446518438
 30
0.0
 40
2.0
 50
180.0
 51
349.16978402004207
  0
ARC
  5
E5
  8
DATA
  6
CONTINUOUS
 62
     7
 10
-121.3509997150904
 20
-153.85292050035929
 30
0.0
 40
22.000000000003251
 50
202.5935316743352
 51
247.40646832568169
  0
ARC
  5
E6
  8
DATA
  6
CONTINUOUS
 62
     7
 10
-121.3509997150904
 20
-153.85292050035611
 30
0.0
 40
22.500000000005791
 50
202.59353167433599
 51
247.40646832568061
  0
ARC
  5
E7
  8
DATA
  6
CONTINUOUS
 62
     7
 10
-22.99807921473711
 20
82.500000000003581
 30
0.0
 40
278.50000000000392
 50
247.40646832568149
 51
267.53257408794099
  0
CIRCLE
  5
E8
  8
DATA
  6
CONTINUOUS
 62
     7
 10
-121.87349390602409
 20
-257.12458530870941
 30
0.0
 40
4.0
  0
POLYLINE
  5
E9
  8
DATA
  6
CONTINUOUS
 62
     7
 66
     1
 10
0.0
 20
0.0
 30
0.0
 70
     8
  0
VERTEX
  5
EA
  8
DATA
  6
CONTINUOUS
 62
     7
 10
-23.007619958187188
 20
-188.13861761282311
 30
0.0
 70
    32
  0
VERTEX
  5
EB
  8
DATA
  6
CONTINUOUS
 62
     7
 10
-22.89761995818661
 20
-188.13861761282311
 30
0.0
 70
    32
  0
VERTEX
  5
EC
  8
DATA
  6
CONTINUOUS
 62
     7
 10
-22.78761995818693
 20
-188.13861761282311
 30
0.0
 70
    32
  0
VERTEX
  5
ED
  8
DATA
  6
CONTINUOUS
 62
     7
 10
-22.677619958187272
 20
-188.13861761282311
 30
0.0
 70
    32
  0
VERTEX
  5
EE
  8
DATA
  6
CONTINUOUS
 62
     7
 10
-22.557619958186461
 20
-188.13861761282311
 30
0.0
 70
    32
  0
VERTEX
  5
EF
  8
DATA
  6
CONTINUOUS
 62
     7
 10
-22.447619958186792
 20
-188.13861761282311
 30
0.0
 70
    32
  0
VERTEX
  5
F0
  8
DATA
  6
CONTINUOUS
 62
     7
 10
-22.337619958187119
 20
-188.13861761282311
 30
0.0
 70
    32
  0
VERTEX
  5
F1
  8
DATA
  6
CONTINUOUS
 62
     7
 10
-22.227619958186541
 20
-188.13861761282311
 30
0.0
 70
    32
  0
VERTEX
  5
F2
  8
DATA
  6
CONTINUOUS
 62
     7
 10
-22.10761995818665
 20
-188.13861761282311
 30
0.0
 70
    32
  0
VERTEX
  5
F3
  8
DATA
  6
CONTINUOUS
 62
     7
 10
-21.99761995818697
 20
-188.13861761282311
 30
0.0
 70
    32
  0
VERTEX
  5
F4
  8
DATA
  6
CONTINUOUS
 62
     7
 10
-21.887619958186392
 20
-188.13861761282311
 30
0.0
 70
    32
  0
VERTEX
  5
F5
  8
DATA
  6
CONTINUOUS
 62
     7
 10
-21.767619958186501
 20
-188.12861761282329
 30
0.0
 70
    32
  0
VERTEX
  5
F6
  8
DATA
  6
CONTINUOUS
 62
     7
 10
-21.657619958186832
 20
-188.12861761282329
 30
0.0
 70
    32
  0
VERTEX
  5
F7
  8
DATA
  6
CONTINUOUS
 62
     7
 10
-21.547619958187159
 20
-188.12861761282329
 30
0.0
 70
    32
  0
VERTEX
  5
F8
  8
DATA
  6
CONTINUOUS
 62
     7
 10
-21.43761995818657
 20
-188.12861761282329
 30
0.0
 70
    32
  0
VERTEX
  5
F9
  8
DATA
  6
CONTINUOUS
 62
     7
 10
-21.317619958186679
 20
-188.12861761282329
 30
0.0
 70
    32
  0
VERTEX
  5
FA
  8
DATA
  6
CONTINUOUS
 62
     7
 10
-21.207619958187021
 20
-188.12861761282329
 30
0.0
 70
    32
  0
VERTEX
  5
FB
  8
DATA
  6
CONTINUOUS
 62
     7
 10
-21.097619958186431
 20
-188.12861761282329
 30
0.0
 70
    32
  0
VERTEX
  5
FC
  8
DATA
  6
CONTINUOUS
 62
     7
 10
-20.977619958186541
 20
-188.12861761282329
 30
0.0
 70
    32
  0
VERTEX
  5
FD
  8
DATA
  6
CONTINUOUS
 62
     7
 10
-20.867619958186861
 20
-188.1186176128231
 30
0.0
 70
    32
  0
VERTEX
  5
FE
  8
DATA
  6
CONTINUOUS
 62
     7
 10
-20.757619958187188
 20
-188.1186176128231
 30
0.0
 70
    32
  0
VERTEX
  5
FF
  8
DATA
  6
CONTINUOUS
 62
     7
 10
-20.64761995818661
 20
-188.1186176128231
 30
0.0
 70
    32
  0
VERTEX
  5
100
  8
DATA
  6
CONTINUOUS
 62
     7
 10
-20.527619958186719
 20
-188.1186176128231
 30
0.0
 70
    32
  0
VERTEX
  5
101
  8
DATA
  6
CONTINUOUS
 62
     7
 10
-20.417619958187039
 20
-188.1186176128231
 30
0.0
 70
    32
  0
VERTEX
  5
102
  8
DATA
  6
CONTINUOUS
 62
     7
 10
-20.307619958186471
 20
-188.10861761282331
 30
0.0
 70
    32
  0
VERTEX
  5
103
  8
DATA
  6
CONTINUOUS
 62
     7
 10
-20.18761995818657
 20
-188.10861761282331
 30
0.0
 70
    32
  0
VERTEX
  5
104
  8
DATA
  6
CONTINUOUS
 62
     7
 10
-20.077619958186901
 20
-188.10861761282331
 30
0.0
 70
    32
  0
VERTEX
  5
105
  8
DATA
  6
CONTINUOUS
 62
     7
 10
-19.967619958187228
 20
-188.10861761282331
 30
0.0
 70
    32
  0
VERTEX
  5
106
  8
DATA
  6
CONTINUOUS
 62
     7
 10
-19.857619958186639
 20
-188.09861761282309
 30
0.0
 70
    32
  0
VERTEX
  5
107
  8
DATA
  6
CONTINUOUS
 62
     7
 10
-19.737619958186752
 20
-188.09861761282309
 30
0.0
 70
    32
  0
VERTEX
  5
108
  8
DATA
  6
CONTINUOUS
 62
     7
 10
-19.627619958187079
 20
-188.09861761282309
 30
0.0
 70
    32
  0
VERTEX
  5
109
  8
DATA
  6
CONTINUOUS
 62
     7
 10
-19.517619958186501
 20
-188.09861761282309
 30
0.0
 70
    32
  0
VERTEX
  5
10A
  8
DATA
  6
CONTINUOUS
 62
     7
 10
-19.407619958186821
 20
-188.08861761282341
 30
0.0
 70
    32
  0
VERTEX
  5
10B
  8
DATA
  6
CONTINUOUS
 62
     7
 10
-19.28761995818693
 20
-188.08861761282341
 30
0.0
 70
    32
  0
VERTEX
  5
10C
  8
DATA
  6
CONTINUOUS
 62
     7
 10
-19.177619958187261
 20
-188.08861761282341
 30
0.0
 70
    32
  0
VERTEX
  5
10D
  8
DATA
  6
CONTINUOUS
 62
     7
 10
-19.067619958186679
 20
-188.07861761282319
 30
0.0
 70
    32
  0
VERTEX
  5
10E
  8
DATA
  6
CONTINUOUS
 62
     7
 10
-18.947619958186792
 20
-188.07861761282319
 30
0.0
 70
    32
  0
VERTEX
  5
10F
  8
DATA
  6
CONTINUOUS
 62
     7
 10
-18.837619958187119
 20
-188.07861761282319
 30
0.0
 70
    32
  0
VERTEX
  5
110
  8
DATA
  6
CONTINUOUS
 62
     7
 10
-18.727619958186541
 20
-188.0686176128234
 30
0.0
 70
    32
  0
VERTEX
  5
111
  8
DATA
  6
CONTINUOUS
 62
     7
 10
-18.617619958186861
 20
-188.0686176128234
 30
0.0
 70
    32
  0
VERTEX
  5
112
  8
DATA
  6
CONTINUOUS
 62
     7
 10
-18.49761995818697
 20
-188.0686176128234
 30
0.0
 70
    32
  0
VERTEX
  5
113
  8
DATA
  6
CONTINUOUS
 62
     7
 10
-18.387619958186392
 20
-188.05861761282321
 30
0.0
 70
    32
  0
VERTEX
  5
114
  8
DATA
  6
CONTINUOUS
 62
     7
 10
-18.277619958186719
 20
-188.05861761282321
 30
0.0
 70
    32
  0
VERTEX
  5
115
  8
DATA
  6
CONTINUOUS
 62
     7
 10
-18.167619958187039
 20
-188.04861761282339
 30
0.0
 70
    32
  0
VERTEX
  5
116
  8
DATA
  6
CONTINUOUS
 62
     7
 10
-18.047619958187148
 20
-188.04861761282339
 30
0.0
 70
    32
  0
VERTEX
  5
117
  8
DATA
  6
CONTINUOUS
 62
     7
 10
-17.93761995818657
 20
-188.04861761282339
 30
0.0
 70
    32
  0
VERTEX
  5
118
  8
DATA
  6
CONTINUOUS
 62
     7
 10
-17.82761995818689
 20
-188.03861761282309
 30
0.0
 70
    32
  0
VERTEX
  5
119
  8
DATA
  6
CONTINUOUS
 62
     7
 10
-17.70761995818701
 20
-188.03861761282309
 30
0.0
 70
    32
  0
VERTEX
  5
11A
  8
DATA
  6
CONTINUOUS
 62
     7
 10
-17.597619958186421
 20
-188.02861761282341
 30
0.0
 70
    32
  0
VERTEX
  5
11B
  8
DATA
  6
CONTINUOUS
 62
     7
 10
-17.487619958186752
 20
-188.02861761282341
 30
0.0
 70
    32
  0
VERTEX
  5
11C
  8
DATA
  6
CONTINUOUS
 62
     7
 10
-17.377619958187079
 20
-188.01861761282319
 30
0.0
 70
    32
  0
VERTEX
  5
11D
  8
DATA
  6
CONTINUOUS
 62
     7
 10
-17.257619958187188
 20
-188.01861761282319
 30
0.0
 70
    32
  0
VERTEX
  5
11E
  8
DATA
  6
CONTINUOUS
 62
     7
 10
-17.14761995818661
 20
-188.0086176128234
 30
0.0
 70
    32
  0
VERTEX
  5
11F
  8
DATA
  6
CONTINUOUS
 62
     7
 10
-17.037619958186941
 20
-188.0086176128234
 30
0.0
 70
    32
  0
VERTEX
  5
120
  8
DATA
  6
CONTINUOUS
 62
     7
 10
-16.927619958187261
 20
-187.99861761282321
 30
0.0
 70
    32
  0
VERTEX
  5
121
  8
DATA
  6
CONTINUOUS
 62
     7
 10
-16.807619958186461
 20
-187.99861761282321
 30
0.0
 70
    32
  0
VERTEX
  5
122
  8
DATA
  6
CONTINUOUS
 62
     7
 10
-16.697619958186792
 20
-187.98861761282299
 30
0.0
 70
    32
  0
VERTEX
  5
123
  8
DATA
  6
CONTINUOUS
 62
     7
 10
-16.587619958187119
 20
-187.98861761282299
 30
0.0
 70
    32
  0
VERTEX
  5
124
  8
DATA
  6
CONTINUOUS
 62
     7
 10
-16.467619958187228
 20
-187.97861761282331
 30
0.0
 70
    32
  0
VERTEX
  5
125
  8
DATA
  6
CONTINUOUS
 62
     7
 10
-16.357619958186639
 20
-187.97861761282331
 30
0.0
 70
    32
  0
VERTEX
  5
126
  8
DATA
  6
CONTINUOUS
 62
     7
 10
-16.24761995818697
 20
-187.96861761282301
 30
0.0
 70
    32
  0
VERTEX
  5
127
  8
DATA
  6
CONTINUOUS
 62
     7
 10
-16.137619958186392
 20
-187.96861761282301
 30
0.0
 70
    32
  0
VERTEX
  5
128
  8
DATA
  6
CONTINUOUS
 62
     7
 10
-16.017619958186501
 20
-187.9586176128233
 30
0.0
 70
    32
  0
VERTEX
  5
129
  8
DATA
  6
CONTINUOUS
 62
     7
 10
-15.90761995818683
 20
-187.948617612823
 30
0.0
 70
    32
  0
VERTEX
  5
12A
  8
DATA
  6
CONTINUOUS
 62
     7
 10
-15.79761995818715
 20
-187.948617612823
 30
0.0
 70
    32
  0
VERTEX
  5
12B
  8
DATA
  6
CONTINUOUS
 62
     7
 10
-15.68761995818657
 20
-187.93861761282329
 30
0.0
 70
    32
  0
VERTEX
  5
12C
  8
DATA
  6
CONTINUOUS
 62
     7
 10
-15.567619958186681
 20
-187.93861761282329
 30
0.0
 70
    32
  0
VERTEX
  5
12D
  8
DATA
  6
CONTINUOUS
 62
     7
 10
-15.45761995818701
 20
-187.9286176128231
 30
0.0
 70
    32
  0
VERTEX
  5
12E
  8
DATA
  6
CONTINUOUS
 62
     7
 10
-15.34761995818643
 20
-187.91861761282331
 30
0.0
 70
    32
  0
VERTEX
  5
12F
  8
DATA
  6
CONTINUOUS
 62
     7
 10
-15.23761995818675
 20
-187.91861761282331
 30
0.0
 70
    32
  0
VERTEX
  5
130
  8
DATA
  6
CONTINUOUS
 62
     7
 10
-15.117619958186861
 20
-187.90861761282309
 30
0.0
 70
    32
  0
VERTEX
  5
131
  8
DATA
  6
CONTINUOUS
 62
     7
 10
-15.00761995818719
 20
-187.8986176128233
 30
0.0
 70
    32
  0
VERTEX
  5
132
  8
DATA
  6
CONTINUOUS
 62
     7
 10
-14.89761995818661
 20
-187.8986176128233
 30
0.0
 70
    32
  0
VERTEX
  5
133
  8
DATA
  6
CONTINUOUS
 62
     7
 10
-14.777619958186721
 20
-187.88861761282311
 30
0.0
 70
    32
  0
VERTEX
  5
134
  8
DATA
  6
CONTINUOUS
 62
     7
 10
-14.667619958187039
 20
-187.87861761282329
 30
0.0
 70
    32
  0
VERTEX
  5
135
  8
DATA
  6
CONTINUOUS
 62
     7
 10
-14.557619958186461
 20
-187.87861761282329
 30
0.0
 70
    32
  0
VERTEX
  5
136
  8
DATA
  6
CONTINUOUS
 62
     7
 10
-14.44761995818679
 20
-187.8686176128231
 30
0.0
 70
    32
  0
VERTEX
  5
137
  8
DATA
  6
CONTINUOUS
 62
     7
 10
-14.327619958186901
 20
-187.85861761282331
 30
0.0
 70
    32
  0
VERTEX
  5
138
  8
DATA
  6
CONTINUOUS
 62
     7
 10
-14.217619958187219
 20
-187.84861761282309
 30
0.0
 70
    32
  0
VERTEX
  5
139
  8
DATA
  6
CONTINUOUS
 62
     7
 10
-14.107619958186641
 20
-187.84861761282309
 30
0.0
 70
    32
  0
VERTEX
  5
13A
  8
DATA
  6
CONTINUOUS
 62
     7
 10
-13.99761995818697
 20
-187.83861761282341
 30
0.0
 70
    32
  0
VERTEX
  5
13B
  8
DATA
  6
CONTINUOUS
 62
     7
 10
-13.877619958187079
 20
-187.82861761282319
 30
0.0
 70
    32
  0
VERTEX
  5
13C
  8
DATA
  6
CONTINUOUS
 62
     7
 10
-13.767619958186501
 20
-187.8186176128234
 30
0.0
 70
    32
  0
VERTEX
  5
13D
  8
DATA
  6
CONTINUOUS
 62
     7
 10
-13.65761995818683
 20
-187.8186176128234
 30
0.0
 70
    32
  0
VERTEX
  5
13E
  8
DATA
  6
CONTINUOUS
 62
     7
 10
-13.54761995818715
 20
-187.80861761282321
 30
0.0
 70
    32
  0
VERTEX
  5
13F
  8
DATA
  6
CONTINUOUS
 62
     7
 10
-13.427619958187259
 20
-187.79861761282339
 30
0.0
 70
    32
  0
VERTEX
  5
140
  8
DATA
  6
CONTINUOUS
 62
     7
 10
-13.317619958186681
 20
-187.78861761282309
 30
0.0
 70
    32
  0
VERTEX
  5
141
  8
DATA
  6
CONTINUOUS
 62
     7
 10
-13.20761995818701
 20
-187.77861761282341
 30
0.0
 70
    32
  0
VERTEX
  5
142
  8
DATA
  6
CONTINUOUS
 62
     7
 10
-13.09761995818643
 20
-187.77861761282341
 30
0.0
 70
    32
  0
VERTEX
  5
143
  8
DATA
  6
CONTINUOUS
 62
     7
 10
-12.97761995818653
 20
-187.76861761282319
 30
0.0
 70
    32
  0
VERTEX
  5
144
  8
DATA
  6
CONTINUOUS
 62
     7
 10
-12.867619958186861
 20
-187.7586176128234
 30
0.0
 70
    32
  0
VERTEX
  5
145
  8
DATA
  6
CONTINUOUS
 62
     7
 10
-12.75761995818719
 20
-187.74861761282321
 30
0.0
 70
    32
  0
VERTEX
  5
146
  8
DATA
  6
CONTINUOUS
 62
     7
 10
-12.64761995818661
 20
-187.73861761282299
 30
0.0
 70
    32
  0
VERTEX
  5
147
  8
DATA
  6
CONTINUOUS
 62
     7
 10
-12.527619958186721
 20
-187.72861761282331
 30
0.0
 70
    32
  0
VERTEX
  5
148
  8
DATA
  6
CONTINUOUS
 62
     7
 10
-12.417619958187039
 20
-187.71861761282301
 30
0.0
 70
    32
  0
VERTEX
  5
149
  8
DATA
  6
CONTINUOUS
 62
     7
 10
-12.307619958186461
 20
-187.71861761282301
 30
0.0
 70
    32
  0
VERTEX
  5
14A
  8
DATA
  6
CONTINUOUS
 62
     7
 10
-12.18761995818657
 20
-187.7086176128233
 30
0.0
 70
    32
  0
VERTEX
  5
14B
  8
DATA
  6
CONTINUOUS
 62
     7
 10
-12.077619958186901
 20
-187.698617612823
 30
0.0
 70
    32
  0
VERTEX
  5
14C
  8
DATA
  6
CONTINUOUS
 62
     7
 10
-11.96761995818723
 20
-187.68861761282329
 30
0.0
 70
    32
  0
VERTEX
  5
14D
  8
DATA
  6
CONTINUOUS
 62
     7
 10
-11.857619958186641
 20
-187.6786176128231
 30
0.0
 70
    32
  0
VERTEX
  5
14E
  8
DATA
  6
CONTINUOUS
 62
     7
 10
-11.73761995818675
 20
-187.66861761282331
 30
0.0
 70
    32
  0
VERTEX
  5
14F
  8
DATA
  6
CONTINUOUS
 62
     7
 10
-11.627619958187079
 20
-187.65861761282309
 30
0.0
 70
    32
  0
VERTEX
  5
150
  8
DATA
  6
CONTINUOUS
 62
     7
 10
-11.517619958186501
 20
-187.6486176128233
 30
0.0
 70
    32
  0
VERTEX
  5
151
  8
DATA
  6
CONTINUOUS
 62
     7
 10
-11.40761995818683
 20
-187.63861761282311
 30
0.0
 70
    32
  0
VERTEX
  5
152
  8
DATA
  6
CONTINUOUS
 62
     7
 10
-11.287619958186941
 20
-187.62861761282329
 30
0.0
 70
    32
  0
VERTEX
  5
153
  8
DATA
  6
CONTINUOUS
 62
     7
 10
-11.177619958187259
 20
-187.6186176128231
 30
0.0
 70
    32
  0
VERTEX
  5
154
  8
DATA
  6
CONTINUOUS
 62
     7
 10
-11.067619958186681
 20
-187.60861761282331
 30
0.0
 70
    32
  0
VERTEX
  5
155
  8
DATA
  6
CONTINUOUS
 62
     7
 10
-10.95761995818701
 20
-187.59861761282309
 30
0.0
 70
    32
  0
VERTEX
  5
156
  8
DATA
  6
CONTINUOUS
 62
     7
 10
-10.837619958187121
 20
-187.58861761282341
 30
0.0
 70
    32
  0
VERTEX
  5
157
  8
DATA
  6
CONTINUOUS
 62
     7
 10
-10.727619958186541
 20
-187.57861761282319
 30
0.0
 70
    32
  0
VERTEX
  5
158
  8
DATA
  6
CONTINUOUS
 62
     7
 10
-10.617619958186861
 20
-187.5686176128234
 30
0.0
 70
    32
  0
VERTEX
  5
159
  8
DATA
  6
CONTINUOUS
 62
     7
 10
-10.50761995818719
 20
-187.55861761282321
 30
0.0
 70
    32
  0
VERTEX
  5
15A
  8
DATA
  6
CONTINUOUS
 62
     7
 10
-10.38761995818639
 20
-187.54861761282339
 30
0.0
 70
    32
  0
VERTEX
  5
15B
  8
DATA
  6
CONTINUOUS
 62
     7
 10
-10.277619958186721
 20
-187.53861761282309
 30
0.0
 70
    32
  0
VERTEX
  5
15C
  8
DATA
  6
CONTINUOUS
 62
     7
 10
-10.16761995818705
 20
-187.52861761282341
 30
0.0
 70
    32
  0
VERTEX
  5
15D
  8
DATA
  6
CONTINUOUS
 62
     7
 10
-10.057619958186461
 20
-187.51861761282319
 30
0.0
 70
    32
  0
VERTEX
  5
15E
  8
DATA
  6
CONTINUOUS
 62
     7
 10
-9.9376199581865734
 20
-187.5086176128234
 30
0.0
 70
    32
  0
VERTEX
  5
15F
  8
DATA
  6
CONTINUOUS
 62
     7
 10
-9.827619958186899
 20
-187.48861761282299
 30
0.0
 70
    32
  0
VERTEX
  5
160
  8
DATA
  6
CONTINUOUS
 62
     7
 10
-9.7176199581872282
 20
-187.47861761282331
 30
0.0
 70
    32
  0
VERTEX
  5
161
  8
DATA
  6
CONTINUOUS
 62
     7
 10
-9.6076199581866462
 20
-187.46861761282301
 30
0.0
 70
    32
  0
VERTEX
  5
162
  8
DATA
  6
CONTINUOUS
 62
     7
 10
-9.4876199581867553
 20
-187.4586176128233
 30
0.0
 70
    32
  0
VERTEX
  5
163
  8
DATA
  6
CONTINUOUS
 62
     7
 10
-9.3776199581870792
 20
-187.448617612823
 30
0.0
 70
    32
  0
VERTEX
  5
164
  8
DATA
  6
CONTINUOUS
 62
     7
 10
-9.2676199581864989
 20
-187.43861761282329
 30
0.0
 70
    32
  0
VERTEX
  5
165
  8
DATA
  6
CONTINUOUS
 62
     7
 10
-9.1576199581868281
 20
-187.4286176128231
 30
0.0
 70
    32
  0
VERTEX
  5
166
  8
DATA
  6
CONTINUOUS
 62
     7
 10
-9.0376199581869354
 20
-187.40861761282309
 30
0.0
 70
    32
  0
VERTEX
  5
167
  8
DATA
  6
CONTINUOUS
 62
     7
 10
-8.9276199581872646
 20
-187.3986176128233
 30
0.0
 70
    32
  0
VERTEX
  5
168
  8
DATA
  6
CONTINUOUS
 62
     7
 10
-8.8176199581866808
 20
-187.38861761282311
 30
0.0
 70
    32
  0
VERTEX
  5
169
  8
DATA
  6
CONTINUOUS
 62
     7
 10
-8.7076199581870082
 20
-187.37861761282329
 30
0.0
 70
    32
  0
VERTEX
  5
16A
  8
DATA
  6
CONTINUOUS
 62
     7
 10
-8.5876199581871191
 20
-187.3686176128231
 30
0.0
 70
    32
  0
VERTEX
  5
16B
  8
DATA
  6
CONTINUOUS
 62
     7
 10
-8.477619958186537
 20
-187.34861761282309
 30
0.0
 70
    32
  0
VERTEX
  5
16C
  8
DATA
  6
CONTINUOUS
 62
     7
 10
-8.3676199581868644
 20
-187.3386176128233
 30
0.0
 70
    32
  0
VERTEX
  5
16D
  8
DATA
  6
CONTINUOUS
 62
     7
 10
-8.2576199581871919
 20
-187.32861761282319
 30
0.0
 70
    32
  0
VERTEX
  5
16E
  8
DATA
  6
CONTINUOUS
 62
     7
 10
-8.1376199581863897
 20
-187.3186176128234
 30
0.0
 70
    32
  0
VERTEX
  5
16F
  8
DATA
  6
CONTINUOUS
 62
     7
 10
-8.0276199581867207
 20
-187.3086176128231
 30
0.0
 70
    32
  0
VERTEX
  5
170
  8
DATA
  6
CONTINUOUS
 62
     7
 10
-7.9176199581870463
 20
-187.2886176128232
 30
0.0
 70
    32
  0
VERTEX
  5
171
  8
DATA
  6
CONTINUOUS
 62
     7
 10
-7.8076199581864643
 20
-187.27861761282341
 30
0.0
 70
    32
  0
VERTEX
  5
172
  8
DATA
  6
CONTINUOUS
 62
     7
 10
-7.6876199581865716
 20
-187.26861761282319
 30
0.0
 70
    32
  0
VERTEX
  5
173
  8
DATA
  6
CONTINUOUS
 62
     7
 10
-7.577619958186899
 20
-187.2486176128233
 30
0.0
 70
    32
  0
VERTEX
  5
174
  8
DATA
  6
CONTINUOUS
 62
     7
 10
-7.4676199581872291
 20
-187.23861761282299
 30
0.0
 70
    32
  0
VERTEX
  5
175
  8
DATA
  6
CONTINUOUS
 62
     7
 10
-7.3576199581866462
 20
-187.2286176128232
 30
0.0
 70
    32
  0
VERTEX
  5
176
  8
DATA
  6
CONTINUOUS
 62
     7
 10
-7.2376199581867553
 20
-187.2086176128233
 30
0.0
 70
    32
  0
VERTEX
  5
177
  8
DATA
  6
CONTINUOUS
 62
     7
 10
-7.1276199581870818
 20
-187.198617612823
 30
0.0
 70
    32
  0
VERTEX
  5
178
  8
DATA
  6
CONTINUOUS
 62
     7
 10
-7.0176199581864998
 20
-187.18861761282329
 30
0.0
 70
    32
  0
VERTEX
  5
179
  8
DATA
  6
CONTINUOUS
 62
     7
 10
-6.9076199581868281
 20
-187.16861761282331
 30
0.0
 70
    32
  0
VERTEX
  5
17A
  8
DATA
  6
CONTINUOUS
 62
     7
 10
-6.7876199581869372
 20
-187.15861761282309
 30
0.0
 70
    32
  0
VERTEX
  5
17B
  8
DATA
  6
CONTINUOUS
 62
     7
 10
-6.6776199581872637
 20
-187.1486176128233
 30
0.0
 70
    32
  0
VERTEX
  5
17C
  8
DATA
  6
CONTINUOUS
 62
     7
 10
-6.5676199581866817
 20
-187.12861761282329
 30
0.0
 70
    32
  0
VERTEX
  5
17D
  8
DATA
  6
CONTINUOUS
 62
     7
 10
-6.4576199581870091
 20
-187.1186176128231
 30
0.0
 70
    32
  0
VERTEX
  5
17E
  8
DATA
  6
CONTINUOUS
 62
     7
 10
-6.3376199581871191
 20
-187.10861761282331
 30
0.0
 70
    32
  0
VERTEX
  5
17F
  8
DATA
  6
CONTINUOUS
 62
     7
 10
-6.227619958186537
 20
-187.08861761282341
 30
0.0
 70
    32
  0
VERTEX
  5
180
  8
DATA
  6
CONTINUOUS
 62
     7
 10
-6.1176199581868644
 20
-187.07861761282319
 30
0.0
 70
    32
  0
VERTEX
  5
181
  8
DATA
  6
CONTINUOUS
 62
     7
 10
-6.007619958187191
 20
-187.05861761282321
 30
0.0
 70
    32
  0
VERTEX
  5
182
  8
DATA
  6
CONTINUOUS
 62
     7
 10
-5.8876199581863924
 20
-187.04861761282339
 30
0.0
 70
    32
  0
VERTEX
  5
183
  8
DATA
  6
CONTINUOUS
 62
     7
 10
-5.777619958186718
 20
-187.02861761282341
 30
0.0
 70
    32
  0
VERTEX
  5
184
  8
DATA
  6
CONTINUOUS
 62
     7
 10
-5.6676199581870463
 20
-187.01861761282319
 30
0.0
 70
    32
  0
VERTEX
  5
185
  8
DATA
  6
CONTINUOUS
 62
     7
 10
-5.5576199581864643
 20
-186.99861761282321
 30
0.0
 70
    32
  0
VERTEX
  5
186
  8
DATA
  6
CONTINUOUS
 62
     7
 10
-5.4376199581865716
 20
-186.98861761282299
 30
0.0
 70
    32
  0
VERTEX
  5
187
  8
DATA
  6
CONTINUOUS
 62
     7
 10
-5.3276199581868999
 20
-186.97861761282331
 30
0.0
 70
    32
  0
VERTEX
  5
188
  8
DATA
  6
CONTINUOUS
 62
     7
 10
-5.2176199581872282
 20
-186.9586176128233
 30
0.0
 70
    32
  0
VERTEX
  5
189
  8
DATA
  6
CONTINUOUS
 62
     7
 10
-5.1076199581866462
 20
-186.93861761282329
 30
0.0
 70
    32
  0
VERTEX
  5
18A
  8
DATA
  6
CONTINUOUS
 62
     7
 10
-4.9876199581867553
 20
-186.9286176128231
 30
0.0
 70
    32
  0
VERTEX
  5
18B
  8
DATA
  6
CONTINUOUS
 62
     7
 10
-4.8776199581870818
 20
-186.90861761282309
 30
0.0
 70
    32
  0
VERTEX
  5
18C
  8
DATA
  6
CONTINUOUS
 62
     7
 10
-4.7676199581864998
 20
-186.8986176128233
 30
0.0
 70
    32
  0
VERTEX
  5
18D
  8
DATA
  6
CONTINUOUS
 62
     7
 10
-4.6576199581868281
 20
-186.87861761282329
 30
0.0
 70
    32
  0
VERTEX
  5
18E
  8
DATA
  6
CONTINUOUS
 62
     7
 10
-4.5376199581869372
 20
-186.8686176128231
 30
0.0
 70
    32
  0
VERTEX
  5
18F
  8
DATA
  6
CONTINUOUS
 62
     7
 10
-4.4276199581872637
 20
-186.84861761282309
 30
0.0
 70
    32
  0
VERTEX
  5
190
  8
DATA
  6
CONTINUOUS
 62
     7
 10
-4.3176199581866817
 20
-186.83861761282341
 30
0.0
 70
    32
  0
VERTEX
  5
191
  8
DATA
  6
CONTINUOUS
 62
     7
 10
-4.2076199581870091
 20
-186.8186176128234
 30
0.0
 70
    32
  0
VERTEX
  5
192
  8
DATA
  6
CONTINUOUS
 62
     7
 10
-4.0876199581871191
 20
-186.80861761282321
 30
0.0
 70
    32
  0
VERTEX
  5
193
  8
DATA
  6
CONTINUOUS
 62
     7
 10
-3.977619958186537
 20
-186.7886176128232
 30
0.0
 70
    32
  0
VERTEX
  5
194
  8
DATA
  6
CONTINUOUS
 62
     7
 10
-3.867619958186864
 20
-186.76861761282319
 30
0.0
 70
    32
  0
VERTEX
  5
195
  8
DATA
  6
CONTINUOUS
 62
     7
 10
-3.757619958187191
 20
-186.7586176128234
 30
0.0
 70
    32
  0
VERTEX
  5
196
  8
DATA
  6
CONTINUOUS
 62
     7
 10
-3.6376199581863911
 20
-186.73861761282299
 30
0.0
 70
    32
  0
VERTEX
  5
197
  8
DATA
  6
CONTINUOUS
 62
     7
 10
-3.527619958186718
 20
-186.71861761282301
 30
0.0
 70
    32
  0
VERTEX
  5
198
  8
DATA
  6
CONTINUOUS
 62
     7
 10
-3.4176199581870459
 20
-186.7086176128233
 30
0.0
 70
    32
  0
VERTEX
  5
199
  8
DATA
  6
CONTINUOUS
 62
     7
 10
-3.3076199581864638
 20
-186.68861761282329
 30
0.0
 70
    32
  0
VERTEX
  5
19A
  8
DATA
  6
CONTINUOUS
 62
     7
 10
-3.187619958186573
 20
-186.66861761282331
 30
0.0
 70
    32
  0
VERTEX
  5
19B
  8
DATA
  6
CONTINUOUS
 62
     7
 10
-3.0776199581868999
 20
-186.65861761282309
 30
0.0
 70
    32
  0
VERTEX
  5
19C
  8
DATA
  6
CONTINUOUS
 62
     7
 10
-2.9676199581872269
 20
-186.63861761282311
 30
0.0
 70
    32
  0
VERTEX
  5
19D
  8
DATA
  6
CONTINUOUS
 62
     7
 10
-2.8576199581866462
 20
-186.6186176128231
 30
0.0
 70
    32
  0
VERTEX
  5
19E
  8
DATA
  6
CONTINUOUS
 62
     7
 10
-2.7376199581867549
 20
-186.60861761282331
 30
0.0
 70
    32
  0
VERTEX
  5
19F
  8
DATA
  6
CONTINUOUS
 62
     7
 10
-2.6276199581870818
 20
-186.58861761282341
 30
0.0
 70
    32
  0
VERTEX
  5
1A0
  8
DATA
  6
CONTINUOUS
 62
     7
 10
-2.5176199581865002
 20
-186.5686176128234
 30
0.0
 70
    32
  0
VERTEX
  5
1A1
  8
DATA
  6
CONTINUOUS
 62
     7
 10
-2.4076199581868281
 20
-186.54861761282339
 30
0.0
 70
    32
  0
VERTEX
  5
1A2
  8
DATA
  6
CONTINUOUS
 62
     7
 10
-2.2876199581869359
 20
-186.53861761282309
 30
0.0
 70
    32
  0
VERTEX
  5
1A3
  8
DATA
  6
CONTINUOUS
 62
     7
 10
-2.1776199581872642
 20
-186.51861761282319
 30
0.0
 70
    32
  0
VERTEX
  5
1A4
  8
DATA
  6
CONTINUOUS
 62
     7
 10
-2.0676199581866821
 20
-186.49861761282321
 30
0.0
 70
    32
  0
VERTEX
  5
1A5
  8
DATA
  6
CONTINUOUS
 62
     7
 10
-1.9576199581870091
 20
-186.47861761282331
 30
0.0
 70
    32
  0
VERTEX
  5
1A6
  8
DATA
  6
CONTINUOUS
 62
     7
 10
-1.8476199581864281
 20
-186.46861761282301
 30
0.0
 70
    32
  0
VERTEX
  5
1A7
  8
DATA
  6
CONTINUOUS
 62
     7
 10
-1.7276199581865359
 20
-186.448617612823
 30
0.0
 70
    32
  0
VERTEX
  5
1A8
  8
DATA
  6
CONTINUOUS
 62
     7
 10
-1.617619958186864
 20
-186.4286176128231
 30
0.0
 70
    32
  0
VERTEX
  5
1A9
  8
DATA
  6
CONTINUOUS
 62
     7
 10
-1.5076199581871921
 20
-186.40861761282309
 30
0.0
 70
    32
  0
VERTEX
  5
1AA
  8
DATA
  6
CONTINUOUS
 62
     7
 10
-1.3976199581866089
 20
-186.38861761282311
 30
0.0
 70
    32
  0
VERTEX
  5
1AB
  8
DATA
  6
CONTINUOUS
 62
     7
 10
-1.277619958186718
 20
-186.37861761282329
 30
0.0
 70
    32
  0
VERTEX
  5
1AC
  8
DATA
  6
CONTINUOUS
 62
     7
 10
-1.1676199581870459
 20
-186.35861761282331
 30
0.0
 70
    32
  0
VERTEX
  5
1AD
  8
DATA
  6
CONTINUOUS
 62
     7
 10
-1.057619958186464
 20
-186.33861761282341
 30
0.0
 70
    32
  0
VERTEX
  5
1AE
  8
DATA
  6
CONTINUOUS
 62
     7
 10
-0.9476199581867915
 20
-186.3186176128234
 30
0.0
 70
    32
  0
VERTEX
  5
1AF
  8
DATA
  6
CONTINUOUS
 62
     7
 10
-0.8276199581869008
 20
-186.29861761282339
 30
0.0
 70
    32
  0
VERTEX
  5
1B0
  8
DATA
  6
CONTINUOUS
 62
     7
 10
-0.7176199581872284
 20
-186.27861761282341
 30
0.0
 70
    32
  0
VERTEX
  5
1B1
  8
DATA
  6
CONTINUOUS
 62
     7
 10
-0.6076199581866462
 20
-186.2586176128234
 30
0.0
 70
    32
  0
VERTEX
  5
1B2
  8
DATA
  6
CONTINUOUS
 62
     7
 10
-0.4976199581869736
 20
-186.23861761282299
 30
0.0
 70
    32
  0
VERTEX
  5
1B3
  8
DATA
  6
CONTINUOUS
 62
     7
 10
-0.3776199581870827
 20
-186.22861761282331
 30
0.0
 70
    32
  0
VERTEX
  5
1B4
  8
DATA
  6
CONTINUOUS
 62
     7
 10
-0.2676199581865006
 20
-186.2086176128233
 30
0.0
 70
    32
  0
VERTEX
  5
1B5
  8
DATA
  6
CONTINUOUS
 62
     7
 10
-0.1576199581868281
 20
-186.18861761282329
 30
0.0
 70
    32
  0
VERTEX
  5
1B6
  8
DATA
  6
CONTINUOUS
 62
     7
 10
-0.0476199581871555
 20
-186.1686176128232
 30
0.0
 70
    32
  0
VERTEX
  5
1B7
  8
DATA
  6
CONTINUOUS
 62
     7
 10
0.0723800418127354
 20
-186.1486176128233
 30
0.0
 70
    32
  0
VERTEX
  5
1B8
  8
DATA
  6
CONTINUOUS
 62
     7
 10
0.1823800418133175
 20
-186.12861761282329
 30
0.0
 70
    32
  0
VERTEX
  5
1B9
  8
DATA
  6
CONTINUOUS
 62
     7
 10
0.29238004181299
 20
-186.10861761282339
 30
0.0
 70
    32
  0
VERTEX
  5
1BA
  8
DATA
  6
CONTINUOUS
 62
     7
 10
0.4023800418135722
 20
-186.08861761282341
 30
0.0
 70
    32
  0
VERTEX
  5
1BB
  8
DATA
  6
CONTINUOUS
 62
     7
 10
0.522380041813463
 20
-186.0686176128234
 30
0.0
 70
    32
  0
VERTEX
  5
1BC
  8
DATA
  6
CONTINUOUS
 62
     7
 10
0.6323800418131356
 20
-186.04861761282339
 30
0.0
 70
    32
  0
VERTEX
  5
1BD
  8
DATA
  6
CONTINUOUS
 62
     7
 10
0.7423800418128081
 20
-186.02861761282341
 30
0.0
 70
    32
  0
VERTEX
  5
1BE
  8
DATA
  6
CONTINUOUS
 62
     7
 10
0.8523800418133902
 20
-186.0086176128234
 30
0.0
 70
    32
  0
VERTEX
  5
1BF
  8
DATA
  6
CONTINUOUS
 62
     7
 10
0.9623800418130628
 20
-185.98861761282299
 30
0.0
 70
    32
  0
VERTEX
  5
1C0
  8
DATA
  6
CONTINUOUS
 62
     7
 10
1.082380041812953
 20
-185.96861761282301
 30
0.0
 70
    32
  0
VERTEX
  5
1C1
  8
DATA
  6
CONTINUOUS
 62
     7
 10
1.1923800418135351
 20
-185.948617612823
 30
0.0
 70
    32
  0
VERTEX
  5
1C2
  8
DATA
  6
CONTINUOUS
 62
     7
 10
1.3023800418132081
 20
-185.9286176128231
 30
0.0
 70
    32
  0
VERTEX
  5
1C3
  8
DATA
  6
CONTINUOUS
 62
     7
 10
1.41238004181288
 20
-185.90861761282309
 30
0.0
 70
    32
  0
VERTEX
  5
1C4
  8
DATA
  6
CONTINUOUS
 62
     7
 10
1.5323800418127711
 20
-185.88861761282311
 30
0.0
 70
    32
  0
VERTEX
  5
1C5
  8
DATA
  6
CONTINUOUS
 62
     7
 10
1.642380041813353
 20
-185.85861761282331
 30
0.0
 70
    32
  0
VERTEX
  5
1C6
  8
DATA
  6
CONTINUOUS
 62
     7
 10
1.752380041813026
 20
-185.83861761282341
 30
0.0
 70
    32
  0
VERTEX
  5
1C7
  8
DATA
  6
CONTINUOUS
 62
     7
 10
1.8623800418136081
 20
-185.8186176128234
 30
0.0
 70
    32
  0
VERTEX
  5
1C8
  8
DATA
  6
CONTINUOUS
 62
     7
 10
1.9823800418134989
 20
-185.79861761282339
 30
0.0
 70
    32
  0
VERTEX
  5
1C9
  8
DATA
  6
CONTINUOUS
 62
     7
 10
2.0923800418131711
 20
-185.77861761282341
 30
0.0
 70
    32
  0
VERTEX
  5
1CA
  8
DATA
  6
CONTINUOUS
 62
     7
 10
2.2023800418128441
 20
-185.7586176128234
 30
0.0
 70
    32
  0
VERTEX
  5
1CB
  8
DATA
  6
CONTINUOUS
 62
     7
 10
2.3123800418134262
 20
-185.73861761282299
 30
0.0
 70
    32
  0
VERTEX
  5
1CC
  8
DATA
  6
CONTINUOUS
 62
     7
 10
2.4223800418130992
 20
-185.71861761282301
 30
0.0
 70
    32
  0
VERTEX
  5
1CD
  8
DATA
  6
CONTINUOUS
 62
     7
 10
2.54238004181299
 20
-185.68861761282329
 30
0.0
 70
    32
  0
VERTEX
  5
1CE
  8
DATA
  6
CONTINUOUS
 62
     7
 10
2.6523800418135721
 20
-185.66861761282331
 30
0.0
 70
    32
  0
VERTEX
  5
1CF
  8
DATA
  6
CONTINUOUS
 62
     7
 10
2.7623800418132438
 20
-185.6486176128233
 30
0.0
 70
    32
  0
VERTEX
  5
1D0
  8
DATA
  6
CONTINUOUS
 62
     7
 10
2.8723800418129168
 20
-185.62861761282329
 30
0.0
 70
    32
  0
VERTEX
  5
1D1
  8
DATA
  6
CONTINUOUS
 62
     7
 10
2.9823800418134989
 20
-185.60861761282331
 30
0.0
 70
    32
  0
VERTEX
  5
1D2
  8
DATA
  6
CONTINUOUS
 62
     7
 10
3.1023800418133902
 20
-185.57861761282319
 30
0.0
 70
    32
  0
VERTEX
  5
1D3
  8
DATA
  6
CONTINUOUS
 62
     7
 10
3.2123800418130619
 20
-185.55861761282321
 30
0.0
 70
    32
  0
VERTEX
  5
1D4
  8
DATA
  6
CONTINUOUS
 62
     7
 10
3.3223800418127349
 20
-185.5386176128232
 30
0.0
 70
    32
  0
VERTEX
  5
1D5
  8
DATA
  6
CONTINUOUS
 62
     7
 10
3.432380041813317
 20
-185.51861761282319
 30
0.0
 70
    32
  0
VERTEX
  5
1D6
  8
DATA
  6
CONTINUOUS
 62
     7
 10
3.54238004181299
 20
-185.48861761282299
 30
0.0
 70
    32
  0
VERTEX
  5
1D7
  8
DATA
  6
CONTINUOUS
 62
     7
 10
3.66238004181288
 20
-185.46861761282301
 30
0.0
 70
    32
  0
VERTEX
  5
1D8
  8
DATA
  6
CONTINUOUS
 62
     7
 10
3.7723800418134621
 20
-185.448617612823
 30
0.0
 70
    32
  0
VERTEX
  5
1D9
  8
DATA
  6
CONTINUOUS
 62
     7
 10
3.8823800418131351
 20
-185.4286176128231
 30
0.0
 70
    32
  0
VERTEX
  5
1DA
  8
DATA
  6
CONTINUOUS
 62
     7
 10
3.9923800418128081
 20
-185.3986176128233
 30
0.0
 70
    32
  0
VERTEX
  5
1DB
  8
DATA
  6
CONTINUOUS
 62
     7
 10
4.1023800418133902
 20
-185.37861761282329
 30
0.0
 70
    32
  0
VERTEX
  5
1DC
  8
DATA
  6
CONTINUOUS
 62
     7
 10
4.2223800418132811
 20
-185.35861761282331
 30
0.0
 70
    32
  0
VERTEX
  5
1DD
  8
DATA
  6
CONTINUOUS
 62
     7
 10
4.3323800418129528
 20
-185.32861761282319
 30
0.0
 70
    32
  0
VERTEX
  5
1DE
  8
DATA
  6
CONTINUOUS
 62
     7
 10
4.4423800418135349
 20
-185.30861761282321
 30
0.0
 70
    32
  0
VERTEX
  5
1DF
  8
DATA
  6
CONTINUOUS
 62
     7
 10
4.5523800418132083
 20
-185.28861761282309
 30
0.0
 70
    32
  0
VERTEX
  5
1E0
  8
DATA
  6
CONTINUOUS
 62
     7
 10
4.66238004181288
 20
-185.2586176128234
 30
0.0
 70
    32
  0
VERTEX
  5
1E1
  8
DATA
  6
CONTINUOUS
 62
     7
 10
4.7723800418134621
 20
-185.23861761282299
 30
0.0
 70
    32
  0
VERTEX
  5
1E2
  8
DATA
  6
CONTINUOUS
 62
     7
 10
4.892380041813353
 20
-185.21861761282301
 30
0.0
 70
    32
  0
VERTEX
  5
1E3
  8
DATA
  6
CONTINUOUS
 62
     7
 10
5.0023800418130246
 20
-185.18861761282329
 30
0.0
 70
    32
  0
VERTEX
  5
1E4
  8
DATA
  6
CONTINUOUS
 62
     7
 10
5.1123800418136076
 20
-185.16861761282331
 30
0.0
 70
    32
  0
VERTEX
  5
1E5
  8
DATA
  6
CONTINUOUS
 62
     7
 10
5.2223800418132811
 20
-185.1486176128233
 30
0.0
 70
    32
  0
VERTEX
  5
1E6
  8
DATA
  6
CONTINUOUS
 62
     7
 10
5.3323800418129528
 20
-185.1186176128231
 30
0.0
 70
    32
  0
VERTEX
  5
1E7
  8
DATA
  6
CONTINUOUS
 62
     7
 10
5.4423800418135349
 20
-185.09861761282309
 30
0.0
 70
    32
  0
VERTEX
  5
1E8
  8
DATA
  6
CONTINUOUS
 62
     7
 10
5.5623800418134257
 20
-185.0686176128234
 30
0.0
 70
    32
  0
VERTEX
  5
1E9
  8
DATA
  6
CONTINUOUS
 62
     7
 10
5.6723800418130992
 20
-185.04861761282339
 30
0.0
 70
    32
  0
VERTEX
  5
1EA
  8
DATA
  6
CONTINUOUS
 62
     7
 10
5.7823800418127709
 20
-185.01861761282319
 30
0.0
 70
    32
  0
VERTEX
  5
1EB
  8
DATA
  6
CONTINUOUS
 62
     7
 10
5.892380041813353
 20
-184.9986176128233
 30
0.0
 70
    32
  0
VERTEX
  5
1EC
  8
DATA
  6
CONTINUOUS
 62
     7
 10
6.0023800418130246
 20
-184.9786176128232
 30
0.0
 70
    32
  0
VERTEX
  5
1ED
  8
DATA
  6
CONTINUOUS
 62
     7
 10
6.1123800418136076
 20
-184.948617612823
 30
0.0
 70
    32
  0
VERTEX
  5
1EE
  8
DATA
  6
CONTINUOUS
 62
     7
 10
6.2223800418132811
 20
-184.9286176128231
 30
0.0
 70
    32
  0
VERTEX
  5
1EF
  8
DATA
  6
CONTINUOUS
 62
     7
 10
6.3423800418131711
 20
-184.8986176128233
 30
0.0
 70
    32
  0
VERTEX
  5
1F0
  8
DATA
  6
CONTINUOUS
 62
     7
 10
6.4523800418128436
 20
-184.87861761282329
 30
0.0
 70
    32
  0
VERTEX
  5
1F1
  8
DATA
  6
CONTINUOUS
 62
     7
 10
6.5623800418134257
 20
-184.84861761282309
 30
0.0
 70
    32
  0
VERTEX
  5
1F2
  8
DATA
  6
CONTINUOUS
 62
     7
 10
6.6723800418130992
 20
-184.82861761282319
 30
0.0
 70
    32
  0
VERTEX
  5
1F3
  8
DATA
  6
CONTINUOUS
 62
     7
 10
6.7823800418127709
 20
-184.79861761282339
 30
0.0
 70
    32
  0
VERTEX
  5
1F4
  8
DATA
  6
CONTINUOUS
 62
     7
 10
6.892380041813353
 20
-184.77861761282341
 30
0.0
 70
    32
  0
VERTEX
  5
1F5
  8
DATA
  6
CONTINUOUS
 62
     7
 10
7.0023800418130246
 20
-184.74861761282321
 30
0.0
 70
    32
  0
VERTEX
  5
1F6
  8
DATA
  6
CONTINUOUS
 62
     7
 10
7.1223800418129164
 20
-184.71861761282301
 30
0.0
 70
    32
  0
VERTEX
  5
1F7
  8
DATA
  6
CONTINUOUS
 62
     7
 10
7.2323800418134994
 20
-184.698617612823
 30
0.0
 70
    32
  0
VERTEX
  5
1F8
  8
DATA
  6
CONTINUOUS
 62
     7
 10
7.3423800418131719
 20
-184.66861761282331
 30
0.0
 70
    32
  0
VERTEX
  5
1F9
  8
DATA
  6
CONTINUOUS
 62
     7
 10
7.4523800418128436
 20
-184.6486176128233
 30
0.0
 70
    32
  0
VERTEX
  5
1FA
  8
DATA
  6
CONTINUOUS
 62
     7
 10
7.5623800418134248
 20
-184.6186176128231
 30
0.0
 70
    32
  0
VERTEX
  5
1FB
  8
DATA
  6
CONTINUOUS
 62
     7
 10
7.6723800418130992
 20
-184.59861761282309
 30
0.0
 70
    32
  0
VERTEX
  5
1FC
  8
DATA
  6
CONTINUOUS
 62
     7
 10
7.78238004181277
 20
-184.5686176128234
 30
0.0
 70
    32
  0
VERTEX
  5
1FD
  8
DATA
  6
CONTINUOUS
 62
     7
 10
7.892380041813353
 20
-184.53861761282309
 30
0.0
 70
    32
  0
VERTEX
  5
1FE
  8
DATA
  6
CONTINUOUS
 62
     7
 10
8.0023800418130264
 20
-184.51861761282319
 30
0.0
 70
    32
  0
VERTEX
  5
1FF
  8
DATA
  6
CONTINUOUS
 62
     7
 10
8.1223800418129173
 20
-184.48861761282299
 30
0.0
 70
    32
  0
VERTEX
  5
200
  8
DATA
  6
CONTINUOUS
 62
     7
 10
8.2323800418134994
 20
-184.4586176128233
 30
0.0
 70
    32
  0
VERTEX
  5
201
  8
DATA
  6
CONTINUOUS
 62
     7
 10
8.3423800418131702
 20
-184.43861761282329
 30
0.0
 70
    32
  0
VERTEX
  5
202
  8
DATA
  6
CONTINUOUS
 62
     7
 10
8.4523800418128445
 20
-184.40861761282309
 30
0.0
 70
    32
  0
VERTEX
  5
203
  8
DATA
  6
CONTINUOUS
 62
     7
 10
8.5623800418134248
 20
-184.37861761282329
 30
0.0
 70
    32
  0
VERTEX
  5
204
  8
DATA
  6
CONTINUOUS
 62
     7
 10
8.6723800418130992
 20
-184.35861761282331
 30
0.0
 70
    32
  0
VERTEX
  5
205
  8
DATA
  6
CONTINUOUS
 62
     7
 10
8.7823800418127718
 20
-184.32861761282319
 30
0.0
 70
    32
  0
VERTEX
  5
206
  8
DATA
  6
CONTINUOUS
 62
     7
 10
8.8923800418133538
 20
-184.29861761282339
 30
0.0
 70
    32
  0
VERTEX
  5
207
  8
DATA
  6
CONTINUOUS
 62
     7
 10
9.0023800418130264
 20
-184.27861761282341
 30
0.0
 70
    32
  0
VERTEX
  5
208
  8
DATA
  6
CONTINUOUS
 62
     7
 10
9.1123800418136085
 20
-184.24861761282321
 30
0.0
 70
    32
  0
VERTEX
  5
209
  8
DATA
  6
CONTINUOUS
 62
     7
 10
9.2323800418135011
 20
-184.21861761282301
 30
0.0
 70
    32
  0
VERTEX
  5
20A
  8
DATA
  6
CONTINUOUS
 62
     7
 10
9.3423800418131702
 20
-184.18861761282329
 30
0.0
 70
    32
  0
VERTEX
  5
20B
  8
DATA
  6
CONTINUOUS
 62
     7
 10
9.4523800418128445
 20
-184.16861761282331
 30
0.0
 70
    32
  0
VERTEX
  5
20C
  8
DATA
  6
CONTINUOUS
 62
     7
 10
9.5623800418134248
 20
-184.13861761282311
 30
0.0
 70
    32
  0
VERTEX
  5
20D
  8
DATA
  6
CONTINUOUS
 62
     7
 10
9.6723800418130992
 20
-184.10861761282339
 30
0.0
 70
    32
  0
VERTEX
  5
20E
  8
DATA
  6
CONTINUOUS
 62
     7
 10
9.7823800418127718
 20
-184.07861761282319
 30
0.0
 70
    32
  0
VERTEX
  5
20F
  8
DATA
  6
CONTINUOUS
 62
     7
 10
9.8923800418133538
 20
-184.05861761282321
 30
0.0
 70
    32
  0
VERTEX
  5
210
  8
DATA
  6
CONTINUOUS
 62
     7
 10
10.002380041813019
 20
-184.02861761282341
 30
0.0
 70
    32
  0
VERTEX
  5
211
  8
DATA
  6
CONTINUOUS
 62
     7
 10
10.1123800418136
 20
-183.9986176128233
 30
0.0
 70
    32
  0
VERTEX
  5
212
  8
DATA
  6
CONTINUOUS
 62
     7
 10
10.222380041813279
 20
-183.96861761282301
 30
0.0
 70
    32
  0
VERTEX
  5
213
  8
DATA
  6
CONTINUOUS
 62
     7
 10
10.33238004181295
 20
-183.93861761282329
 30
0.0
 70
    32
  0
VERTEX
  5
214
  8
DATA
  6
CONTINUOUS
 62
     7
 10
10.44238004181353
 20
-183.90861761282309
 30
0.0
 70
    32
  0
VERTEX
  5
215
  8
DATA
  6
CONTINUOUS
 62
     7
 10
10.552380041813199
 20
-183.88861761282311
 30
0.0
 70
    32
  0
VERTEX
  5
216
  8
DATA
  6
CONTINUOUS
 62
     7
 10
10.662380041812879
 20
-183.85861761282331
 30
0.0
 70
    32
  0
VERTEX
  5
217
  8
DATA
  6
CONTINUOUS
 62
     7
 10
10.78238004181277
 20
-183.82861761282319
 30
0.0
 70
    32
  0
VERTEX
  5
218
  8
DATA
  6
CONTINUOUS
 62
     7
 10
10.89238004181335
 20
-183.79861761282339
 30
0.0
 70
    32
  0
VERTEX
  5
219
  8
DATA
  6
CONTINUOUS
 62
     7
 10
11.002380041813019
 20
-183.76861761282319
 30
0.0
 70
    32
  0
VERTEX
  5
21A
  8
DATA
  6
CONTINUOUS
 62
     7
 10
11.1123800418136
 20
-183.73861761282299
 30
0.0
 70
    32
  0
VERTEX
  5
21B
  8
DATA
  6
CONTINUOUS
 62
     7
 10
11.222380041813279
 20
-183.7086176128233
 30
0.0
 70
    32
  0
VERTEX
  5
21C
  8
DATA
  6
CONTINUOUS
 62
     7
 10
11.33238004181295
 20
-183.6786176128231
 30
0.0
 70
    32
  0
VERTEX
  5
21D
  8
DATA
  6
CONTINUOUS
 62
     7
 10
11.44238004181353
 20
-183.6486176128233
 30
0.0
 70
    32
  0
VERTEX
  5
21E
  8
DATA
  6
CONTINUOUS
 62
     7
 10
11.552380041813199
 20
-183.6186176128231
 30
0.0
 70
    32
  0
VERTEX
  5
21F
  8
DATA
  6
CONTINUOUS
 62
     7
 10
11.662380041812879
 20
-183.59861761282309
 30
0.0
 70
    32
  0
VERTEX
  5
220
  8
DATA
  6
CONTINUOUS
 62
     7
 10
11.772380041813459
 20
-183.5686176128234
 30
0.0
 70
    32
  0
VERTEX
  5
221
  8
DATA
  6
CONTINUOUS
 62
     7
 10
11.88238004181313
 20
-183.53861761282309
 30
0.0
 70
    32
  0
VERTEX
  5
222
  8
DATA
  6
CONTINUOUS
 62
     7
 10
11.992380041812799
 20
-183.5086176128234
 30
0.0
 70
    32
  0
VERTEX
  5
223
  8
DATA
  6
CONTINUOUS
 62
     7
 10
12.10238004181339
 20
-183.47861761282331
 30
0.0
 70
    32
  0
VERTEX
  5
224
  8
DATA
  6
CONTINUOUS
 62
     7
 10
12.212380041813059
 20
-183.448617612823
 30
0.0
 70
    32
  0
VERTEX
  5
225
  8
DATA
  6
CONTINUOUS
 62
     7
 10
12.32238004181273
 20
-183.4186176128232
 30
0.0
 70
    32
  0
VERTEX
  5
226
  8
DATA
  6
CONTINUOUS
 62
     7
 10
12.43238004181331
 20
-183.38861761282311
 30
0.0
 70
    32
  0
VERTEX
  5
227
  8
DATA
  6
CONTINUOUS
 62
     7
 10
12.54238004181299
 20
-183.35861761282331
 30
0.0
 70
    32
  0
VERTEX
  5
228
  8
DATA
  6
CONTINUOUS
 62
     7
 10
12.65238004181357
 20
-183.32861761282319
 30
0.0
 70
    32
  0
VERTEX
  5
229
  8
DATA
  6
CONTINUOUS
 62
     7
 10
12.762380041813239
 20
-183.29861761282339
 30
0.0
 70
    32
  0
SEQEND
  5
22A
  8
DATA
  6
CONTINUOUS
 62
     7
  0
POLYLINE
  5
22B
  8
DATA
  6
CONTINUOUS
 62
     7
 66
     1
 10
0.0
 20
0.0
 30
0.0
 70
     8
  0
VERTEX
  5
22C
  8
DATA
  6
CONTINUOUS
 62
     7
 10
14.09238004181317
 20
-187.9586176128233
 30
0.0
 70
    32
  0
VERTEX
  5
22D
  8
DATA
  6
CONTINUOUS
 62
     7
 10
13.962380041813059
 20
-187.99861761282321
 30
0.0
 70
    32
  0
VERTEX
  5
22E
  8
DATA
  6
CONTINUOUS
 62
     7
 10
13.84238004181317
 20
-188.02861761282341
 30
0.0
 70
    32
  0
VERTEX
  5
22F
  8
DATA
  6
CONTINUOUS
 62
     7
 10
13.712380041813059
 20
-188.0686176128234
 30
0.0
 70
    32
  0
VERTEX
  5
230
  8
DATA
  6
CONTINUOUS
 62
     7
 10
13.58238004181295
 20
-188.10861761282331
 30
0.0
 70
    32
  0
VERTEX
  5
231
  8
DATA
  6
CONTINUOUS
 62
     7
 10
13.462380041813059
 20
-188.13861761282311
 30
0.0
 70
    32
  0
VERTEX
  5
232
  8
DATA
  6
CONTINUOUS
 62
     7
 10
13.33238004181295
 20
-188.1786176128231
 30
0.0
 70
    32
  0
VERTEX
  5
233
  8
DATA
  6
CONTINUOUS
 62
     7
 10
13.202380041812839
 20
-188.2086176128233
 30
0.0
 70
    32
  0
VERTEX
  5
234
  8
DATA
  6
CONTINUOUS
 62
     7
 10
13.08238004181295
 20
-188.24861761282321
 30
0.0
 70
    32
  0
VERTEX
  5
235
  8
DATA
  6
CONTINUOUS
 62
     7
 10
12.952380041812839
 20
-188.27861761282341
 30
0.0
 70
    32
  0
VERTEX
  5
236
  8
DATA
  6
CONTINUOUS
 62
     7
 10
12.82238004181273
 20
-188.3186176128234
 30
0.0
 70
    32
  0
VERTEX
  5
237
  8
DATA
  6
CONTINUOUS
 62
     7
 10
12.702380041812839
 20
-188.34861761282309
 30
0.0
 70
    32
  0
VERTEX
  5
238
  8
DATA
  6
CONTINUOUS
 62
     7
 10
12.57238004181273
 20
-188.38861761282311
 30
0.0
 70
    32
  0
VERTEX
  5
239
  8
DATA
  6
CONTINUOUS
 62
     7
 10
12.44238004181353
 20
-188.41861761282331
 30
0.0
 70
    32
  0
VERTEX
  5
23A
  8
DATA
  6
CONTINUOUS
 62
     7
 10
12.32238004181273
 20
-188.448617612823
 30
0.0
 70
    32
  0
VERTEX
  5
23B
  8
DATA
  6
CONTINUOUS
 62
     7
 10
12.19238004181353
 20
-188.48861761282299
 30
0.0
 70
    32
  0
VERTEX
  5
23C
  8
DATA
  6
CONTINUOUS
 62
     7
 10
12.06238004181343
 20
-188.51861761282319
 30
0.0
 70
    32
  0
VERTEX
  5
23D
  8
DATA
  6
CONTINUOUS
 62
     7
 10
11.94238004181353
 20
-188.55861761282321
 30
0.0
 70
    32
  0
VERTEX
  5
23E
  8
DATA
  6
CONTINUOUS
 62
     7
 10
11.81238004181343
 20
-188.58861761282341
 30
0.0
 70
    32
  0
VERTEX
  5
23F
  8
DATA
  6
CONTINUOUS
 62
     7
 10
11.68238004181331
 20
-188.6186176128231
 30
0.0
 70
    32
  0
VERTEX
  5
240
  8
DATA
  6
CONTINUOUS
 62
     7
 10
11.56238004181343
 20
-188.65861761282309
 30
0.0
 70
    32
  0
VERTEX
  5
241
  8
DATA
  6
CONTINUOUS
 62
     7
 10
11.43238004181331
 20
-188.68861761282329
 30
0.0
 70
    32
  0
VERTEX
  5
242
  8
DATA
  6
CONTINUOUS
 62
     7
 10
11.302380041813199
 20
-188.71861761282301
 30
0.0
 70
    32
  0
VERTEX
  5
243
  8
DATA
  6
CONTINUOUS
 62
     7
 10
11.18238004181331
 20
-188.7586176128234
 30
0.0
 70
    32
  0
VERTEX
  5
244
  8
DATA
  6
CONTINUOUS
 62
     7
 10
11.05238004181321
 20
-188.78861761282309
 30
0.0
 70
    32
  0
VERTEX
  5
245
  8
DATA
  6
CONTINUOUS
 62
     7
 10
10.922380041813099
 20
-188.8186176128234
 30
0.0
 70
    32
  0
VERTEX
  5
246
  8
DATA
  6
CONTINUOUS
 62
     7
 10
10.79238004181299
 20
-188.85861761282331
 30
0.0
 70
    32
  0
VERTEX
  5
247
  8
DATA
  6
CONTINUOUS
 62
     7
 10
10.672380041813099
 20
-188.88861761282311
 30
0.0
 70
    32
  0
VERTEX
  5
248
  8
DATA
  6
CONTINUOUS
 62
     7
 10
10.54238004181299
 20
-188.91861761282331
 30
0.0
 70
    32
  0
VERTEX
  5
249
  8
DATA
  6
CONTINUOUS
 62
     7
 10
10.412380041812879
 20
-188.948617612823
 30
0.0
 70
    32
  0
VERTEX
  5
24A
  8
DATA
  6
CONTINUOUS
 62
     7
 10
10.29238004181299
 20
-188.98861761282299
 30
0.0
 70
    32
  0
VERTEX
  5
24B
  8
DATA
  6
CONTINUOUS
 62
     7
 10
10.162380041812879
 20
-189.01861761282319
 30
0.0
 70
    32
  0
VERTEX
  5
24C
  8
DATA
  6
CONTINUOUS
 62
     7
 10
10.03238004181277
 20
-189.04861761282339
 30
0.0
 70
    32
  0
VERTEX
  5
24D
  8
DATA
  6
CONTINUOUS
 62
     7
 10
9.9023800418135703
 20
-189.07861761282319
 30
0.0
 70
    32
  0
VERTEX
  5
24E
  8
DATA
  6
CONTINUOUS
 62
     7
 10
9.7823800418127718
 20
-189.10861761282331
 30
0.0
 70
    32
  0
VERTEX
  5
24F
  8
DATA
  6
CONTINUOUS
 62
     7
 10
9.6523800418135703
 20
-189.1486176128233
 30
0.0
 70
    32
  0
VERTEX
  5
250
  8
DATA
  6
CONTINUOUS
 62
     7
 10
9.5223800418134612
 20
-189.1786176128231
 30
0.0
 70
    32
  0
VERTEX
  5
251
  8
DATA
  6
CONTINUOUS
 62
     7
 10
9.3923800418133538
 20
-189.2086176128233
 30
0.0
 70
    32
  0
VERTEX
  5
252
  8
DATA
  6
CONTINUOUS
 62
     7
 10
9.2723800418134612
 20
-189.23861761282299
 30
0.0
 70
    32
  0
VERTEX
  5
253
  8
DATA
  6
CONTINUOUS
 62
     7
 10
9.1423800418133538
 20
-189.26861761282319
 30
0.0
 70
    32
  0
VERTEX
  5
254
  8
DATA
  6
CONTINUOUS
 62
     7
 10
9.0123800418132447
 20
-189.29861761282339
 30
0.0
 70
    32
  0
VERTEX
  5
255
  8
DATA
  6
CONTINUOUS
 62
     7
 10
8.8823800418131338
 20
-189.32861761282319
 30
0.0
 70
    32
  0
VERTEX
  5
256
  8
DATA
  6
CONTINUOUS
 62
     7
 10
8.7623800418132447
 20
-189.35861761282331
 30
0.0
 70
    32
  0
VERTEX
  5
257
  8
DATA
  6
CONTINUOUS
 62
     7
 10
8.6323800418131338
 20
-189.38861761282311
 30
0.0
 70
    32
  0
VERTEX
  5
258
  8
DATA
  6
CONTINUOUS
 62
     7
 10
8.5023800418130264
 20
-189.41861761282331
 30
0.0
 70
    32
  0
VERTEX
  5
259
  8
DATA
  6
CONTINUOUS
 62
     7
 10
8.3723800418129173
 20
-189.4586176128233
 30
0.0
 70
    32
  0
VERTEX
  5
25A
  8
DATA
  6
CONTINUOUS
 62
     7
 10
8.2523800418130264
 20
-189.48861761282299
 30
0.0
 70
    32
  0
VERTEX
  5
25B
  8
DATA
  6
CONTINUOUS
 62
     7
 10
8.1223800418129173
 20
-189.51861761282319
 30
0.0
 70
    32
  0
VERTEX
  5
25C
  8
DATA
  6
CONTINUOUS
 62
     7
 10
7.9923800418128081
 20
-189.54861761282339
 30
0.0
 70
    32
  0
VERTEX
  5
25D
  8
DATA
  6
CONTINUOUS
 62
     7
 10
7.8623800418136067
 20
-189.57861761282319
 30
0.0
 70
    32
  0
VERTEX
  5
25E
  8
DATA
  6
CONTINUOUS
 62
     7
 10
7.7423800418128081
 20
-189.60861761282331
 30
0.0
 70
    32
  0
VERTEX
  5
25F
  8
DATA
  6
CONTINUOUS
 62
     7
 10
7.6123800418136067
 20
-189.63861761282311
 30
0.0
 70
    32
  0
VERTEX
  5
260
  8
DATA
  6
CONTINUOUS
 62
     7
 10
7.4823800418134994
 20
-189.65861761282309
 30
0.0
 70
    32
  0
VERTEX
  5
261
  8
DATA
  6
CONTINUOUS
 62
     7
 10
7.3523800418133902
 20
-189.68861761282329
 30
0.0
 70
    32
  0
VERTEX
  5
262
  8
DATA
  6
CONTINUOUS
 62
     7
 10
7.2223800418132811
 20
-189.71861761282301
 30
0.0
 70
    32
  0
VERTEX
  5
263
  8
DATA
  6
CONTINUOUS
 62
     7
 10
7.1023800418133902
 20
-189.74861761282321
 30
0.0
 70
    32
  0
VERTEX
  5
264
  8
DATA
  6
CONTINUOUS
 62
     7
 10
6.9723800418132811
 20
-189.77861761282341
 30
0.0
 70
    32
  0
VERTEX
  5
265
  8
DATA
  6
CONTINUOUS
 62
     7
 10
6.8423800418131711
 20
-189.80861761282321
 30
0.0
 70
    32
  0
VERTEX
  5
266
  8
DATA
  6
CONTINUOUS
 62
     7
 10
6.7123800418130619
 20
-189.83861761282341
 30
0.0
 70
    32
  0
VERTEX
  5
267
  8
DATA
  6
CONTINUOUS
 62
     7
 10
6.5823800418129528
 20
-189.8686176128231
 30
0.0
 70
    32
  0
VERTEX
  5
268
  8
DATA
  6
CONTINUOUS
 62
     7
 10
6.4623800418130619
 20
-189.8986176128233
 30
0.0
 70
    32
  0
VERTEX
  5
269
  8
DATA
  6
CONTINUOUS
 62
     7
 10
6.3323800418129528
 20
-189.9286176128231
 30
0.0
 70
    32
  0
VERTEX
  5
26A
  8
DATA
  6
CONTINUOUS
 62
     7
 10
6.2023800418128436
 20
-189.948617612823
 30
0.0
 70
    32
  0
VERTEX
  5
26B
  8
DATA
  6
CONTINUOUS
 62
     7
 10
6.0723800418127363
 20
-189.9786176128232
 30
0.0
 70
    32
  0
VERTEX
  5
26C
  8
DATA
  6
CONTINUOUS
 62
     7
 10
5.9423800418135349
 20
-190.0086176128234
 30
0.0
 70
    32
  0
VERTEX
  5
26D
  8
DATA
  6
CONTINUOUS
 62
     7
 10
5.8223800418127363
 20
-190.03861761282309
 30
0.0
 70
    32
  0
VERTEX
  5
26E
  8
DATA
  6
CONTINUOUS
 62
     7
 10
5.6923800418135349
 20
-190.0686176128234
 30
0.0
 70
    32
  0
VERTEX
  5
26F
  8
DATA
  6
CONTINUOUS
 62
     7
 10
5.5623800418134257
 20
-190.0886176128233
 30
0.0
 70
    32
  0
VERTEX
  5
270
  8
DATA
  6
CONTINUOUS
 62
     7
 10
5.4323800418133166
 20
-190.1186176128231
 30
0.0
 70
    32
  0
VERTEX
  5
271
  8
DATA
  6
CONTINUOUS
 62
     7
 10
5.3023800418132083
 20
-190.1486176128233
 30
0.0
 70
    32
  0
VERTEX
  5
272
  8
DATA
  6
CONTINUOUS
 62
     7
 10
5.1723800418130992
 20
-190.1786176128231
 30
0.0
 70
    32
  0
VERTEX
  5
273
  8
DATA
  6
CONTINUOUS
 62
     7
 10
5.0523800418132083
 20
-190.198617612823
 30
0.0
 70
    32
  0
VERTEX
  5
274
  8
DATA
  6
CONTINUOUS
 62
     7
 10
4.9223800418130992
 20
-190.22861761282331
 30
0.0
 70
    32
  0
VERTEX
  5
275
  8
DATA
  6
CONTINUOUS
 62
     7
 10
4.79238004181299
 20
-190.2586176128234
 30
0.0
 70
    32
  0
VERTEX
  5
276
  8
DATA
  6
CONTINUOUS
 62
     7
 10
4.66238004181288
 20
-190.27861761282341
 30
0.0
 70
    32
  0
VERTEX
  5
277
  8
DATA
  6
CONTINUOUS
 62
     7
 10
4.5323800418127709
 20
-190.30861761282321
 30
0.0
 70
    32
  0
VERTEX
  5
278
  8
DATA
  6
CONTINUOUS
 62
     7
 10
4.4023800418135721
 20
-190.33861761282341
 30
0.0
 70
    32
  0
VERTEX
  5
279
  8
DATA
  6
CONTINUOUS
 62
     7
 10
4.2723800418134621
 20
-190.35861761282339
 30
0.0
 70
    32
  0
VERTEX
  5
27A
  8
DATA
  6
CONTINUOUS
 62
     7
 10
4.1523800418135721
 20
-190.38861761282311
 30
0.0
 70
    32
  0
VERTEX
  5
27B
  8
DATA
  6
CONTINUOUS
 62
     7
 10
4.0223800418134621
 20
-190.41861761282331
 30
0.0
 70
    32
  0
VERTEX
  5
27C
  8
DATA
  6
CONTINUOUS
 62
     7
 10
3.892380041813353
 20
-190.43861761282329
 30
0.0
 70
    32
  0
VERTEX
  5
27D
  8
DATA
  6
CONTINUOUS
 62
     7
 10
3.7623800418132438
 20
-190.46861761282301
 30
0.0
 70
    32
  0
VERTEX
  5
27E
  8
DATA
  6
CONTINUOUS
 62
     7
 10
3.632380041813136
 20
-190.48861761282299
 30
0.0
 70
    32
  0
VERTEX
  5
27F
  8
DATA
  6
CONTINUOUS
 62
     7
 10
3.502380041813026
 20
-190.51861761282319
 30
0.0
 70
    32
  0
VERTEX
  5
280
  8
DATA
  6
CONTINUOUS
 62
     7
 10
3.3723800418129168
 20
-190.54861761282339
 30
0.0
 70
    32
  0
VERTEX
  5
281
  8
DATA
  6
CONTINUOUS
 62
     7
 10
3.2423800418128081
 20
-190.5686176128234
 30
0.0
 70
    32
  0
VERTEX
  5
282
  8
DATA
  6
CONTINUOUS
 62
     7
 10
3.1223800418129168
 20
-190.59861761282309
 30
0.0
 70
    32
  0
VERTEX
  5
283
  8
DATA
  6
CONTINUOUS
 62
     7
 10
2.9923800418128081
 20
-190.6186176128231
 30
0.0
 70
    32
  0
VERTEX
  5
284
  8
DATA
  6
CONTINUOUS
 62
     7
 10
2.8623800418136081
 20
-190.6486176128233
 30
0.0
 70
    32
  0
VERTEX
  5
285
  8
DATA
  6
CONTINUOUS
 62
     7
 10
2.7323800418134989
 20
-190.6686176128232
 30
0.0
 70
    32
  0
VERTEX
  5
286
  8
DATA
  6
CONTINUOUS
 62
     7
 10
2.6023800418133902
 20
-190.698617612823
 30
0.0
 70
    32
  0
VERTEX
  5
287
  8
DATA
  6
CONTINUOUS
 62
     7
 10
2.4723800418132802
 20
-190.71861761282301
 30
0.0
 70
    32
  0
VERTEX
  5
288
  8
DATA
  6
CONTINUOUS
 62
     7
 10
2.3423800418131711
 20
-190.74861761282321
 30
0.0
 70
    32
  0
VERTEX
  5
289
  8
DATA
  6
CONTINUOUS
 62
     7
 10
2.2123800418130619
 20
-190.76861761282319
 30
0.0
 70
    32
  0
VERTEX
  5
28A
  8
DATA
  6
CONTINUOUS
 62
     7
 10
2.0823800418129532
 20
-190.79861761282339
 30
0.0
 70
    32
  0
VERTEX
  5
28B
  8
DATA
  6
CONTINUOUS
 62
     7
 10
1.9523800418128441
 20
-190.8186176128234
 30
0.0
 70
    32
  0
VERTEX
  5
28C
  8
DATA
  6
CONTINUOUS
 62
     7
 10
1.832380041812953
 20
-190.83861761282341
 30
0.0
 70
    32
  0
VERTEX
  5
28D
  8
DATA
  6
CONTINUOUS
 62
     7
 10
1.7023800418128441
 20
-190.8686176128231
 30
0.0
 70
    32
  0
VERTEX
  5
28E
  8
DATA
  6
CONTINUOUS
 62
     7
 10
1.5723800418127349
 20
-190.88861761282311
 30
0.0
 70
    32
  0
VERTEX
  5
28F
  8
DATA
  6
CONTINUOUS
 62
     7
 10
1.4423800418135351
 20
-190.91861761282331
 30
0.0
 70
    32
  0
VERTEX
  5
290
  8
DATA
  6
CONTINUOUS
 62
     7
 10
1.3123800418134259
 20
-190.93861761282329
 30
0.0
 70
    32
  0
VERTEX
  5
291
  8
DATA
  6
CONTINUOUS
 62
     7
 10
1.182380041813317
 20
-190.9586176128233
 30
0.0
 70
    32
  0
VERTEX
  5
292
  8
DATA
  6
CONTINUOUS
 62
     7
 10
1.0523800418132081
 20
-190.98861761282299
 30
0.0
 70
    32
  0
VERTEX
  5
293
  8
DATA
  6
CONTINUOUS
 62
     7
 10
0.9223800418130991
 20
-191.0086176128234
 30
0.0
 70
    32
  0
VERTEX
  5
294
  8
DATA
  6
CONTINUOUS
 62
     7
 10
0.7923800418129902
 20
-191.02861761282341
 30
0.0
 70
    32
  0
VERTEX
  5
295
  8
DATA
  6
CONTINUOUS
 62
     7
 10
0.6623800418128809
 20
-191.05861761282321
 30
0.0
 70
    32
  0
VERTEX
  5
296
  8
DATA
  6
CONTINUOUS
 62
     7
 10
0.5323800418127718
 20
-191.07861761282319
 30
0.0
 70
    32
  0
VERTEX
  5
297
  8
DATA
  6
CONTINUOUS
 62
     7
 10
0.4123800418128809
 20
-191.09861761282309
 30
0.0
 70
    32
  0
VERTEX
  5
298
  8
DATA
  6
CONTINUOUS
 62
     7
 10
0.2823800418127718
 20
-191.1186176128231
 30
0.0
 70
    32
  0
VERTEX
  5
299
  8
DATA
  6
CONTINUOUS
 62
     7
 10
0.1523800418135721
 20
-191.1486176128233
 30
0.0
 70
    32
  0
VERTEX
  5
29A
  8
DATA
  6
CONTINUOUS
 62
     7
 10
0.022380041813463
 20
-191.16861761282331
 30
0.0
 70
    32
  0
VERTEX
  5
29B
  8
DATA
  6
CONTINUOUS
 62
     7
 10
-0.1076199581866462
 20
-191.18861761282329
 30
0.0
 70
    32
  0
VERTEX
  5
29C
  8
DATA
  6
CONTINUOUS
 62
     7
 10
-0.2376199581867553
 20
-191.2086176128233
 30
0.0
 70
    32
  0
VERTEX
  5
29D
  8
DATA
  6
CONTINUOUS
 62
     7
 10
-0.3676199581868644
 20
-191.2286176128232
 30
0.0
 70
    32
  0
VERTEX
  5
29E
  8
DATA
  6
CONTINUOUS
 62
     7
 10
-0.4976199581869736
 20
-191.2586176128234
 30
0.0
 70
    32
  0
VERTEX
  5
29F
  8
DATA
  6
CONTINUOUS
 62
     7
 10
-0.6276199581870828
 20
-191.27861761282341
 30
0.0
 70
    32
  0
VERTEX
  5
2A0
  8
DATA
  6
CONTINUOUS
 62
     7
 10
-0.7576199581871919
 20
-191.29861761282339
 30
0.0
 70
    32
  0
VERTEX
  5
2A1
  8
DATA
  6
CONTINUOUS
 62
     7
 10
-0.8876199581863915
 20
-191.3186176128234
 30
0.0
 70
    32
  0
VERTEX
  5
2A2
  8
DATA
  6
CONTINUOUS
 62
     7
 10
-1.0076199581871921
 20
-191.3386176128233
 30
0.0
 70
    32
  0
VERTEX
  5
2A3
  8
DATA
  6
CONTINUOUS
 62
     7
 10
-1.1376199581863911
 20
-191.35861761282339
 30
0.0
 70
    32
  0
VERTEX
  5
2A4
  8
DATA
  6
CONTINUOUS
 62
     7
 10
-1.2676199581865
 20
-191.37861761282329
 30
0.0
 70
    32
  0
VERTEX
  5
2A5
  8
DATA
  6
CONTINUOUS
 62
     7
 10
-1.3976199581866089
 20
-191.40861761282309
 30
0.0
 70
    32
  0
VERTEX
  5
2A6
  8
DATA
  6
CONTINUOUS
 62
     7
 10
-1.527619958186718
 20
-191.4286176128231
 30
0.0
 70
    32
  0
VERTEX
  5
2A7
  8
DATA
  6
CONTINUOUS
 62
     7
 10
-1.6576199581868281
 20
-191.448617612823
 30
0.0
 70
    32
  0
VERTEX
  5
2A8
  8
DATA
  6
CONTINUOUS
 62
     7
 10
-1.787619958186937
 20
-191.46861761282301
 30
0.0
 70
    32
  0
VERTEX
  5
2A9
  8
DATA
  6
CONTINUOUS
 62
     7
 10
-1.9176199581870459
 20
-191.48861761282299
 30
0.0
 70
    32
  0
VERTEX
  5
2AA
  8
DATA
  6
CONTINUOUS
 62
     7
 10
-2.047619958187155
 20
-191.5086176128234
 30
0.0
 70
    32
  0
VERTEX
  5
2AB
  8
DATA
  6
CONTINUOUS
 62
     7
 10
-2.1776199581872642
 20
-191.52861761282341
 30
0.0
 70
    32
  0
VERTEX
  5
2AC
  8
DATA
  6
CONTINUOUS
 62
     7
 10
-2.3076199581864638
 20
-191.54861761282339
 30
0.0
 70
    32
  0
VERTEX
  5
2AD
  8
DATA
  6
CONTINUOUS
 62
     7
 10
-2.437619958186573
 20
-191.5686176128234
 30
0.0
 70
    32
  0
VERTEX
  5
2AE
  8
DATA
  6
CONTINUOUS
 62
     7
 10
-2.5676199581866821
 20
-191.58861761282341
 30
0.0
 70
    32
  0
VERTEX
  5
2AF
  8
DATA
  6
CONTINUOUS
 62
     7
 10
-2.687619958186573
 20
-191.60861761282331
 30
0.0
 70
    32
  0
VERTEX
  5
2B0
  8
DATA
  6
CONTINUOUS
 62
     7
 10
-2.8176199581866821
 20
-191.62861761282329
 30
0.0
 70
    32
  0
VERTEX
  5
2B1
  8
DATA
  6
CONTINUOUS
 62
     7
 10
-2.9476199581867921
 20
-191.6486176128233
 30
0.0
 70
    32
  0
VERTEX
  5
2B2
  8
DATA
  6
CONTINUOUS
 62
     7
 10
-3.0776199581868999
 20
-191.66861761282331
 30
0.0
 70
    32
  0
VERTEX
  5
2B3
  8
DATA
  6
CONTINUOUS
 62
     7
 10
-3.2076199581870091
 20
-191.68861761282329
 30
0.0
 70
    32
  0
VERTEX
  5
2B4
  8
DATA
  6
CONTINUOUS
 62
     7
 10
-3.3376199581871191
 20
-191.698617612823
 30
0.0
 70
    32
  0
VERTEX
  5
2B5
  8
DATA
  6
CONTINUOUS
 62
     7
 10
-3.4676199581872269
 20
-191.71861761282301
 30
0.0
 70
    32
  0
VERTEX
  5
2B6
  8
DATA
  6
CONTINUOUS
 62
     7
 10
-3.597619958186427
 20
-191.73861761282299
 30
0.0
 70
    32
  0
VERTEX
  5
2B7
  8
DATA
  6
CONTINUOUS
 62
     7
 10
-3.727619958186537
 20
-191.7586176128234
 30
0.0
 70
    32
  0
VERTEX
  5
2B8
  8
DATA
  6
CONTINUOUS
 62
     7
 10
-3.8576199581866462
 20
-191.77861761282341
 30
0.0
 70
    32
  0
VERTEX
  5
2B9
  8
DATA
  6
CONTINUOUS
 62
     7
 10
-3.9876199581867549
 20
-191.79861761282339
 30
0.0
 70
    32
  0
VERTEX
  5
2BA
  8
DATA
  6
CONTINUOUS
 62
     7
 10
-4.1176199581868644
 20
-191.8186176128234
 30
0.0
 70
    32
  0
VERTEX
  5
2BB
  8
DATA
  6
CONTINUOUS
 62
     7
 10
-4.2476199581869727
 20
-191.82861761282319
 30
0.0
 70
    32
  0
VERTEX
  5
2BC
  8
DATA
  6
CONTINUOUS
 62
     7
 10
-4.3676199581868644
 20
-191.84861761282309
 30
0.0
 70
    32
  0
VERTEX
  5
2BD
  8
DATA
  6
CONTINUOUS
 62
     7
 10
-4.4976199581869727
 20
-191.8686176128231
 30
0.0
 70
    32
  0
VERTEX
  5
2BE
  8
DATA
  6
CONTINUOUS
 62
     7
 10
-4.6276199581870818
 20
-191.88861761282311
 30
0.0
 70
    32
  0
VERTEX
  5
2BF
  8
DATA
  6
CONTINUOUS
 62
     7
 10
-4.757619958187191
 20
-191.90861761282309
 30
0.0
 70
    32
  0
VERTEX
  5
2C0
  8
DATA
  6
CONTINUOUS
 62
     7
 10
-4.8876199581863924
 20
-191.91861761282331
 30
0.0
 70
    32
  0
VERTEX
  5
2C1
  8
DATA
  6
CONTINUOUS
 62
     7
 10
-5.0176199581864998
 20
-191.93861761282329
 30
0.0
 70
    32
  0
VERTEX
  5
2C2
  8
DATA
  6
CONTINUOUS
 62
     7
 10
-5.1476199581866089
 20
-191.9586176128233
 30
0.0
 70
    32
  0
VERTEX
  5
2C3
  8
DATA
  6
CONTINUOUS
 62
     7
 10
-5.277619958186718
 20
-191.96861761282301
 30
0.0
 70
    32
  0
VERTEX
  5
2C4
  8
DATA
  6
CONTINUOUS
 62
     7
 10
-5.4076199581868281
 20
-191.98861761282299
 30
0.0
 70
    32
  0
VERTEX
  5
2C5
  8
DATA
  6
CONTINUOUS
 62
     7
 10
-5.5376199581869372
 20
-192.0086176128234
 30
0.0
 70
    32
  0
VERTEX
  5
2C6
  8
DATA
  6
CONTINUOUS
 62
     7
 10
-5.6676199581870463
 20
-192.02861761282341
 30
0.0
 70
    32
  0
VERTEX
  5
2C7
  8
DATA
  6
CONTINUOUS
 62
     7
 10
-5.7976199581871564
 20
-192.03861761282309
 30
0.0
 70
    32
  0
VERTEX
  5
2C8
  8
DATA
  6
CONTINUOUS
 62
     7
 10
-5.9276199581872637
 20
-192.05861761282321
 30
0.0
 70
    32
  0
VERTEX
  5
2C9
  8
DATA
  6
CONTINUOUS
 62
     7
 10
-6.0576199581864643
 20
-192.0686176128234
 30
0.0
 70
    32
  0
VERTEX
  5
2CA
  8
DATA
  6
CONTINUOUS
 62
     7
 10
-6.1776199581872637
 20
-192.08861761282341
 30
0.0
 70
    32
  0
VERTEX
  5
2CB
  8
DATA
  6
CONTINUOUS
 62
     7
 10
-6.3076199581864643
 20
-192.10861761282331
 30
0.0
 70
    32
  0
VERTEX
  5
2CC
  8
DATA
  6
CONTINUOUS
 62
     7
 10
-6.4376199581865716
 20
-192.1186176128231
 30
0.0
 70
    32
  0
VERTEX
  5
2CD
  8
DATA
  6
CONTINUOUS
 62
     7
 10
-6.5676199581866817
 20
-192.13861761282311
 30
0.0
 70
    32
  0
VERTEX
  5
2CE
  8
DATA
  6
CONTINUOUS
 62
     7
 10
-6.6976199581867908
 20
-192.1486176128233
 30
0.0
 70
    32
  0
VERTEX
  5
2CF
  8
DATA
  6
CONTINUOUS
 62
     7
 10
-6.8276199581868999
 20
-192.16861761282331
 30
0.0
 70
    32
  0
VERTEX
  5
2D0
  8
DATA
  6
CONTINUOUS
 62
     7
 10
-6.9576199581870091
 20
-192.18861761282329
 30
0.0
 70
    32
  0
VERTEX
  5
2D1
  8
DATA
  6
CONTINUOUS
 62
     7
 10
-7.0876199581871191
 20
-192.198617612823
 30
0.0
 70
    32
  0
VERTEX
  5
2D2
  8
DATA
  6
CONTINUOUS
 62
     7
 10
-7.2176199581872291
 20
-192.21861761282301
 30
0.0
 70
    32
  0
VERTEX
  5
2D3
  8
DATA
  6
CONTINUOUS
 62
     7
 10
-7.3476199581864279
 20
-192.22861761282331
 30
0.0
 70
    32
  0
VERTEX
  5
2D4
  8
DATA
  6
CONTINUOUS
 62
     7
 10
-7.477619958186537
 20
-192.2486176128233
 30
0.0
 70
    32
  0
VERTEX
  5
2D5
  8
DATA
  6
CONTINUOUS
 62
     7
 10
-7.6076199581866462
 20
-192.2586176128234
 30
0.0
 70
    32
  0
VERTEX
  5
2D6
  8
DATA
  6
CONTINUOUS
 62
     7
 10
-7.7376199581867553
 20
-192.27861761282341
 30
0.0
 70
    32
  0
VERTEX
  5
2D7
  8
DATA
  6
CONTINUOUS
 62
     7
 10
-7.8676199581868644
 20
-192.2886176128232
 30
0.0
 70
    32
  0
VERTEX
  5
2D8
  8
DATA
  6
CONTINUOUS
 62
     7
 10
-7.9976199581869718
 20
-192.3086176128231
 30
0.0
 70
    32
  0
VERTEX
  5
2D9
  8
DATA
  6
CONTINUOUS
 62
     7
 10
-8.1276199581870792
 20
-192.3186176128234
 30
0.0
 70
    32
  0
VERTEX
  5
2DA
  8
DATA
  6
CONTINUOUS
 62
     7
 10
-8.2476199581869736
 20
-192.32861761282319
 30
0.0
 70
    32
  0
VERTEX
  5
2DB
  8
DATA
  6
CONTINUOUS
 62
     7
 10
-8.3776199581870792
 20
-192.34861761282309
 30
0.0
 70
    32
  0
VERTEX
  5
2DC
  8
DATA
  6
CONTINUOUS
 62
     7
 10
-8.5076199581871919
 20
-192.35861761282339
 30
0.0
 70
    32
  0
VERTEX
  5
2DD
  8
DATA
  6
CONTINUOUS
 62
     7
 10
-8.6376199581863897
 20
-192.37861761282329
 30
0.0
 70
    32
  0
VERTEX
  5
2DE
  8
DATA
  6
CONTINUOUS
 62
     7
 10
-8.7676199581864989
 20
-192.38861761282311
 30
0.0
 70
    32
  0
VERTEX
  5
2DF
  8
DATA
  6
CONTINUOUS
 62
     7
 10
-8.8976199581866116
 20
-192.3986176128233
 30
0.0
 70
    32
  0
VERTEX
  5
2E0
  8
DATA
  6
CONTINUOUS
 62
     7
 10
-9.0276199581867207
 20
-192.4186176128232
 30
0.0
 70
    32
  0
VERTEX
  5
2E1
  8
DATA
  6
CONTINUOUS
 62
     7
 10
-9.1576199581868281
 20
-192.4286176128231
 30
0.0
 70
    32
  0
VERTEX
  5
2E2
  8
DATA
  6
CONTINUOUS
 62
     7
 10
-9.2876199581869354
 20
-192.43861761282329
 30
0.0
 70
    32
  0
VERTEX
  5
2E3
  8
DATA
  6
CONTINUOUS
 62
     7
 10
-9.4176199581870463
 20
-192.4586176128233
 30
0.0
 70
    32
  0
VERTEX
  5
2E4
  8
DATA
  6
CONTINUOUS
 62
     7
 10
-9.5476199581871555
 20
-192.46861761282301
 30
0.0
 70
    32
  0
VERTEX
  5
2E5
  8
DATA
  6
CONTINUOUS
 62
     7
 10
-9.6776199581872646
 20
-192.47861761282331
 30
0.0
 70
    32
  0
VERTEX
  5
2E6
  8
DATA
  6
CONTINUOUS
 62
     7
 10
-9.8076199581864643
 20
-192.49861761282321
 30
0.0
 70
    32
  0
VERTEX
  5
2E7
  8
DATA
  6
CONTINUOUS
 62
     7
 10
-9.9376199581865734
 20
-192.5086176128234
 30
0.0
 70
    32
  0
VERTEX
  5
2E8
  8
DATA
  6
CONTINUOUS
 62
     7
 10
-10.067619958186681
 20
-192.51861761282319
 30
0.0
 70
    32
  0
VERTEX
  5
2E9
  8
DATA
  6
CONTINUOUS
 62
     7
 10
-10.19761995818679
 20
-192.52861761282341
 30
0.0
 70
    32
  0
VERTEX
  5
2EA
  8
DATA
  6
CONTINUOUS
 62
     7
 10
-10.327619958186901
 20
-192.53861761282309
 30
0.0
 70
    32
  0
VERTEX
  5
2EB
  8
DATA
  6
CONTINUOUS
 62
     7
 10
-10.44761995818679
 20
-192.55861761282321
 30
0.0
 70
    32
  0
VERTEX
  5
2EC
  8
DATA
  6
CONTINUOUS
 62
     7
 10
-10.577619958186901
 20
-192.5686176128234
 30
0.0
 70
    32
  0
VERTEX
  5
2ED
  8
DATA
  6
CONTINUOUS
 62
     7
 10
-10.70761995818701
 20
-192.57861761282319
 30
0.0
 70
    32
  0
VERTEX
  5
2EE
  8
DATA
  6
CONTINUOUS
 62
     7
 10
-10.837619958187121
 20
-192.58861761282341
 30
0.0
 70
    32
  0
VERTEX
  5
2EF
  8
DATA
  6
CONTINUOUS
 62
     7
 10
-10.967619958187219
 20
-192.59861761282309
 30
0.0
 70
    32
  0
VERTEX
  5
2F0
  8
DATA
  6
CONTINUOUS
 62
     7
 10
-11.09761995818643
 20
-192.6186176128231
 30
0.0
 70
    32
  0
VERTEX
  5
2F1
  8
DATA
  6
CONTINUOUS
 62
     7
 10
-11.227619958186541
 20
-192.62861761282329
 30
0.0
 70
    32
  0
VERTEX
  5
2F2
  8
DATA
  6
CONTINUOUS
 62
     7
 10
-11.357619958186641
 20
-192.63861761282311
 30
0.0
 70
    32
  0
VERTEX
  5
2F3
  8
DATA
  6
CONTINUOUS
 62
     7
 10
-11.48761995818675
 20
-192.6486176128233
 30
0.0
 70
    32
  0
VERTEX
  5
2F4
  8
DATA
  6
CONTINUOUS
 62
     7
 10
-11.617619958186861
 20
-192.65861761282309
 30
0.0
 70
    32
  0
VERTEX
  5
2F5
  8
DATA
  6
CONTINUOUS
 62
     7
 10
-11.74761995818697
 20
-192.66861761282331
 30
0.0
 70
    32
  0
VERTEX
  5
2F6
  8
DATA
  6
CONTINUOUS
 62
     7
 10
-11.877619958187079
 20
-192.6786176128231
 30
0.0
 70
    32
  0
VERTEX
  5
2F7
  8
DATA
  6
CONTINUOUS
 62
     7
 10
-12.00761995818719
 20
-192.68861761282329
 30
0.0
 70
    32
  0
VERTEX
  5
2F8
  8
DATA
  6
CONTINUOUS
 62
     7
 10
-12.13761995818639
 20
-192.698617612823
 30
0.0
 70
    32
  0
VERTEX
  5
2F9
  8
DATA
  6
CONTINUOUS
 62
     7
 10
-12.267619958186501
 20
-192.7086176128233
 30
0.0
 70
    32
  0
VERTEX
  5
2FA
  8
DATA
  6
CONTINUOUS
 62
     7
 10
-12.39761995818661
 20
-192.71861761282301
 30
0.0
 70
    32
  0
VERTEX
  5
2FB
  8
DATA
  6
CONTINUOUS
 62
     7
 10
-12.527619958186721
 20
-192.72861761282331
 30
0.0
 70
    32
  0
VERTEX
  5
2FC
  8
DATA
  6
CONTINUOUS
 62
     7
 10
-12.65761995818683
 20
-192.73861761282299
 30
0.0
 70
    32
  0
VERTEX
  5
2FD
  8
DATA
  6
CONTINUOUS
 62
     7
 10
-12.78761995818693
 20
-192.74861761282321
 30
0.0
 70
    32
  0
VERTEX
  5
2FE
  8
DATA
  6
CONTINUOUS
 62
     7
 10
-12.917619958187039
 20
-192.7586176128234
 30
0.0
 70
    32
  0
VERTEX
  5
2FF
  8
DATA
  6
CONTINUOUS
 62
     7
 10
-13.037619958186941
 20
-192.76861761282319
 30
0.0
 70
    32
  0
VERTEX
  5
300
  8
DATA
  6
CONTINUOUS
 62
     7
 10
-13.167619958187039
 20
-192.77861761282341
 30
0.0
 70
    32
  0
VERTEX
  5
301
  8
DATA
  6
CONTINUOUS
 62
     7
 10
-13.29761995818715
 20
-192.78861761282309
 30
0.0
 70
    32
  0
VERTEX
  5
302
  8
DATA
  6
CONTINUOUS
 62
     7
 10
-13.427619958187259
 20
-192.79861761282339
 30
0.0
 70
    32
  0
VERTEX
  5
303
  8
DATA
  6
CONTINUOUS
 62
     7
 10
-13.557619958186461
 20
-192.80861761282321
 30
0.0
 70
    32
  0
VERTEX
  5
304
  8
DATA
  6
CONTINUOUS
 62
     7
 10
-13.68761995818657
 20
-192.8186176128234
 30
0.0
 70
    32
  0
VERTEX
  5
305
  8
DATA
  6
CONTINUOUS
 62
     7
 10
-13.817619958186681
 20
-192.82861761282319
 30
0.0
 70
    32
  0
VERTEX
  5
306
  8
DATA
  6
CONTINUOUS
 62
     7
 10
-13.94761995818679
 20
-192.83861761282341
 30
0.0
 70
    32
  0
VERTEX
  5
307
  8
DATA
  6
CONTINUOUS
 62
     7
 10
-14.077619958186901
 20
-192.84861761282309
 30
0.0
 70
    32
  0
VERTEX
  5
308
  8
DATA
  6
CONTINUOUS
 62
     7
 10
-14.20761995818701
 20
-192.84861761282309
 30
0.0
 70
    32
  0
VERTEX
  5
309
  8
DATA
  6
CONTINUOUS
 62
     7
 10
-14.337619958187121
 20
-192.85861761282331
 30
0.0
 70
    32
  0
VERTEX
  5
30A
  8
DATA
  6
CONTINUOUS
 62
     7
 10
-14.46761995818723
 20
-192.8686176128231
 30
0.0
 70
    32
  0
VERTEX
  5
30B
  8
DATA
  6
CONTINUOUS
 62
     7
 10
-14.59761995818643
 20
-192.87861761282329
 30
0.0
 70
    32
  0
VERTEX
  5
30C
  8
DATA
  6
CONTINUOUS
 62
     7
 10
-14.72761995818653
 20
-192.88861761282311
 30
0.0
 70
    32
  0
VERTEX
  5
30D
  8
DATA
  6
CONTINUOUS
 62
     7
 10
-14.857619958186641
 20
-192.88861761282311
 30
0.0
 70
    32
  0
VERTEX
  5
30E
  8
DATA
  6
CONTINUOUS
 62
     7
 10
-14.98761995818675
 20
-192.8986176128233
 30
0.0
 70
    32
  0
VERTEX
  5
30F
  8
DATA
  6
CONTINUOUS
 62
     7
 10
-15.117619958186861
 20
-192.90861761282309
 30
0.0
 70
    32
  0
VERTEX
  5
310
  8
DATA
  6
CONTINUOUS
 62
     7
 10
-15.24761995818697
 20
-192.91861761282331
 30
0.0
 70
    32
  0
VERTEX
  5
311
  8
DATA
  6
CONTINUOUS
 62
     7
 10
-15.377619958187079
 20
-192.91861761282331
 30
0.0
 70
    32
  0
VERTEX
  5
312
  8
DATA
  6
CONTINUOUS
 62
     7
 10
-15.50761995818719
 20
-192.9286176128231
 30
0.0
 70
    32
  0
VERTEX
  5
313
  8
DATA
  6
CONTINUOUS
 62
     7
 10
-15.63761995818639
 20
-192.93861761282329
 30
0.0
 70
    32
  0
VERTEX
  5
314
  8
DATA
  6
CONTINUOUS
 62
     7
 10
-15.767619958186501
 20
-192.948617612823
 30
0.0
 70
    32
  0
VERTEX
  5
315
  8
DATA
  6
CONTINUOUS
 62
     7
 10
-15.89761995818661
 20
-192.948617612823
 30
0.0
 70
    32
  0
VERTEX
  5
316
  8
DATA
  6
CONTINUOUS
 62
     7
 10
-16.027619958186719
 20
-192.9586176128233
 30
0.0
 70
    32
  0
VERTEX
  5
317
  8
DATA
  6
CONTINUOUS
 62
     7
 10
-16.157619958186832
 20
-192.96861761282301
 30
0.0
 70
    32
  0
VERTEX
  5
318
  8
DATA
  6
CONTINUOUS
 62
     7
 10
-16.277619958186719
 20
-192.96861761282301
 30
0.0
 70
    32
  0
VERTEX
  5
319
  8
DATA
  6
CONTINUOUS
 62
     7
 10
-16.407619958186832
 20
-192.97861761282331
 30
0.0
 70
    32
  0
VERTEX
  5
31A
  8
DATA
  6
CONTINUOUS
 62
     7
 10
-16.53761995818693
 20
-192.98861761282299
 30
0.0
 70
    32
  0
VERTEX
  5
31B
  8
DATA
  6
CONTINUOUS
 62
     7
 10
-16.667619958187039
 20
-192.98861761282299
 30
0.0
 70
    32
  0
VERTEX
  5
31C
  8
DATA
  6
CONTINUOUS
 62
     7
 10
-16.797619958187148
 20
-192.99861761282321
 30
0.0
 70
    32
  0
VERTEX
  5
31D
  8
DATA
  6
CONTINUOUS
 62
     7
 10
-16.927619958187261
 20
-192.99861761282321
 30
0.0
 70
    32
  0
VERTEX
  5
31E
  8
DATA
  6
CONTINUOUS
 62
     7
 10
-17.057619958186461
 20
-193.0086176128234
 30
0.0
 70
    32
  0
VERTEX
  5
31F
  8
DATA
  6
CONTINUOUS
 62
     7
 10
-17.18761995818657
 20
-193.01861761282319
 30
0.0
 70
    32
  0
VERTEX
  5
320
  8
DATA
  6
CONTINUOUS
 62
     7
 10
-17.317619958186679
 20
-193.01861761282319
 30
0.0
 70
    32
  0
VERTEX
  5
321
  8
DATA
  6
CONTINUOUS
 62
     7
 10
-17.447619958186792
 20
-193.02861761282341
 30
0.0
 70
    32
  0
VERTEX
  5
322
  8
DATA
  6
CONTINUOUS
 62
     7
 10
-17.577619958186901
 20
-193.02861761282341
 30
0.0
 70
    32
  0
VERTEX
  5
323
  8
DATA
  6
CONTINUOUS
 62
     7
 10
-17.70761995818701
 20
-193.0386176128232
 30
0.0
 70
    32
  0
VERTEX
  5
324
  8
DATA
  6
CONTINUOUS
 62
     7
 10
-17.837619958187119
 20
-193.0386176128232
 30
0.0
 70
    32
  0
VERTEX
  5
325
  8
DATA
  6
CONTINUOUS
 62
     7
 10
-17.967619958187228
 20
-193.04861761282339
 30
0.0
 70
    32
  0
VERTEX
  5
326
  8
DATA
  6
CONTINUOUS
 62
     7
 10
-18.097619958186431
 20
-193.04861761282339
 30
0.0
 70
    32
  0
VERTEX
  5
327
  8
DATA
  6
CONTINUOUS
 62
     7
 10
-18.227619958186541
 20
-193.05861761282321
 30
0.0
 70
    32
  0
VERTEX
  5
328
  8
DATA
  6
CONTINUOUS
 62
     7
 10
-18.357619958186639
 20
-193.05861761282321
 30
0.0
 70
    32
  0
VERTEX
  5
329
  8
DATA
  6
CONTINUOUS
 62
     7
 10
-18.487619958186752
 20
-193.05861761282321
 30
0.0
 70
    32
  0
VERTEX
  5
32A
  8
DATA
  6
CONTINUOUS
 62
     7
 10
-18.617619958186861
 20
-193.0686176128234
 30
0.0
 70
    32
  0
VERTEX
  5
32B
  8
DATA
  6
CONTINUOUS
 62
     7
 10
-18.74761995818697
 20
-193.0686176128234
 30
0.0
 70
    32
  0
VERTEX
  5
32C
  8
DATA
  6
CONTINUOUS
 62
     7
 10
-18.877619958187079
 20
-193.07861761282319
 30
0.0
 70
    32
  0
VERTEX
  5
32D
  8
DATA
  6
CONTINUOUS
 62
     7
 10
-19.007619958187188
 20
-193.07861761282319
 30
0.0
 70
    32
  0
VERTEX
  5
32E
  8
DATA
  6
CONTINUOUS
 62
     7
 10
-19.137619958186392
 20
-193.07861761282319
 30
0.0
 70
    32
  0
VERTEX
  5
32F
  8
DATA
  6
CONTINUOUS
 62
     7
 10
-19.267619958186501
 20
-193.08861761282341
 30
0.0
 70
    32
  0
VERTEX
  5
330
  8
DATA
  6
CONTINUOUS
 62
     7
 10
-19.39761995818661
 20
-193.08861761282341
 30
0.0
 70
    32
  0
VERTEX
  5
331
  8
DATA
  6
CONTINUOUS
 62
     7
 10
-19.527619958186719
 20
-193.09861761282309
 30
0.0
 70
    32
  0
VERTEX
  5
332
  8
DATA
  6
CONTINUOUS
 62
     7
 10
-19.657619958186832
 20
-193.09861761282309
 30
0.0
 70
    32
  0
VERTEX
  5
333
  8
DATA
  6
CONTINUOUS
 62
     7
 10
-19.78761995818693
 20
-193.09861761282309
 30
0.0
 70
    32
  0
VERTEX
  5
334
  8
DATA
  6
CONTINUOUS
 62
     7
 10
-19.917619958187039
 20
-193.09861761282309
 30
0.0
 70
    32
  0
VERTEX
  5
335
  8
DATA
  6
CONTINUOUS
 62
     7
 10
-20.047619958187159
 20
-193.10861761282331
 30
0.0
 70
    32
  0
VERTEX
  5
336
  8
DATA
  6
CONTINUOUS
 62
     7
 10
-20.177619958187272
 20
-193.10861761282331
 30
0.0
 70
    32
  0
VERTEX
  5
337
  8
DATA
  6
CONTINUOUS
 62
     7
 10
-20.307619958186471
 20
-193.10861761282331
 30
0.0
 70
    32
  0
VERTEX
  5
338
  8
DATA
  6
CONTINUOUS
 62
     7
 10
-20.43761995818657
 20
-193.1186176128231
 30
0.0
 70
    32
  0
VERTEX
  5
339
  8
DATA
  6
CONTINUOUS
 62
     7
 10
-20.557619958186471
 20
-193.1186176128231
 30
0.0
 70
    32
  0
VERTEX
  5
33A
  8
DATA
  6
CONTINUOUS
 62
     7
 10
-20.687619958186581
 20
-193.1186176128231
 30
0.0
 70
    32
  0
VERTEX
  5
33B
  8
DATA
  6
CONTINUOUS
 62
     7
 10
-20.817619958186679
 20
-193.1186176128231
 30
0.0
 70
    32
  0
VERTEX
  5
33C
  8
DATA
  6
CONTINUOUS
 62
     7
 10
-20.947619958186792
 20
-193.1186176128231
 30
0.0
 70
    32
  0
VERTEX
  5
33D
  8
DATA
  6
CONTINUOUS
 62
     7
 10
-21.077619958186901
 20
-193.12861761282329
 30
0.0
 70
    32
  0
VERTEX
  5
33E
  8
DATA
  6
CONTINUOUS
 62
     7
 10
-21.207619958187021
 20
-193.12861761282329
 30
0.0
 70
    32
  0
VERTEX
  5
33F
  8
DATA
  6
CONTINUOUS
 62
     7
 10
-21.337619958187119
 20
-193.12861761282329
 30
0.0
 70
    32
  0
VERTEX
  5
340
  8
DATA
  6
CONTINUOUS
 62
     7
 10
-21.467619958187228
 20
-193.12861761282329
 30
0.0
 70
    32
  0
VERTEX
  5
341
  8
DATA
  6
CONTINUOUS
 62
     7
 10
-21.597619958186431
 20
-193.12861761282329
 30
0.0
 70
    32
  0
VERTEX
  5
342
  8
DATA
  6
CONTINUOUS
 62
     7
 10
-21.727619958186541
 20
-193.12861761282329
 30
0.0
 70
    32
  0
VERTEX
  5
343
  8
DATA
  6
CONTINUOUS
 62
     7
 10
-21.85761995818665
 20
-193.12861761282329
 30
0.0
 70
    32
  0
VERTEX
  5
344
  8
DATA
  6
CONTINUOUS
 62
     7
 10
-21.987619958186759
 20
-193.13861761282311
 30
0.0
 70
    32
  0
VERTEX
  5
345
  8
DATA
  6
CONTINUOUS
 62
     7
 10
-22.117619958186872
 20
-193.13861761282311
 30
0.0
 70
    32
  0
VERTEX
  5
346
  8
DATA
  6
CONTINUOUS
 62
     7
 10
-22.24761995818697
 20
-193.13861761282311
 30
0.0
 70
    32
  0
VERTEX
  5
347
  8
DATA
  6
CONTINUOUS
 62
     7
 10
-22.377619958187079
 20
-193.13861761282311
 30
0.0
 70
    32
  0
VERTEX
  5
348
  8
DATA
  6
CONTINUOUS
 62
     7
 10
-22.507619958187188
 20
-193.13861761282311
 30
0.0
 70
    32
  0
VERTEX
  5
349
  8
DATA
  6
CONTINUOUS
 62
     7
 10
-22.637619958186392
 20
-193.13861761282311
 30
0.0
 70
    32
  0
VERTEX
  5
34A
  8
DATA
  6
CONTINUOUS
 62
     7
 10
-22.767619958186501
 20
-193.13861761282311
 30
0.0
 70
    32
  0
VERTEX
  5
34B
  8
DATA
  6
CONTINUOUS
 62
     7
 10
-22.89761995818661
 20
-193.13861761282311
 30
0.0
 70
    32
  0
VERTEX
  5
34C
  8
DATA
  6
CONTINUOUS
 62
     7
 10
-23.027619958186719
 20
-193.13861761282311
 30
0.0
 70
    32
  0
VERTEX
  5
34D
  8
DATA
  6
CONTINUOUS
 62
     7
 10
-23.157619958186832
 20
-193.13861761282311
 30
0.0
 70
    32
  0
VERTEX
  5
34E
  8
DATA
  6
CONTINUOUS
 62
     7
 10
-23.28761995818693
 20
-193.13861761282311
 30
0.0
 70
    32
  0
VERTEX
  5
34F
  8
DATA
  6
CONTINUOUS
 62
     7
 10
-23.41761995818705
 20
-193.13861761282311
 30
0.0
 70
    32
  0
VERTEX
  5
350
  8
DATA
  6
CONTINUOUS
 62
     7
 10
-23.547619958187159
 20
-193.13861761282311
 30
0.0
 70
    32
  0
VERTEX
  5
351
  8
DATA
  6
CONTINUOUS
 62
     7
 10
-23.677619958187261
 20
-193.13861761282311
 30
0.0
 70
    32
  0
VERTEX
  5
352
  8
DATA
  6
CONTINUOUS
 62
     7
 10
-23.807619958186461
 20
-193.13861761282311
 30
0.0
 70
    32
  0
VERTEX
  5
353
  8
DATA
  6
CONTINUOUS
 62
     7
 10
-23.93761995818657
 20
-193.13861761282311
 30
0.0
 70
    32
  0
VERTEX
  5
354
  8
DATA
  6
CONTINUOUS
 62
     7
 10
-24.067619958186679
 20
-193.13861761282311
 30
0.0
 70
    32
  0
VERTEX
  5
355
  8
DATA
  6
CONTINUOUS
 62
     7
 10
-24.197619958186792
 20
-193.12861761282329
 30
0.0
 70
    32
  0
VERTEX
  5
356
  8
DATA
  6
CONTINUOUS
 62
     7
 10
-24.327619958186901
 20
-193.12861761282329
 30
0.0
 70
    32
  0
VERTEX
  5
357
  8
DATA
  6
CONTINUOUS
 62
     7
 10
-24.45761995818701
 20
-193.12861761282329
 30
0.0
 70
    32
  0
VERTEX
  5
358
  8
DATA
  6
CONTINUOUS
 62
     7
 10
-24.587619958187119
 20
-193.12861761282329
 30
0.0
 70
    32
  0
VERTEX
  5
359
  8
DATA
  6
CONTINUOUS
 62
     7
 10
-24.717619958187228
 20
-193.12861761282329
 30
0.0
 70
    32
  0
VERTEX
  5
35A
  8
DATA
  6
CONTINUOUS
 62
     7
 10
-24.847619958186431
 20
-193.12861761282329
 30
0.0
 70
    32
  0
VERTEX
  5
35B
  8
DATA
  6
CONTINUOUS
 62
     7
 10
-24.977619958186541
 20
-193.12861761282329
 30
0.0
 70
    32
  0
VERTEX
  5
35C
  8
DATA
  6
CONTINUOUS
 62
     7
 10
-25.10761995818665
 20
-193.1186176128231
 30
0.0
 70
    32
  0
VERTEX
  5
35D
  8
DATA
  6
CONTINUOUS
 62
     7
 10
-25.237619958186759
 20
-193.1186176128231
 30
0.0
 70
    32
  0
VERTEX
  5
35E
  8
DATA
  6
CONTINUOUS
 62
     7
 10
-25.367619958186861
 20
-193.1186176128231
 30
0.0
 70
    32
  0
VERTEX
  5
35F
  8
DATA
  6
CONTINUOUS
 62
     7
 10
-25.49761995818697
 20
-193.1186176128231
 30
0.0
 70
    32
  0
VERTEX
  5
360
  8
DATA
  6
CONTINUOUS
 62
     7
 10
-25.627619958187079
 20
-193.10861761282331
 30
0.0
 70
    32
  0
VERTEX
  5
361
  8
DATA
  6
CONTINUOUS
 62
     7
 10
-25.757619958187188
 20
-193.10861761282331
 30
0.0
 70
    32
  0
VERTEX
  5
362
  8
DATA
  6
CONTINUOUS
 62
     7
 10
-25.887619958186392
 20
-193.10861761282331
 30
0.0
 70
    32
  0
VERTEX
  5
363
  8
DATA
  6
CONTINUOUS
 62
     7
 10
-26.017619958186501
 20
-193.10861761282331
 30
0.0
 70
    32
  0
VERTEX
  5
364
  8
DATA
  6
CONTINUOUS
 62
     7
 10
-26.14761995818661
 20
-193.09861761282309
 30
0.0
 70
    32
  0
VERTEX
  5
365
  8
DATA
  6
CONTINUOUS
 62
     7
 10
-26.277619958186708
 20
-193.09861761282309
 30
0.0
 70
    32
  0
VERTEX
  5
366
  8
DATA
  6
CONTINUOUS
 62
     7
 10
-26.407619958186832
 20
-193.09861761282309
 30
0.0
 70
    32
  0
VERTEX
  5
367
  8
DATA
  6
CONTINUOUS
 62
     7
 10
-26.53761995818693
 20
-193.08861761282341
 30
0.0
 70
    32
  0
VERTEX
  5
368
  8
DATA
  6
CONTINUOUS
 62
     7
 10
-26.66761995818705
 20
-193.08861761282341
 30
0.0
 70
    32
  0
VERTEX
  5
369
  8
DATA
  6
CONTINUOUS
 62
     7
 10
-26.797619958187148
 20
-193.08861761282341
 30
0.0
 70
    32
  0
VERTEX
  5
36A
  8
DATA
  6
CONTINUOUS
 62
     7
 10
-26.927619958187261
 20
-193.07861761282319
 30
0.0
 70
    32
  0
VERTEX
  5
36B
  8
DATA
  6
CONTINUOUS
 62
     7
 10
-27.057619958186461
 20
-193.07861761282319
 30
0.0
 70
    32
  0
VERTEX
  5
36C
  8
DATA
  6
CONTINUOUS
 62
     7
 10
-27.18761995818657
 20
-193.07861761282319
 30
0.0
 70
    32
  0
VERTEX
  5
36D
  8
DATA
  6
CONTINUOUS
 62
     7
 10
-27.317619958186679
 20
-193.0686176128234
 30
0.0
 70
    32
  0
VERTEX
  5
36E
  8
DATA
  6
CONTINUOUS
 62
     7
 10
-27.447619958186792
 20
-193.0686176128234
 30
0.0
 70
    32
  0
VERTEX
  5
36F
  8
DATA
  6
CONTINUOUS
 62
     7
 10
-27.577619958186901
 20
-193.05861761282321
 30
0.0
 70
    32
  0
VERTEX
  5
370
  8
DATA
  6
CONTINUOUS
 62
     7
 10
-27.70761995818701
 20
-193.05861761282321
 30
0.0
 70
    32
  0
VERTEX
  5
371
  8
DATA
  6
CONTINUOUS
 62
     7
 10
-27.837619958187119
 20
-193.04861761282339
 30
0.0
 70
    32
  0
VERTEX
  5
372
  8
DATA
  6
CONTINUOUS
 62
     7
 10
-27.967619958187228
 20
-193.04861761282339
 30
0.0
 70
    32
  0
VERTEX
  5
373
  8
DATA
  6
CONTINUOUS
 62
     7
 10
-28.097619958186431
 20
-193.0386176128232
 30
0.0
 70
    32
  0
VERTEX
  5
374
  8
DATA
  6
CONTINUOUS
 62
     7
 10
-28.227619958186541
 20
-193.0386176128232
 30
0.0
 70
    32
  0
VERTEX
  5
375
  8
DATA
  6
CONTINUOUS
 62
     7
 10
-28.35761995818665
 20
-193.02861761282341
 30
0.0
 70
    32
  0
VERTEX
  5
376
  8
DATA
  6
CONTINUOUS
 62
     7
 10
-28.487619958186759
 20
-193.02861761282341
 30
0.0
 70
    32
  0
VERTEX
  5
377
  8
DATA
  6
CONTINUOUS
 62
     7
 10
-28.617619958186872
 20
-193.01861761282319
 30
0.0
 70
    32
  0
VERTEX
  5
378
  8
DATA
  6
CONTINUOUS
 62
     7
 10
-28.74761995818697
 20
-193.01861761282319
 30
0.0
 70
    32
  0
VERTEX
  5
379
  8
DATA
  6
CONTINUOUS
 62
     7
 10
-28.877619958187079
 20
-193.0086176128234
 30
0.0
 70
    32
  0
VERTEX
  5
37A
  8
DATA
  6
CONTINUOUS
 62
     7
 10
-29.007619958187188
 20
-193.0086176128234
 30
0.0
 70
    32
  0
VERTEX
  5
37B
  8
DATA
  6
CONTINUOUS
 62
     7
 10
-29.137619958186392
 20
-192.99861761282321
 30
0.0
 70
    32
  0
VERTEX
  5
37C
  8
DATA
  6
CONTINUOUS
 62
     7
 10
-29.267619958186501
 20
-192.99861761282321
 30
0.0
 70
    32
  0
VERTEX
  5
37D
  8
DATA
  6
CONTINUOUS
 62
     7
 10
-29.39761995818661
 20
-192.98861761282299
 30
0.0
 70
    32
  0
VERTEX
  5
37E
  8
DATA
  6
CONTINUOUS
 62
     7
 10
-29.527619958186719
 20
-192.97861761282331
 30
0.0
 70
    32
  0
VERTEX
  5
37F
  8
DATA
  6
CONTINUOUS
 62
     7
 10
-29.657619958186832
 20
-192.97861761282331
 30
0.0
 70
    32
  0
VERTEX
  5
380
  8
DATA
  6
CONTINUOUS
 62
     7
 10
-29.78761995818693
 20
-192.96861761282301
 30
0.0
 70
    32
  0
VERTEX
  5
381
  8
DATA
  6
CONTINUOUS
 62
     7
 10
-29.91761995818705
 20
-192.9586176128233
 30
0.0
 70
    32
  0
VERTEX
  5
382
  8
DATA
  6
CONTINUOUS
 62
     7
 10
-30.047619958187159
 20
-192.9586176128233
 30
0.0
 70
    32
  0
VERTEX
  5
383
  8
DATA
  6
CONTINUOUS
 62
     7
 10
-30.177619958187272
 20
-192.948617612823
 30
0.0
 70
    32
  0
VERTEX
  5
384
  8
DATA
  6
CONTINUOUS
 62
     7
 10
-30.307619958186471
 20
-192.93861761282329
 30
0.0
 70
    32
  0
VERTEX
  5
385
  8
DATA
  6
CONTINUOUS
 62
     7
 10
-30.43761995818657
 20
-192.93861761282329
 30
0.0
 70
    32
  0
VERTEX
  5
386
  8
DATA
  6
CONTINUOUS
 62
     7
 10
-30.567619958186679
 20
-192.9286176128231
 30
0.0
 70
    32
  0
VERTEX
  5
387
  8
DATA
  6
CONTINUOUS
 62
     7
 10
-30.697619958186792
 20
-192.91861761282331
 30
0.0
 70
    32
  0
VERTEX
  5
388
  8
DATA
  6
CONTINUOUS
 62
     7
 10
-30.827619958186901
 20
-192.90861761282309
 30
0.0
 70
    32
  0
VERTEX
  5
389
  8
DATA
  6
CONTINUOUS
 62
     7
 10
-30.957619958187021
 20
-192.90861761282309
 30
0.0
 70
    32
  0
VERTEX
  5
38A
  8
DATA
  6
CONTINUOUS
 62
     7
 10
-31.087619958187119
 20
-192.8986176128233
 30
0.0
 70
    32
  0
VERTEX
  5
38B
  8
DATA
  6
CONTINUOUS
 62
     7
 10
-31.217619958187228
 20
-192.88861761282311
 30
0.0
 70
    32
  0
VERTEX
  5
38C
  8
DATA
  6
CONTINUOUS
 62
     7
 10
-31.347619958186431
 20
-192.87861761282329
 30
0.0
 70
    32
  0
VERTEX
  5
38D
  8
DATA
  6
CONTINUOUS
 62
     7
 10
-31.477619958186541
 20
-192.8686176128231
 30
0.0
 70
    32
  0
VERTEX
  5
38E
  8
DATA
  6
CONTINUOUS
 62
     7
 10
-31.60761995818665
 20
-192.8686176128231
 30
0.0
 70
    32
  0
VERTEX
  5
38F
  8
DATA
  6
CONTINUOUS
 62
     7
 10
-31.737619958186759
 20
-192.85861761282331
 30
0.0
 70
    32
  0
VERTEX
  5
390
  8
DATA
  6
CONTINUOUS
 62
     7
 10
-31.867619958186872
 20
-192.84861761282309
 30
0.0
 70
    32
  0
VERTEX
  5
391
  8
DATA
  6
CONTINUOUS
 62
     7
 10
-31.99761995818697
 20
-192.83861761282341
 30
0.0
 70
    32
  0
VERTEX
  5
392
  8
DATA
  6
CONTINUOUS
 62
     7
 10
-32.127619958187083
 20
-192.82861761282319
 30
0.0
 70
    32
  0
VERTEX
  5
393
  8
DATA
  6
CONTINUOUS
 62
     7
 10
-32.257619958187192
 20
-192.8186176128234
 30
0.0
 70
    32
  0
VERTEX
  5
394
  8
DATA
  6
CONTINUOUS
 62
     7
 10
-32.387619958186392
 20
-192.80861761282321
 30
0.0
 70
    32
  0
VERTEX
  5
395
  8
DATA
  6
CONTINUOUS
 62
     7
 10
-32.517619958186501
 20
-192.80861761282321
 30
0.0
 70
    32
  0
VERTEX
  5
396
  8
DATA
  6
CONTINUOUS
 62
     7
 10
-32.64761995818661
 20
-192.79861761282339
 30
0.0
 70
    32
  0
VERTEX
  5
397
  8
DATA
  6
CONTINUOUS
 62
     7
 10
-32.777619958186719
 20
-192.78861761282309
 30
0.0
 70
    32
  0
VERTEX
  5
398
  8
DATA
  6
CONTINUOUS
 62
     7
 10
-32.907619958186828
 20
-192.77861761282341
 30
0.0
 70
    32
  0
VERTEX
  5
399
  8
DATA
  6
CONTINUOUS
 62
     7
 10
-33.03761995818693
 20
-192.76861761282319
 30
0.0
 70
    32
  0
VERTEX
  5
39A
  8
DATA
  6
CONTINUOUS
 62
     7
 10
-33.167619958187053
 20
-192.7586176128234
 30
0.0
 70
    32
  0
VERTEX
  5
39B
  8
DATA
  6
CONTINUOUS
 62
     7
 10
-33.297619958187163
 20
-192.74861761282321
 30
0.0
 70
    32
  0
VERTEX
  5
39C
  8
DATA
  6
CONTINUOUS
 62
     7
 10
-33.427619958187258
 20
-192.73861761282299
 30
0.0
 70
    32
  0
VERTEX
  5
39D
  8
DATA
  6
CONTINUOUS
 62
     7
 10
-33.557619958186457
 20
-192.72861761282331
 30
0.0
 70
    32
  0
VERTEX
  5
39E
  8
DATA
  6
CONTINUOUS
 62
     7
 10
-33.687619958186573
 20
-192.71861761282301
 30
0.0
 70
    32
  0
VERTEX
  5
39F
  8
DATA
  6
CONTINUOUS
 62
     7
 10
-33.817619958186683
 20
-192.7086176128233
 30
0.0
 70
    32
  0
VERTEX
  5
3A0
  8
DATA
  6
CONTINUOUS
 62
     7
 10
-33.947619958186792
 20
-192.698617612823
 30
0.0
 70
    32
  0
VERTEX
  5
3A1
  8
DATA
  6
CONTINUOUS
 62
     7
 10
-34.077619958186901
 20
-192.68861761282329
 30
0.0
 70
    32
  0
VERTEX
  5
3A2
  8
DATA
  6
CONTINUOUS
 62
     7
 10
-34.20761995818701
 20
-192.6786176128231
 30
0.0
 70
    32
  0
VERTEX
  5
3A3
  8
DATA
  6
CONTINUOUS
 62
     7
 10
-34.337619958187119
 20
-192.65861761282309
 30
0.0
 70
    32
  0
VERTEX
  5
3A4
  8
DATA
  6
CONTINUOUS
 62
     7
 10
-34.467619958187242
 20
-192.6486176128233
 30
0.0
 70
    32
  0
VERTEX
  5
3A5
  8
DATA
  6
CONTINUOUS
 62
     7
 10
-34.597619958186428
 20
-192.63861761282311
 30
0.0
 70
    32
  0
VERTEX
  5
3A6
  8
DATA
  6
CONTINUOUS
 62
     7
 10
-34.727619958186537
 20
-192.62861761282329
 30
0.0
 70
    32
  0
VERTEX
  5
3A7
  8
DATA
  6
CONTINUOUS
 62
     7
 10
-34.857619958186653
 20
-192.6186176128231
 30
0.0
 70
    32
  0
VERTEX
  5
3A8
  8
DATA
  6
CONTINUOUS
 62
     7
 10
-34.987619958186748
 20
-192.60861761282331
 30
0.0
 70
    32
  0
VERTEX
  5
3A9
  8
DATA
  6
CONTINUOUS
 62
     7
 10
-35.117619958186857
 20
-192.59861761282309
 30
0.0
 70
    32
  0
VERTEX
  5
3AA
  8
DATA
  6
CONTINUOUS
 62
     7
 10
-35.247619958186966
 20
-192.57861761282319
 30
0.0
 70
    32
  0
VERTEX
  5
3AB
  8
DATA
  6
CONTINUOUS
 62
     7
 10
-35.377619958187083
 20
-192.5686176128234
 30
0.0
 70
    32
  0
VERTEX
  5
3AC
  8
DATA
  6
CONTINUOUS
 62
     7
 10
-35.507619958187192
 20
-192.55861761282321
 30
0.0
 70
    32
  0
VERTEX
  5
3AD
  8
DATA
  6
CONTINUOUS
 62
     7
 10
-35.637619958186392
 20
-192.54861761282339
 30
0.0
 70
    32
  0
VERTEX
  5
3AE
  8
DATA
  6
CONTINUOUS
 62
     7
 10
-35.767619958186501
 20
-192.53861761282309
 30
0.0
 70
    32
  0
VERTEX
  5
3AF
  8
DATA
  6
CONTINUOUS
 62
     7
 10
-35.89761995818661
 20
-192.51861761282319
 30
0.0
 70
    32
  0
VERTEX
  5
3B0
  8
DATA
  6
CONTINUOUS
 62
     7
 10
-36.027619958186719
 20
-192.5086176128234
 30
0.0
 70
    32
  0
VERTEX
  5
3B1
  8
DATA
  6
CONTINUOUS
 62
     7
 10
-36.157619958186828
 20
-192.49861761282321
 30
0.0
 70
    32
  0
VERTEX
  5
3B2
  8
DATA
  6
CONTINUOUS
 62
     7
 10
-36.297619958187163
 20
-192.48861761282299
 30
0.0
 70
    32
  0
VERTEX
  5
3B3
  8
DATA
  6
CONTINUOUS
 62
     7
 10
-36.427619958187272
 20
-192.46861761282301
 30
0.0
 70
    32
  0
VERTEX
  5
3B4
  8
DATA
  6
CONTINUOUS
 62
     7
 10
-36.557619958186471
 20
-192.4586176128233
 30
0.0
 70
    32
  0
VERTEX
  5
3B5
  8
DATA
  6
CONTINUOUS
 62
     7
 10
-36.687619958186573
 20
-192.448617612823
 30
0.0
 70
    32
  0
VERTEX
  5
3B6
  8
DATA
  6
CONTINUOUS
 62
     7
 10
-36.817619958186683
 20
-192.4286176128231
 30
0.0
 70
    32
  0
VERTEX
  5
3B7
  8
DATA
  6
CONTINUOUS
 62
     7
 10
-36.947619958186792
 20
-192.4186176128232
 30
0.0
 70
    32
  0
VERTEX
  5
3B8
  8
DATA
  6
CONTINUOUS
 62
     7
 10
-37.077619958186901
 20
-192.40861761282309
 30
0.0
 70
    32
  0
VERTEX
  5
3B9
  8
DATA
  6
CONTINUOUS
 62
     7
 10
-37.20761995818701
 20
-192.38861761282311
 30
0.0
 70
    32
  0
VERTEX
  5
3BA
  8
DATA
  6
CONTINUOUS
 62
     7
 10
-37.337619958187119
 20
-192.37861761282329
 30
0.0
 70
    32
  0
VERTEX
  5
3BB
  8
DATA
  6
CONTINUOUS
 62
     7
 10
-37.467619958187228
 20
-192.3686176128231
 30
0.0
 70
    32
  0
VERTEX
  5
3BC
  8
DATA
  6
CONTINUOUS
 62
     7
 10
-37.597619958186421
 20
-192.34861761282309
 30
0.0
 70
    32
  0
VERTEX
  5
3BD
  8
DATA
  6
CONTINUOUS
 62
     7
 10
-37.72761995818653
 20
-192.33861761282341
 30
0.0
 70
    32
  0
VERTEX
  5
3BE
  8
DATA
  6
CONTINUOUS
 62
     7
 10
-37.85761995818666
 20
-192.3186176128234
 30
0.0
 70
    32
  0
VERTEX
  5
3BF
  8
DATA
  6
CONTINUOUS
 62
     7
 10
-37.987619958186762
 20
-192.3086176128231
 30
0.0
 70
    32
  0
VERTEX
  5
3C0
  8
DATA
  6
CONTINUOUS
 62
     7
 10
-38.117619958186872
 20
-192.2886176128232
 30
0.0
 70
    32
  0
VERTEX
  5
3C1
  8
DATA
  6
CONTINUOUS
 62
     7
 10
-38.247619958186966
 20
-192.27861761282341
 30
0.0
 70
    32
  0
VERTEX
  5
3C2
  8
DATA
  6
CONTINUOUS
 62
     7
 10
-38.377619958187083
 20
-192.2586176128234
 30
0.0
 70
    32
  0
VERTEX
  5
3C3
  8
DATA
  6
CONTINUOUS
 62
     7
 10
-38.507619958187192
 20
-192.2486176128233
 30
0.0
 70
    32
  0
VERTEX
  5
3C4
  8
DATA
  6
CONTINUOUS
 62
     7
 10
-38.637619958186392
 20
-192.22861761282331
 30
0.0
 70
    32
  0
VERTEX
  5
3C5
  8
DATA
  6
CONTINUOUS
 62
     7
 10
-38.767619958186494
 20
-192.21861761282301
 30
0.0
 70
    32
  0
VERTEX
  5
3C6
  8
DATA
  6
CONTINUOUS
 62
     7
 10
-38.89761995818661
 20
-192.198617612823
 30
0.0
 70
    32
  0
VERTEX
  5
3C7
  8
DATA
  6
CONTINUOUS
 62
     7
 10
-39.027619958186719
 20
-192.18861761282329
 30
0.0
 70
    32
  0
VERTEX
  5
3C8
  8
DATA
  6
CONTINUOUS
 62
     7
 10
-39.157619958186828
 20
-192.16861761282331
 30
0.0
 70
    32
  0
VERTEX
  5
3C9
  8
DATA
  6
CONTINUOUS
 62
     7
 10
-39.287619958186937
 20
-192.15861761282309
 30
0.0
 70
    32
  0
VERTEX
  5
3CA
  8
DATA
  6
CONTINUOUS
 62
     7
 10
-39.417619958187053
 20
-192.13861761282311
 30
0.0
 70
    32
  0
VERTEX
  5
3CB
  8
DATA
  6
CONTINUOUS
 62
     7
 10
-39.547619958187163
 20
-192.12861761282329
 30
0.0
 70
    32
  0
VERTEX
  5
3CC
  8
DATA
  6
CONTINUOUS
 62
     7
 10
-39.677619958187272
 20
-192.10861761282331
 30
0.0
 70
    32
  0
VERTEX
  5
3CD
  8
DATA
  6
CONTINUOUS
 62
     7
 10
-39.807619958186471
 20
-192.08861761282341
 30
0.0
 70
    32
  0
VERTEX
  5
3CE
  8
DATA
  6
CONTINUOUS
 62
     7
 10
-39.937619958186573
 20
-192.07861761282319
 30
0.0
 70
    32
  0
VERTEX
  5
3CF
  8
DATA
  6
CONTINUOUS
 62
     7
 10
-40.067619958186668
 20
-192.05861761282321
 30
0.0
 70
    32
  0
VERTEX
  5
3D0
  8
DATA
  6
CONTINUOUS
 62
     7
 10
-40.197619958186777
 20
-192.03861761282309
 30
0.0
 70
    32
  0
VERTEX
  5
3D1
  8
DATA
  6
CONTINUOUS
 62
     7
 10
-40.327619958186901
 20
-192.02861761282341
 30
0.0
 70
    32
  0
VERTEX
  5
3D2
  8
DATA
  6
CONTINUOUS
 62
     7
 10
-40.457619958187003
 20
-192.0086176128234
 30
0.0
 70
    32
  0
VERTEX
  5
3D3
  8
DATA
  6
CONTINUOUS
 62
     7
 10
-40.587619958187119
 20
-191.98861761282299
 30
0.0
 70
    32
  0
VERTEX
  5
3D4
  8
DATA
  6
CONTINUOUS
 62
     7
 10
-40.717619958187228
 20
-191.97861761282331
 30
0.0
 70
    32
  0
VERTEX
  5
3D5
  8
DATA
  6
CONTINUOUS
 62
     7
 10
-40.847619958186421
 20
-191.9586176128233
 30
0.0
 70
    32
  0
VERTEX
  5
3D6
  8
DATA
  6
CONTINUOUS
 62
     7
 10
-40.97761995818653
 20
-191.93861761282329
 30
0.0
 70
    32
  0
VERTEX
  5
3D7
  8
DATA
  6
CONTINUOUS
 62
     7
 10
-41.117619958186857
 20
-191.91861761282331
 30
0.0
 70
    32
  0
VERTEX
  5
3D8
  8
DATA
  6
CONTINUOUS
 62
     7
 10
-41.247619958186966
 20
-191.90861761282309
 30
0.0
 70
    32
  0
VERTEX
  5
3D9
  8
DATA
  6
CONTINUOUS
 62
     7
 10
-41.377619958187083
 20
-191.88861761282311
 30
0.0
 70
    32
  0
VERTEX
  5
3DA
  8
DATA
  6
CONTINUOUS
 62
     7
 10
-41.507619958187192
 20
-191.8686176128231
 30
0.0
 70
    32
  0
VERTEX
  5
3DB
  8
DATA
  6
CONTINUOUS
 62
     7
 10
-41.637619958186392
 20
-191.84861761282309
 30
0.0
 70
    32
  0
VERTEX
  5
3DC
  8
DATA
  6
CONTINUOUS
 62
     7
 10
-41.767619958186494
 20
-191.82861761282319
 30
0.0
 70
    32
  0
VERTEX
  5
3DD
  8
DATA
  6
CONTINUOUS
 62
     7
 10
-41.89761995818661
 20
-191.8186176128234
 30
0.0
 70
    32
  0
VERTEX
  5
3DE
  8
DATA
  6
CONTINUOUS
 62
     7
 10
-42.027619958186712
 20
-191.79861761282339
 30
0.0
 70
    32
  0
VERTEX
  5
3DF
  8
DATA
  6
CONTINUOUS
 62
     7
 10
-42.14761995818661
 20
-191.77861761282341
 30
0.0
 70
    32
  0
VERTEX
  5
3E0
  8
DATA
  6
CONTINUOUS
 62
     7
 10
-42.277619958186719
 20
-191.7586176128234
 30
0.0
 70
    32
  0
VERTEX
  5
3E1
  8
DATA
  6
CONTINUOUS
 62
     7
 10
-42.407619958186821
 20
-191.73861761282299
 30
0.0
 70
    32
  0
VERTEX
  5
3E2
  8
DATA
  6
CONTINUOUS
 62
     7
 10
-42.537619958186937
 20
-191.71861761282301
 30
0.0
 70
    32
  0
VERTEX
  5
3E3
  8
DATA
  6
CONTINUOUS
 62
     7
 10
-42.667619958187039
 20
-191.698617612823
 30
0.0
 70
    32
  0
VERTEX
  5
3E4
  8
DATA
  6
CONTINUOUS
 62
     7
 10
-42.797619958187163
 20
-191.6786176128231
 30
0.0
 70
    32
  0
VERTEX
  5
3E5
  8
DATA
  6
CONTINUOUS
 62
     7
 10
-42.927619958187272
 20
-191.66861761282331
 30
0.0
 70
    32
  0
VERTEX
  5
3E6
  8
DATA
  6
CONTINUOUS
 62
     7
 10
-43.057619958186457
 20
-191.6486176128233
 30
0.0
 70
    32
  0
VERTEX
  5
3E7
  8
DATA
  6
CONTINUOUS
 62
     7
 10
-43.187619958186573
 20
-191.62861761282329
 30
0.0
 70
    32
  0
VERTEX
  5
3E8
  8
DATA
  6
CONTINUOUS
 62
     7
 10
-43.317619958186683
 20
-191.60861761282331
 30
0.0
 70
    32
  0
VERTEX
  5
3E9
  8
DATA
  6
CONTINUOUS
 62
     7
 10
-43.447619958186792
 20
-191.58861761282341
 30
0.0
 70
    32
  0
VERTEX
  5
3EA
  8
DATA
  6
CONTINUOUS
 62
     7
 10
-43.577619958186901
 20
-191.5686176128234
 30
0.0
 70
    32
  0
VERTEX
  5
3EB
  8
DATA
  6
CONTINUOUS
 62
     7
 10
-43.70761995818701
 20
-191.54861761282339
 30
0.0
 70
    32
  0
VERTEX
  5
3EC
  8
DATA
  6
CONTINUOUS
 62
     7
 10
-43.837619958187112
 20
-191.52861761282341
 30
0.0
 70
    32
  0
VERTEX
  5
3ED
  8
DATA
  6
CONTINUOUS
 62
     7
 10
-43.967619958187228
 20
-191.5086176128234
 30
0.0
 70
    32
  0
VERTEX
  5
3EE
  8
DATA
  6
CONTINUOUS
 62
     7
 10
-44.097619958186428
 20
-191.48861761282299
 30
0.0
 70
    32
  0
VERTEX
  5
3EF
  8
DATA
  6
CONTINUOUS
 62
     7
 10
-44.227619958186523
 20
-191.46861761282301
 30
0.0
 70
    32
  0
VERTEX
  5
3F0
  8
DATA
  6
CONTINUOUS
 62
     7
 10
-44.357619958186653
 20
-191.448617612823
 30
0.0
 70
    32
  0
VERTEX
  5
3F1
  8
DATA
  6
CONTINUOUS
 62
     7
 10
-44.487619958186762
 20
-191.4286176128231
 30
0.0
 70
    32
  0
VERTEX
  5
3F2
  8
DATA
  6
CONTINUOUS
 62
     7
 10
-44.617619958186857
 20
-191.3986176128233
 30
0.0
 70
    32
  0
VERTEX
  5
3F3
  8
DATA
  6
CONTINUOUS
 62
     7
 10
-44.747619958186981
 20
-191.37861761282329
 30
0.0
 70
    32
  0
VERTEX
  5
3F4
  8
DATA
  6
CONTINUOUS
 62
     7
 10
-44.877619958187069
 20
-191.35861761282339
 30
0.0
 70
    32
  0
VERTEX
  5
3F5
  8
DATA
  6
CONTINUOUS
 62
     7
 10
-45.007619958187192
 20
-191.3386176128233
 30
0.0
 70
    32
  0
VERTEX
  5
3F6
  8
DATA
  6
CONTINUOUS
 62
     7
 10
-45.137619958186392
 20
-191.3186176128234
 30
0.0
 70
    32
  0
VERTEX
  5
3F7
  8
DATA
  6
CONTINUOUS
 62
     7
 10
-45.257619958187192
 20
-191.29861761282339
 30
0.0
 70
    32
  0
VERTEX
  5
3F8
  8
DATA
  6
CONTINUOUS
 62
     7
 10
-45.387619958186392
 20
-191.27861761282341
 30
0.0
 70
    32
  0
VERTEX
  5
3F9
  8
DATA
  6
CONTINUOUS
 62
     7
 10
-45.517619958186501
 20
-191.2586176128234
 30
0.0
 70
    32
  0
VERTEX
  5
3FA
  8
DATA
  6
CONTINUOUS
 62
     7
 10
-45.64761995818661
 20
-191.2286176128232
 30
0.0
 70
    32
  0
VERTEX
  5
3FB
  8
DATA
  6
CONTINUOUS
 62
     7
 10
-45.777619958186712
 20
-191.2086176128233
 30
0.0
 70
    32
  0
VERTEX
  5
3FC
  8
DATA
  6
CONTINUOUS
 62
     7
 10
-45.907619958186807
 20
-191.18861761282329
 30
0.0
 70
    32
  0
VERTEX
  5
3FD
  8
DATA
  6
CONTINUOUS
 62
     7
 10
-46.037619958186937
 20
-191.16861761282331
 30
0.0
 70
    32
  0
VERTEX
  5
3FE
  8
DATA
  6
CONTINUOUS
 62
     7
 10
-46.167619958187053
 20
-191.13861761282311
 30
0.0
 70
    32
  0
VERTEX
  5
3FF
  8
DATA
  6
CONTINUOUS
 62
     7
 10
-46.297619958187163
 20
-191.1186176128231
 30
0.0
 70
    32
  0
VERTEX
  5
400
  8
DATA
  6
CONTINUOUS
 62
     7
 10
-46.427619958187272
 20
-191.09861761282309
 30
0.0
 70
    32
  0
VERTEX
  5
401
  8
DATA
  6
CONTINUOUS
 62
     7
 10
-46.557619958186457
 20
-191.07861761282319
 30
0.0
 70
    32
  0
VERTEX
  5
402
  8
DATA
  6
CONTINUOUS
 62
     7
 10
-46.687619958186559
 20
-191.04861761282339
 30
0.0
 70
    32
  0
VERTEX
  5
403
  8
DATA
  6
CONTINUOUS
 62
     7
 10
-46.807619958186457
 20
-191.02861761282341
 30
0.0
 70
    32
  0
VERTEX
  5
404
  8
DATA
  6
CONTINUOUS
 62
     7
 10
-46.937619958186573
 20
-191.0086176128234
 30
0.0
 70
    32
  0
VERTEX
  5
405
  8
DATA
  6
CONTINUOUS
 62
     7
 10
-47.067619958186683
 20
-190.97861761282331
 30
0.0
 70
    32
  0
VERTEX
  5
406
  8
DATA
  6
CONTINUOUS
 62
     7
 10
-47.197619958186792
 20
-190.9586176128233
 30
0.0
 70
    32
  0
VERTEX
  5
407
  8
DATA
  6
CONTINUOUS
 62
     7
 10
-47.327619958186901
 20
-190.93861761282329
 30
0.0
 70
    32
  0
VERTEX
  5
408
  8
DATA
  6
CONTINUOUS
 62
     7
 10
-47.45761995818701
 20
-190.90861761282309
 30
0.0
 70
    32
  0
VERTEX
  5
409
  8
DATA
  6
CONTINUOUS
 62
     7
 10
-47.587619958187112
 20
-190.88861761282311
 30
0.0
 70
    32
  0
VERTEX
  5
40A
  8
DATA
  6
CONTINUOUS
 62
     7
 10
-47.717619958187221
 20
-190.8686176128231
 30
0.0
 70
    32
  0
VERTEX
  5
40B
  8
DATA
  6
CONTINUOUS
 62
     7
 10
-47.847619958186428
 20
-190.83861761282341
 30
0.0
 70
    32
  0
VERTEX
  5
40C
  8
DATA
  6
CONTINUOUS
 62
     7
 10
-47.967619958187221
 20
-190.8186176128234
 30
0.0
 70
    32
  0
VERTEX
  5
40D
  8
DATA
  6
CONTINUOUS
 62
     7
 10
-48.097619958186428
 20
-190.78861761282309
 30
0.0
 70
    32
  0
VERTEX
  5
40E
  8
DATA
  6
CONTINUOUS
 62
     7
 10
-48.227619958186537
 20
-190.76861761282319
 30
0.0
 70
    32
  0
VERTEX
  5
40F
  8
DATA
  6
CONTINUOUS
 62
     7
 10
-48.357619958186639
 20
-190.74861761282321
 30
0.0
 70
    32
  0
VERTEX
  5
410
  8
DATA
  6
CONTINUOUS
 62
     7
 10
-48.487619958186762
 20
-190.71861761282301
 30
0.0
 70
    32
  0
VERTEX
  5
411
  8
DATA
  6
CONTINUOUS
 62
     7
 10
-48.61761995818685
 20
-190.698617612823
 30
0.0
 70
    32
  0
VERTEX
  5
412
  8
DATA
  6
CONTINUOUS
 62
     7
 10
-48.747619958186981
 20
-190.6686176128232
 30
0.0
 70
    32
  0
VERTEX
  5
413
  8
DATA
  6
CONTINUOUS
 62
     7
 10
-48.867619958186857
 20
-190.6486176128233
 30
0.0
 70
    32
  0
VERTEX
  5
414
  8
DATA
  6
CONTINUOUS
 62
     7
 10
-48.997619958186981
 20
-190.6186176128231
 30
0.0
 70
    32
  0
VERTEX
  5
415
  8
DATA
  6
CONTINUOUS
 62
     7
 10
-49.127619958187083
 20
-190.59861761282309
 30
0.0
 70
    32
  0
VERTEX
  5
416
  8
DATA
  6
CONTINUOUS
 62
     7
 10
-49.257619958187192
 20
-190.5686176128234
 30
0.0
 70
    32
  0
VERTEX
  5
417
  8
DATA
  6
CONTINUOUS
 62
     7
 10
-49.387619958186392
 20
-190.54861761282339
 30
0.0
 70
    32
  0
VERTEX
  5
418
  8
DATA
  6
CONTINUOUS
 62
     7
 10
-49.517619958186501
 20
-190.51861761282319
 30
0.0
 70
    32
  0
VERTEX
  5
419
  8
DATA
  6
CONTINUOUS
 62
     7
 10
-49.64761995818661
 20
-190.48861761282299
 30
0.0
 70
    32
  0
VERTEX
  5
41A
  8
DATA
  6
CONTINUOUS
 62
     7
 10
-49.767619958186501
 20
-190.46861761282301
 30
0.0
 70
    32
  0
VERTEX
  5
41B
  8
DATA
  6
CONTINUOUS
 62
     7
 10
-49.897619958186603
 20
-190.43861761282329
 30
0.0
 70
    32
  0
VERTEX
  5
41C
  8
DATA
  6
CONTINUOUS
 62
     7
 10
-50.027619958186719
 20
-190.41861761282331
 30
0.0
 70
    32
  0
VERTEX
  5
41D
  8
DATA
  6
CONTINUOUS
 62
     7
 10
-50.157619958186821
 20
-190.38861761282311
 30
0.0
 70
    32
  0
VERTEX
  5
41E
  8
DATA
  6
CONTINUOUS
 62
     7
 10
-50.287619958186937
 20
-190.35861761282339
 30
0.0
 70
    32
  0
VERTEX
  5
41F
  8
DATA
  6
CONTINUOUS
 62
     7
 10
-50.417619958187039
 20
-190.33861761282341
 30
0.0
 70
    32
  0
VERTEX
  5
420
  8
DATA
  6
CONTINUOUS
 62
     7
 10
-50.537619958186937
 20
-190.30861761282321
 30
0.0
 70
    32
  0
VERTEX
  5
421
  8
DATA
  6
CONTINUOUS
 62
     7
 10
-50.667619958187053
 20
-190.27861761282341
 30
0.0
 70
    32
  0
VERTEX
  5
422
  8
DATA
  6
CONTINUOUS
 62
     7
 10
-50.797619958187163
 20
-190.2586176128234
 30
0.0
 70
    32
  0
VERTEX
  5
423
  8
DATA
  6
CONTINUOUS
 62
     7
 10
-50.927619958187272
 20
-190.22861761282331
 30
0.0
 70
    32
  0
VERTEX
  5
424
  8
DATA
  6
CONTINUOUS
 62
     7
 10
-51.057619958186457
 20
-190.198617612823
 30
0.0
 70
    32
  0
VERTEX
  5
425
  8
DATA
  6
CONTINUOUS
 62
     7
 10
-51.177619958187272
 20
-190.1786176128231
 30
0.0
 70
    32
  0
VERTEX
  5
426
  8
DATA
  6
CONTINUOUS
 62
     7
 10
-51.307619958186457
 20
-190.1486176128233
 30
0.0
 70
    32
  0
VERTEX
  5
427
  8
DATA
  6
CONTINUOUS
 62
     7
 10
-51.437619958186573
 20
-190.1186176128231
 30
0.0
 70
    32
  0
VERTEX
  5
428
  8
DATA
  6
CONTINUOUS
 62
     7
 10
-51.567619958186683
 20
-190.0886176128233
 30
0.0
 70
    32
  0
VERTEX
  5
429
  8
DATA
  6
CONTINUOUS
 62
     7
 10
-51.697619958186792
 20
-190.0686176128234
 30
0.0
 70
    32
  0
VERTEX
  5
42A
  8
DATA
  6
CONTINUOUS
 62
     7
 10
-51.817619958186683
 20
-190.03861761282309
 30
0.0
 70
    32
  0
VERTEX
  5
42B
  8
DATA
  6
CONTINUOUS
 62
     7
 10
-51.947619958186792
 20
-190.0086176128234
 30
0.0
 70
    32
  0
VERTEX
  5
42C
  8
DATA
  6
CONTINUOUS
 62
     7
 10
-52.077619958186901
 20
-189.9786176128232
 30
0.0
 70
    32
  0
VERTEX
  5
42D
  8
DATA
  6
CONTINUOUS
 62
     7
 10
-52.20761995818701
 20
-189.9586176128233
 30
0.0
 70
    32
  0
VERTEX
  5
42E
  8
DATA
  6
CONTINUOUS
 62
     7
 10
-52.337619958187112
 20
-189.9286176128231
 30
0.0
 70
    32
  0
VERTEX
  5
42F
  8
DATA
  6
CONTINUOUS
 62
     7
 10
-52.45761995818701
 20
-189.8986176128233
 30
0.0
 70
    32
  0
VERTEX
  5
430
  8
DATA
  6
CONTINUOUS
 62
     7
 10
-52.587619958187112
 20
-189.8686176128231
 30
0.0
 70
    32
  0
VERTEX
  5
431
  8
DATA
  6
CONTINUOUS
 62
     7
 10
-52.717619958187221
 20
-189.83861761282341
 30
0.0
 70
    32
  0
VERTEX
  5
432
  8
DATA
  6
CONTINUOUS
 62
     7
 10
-52.847619958186428
 20
-189.80861761282321
 30
0.0
 70
    32
  0
VERTEX
  5
433
  8
DATA
  6
CONTINUOUS
 62
     7
 10
-52.977619958186537
 20
-189.77861761282341
 30
0.0
 70
    32
  0
VERTEX
  5
434
  8
DATA
  6
CONTINUOUS
 62
     7
 10
-53.097619958186428
 20
-189.74861761282321
 30
0.0
 70
    32
  0
VERTEX
  5
435
  8
DATA
  6
CONTINUOUS
 62
     7
 10
-53.227619958186537
 20
-189.72861761282331
 30
0.0
 70
    32
  0
VERTEX
  5
436
  8
DATA
  6
CONTINUOUS
 62
     7
 10
-53.357619958186639
 20
-189.698617612823
 30
0.0
 70
    32
  0
VERTEX
  5
437
  8
DATA
  6
CONTINUOUS
 62
     7
 10
-53.487619958186762
 20
-189.6686176128232
 30
0.0
 70
    32
  0
VERTEX
  5
438
  8
DATA
  6
CONTINUOUS
 62
     7
 10
-53.607619958186639
 20
-189.63861761282311
 30
0.0
 70
    32
  0
VERTEX
  5
439
  8
DATA
  6
CONTINUOUS
 62
     7
 10
-53.737619958186762
 20
-189.60861761282331
 30
0.0
 70
    32
  0
VERTEX
  5
43A
  8
DATA
  6
CONTINUOUS
 62
     7
 10
-53.867619958186857
 20
-189.57861761282319
 30
0.0
 70
    32
  0
VERTEX
  5
43B
  8
DATA
  6
CONTINUOUS
 62
     7
 10
-53.997619958186981
 20
-189.54861761282339
 30
0.0
 70
    32
  0
VERTEX
  5
43C
  8
DATA
  6
CONTINUOUS
 62
     7
 10
-54.117619958186857
 20
-189.51861761282319
 30
0.0
 70
    32
  0
VERTEX
  5
43D
  8
DATA
  6
CONTINUOUS
 62
     7
 10
-54.247619958186981
 20
-189.48861761282299
 30
0.0
 70
    32
  0
VERTEX
  5
43E
  8
DATA
  6
CONTINUOUS
 62
     7
 10
-54.377619958187069
 20
-189.4586176128233
 30
0.0
 70
    32
  0
VERTEX
  5
43F
  8
DATA
  6
CONTINUOUS
 62
     7
 10
-54.507619958187192
 20
-189.4286176128231
 30
0.0
 70
    32
  0
VERTEX
  5
440
  8
DATA
  6
CONTINUOUS
 62
     7
 10
-54.627619958187069
 20
-189.3986176128233
 30
0.0
 70
    32
  0
VERTEX
  5
441
  8
DATA
  6
CONTINUOUS
 62
     7
 10
-54.757619958187192
 20
-189.3686176128231
 30
0.0
 70
    32
  0
VERTEX
  5
442
  8
DATA
  6
CONTINUOUS
 62
     7
 10
-54.887619958186392
 20
-189.32861761282319
 30
0.0
 70
    32
  0
VERTEX
  5
443
  8
DATA
  6
CONTINUOUS
 62
     7
 10
-55.017619958186501
 20
-189.29861761282339
 30
0.0
 70
    32
  0
VERTEX
  5
444
  8
DATA
  6
CONTINUOUS
 62
     7
 10
-55.137619958186392
 20
-189.26861761282319
 30
0.0
 70
    32
  0
VERTEX
  5
445
  8
DATA
  6
CONTINUOUS
 62
     7
 10
-55.267619958186501
 20
-189.23861761282299
 30
0.0
 70
    32
  0
VERTEX
  5
446
  8
DATA
  6
CONTINUOUS
 62
     7
 10
-55.39761995818661
 20
-189.2086176128233
 30
0.0
 70
    32
  0
VERTEX
  5
447
  8
DATA
  6
CONTINUOUS
 62
     7
 10
-55.527619958186719
 20
-189.1786176128231
 30
0.0
 70
    32
  0
VERTEX
  5
448
  8
DATA
  6
CONTINUOUS
 62
     7
 10
-55.64761995818661
 20
-189.1486176128233
 30
0.0
 70
    32
  0
VERTEX
  5
449
  8
DATA
  6
CONTINUOUS
 62
     7
 10
-55.777619958186719
 20
-189.1186176128231
 30
0.0
 70
    32
  0
VERTEX
  5
44A
  8
DATA
  6
CONTINUOUS
 62
     7
 10
-55.907619958186807
 20
-189.07861761282319
 30
0.0
 70
    32
  0
VERTEX
  5
44B
  8
DATA
  6
CONTINUOUS
 62
     7
 10
-56.02761995818674
 20
-189.04861761282339
 30
0.0
 70
    32
  0
VERTEX
  5
44C
  8
DATA
  6
CONTINUOUS
 62
     7
 10
-56.157619958186856
 20
-189.01861761282319
 30
0.0
 70
    32
  0
VERTEX
  5
44D
  8
DATA
  6
CONTINUOUS
 62
     7
 10
-56.287619958186973
 20
-188.98861761282299
 30
0.0
 70
    32
  0
VERTEX
  5
44E
  8
DATA
  6
CONTINUOUS
 62
     7
 10
-56.417619958187082
 20
-188.9586176128233
 30
0.0
 70
    32
  0
VERTEX
  5
44F
  8
DATA
  6
CONTINUOUS
 62
     7
 10
-56.537619958186973
 20
-188.91861761282331
 30
0.0
 70
    32
  0
VERTEX
  5
450
  8
DATA
  6
CONTINUOUS
 62
     7
 10
-56.667619958187068
 20
-188.88861761282311
 30
0.0
 70
    32
  0
VERTEX
  5
451
  8
DATA
  6
CONTINUOUS
 62
     7
 10
-56.797619958187177
 20
-188.85861761282331
 30
0.0
 70
    32
  0
VERTEX
  5
452
  8
DATA
  6
CONTINUOUS
 62
     7
 10
-56.917619958187082
 20
-188.82861761282319
 30
0.0
 70
    32
  0
VERTEX
  5
453
  8
DATA
  6
CONTINUOUS
 62
     7
 10
-57.04761995818717
 20
-188.78861761282309
 30
0.0
 70
    32
  0
VERTEX
  5
454
  8
DATA
  6
CONTINUOUS
 62
     7
 10
-57.177619958187293
 20
-188.7586176128234
 30
0.0
 70
    32
  0
VERTEX
  5
455
  8
DATA
  6
CONTINUOUS
 62
     7
 10
-57.297619958187177
 20
-188.72861761282331
 30
0.0
 70
    32
  0
VERTEX
  5
456
  8
DATA
  6
CONTINUOUS
 62
     7
 10
-57.427619958187279
 20
-188.68861761282329
 30
0.0
 70
    32
  0
VERTEX
  5
457
  8
DATA
  6
CONTINUOUS
 62
     7
 10
-57.557619958186493
 20
-188.65861761282309
 30
0.0
 70
    32
  0
VERTEX
  5
458
  8
DATA
  6
CONTINUOUS
 62
     7
 10
-57.687619958186602
 20
-188.62861761282329
 30
0.0
 70
    32
  0
VERTEX
  5
459
  8
DATA
  6
CONTINUOUS
 62
     7
 10
-57.807619958186493
 20
-188.58861761282341
 30
0.0
 70
    32
  0
VERTEX
  5
45A
  8
DATA
  6
CONTINUOUS
 62
     7
 10
-57.937619958186588
 20
-188.55861761282321
 30
0.0
 70
    32
  0
VERTEX
  5
45B
  8
DATA
  6
CONTINUOUS
 62
     7
 10
-58.067619958186711
 20
-188.52861761282341
 30
0.0
 70
    32
  0
VERTEX
  5
45C
  8
DATA
  6
CONTINUOUS
 62
     7
 10
-58.187619958186588
 20
-188.48861761282299
 30
0.0
 70
    32
  0
VERTEX
  5
45D
  8
DATA
  6
CONTINUOUS
 62
     7
 10
-58.317619958186711
 20
-188.4586176128233
 30
0.0
 70
    32
  0
VERTEX
  5
45E
  8
DATA
  6
CONTINUOUS
 62
     7
 10
-58.44761995818682
 20
-188.41861761282331
 30
0.0
 70
    32
  0
VERTEX
  5
45F
  8
DATA
  6
CONTINUOUS
 62
     7
 10
-58.567619958186711
 20
-188.38861761282311
 30
0.0
 70
    32
  0
VERTEX
  5
460
  8
DATA
  6
CONTINUOUS
 62
     7
 10
-58.69761995818682
 20
-188.34861761282309
 30
0.0
 70
    32
  0
VERTEX
  5
461
  8
DATA
  6
CONTINUOUS
 62
     7
 10
-58.827619958186929
 20
-188.3186176128234
 30
0.0
 70
    32
  0
VERTEX
  5
462
  8
DATA
  6
CONTINUOUS
 62
     7
 10
-58.94761995818682
 20
-188.27861761282341
 30
0.0
 70
    32
  0
VERTEX
  5
463
  8
DATA
  6
CONTINUOUS
 62
     7
 10
-59.077619958186929
 20
-188.24861761282321
 30
0.0
 70
    32
  0
VERTEX
  5
464
  8
DATA
  6
CONTINUOUS
 62
     7
 10
-59.207619958187038
 20
-188.2086176128233
 30
0.0
 70
    32
  0
VERTEX
  5
465
  8
DATA
  6
CONTINUOUS
 62
     7
 10
-59.327619958186929
 20
-188.1786176128231
 30
0.0
 70
    32
  0
VERTEX
  5
466
  8
DATA
  6
CONTINUOUS
 62
     7
 10
-59.457619958187038
 20
-188.13861761282311
 30
0.0
 70
    32
  0
VERTEX
  5
467
  8
DATA
  6
CONTINUOUS
 62
     7
 10
-59.58761995818714
 20
-188.10861761282331
 30
0.0
 70
    32
  0
VERTEX
  5
468
  8
DATA
  6
CONTINUOUS
 62
     7
 10
-59.707619958187038
 20
-188.0686176128234
 30
0.0
 70
    32
  0
VERTEX
  5
469
  8
DATA
  6
CONTINUOUS
 62
     7
 10
-59.83761995818714
 20
-188.03861761282309
 30
0.0
 70
    32
  0
VERTEX
  5
46A
  8
DATA
  6
CONTINUOUS
 62
     7
 10
-59.957619958187031
 20
-187.99861761282321
 30
0.0
 70
    32
  0
VERTEX
  5
46B
  8
DATA
  6
CONTINUOUS
 62
     7
 10
-60.08761995818714
 20
-187.96861761282301
 30
0.0
 70
    32
  0
SEQEND
  5
46C
  8
DATA
  6
CONTINUOUS
 62
     7
  0
ARC
  5
46D
  8
DATA
  6
CONTINUOUS
 62
     7
 10
-22.99807921473711
 20
82.500000000003581
 30
0.0
 40
278.50000000000381
 50
267.53257408794099
 51
280.47456253705371
  0
POLYLINE
  5
46E
  8
DATA
  6
CONTINUOUS
 62
     7
 66
     1
 10
0.0
 20
0.0
 30
0.0
 70
     8
  0
VERTEX
  5
46F
  8
DATA
  6
CONTINUOUS
 62
     7
 10
-58.75761995818722
 20
-183.2886176128232
 30
0.0
 70
    32
  0
VERTEX
  5
470
  8
DATA
  6
CONTINUOUS
 62
     7
 10
-58.647619958186638
 20
-183.3186176128234
 30
0.0
 70
    32
  0
VERTEX
  5
471
  8
DATA
  6
CONTINUOUS
 62
     7
 10
-58.537619958186973
 20
-183.34861761282309
 30
0.0
 70
    32
  0
VERTEX
  5
472
  8
DATA
  6
CONTINUOUS
 62
     7
 10
-58.427619958187293
 20
-183.37861761282329
 30
0.0
 70
    32
  0
VERTEX
  5
473
  8
DATA
  6
CONTINUOUS
 62
     7
 10
-58.317619958186711
 20
-183.40861761282309
 30
0.0
 70
    32
  0
VERTEX
  5
474
  8
DATA
  6
CONTINUOUS
 62
     7
 10
-58.207619958187038
 20
-183.43861761282329
 30
0.0
 70
    32
  0
VERTEX
  5
475
  8
DATA
  6
CONTINUOUS
 62
     7
 10
-58.097619958186471
 20
-183.46861761282301
 30
0.0
 70
    32
  0
VERTEX
  5
476
  8
DATA
  6
CONTINUOUS
 62
     7
 10
-57.987619958186777
 20
-183.49861761282321
 30
0.0
 70
    32
  0
VERTEX
  5
477
  8
DATA
  6
CONTINUOUS
 62
     7
 10
-57.877619958187111
 20
-183.52861761282341
 30
0.0
 70
    32
  0
VERTEX
  5
478
  8
DATA
  6
CONTINUOUS
 62
     7
 10
-57.767619958186522
 20
-183.55861761282321
 30
0.0
 70
    32
  0
VERTEX
  5
479
  8
DATA
  6
CONTINUOUS
 62
     7
 10
-57.657619958186849
 20
-183.58861761282341
 30
0.0
 70
    32
  0
VERTEX
  5
47A
  8
DATA
  6
CONTINUOUS
 62
     7
 10
-57.547619958187177
 20
-183.6186176128231
 30
0.0
 70
    32
  0
VERTEX
  5
47B
  8
DATA
  6
CONTINUOUS
 62
     7
 10
-57.437619958186588
 20
-183.6486176128233
 30
0.0
 70
    32
  0
VERTEX
  5
47C
  8
DATA
  6
CONTINUOUS
 62
     7
 10
-57.327619958186929
 20
-183.6786176128231
 30
0.0
 70
    32
  0
VERTEX
  5
47D
  8
DATA
  6
CONTINUOUS
 62
     7
 10
-57.217619958187257
 20
-183.7086176128233
 30
0.0
 70
    32
  0
VERTEX
  5
47E
  8
DATA
  6
CONTINUOUS
 62
     7
 10
-57.107619958186682
 20
-183.73861761282299
 30
0.0
 70
    32
  0
VERTEX
  5
47F
  8
DATA
  6
CONTINUOUS
 62
     7
 10
-56.997619958187002
 20
-183.76861761282319
 30
0.0
 70
    32
  0
VERTEX
  5
480
  8
DATA
  6
CONTINUOUS
 62
     7
 10
-56.887619958186427
 20
-183.78861761282309
 30
0.0
 70
    32
  0
VERTEX
  5
481
  8
DATA
  6
CONTINUOUS
 62
     7
 10
-56.77761995818674
 20
-183.8186176128234
 30
0.0
 70
    32
  0
VERTEX
  5
482
  8
DATA
  6
CONTINUOUS
 62
     7
 10
-56.667619958187068
 20
-183.84861761282309
 30
0.0
 70
    32
  0
VERTEX
  5
483
  8
DATA
  6
CONTINUOUS
 62
     7
 10
-56.557619958186493
 20
-183.87861761282329
 30
0.0
 70
    32
  0
VERTEX
  5
484
  8
DATA
  6
CONTINUOUS
 62
     7
 10
-56.44761995818682
 20
-183.90861761282309
 30
0.0
 70
    32
  0
VERTEX
  5
485
  8
DATA
  6
CONTINUOUS
 62
     7
 10
-56.33761995818714
 20
-183.93861761282329
 30
0.0
 70
    32
  0
VERTEX
  5
486
  8
DATA
  6
CONTINUOUS
 62
     7
 10
-56.227619958186573
 20
-183.9586176128233
 30
0.0
 70
    32
  0
VERTEX
  5
487
  8
DATA
  6
CONTINUOUS
 62
     7
 10
-56.117619958186893
 20
-183.98861761282299
 30
0.0
 70
    32
  0
VERTEX
  5
488
  8
DATA
  6
CONTINUOUS
 62
     7
 10
-56.00761995818722
 20
-184.01861761282319
 30
0.0
 70
    32
  0
VERTEX
  5
489
  8
DATA
  6
CONTINUOUS
 62
     7
 10
-55.89761995818661
 20
-184.04861761282339
 30
0.0
 70
    32
  0
VERTEX
  5
48A
  8
DATA
  6
CONTINUOUS
 62
     7
 10
-55.787619958186951
 20
-184.07861761282319
 30
0.0
 70
    32
  0
VERTEX
  5
48B
  8
DATA
  6
CONTINUOUS
 62
     7
 10
-55.677619958187272
 20
-184.09861761282309
 30
0.0
 70
    32
  0
VERTEX
  5
48C
  8
DATA
  6
CONTINUOUS
 62
     7
 10
-55.567619958186683
 20
-184.12861761282329
 30
0.0
 70
    32
  0
VERTEX
  5
48D
  8
DATA
  6
CONTINUOUS
 62
     7
 10
-55.457619958187003
 20
-184.15861761282309
 30
0.0
 70
    32
  0
VERTEX
  5
48E
  8
DATA
  6
CONTINUOUS
 62
     7
 10
-55.347619958186428
 20
-184.18861761282329
 30
0.0
 70
    32
  0
VERTEX
  5
48F
  8
DATA
  6
CONTINUOUS
 62
     7
 10
-55.237619958186762
 20
-184.2086176128233
 30
0.0
 70
    32
  0
VERTEX
  5
490
  8
DATA
  6
CONTINUOUS
 62
     7
 10
-55.127619958187069
 20
-184.23861761282299
 30
0.0
 70
    32
  0
VERTEX
  5
491
  8
DATA
  6
CONTINUOUS
 62
     7
 10
-55.017619958186501
 20
-184.26861761282319
 30
0.0
 70
    32
  0
VERTEX
  5
492
  8
DATA
  6
CONTINUOUS
 62
     7
 10
-54.897619958186603
 20
-184.29861761282339
 30
0.0
 70
    32
  0
VERTEX
  5
493
  8
DATA
  6
CONTINUOUS
 62
     7
 10
-54.787619958186937
 20
-184.3186176128234
 30
0.0
 70
    32
  0
VERTEX
  5
494
  8
DATA
  6
CONTINUOUS
 62
     7
 10
-54.677619958187272
 20
-184.34861761282309
 30
0.0
 70
    32
  0
VERTEX
  5
495
  8
DATA
  6
CONTINUOUS
 62
     7
 10
-54.567619958186683
 20
-184.37861761282329
 30
0.0
 70
    32
  0
VERTEX
  5
496
  8
DATA
  6
CONTINUOUS
 62
     7
 10
-54.45761995818701
 20
-184.3986176128233
 30
0.0
 70
    32
  0
VERTEX
  5
497
  8
DATA
  6
CONTINUOUS
 62
     7
 10
-54.347619958186428
 20
-184.4286176128231
 30
0.0
 70
    32
  0
VERTEX
  5
498
  8
DATA
  6
CONTINUOUS
 62
     7
 10
-54.237619958186762
 20
-184.4586176128233
 30
0.0
 70
    32
  0
VERTEX
  5
499
  8
DATA
  6
CONTINUOUS
 62
     7
 10
-54.127619958187083
 20
-184.47861761282331
 30
0.0
 70
    32
  0
VERTEX
  5
49A
  8
DATA
  6
CONTINUOUS
 62
     7
 10
-54.017619958186501
 20
-184.5086176128234
 30
0.0
 70
    32
  0
VERTEX
  5
49B
  8
DATA
  6
CONTINUOUS
 62
     7
 10
-53.907619958186821
 20
-184.53861761282309
 30
0.0
 70
    32
  0
VERTEX
  5
49C
  8
DATA
  6
CONTINUOUS
 62
     7
 10
-53.797619958187163
 20
-184.55861761282321
 30
0.0
 70
    32
  0
VERTEX
  5
49D
  8
DATA
  6
CONTINUOUS
 62
     7
 10
-53.687619958186559
 20
-184.58861761282341
 30
0.0
 70
    32
  0
VERTEX
  5
49E
  8
DATA
  6
CONTINUOUS
 62
     7
 10
-53.577619958186901
 20
-184.60861761282331
 30
0.0
 70
    32
  0
VERTEX
  5
49F
  8
DATA
  6
CONTINUOUS
 62
     7
 10
-53.467619958187221
 20
-184.63861761282311
 30
0.0
 70
    32
  0
VERTEX
  5
4A0
  8
DATA
  6
CONTINUOUS
 62
     7
 10
-53.357619958186639
 20
-184.66861761282331
 30
0.0
 70
    32
  0
VERTEX
  5
4A1
  8
DATA
  6
CONTINUOUS
 62
     7
 10
-53.247619958186981
 20
-184.68861761282329
 30
0.0
 70
    32
  0
VERTEX
  5
4A2
  8
DATA
  6
CONTINUOUS
 62
     7
 10
-53.127619958187069
 20
-184.71861761282301
 30
0.0
 70
    32
  0
VERTEX
  5
4A3
  8
DATA
  6
CONTINUOUS
 62
     7
 10
-53.017619958186501
 20
-184.73861761282299
 30
0.0
 70
    32
  0
VERTEX
  5
4A4
  8
DATA
  6
CONTINUOUS
 62
     7
 10
-52.907619958186807
 20
-184.76861761282319
 30
0.0
 70
    32
  0
VERTEX
  5
4A5
  8
DATA
  6
CONTINUOUS
 62
     7
 10
-52.797619958187163
 20
-184.78861761282309
 30
0.0
 70
    32
  0
VERTEX
  5
4A6
  8
DATA
  6
CONTINUOUS
 62
     7
 10
-52.687619958186573
 20
-184.8186176128234
 30
0.0
 70
    32
  0
VERTEX
  5
4A7
  8
DATA
  6
CONTINUOUS
 62
     7
 10
-52.577619958186901
 20
-184.83861761282341
 30
0.0
 70
    32
  0
VERTEX
  5
4A8
  8
DATA
  6
CONTINUOUS
 62
     7
 10
-52.467619958187221
 20
-184.8686176128231
 30
0.0
 70
    32
  0
VERTEX
  5
4A9
  8
DATA
  6
CONTINUOUS
 62
     7
 10
-52.357619958186639
 20
-184.88861761282311
 30
0.0
 70
    32
  0
VERTEX
  5
4AA
  8
DATA
  6
CONTINUOUS
 62
     7
 10
-52.247619958186981
 20
-184.91861761282331
 30
0.0
 70
    32
  0
VERTEX
  5
4AB
  8
DATA
  6
CONTINUOUS
 62
     7
 10
-52.137619958186392
 20
-184.93861761282329
 30
0.0
 70
    32
  0
VERTEX
  5
4AC
  8
DATA
  6
CONTINUOUS
 62
     7
 10
-52.027619958186719
 20
-184.96861761282301
 30
0.0
 70
    32
  0
VERTEX
  5
4AD
  8
DATA
  6
CONTINUOUS
 62
     7
 10
-51.907619958186807
 20
-184.98861761282299
 30
0.0
 70
    32
  0
VERTEX
  5
4AE
  8
DATA
  6
CONTINUOUS
 62
     7
 10
-51.797619958187163
 20
-185.01861761282319
 30
0.0
 70
    32
  0
VERTEX
  5
4AF
  8
DATA
  6
CONTINUOUS
 62
     7
 10
-51.687619958186559
 20
-185.0386176128232
 30
0.0
 70
    32
  0
VERTEX
  5
4B0
  8
DATA
  6
CONTINUOUS
 62
     7
 10
-51.577619958186901
 20
-185.05861761282321
 30
0.0
 70
    32
  0
VERTEX
  5
4B1
  8
DATA
  6
CONTINUOUS
 62
     7
 10
-51.467619958187221
 20
-185.0886176128233
 30
0.0
 70
    32
  0
VERTEX
  5
4B2
  8
DATA
  6
CONTINUOUS
 62
     7
 10
-51.357619958186653
 20
-185.10861761282339
 30
0.0
 70
    32
  0
VERTEX
  5
4B3
  8
DATA
  6
CONTINUOUS
 62
     7
 10
-51.247619958186981
 20
-185.13861761282311
 30
0.0
 70
    32
  0
VERTEX
  5
4B4
  8
DATA
  6
CONTINUOUS
 62
     7
 10
-51.137619958186392
 20
-185.15861761282309
 30
0.0
 70
    32
  0
VERTEX
  5
4B5
  8
DATA
  6
CONTINUOUS
 62
     7
 10
-51.027619958186719
 20
-185.1786176128231
 30
0.0
 70
    32
  0
VERTEX
  5
4B6
  8
DATA
  6
CONTINUOUS
 62
     7
 10
-50.907619958186807
 20
-185.2086176128233
 30
0.0
 70
    32
  0
VERTEX
  5
4B7
  8
DATA
  6
CONTINUOUS
 62
     7
 10
-50.797619958187163
 20
-185.22861761282331
 30
0.0
 70
    32
  0
VERTEX
  5
4B8
  8
DATA
  6
CONTINUOUS
 62
     7
 10
-50.687619958186573
 20
-185.2586176128234
 30
0.0
 70
    32
  0
VERTEX
  5
4B9
  8
DATA
  6
CONTINUOUS
 62
     7
 10
-50.577619958186901
 20
-185.27861761282341
 30
0.0
 70
    32
  0
VERTEX
  5
4BA
  8
DATA
  6
CONTINUOUS
 62
     7
 10
-50.467619958187221
 20
-185.29861761282339
 30
0.0
 70
    32
  0
VERTEX
  5
4BB
  8
DATA
  6
CONTINUOUS
 62
     7
 10
-50.357619958186639
 20
-185.3186176128234
 30
0.0
 70
    32
  0
VERTEX
  5
4BC
  8
DATA
  6
CONTINUOUS
 62
     7
 10
-50.247619958186981
 20
-185.34861761282309
 30
0.0
 70
    32
  0
VERTEX
  5
4BD
  8
DATA
  6
CONTINUOUS
 62
     7
 10
-50.137619958186392
 20
-185.3686176128231
 30
0.0
 70
    32
  0
VERTEX
  5
4BE
  8
DATA
  6
CONTINUOUS
 62
     7
 10
-50.027619958186719
 20
-185.38861761282311
 30
0.0
 70
    32
  0
VERTEX
  5
4BF
  8
DATA
  6
CONTINUOUS
 62
     7
 10
-49.907619958186807
 20
-185.41861761282331
 30
0.0
 70
    32
  0
VERTEX
  5
4C0
  8
DATA
  6
CONTINUOUS
 62
     7
 10
-49.797619958187163
 20
-185.43861761282329
 30
0.0
 70
    32
  0
VERTEX
  5
4C1
  8
DATA
  6
CONTINUOUS
 62
     7
 10
-49.687619958186559
 20
-185.4586176128233
 30
0.0
 70
    32
  0
VERTEX
  5
4C2
  8
DATA
  6
CONTINUOUS
 62
     7
 10
-49.577619958186901
 20
-185.47861761282331
 30
0.0
 70
    32
  0
VERTEX
  5
4C3
  8
DATA
  6
CONTINUOUS
 62
     7
 10
-49.467619958187221
 20
-185.5086176128234
 30
0.0
 70
    32
  0
VERTEX
  5
4C4
  8
DATA
  6
CONTINUOUS
 62
     7
 10
-49.357619958186653
 20
-185.52861761282341
 30
0.0
 70
    32
  0
VERTEX
  5
4C5
  8
DATA
  6
CONTINUOUS
 62
     7
 10
-49.247619958186981
 20
-185.54861761282339
 30
0.0
 70
    32
  0
VERTEX
  5
4C6
  8
DATA
  6
CONTINUOUS
 62
     7
 10
-49.127619958187083
 20
-185.5686176128234
 30
0.0
 70
    32
  0
VERTEX
  5
4C7
  8
DATA
  6
CONTINUOUS
 62
     7
 10
-49.017619958186501
 20
-185.59861761282309
 30
0.0
 70
    32
  0
VERTEX
  5
4C8
  8
DATA
  6
CONTINUOUS
 62
     7
 10
-48.907619958186821
 20
-185.6186176128231
 30
0.0
 70
    32
  0
VERTEX
  5
4C9
  8
DATA
  6
CONTINUOUS
 62
     7
 10
-48.797619958187163
 20
-185.63861761282311
 30
0.0
 70
    32
  0
VERTEX
  5
4CA
  8
DATA
  6
CONTINUOUS
 62
     7
 10
-48.687619958186559
 20
-185.65861761282309
 30
0.0
 70
    32
  0
VERTEX
  5
4CB
  8
DATA
  6
CONTINUOUS
 62
     7
 10
-48.577619958186901
 20
-185.6786176128231
 30
0.0
 70
    32
  0
VERTEX
  5
4CC
  8
DATA
  6
CONTINUOUS
 62
     7
 10
-48.467619958187221
 20
-185.698617612823
 30
0.0
 70
    32
  0
VERTEX
  5
4CD
  8
DATA
  6
CONTINUOUS
 62
     7
 10
-48.347619958186421
 20
-185.72861761282331
 30
0.0
 70
    32
  0
VERTEX
  5
4CE
  8
DATA
  6
CONTINUOUS
 62
     7
 10
-48.237619958186762
 20
-185.74861761282321
 30
0.0
 70
    32
  0
VERTEX
  5
4CF
  8
DATA
  6
CONTINUOUS
 62
     7
 10
-48.127619958187069
 20
-185.76861761282319
 30
0.0
 70
    32
  0
VERTEX
  5
4D0
  8
DATA
  6
CONTINUOUS
 62
     7
 10
-48.017619958186501
 20
-185.78861761282309
 30
0.0
 70
    32
  0
VERTEX
  5
4D1
  8
DATA
  6
CONTINUOUS
 62
     7
 10
-47.907619958186807
 20
-185.80861761282321
 30
0.0
 70
    32
  0
VERTEX
  5
4D2
  8
DATA
  6
CONTINUOUS
 62
     7
 10
-47.797619958187163
 20
-185.82861761282319
 30
0.0
 70
    32
  0
VERTEX
  5
4D3
  8
DATA
  6
CONTINUOUS
 62
     7
 10
-47.677619958187272
 20
-185.84861761282309
 30
0.0
 70
    32
  0
VERTEX
  5
4D4
  8
DATA
  6
CONTINUOUS
 62
     7
 10
-47.567619958186683
 20
-185.8686176128231
 30
0.0
 70
    32
  0
VERTEX
  5
4D5
  8
DATA
  6
CONTINUOUS
 62
     7
 10
-47.45761995818701
 20
-185.88861761282311
 30
0.0
 70
    32
  0
VERTEX
  5
4D6
  8
DATA
  6
CONTINUOUS
 62
     7
 10
-47.347619958186428
 20
-185.91861761282331
 30
0.0
 70
    32
  0
VERTEX
  5
4D7
  8
DATA
  6
CONTINUOUS
 62
     7
 10
-47.237619958186762
 20
-185.93861761282329
 30
0.0
 70
    32
  0
VERTEX
  5
4D8
  8
DATA
  6
CONTINUOUS
 62
     7
 10
-47.127619958187069
 20
-185.9586176128233
 30
0.0
 70
    32
  0
VERTEX
  5
4D9
  8
DATA
  6
CONTINUOUS
 62
     7
 10
-47.007619958187192
 20
-185.97861761282331
 30
0.0
 70
    32
  0
VERTEX
  5
4DA
  8
DATA
  6
CONTINUOUS
 62
     7
 10
-46.89761995818661
 20
-185.9986176128233
 30
0.0
 70
    32
  0
VERTEX
  5
4DB
  8
DATA
  6
CONTINUOUS
 62
     7
 10
-46.787619958186937
 20
-186.01861761282319
 30
0.0
 70
    32
  0
VERTEX
  5
4DC
  8
DATA
  6
CONTINUOUS
 62
     7
 10
-46.677619958187272
 20
-186.0386176128232
 30
0.0
 70
    32
  0
VERTEX
  5
4DD
  8
DATA
  6
CONTINUOUS
 62
     7
 10
-46.567619958186683
 20
-186.0586176128231
 30
0.0
 70
    32
  0
VERTEX
  5
4DE
  8
DATA
  6
CONTINUOUS
 62
     7
 10
-46.447619958186777
 20
-186.07861761282319
 30
0.0
 70
    32
  0
VERTEX
  5
4DF
  8
DATA
  6
CONTINUOUS
 62
     7
 10
-46.337619958187112
 20
-186.09861761282309
 30
0.0
 70
    32
  0
VERTEX
  5
4E0
  8
DATA
  6
CONTINUOUS
 62
     7
 10
-46.227619958186537
 20
-186.1186176128231
 30
0.0
 70
    32
  0
VERTEX
  5
4E1
  8
DATA
  6
CONTINUOUS
 62
     7
 10
-46.11761995818685
 20
-186.13861761282311
 30
0.0
 70
    32
  0
VERTEX
  5
4E2
  8
DATA
  6
CONTINUOUS
 62
     7
 10
-46.007619958187192
 20
-186.15861761282309
 30
0.0
 70
    32
  0
VERTEX
  5
4E3
  8
DATA
  6
CONTINUOUS
 62
     7
 10
-45.89761995818661
 20
-186.1686176128232
 30
0.0
 70
    32
  0
VERTEX
  5
4E4
  8
DATA
  6
CONTINUOUS
 62
     7
 10
-45.777619958186712
 20
-186.18861761282329
 30
0.0
 70
    32
  0
VERTEX
  5
4E5
  8
DATA
  6
CONTINUOUS
 62
     7
 10
-45.667619958187039
 20
-186.2086176128233
 30
0.0
 70
    32
  0
VERTEX
  5
4E6
  8
DATA
  6
CONTINUOUS
 62
     7
 10
-45.557619958186457
 20
-186.22861761282331
 30
0.0
 70
    32
  0
VERTEX
  5
4E7
  8
DATA
  6
CONTINUOUS
 62
     7
 10
-45.447619958186792
 20
-186.24861761282321
 30
0.0
 70
    32
  0
VERTEX
  5
4E8
  8
DATA
  6
CONTINUOUS
 62
     7
 10
-45.337619958187112
 20
-186.26861761282319
 30
0.0
 70
    32
  0
VERTEX
  5
4E9
  8
DATA
  6
CONTINUOUS
 62
     7
 10
-45.217619958187221
 20
-186.28861761282309
 30
0.0
 70
    32
  0
VERTEX
  5
4EA
  8
DATA
  6
CONTINUOUS
 62
     7
 10
-45.107619958186639
 20
-186.30861761282321
 30
0.0
 70
    32
  0
VERTEX
  5
4EB
  8
DATA
  6
CONTINUOUS
 62
     7
 10
-44.997619958186981
 20
-186.32861761282319
 30
0.0
 70
    32
  0
VERTEX
  5
4EC
  8
DATA
  6
CONTINUOUS
 62
     7
 10
-44.887619958186392
 20
-186.34861761282309
 30
0.0
 70
    32
  0
VERTEX
  5
4ED
  8
DATA
  6
CONTINUOUS
 62
     7
 10
-44.767619958186494
 20
-186.35861761282331
 30
0.0
 70
    32
  0
VERTEX
  5
4EE
  8
DATA
  6
CONTINUOUS
 62
     7
 10
-44.657619958186828
 20
-186.37861761282329
 30
0.0
 70
    32
  0
VERTEX
  5
4EF
  8
DATA
  6
CONTINUOUS
 62
     7
 10
-44.547619958187163
 20
-186.3986176128233
 30
0.0
 70
    32
  0
VERTEX
  5
4F0
  8
DATA
  6
CONTINUOUS
 62
     7
 10
-44.437619958186573
 20
-186.41861761282331
 30
0.0
 70
    32
  0
VERTEX
  5
4F1
  8
DATA
  6
CONTINUOUS
 62
     7
 10
-44.327619958186887
 20
-186.43861761282329
 30
0.0
 70
    32
  0
VERTEX
  5
4F2
  8
DATA
  6
CONTINUOUS
 62
     7
 10
-44.207619958187003
 20
-186.448617612823
 30
0.0
 70
    32
  0
VERTEX
  5
4F3
  8
DATA
  6
CONTINUOUS
 62
     7
 10
-44.097619958186428
 20
-186.46861761282301
 30
0.0
 70
    32
  0
VERTEX
  5
4F4
  8
DATA
  6
CONTINUOUS
 62
     7
 10
-43.987619958186762
 20
-186.48861761282299
 30
0.0
 70
    32
  0
VERTEX
  5
4F5
  8
DATA
  6
CONTINUOUS
 62
     7
 10
-43.877619958187069
 20
-186.5086176128234
 30
0.0
 70
    32
  0
VERTEX
  5
4F6
  8
DATA
  6
CONTINUOUS
 62
     7
 10
-43.757619958187192
 20
-186.52861761282341
 30
0.0
 70
    32
  0
VERTEX
  5
4F7
  8
DATA
  6
CONTINUOUS
 62
     7
 10
-43.647619958186603
 20
-186.53861761282309
 30
0.0
 70
    32
  0
VERTEX
  5
4F8
  8
DATA
  6
CONTINUOUS
 62
     7
 10
-43.537619958186937
 20
-186.55861761282321
 30
0.0
 70
    32
  0
VERTEX
  5
4F9
  8
DATA
  6
CONTINUOUS
 62
     7
 10
-43.427619958187272
 20
-186.57861761282319
 30
0.0
 70
    32
  0
VERTEX
  5
4FA
  8
DATA
  6
CONTINUOUS
 62
     7
 10
-43.317619958186683
 20
-186.59861761282309
 30
0.0
 70
    32
  0
VERTEX
  5
4FB
  8
DATA
  6
CONTINUOUS
 62
     7
 10
-43.197619958186792
 20
-186.60861761282331
 30
0.0
 70
    32
  0
VERTEX
  5
4FC
  8
DATA
  6
CONTINUOUS
 62
     7
 10
-43.087619958187112
 20
-186.62861761282329
 30
0.0
 70
    32
  0
VERTEX
  5
4FD
  8
DATA
  6
CONTINUOUS
 62
     7
 10
-42.977619958186523
 20
-186.6486176128233
 30
0.0
 70
    32
  0
VERTEX
  5
4FE
  8
DATA
  6
CONTINUOUS
 62
     7
 10
-42.867619958186857
 20
-186.65861761282309
 30
0.0
 70
    32
  0
VERTEX
  5
4FF
  8
DATA
  6
CONTINUOUS
 62
     7
 10
-42.747619958186966
 20
-186.6786176128231
 30
0.0
 70
    32
  0
VERTEX
  5
500
  8
DATA
  6
CONTINUOUS
 62
     7
 10
-42.637619958186392
 20
-186.698617612823
 30
0.0
 70
    32
  0
VERTEX
  5
501
  8
DATA
  6
CONTINUOUS
 62
     7
 10
-42.527619958186719
 20
-186.7086176128233
 30
0.0
 70
    32
  0
VERTEX
  5
502
  8
DATA
  6
CONTINUOUS
 62
     7
 10
-42.417619958187053
 20
-186.72861761282331
 30
0.0
 70
    32
  0
VERTEX
  5
503
  8
DATA
  6
CONTINUOUS
 62
     7
 10
-42.297619958187148
 20
-186.74861761282321
 30
0.0
 70
    32
  0
VERTEX
  5
504
  8
DATA
  6
CONTINUOUS
 62
     7
 10
-42.187619958186559
 20
-186.7586176128234
 30
0.0
 70
    32
  0
VERTEX
  5
505
  8
DATA
  6
CONTINUOUS
 62
     7
 10
-42.077619958186901
 20
-186.77861761282341
 30
0.0
 70
    32
  0
VERTEX
  5
506
  8
DATA
  6
CONTINUOUS
 62
     7
 10
-41.967619958187228
 20
-186.7886176128232
 30
0.0
 70
    32
  0
VERTEX
  5
507
  8
DATA
  6
CONTINUOUS
 62
     7
 10
-41.847619958186421
 20
-186.80861761282321
 30
0.0
 70
    32
  0
VERTEX
  5
508
  8
DATA
  6
CONTINUOUS
 62
     7
 10
-41.737619958186762
 20
-186.82861761282319
 30
0.0
 70
    32
  0
VERTEX
  5
509
  8
DATA
  6
CONTINUOUS
 62
     7
 10
-41.627619958187083
 20
-186.83861761282341
 30
0.0
 70
    32
  0
VERTEX
  5
50A
  8
DATA
  6
CONTINUOUS
 62
     7
 10
-41.507619958187192
 20
-186.85861761282331
 30
0.0
 70
    32
  0
VERTEX
  5
50B
  8
DATA
  6
CONTINUOUS
 62
     7
 10
-41.39761995818661
 20
-186.8686176128231
 30
0.0
 70
    32
  0
VERTEX
  5
50C
  8
DATA
  6
CONTINUOUS
 62
     7
 10
-41.287619958186937
 20
-186.88861761282311
 30
0.0
 70
    32
  0
VERTEX
  5
50D
  8
DATA
  6
CONTINUOUS
 62
     7
 10
-41.177619958187272
 20
-186.8986176128233
 30
0.0
 70
    32
  0
VERTEX
  5
50E
  8
DATA
  6
CONTINUOUS
 62
     7
 10
-41.057619958186471
 20
-186.91861761282331
 30
0.0
 70
    32
  0
VERTEX
  5
50F
  8
DATA
  6
CONTINUOUS
 62
     7
 10
-40.947619958186792
 20
-186.93861761282329
 30
0.0
 70
    32
  0
VERTEX
  5
510
  8
DATA
  6
CONTINUOUS
 62
     7
 10
-40.837619958187112
 20
-186.948617612823
 30
0.0
 70
    32
  0
VERTEX
  5
511
  8
DATA
  6
CONTINUOUS
 62
     7
 10
-40.72761995818653
 20
-186.96861761282301
 30
0.0
 70
    32
  0
VERTEX
  5
512
  8
DATA
  6
CONTINUOUS
 62
     7
 10
-40.607619958186653
 20
-186.97861761282331
 30
0.0
 70
    32
  0
VERTEX
  5
513
  8
DATA
  6
CONTINUOUS
 62
     7
 10
-40.497619958186966
 20
-186.99861761282321
 30
0.0
 70
    32
  0
VERTEX
  5
514
  8
DATA
  6
CONTINUOUS
 62
     7
 10
-40.387619958186392
 20
-187.0086176128234
 30
0.0
 70
    32
  0
VERTEX
  5
515
  8
DATA
  6
CONTINUOUS
 62
     7
 10
-40.267619958186494
 20
-187.01861761282319
 30
0.0
 70
    32
  0
VERTEX
  5
516
  8
DATA
  6
CONTINUOUS
 62
     7
 10
-40.157619958186821
 20
-187.0386176128232
 30
0.0
 70
    32
  0
VERTEX
  5
517
  8
DATA
  6
CONTINUOUS
 62
     7
 10
-40.047619958187148
 20
-187.04861761282339
 30
0.0
 70
    32
  0
VERTEX
  5
518
  8
DATA
  6
CONTINUOUS
 62
     7
 10
-39.937619958186573
 20
-187.0686176128234
 30
0.0
 70
    32
  0
VERTEX
  5
519
  8
DATA
  6
CONTINUOUS
 62
     7
 10
-39.817619958186683
 20
-187.07861761282319
 30
0.0
 70
    32
  0
VERTEX
  5
51A
  8
DATA
  6
CONTINUOUS
 62
     7
 10
-39.70761995818701
 20
-187.09861761282309
 30
0.0
 70
    32
  0
VERTEX
  5
51B
  8
DATA
  6
CONTINUOUS
 62
     7
 10
-39.597619958186421
 20
-187.10861761282331
 30
0.0
 70
    32
  0
VERTEX
  5
51C
  8
DATA
  6
CONTINUOUS
 62
     7
 10
-39.47761995818653
 20
-187.1186176128231
 30
0.0
 70
    32
  0
VERTEX
  5
51D
  8
DATA
  6
CONTINUOUS
 62
     7
 10
-39.367619958186872
 20
-187.13861761282311
 30
0.0
 70
    32
  0
VERTEX
  5
51E
  8
DATA
  6
CONTINUOUS
 62
     7
 10
-39.257619958187192
 20
-187.1486176128233
 30
0.0
 70
    32
  0
VERTEX
  5
51F
  8
DATA
  6
CONTINUOUS
 62
     7
 10
-39.137619958186392
 20
-187.16861761282331
 30
0.0
 70
    32
  0
VERTEX
  5
520
  8
DATA
  6
CONTINUOUS
 62
     7
 10
-39.027619958186719
 20
-187.1786176128231
 30
0.0
 70
    32
  0
VERTEX
  5
521
  8
DATA
  6
CONTINUOUS
 62
     7
 10
-38.917619958187039
 20
-187.18861761282329
 30
0.0
 70
    32
  0
VERTEX
  5
522
  8
DATA
  6
CONTINUOUS
 62
     7
 10
-38.807619958186471
 20
-187.2086176128233
 30
0.0
 70
    32
  0
VERTEX
  5
523
  8
DATA
  6
CONTINUOUS
 62
     7
 10
-38.687619958186573
 20
-187.21861761282301
 30
0.0
 70
    32
  0
VERTEX
  5
524
  8
DATA
  6
CONTINUOUS
 62
     7
 10
-38.577619958186901
 20
-187.2286176128232
 30
0.0
 70
    32
  0
VERTEX
  5
525
  8
DATA
  6
CONTINUOUS
 62
     7
 10
-38.467619958187228
 20
-187.2486176128233
 30
0.0
 70
    32
  0
VERTEX
  5
526
  8
DATA
  6
CONTINUOUS
 62
     7
 10
-38.347619958186421
 20
-187.2586176128234
 30
0.0
 70
    32
  0
VERTEX
  5
527
  8
DATA
  6
CONTINUOUS
 62
     7
 10
-38.237619958186762
 20
-187.26861761282319
 30
0.0
 70
    32
  0
VERTEX
  5
528
  8
DATA
  6
CONTINUOUS
 62
     7
 10
-38.127619958187083
 20
-187.2886176128232
 30
0.0
 70
    32
  0
VERTEX
  5
529
  8
DATA
  6
CONTINUOUS
 62
     7
 10
-38.007619958187192
 20
-187.29861761282339
 30
0.0
 70
    32
  0
VERTEX
  5
52A
  8
DATA
  6
CONTINUOUS
 62
     7
 10
-37.89761995818661
 20
-187.3086176128231
 30
0.0
 70
    32
  0
VERTEX
  5
52B
  8
DATA
  6
CONTINUOUS
 62
     7
 10
-37.787619958186937
 20
-187.3186176128234
 30
0.0
 70
    32
  0
VERTEX
  5
52C
  8
DATA
  6
CONTINUOUS
 62
     7
 10
-37.667619958187053
 20
-187.3386176128233
 30
0.0
 70
    32
  0
VERTEX
  5
52D
  8
DATA
  6
CONTINUOUS
 62
     7
 10
-37.557619958186471
 20
-187.34861761282309
 30
0.0
 70
    32
  0
VERTEX
  5
52E
  8
DATA
  6
CONTINUOUS
 62
     7
 10
-37.447619958186792
 20
-187.35861761282339
 30
0.0
 70
    32
  0
VERTEX
  5
52F
  8
DATA
  6
CONTINUOUS
 62
     7
 10
-37.337619958187119
 20
-187.3686176128231
 30
0.0
 70
    32
  0
VERTEX
  5
530
  8
DATA
  6
CONTINUOUS
 62
     7
 10
-37.217619958187228
 20
-187.37861761282329
 30
0.0
 70
    32
  0
VERTEX
  5
531
  8
DATA
  6
CONTINUOUS
 62
     7
 10
-37.107619958186653
 20
-187.3986176128233
 30
0.0
 70
    32
  0
VERTEX
  5
532
  8
DATA
  6
CONTINUOUS
 62
     7
 10
-36.997619958186966
 20
-187.40861761282309
 30
0.0
 70
    32
  0
VERTEX
  5
533
  8
DATA
  6
CONTINUOUS
 62
     7
 10
-36.877619958187083
 20
-187.4186176128232
 30
0.0
 70
    32
  0
VERTEX
  5
534
  8
DATA
  6
CONTINUOUS
 62
     7
 10
-36.767619958186501
 20
-187.4286176128231
 30
0.0
 70
    32
  0
VERTEX
  5
535
  8
DATA
  6
CONTINUOUS
 62
     7
 10
-36.657619958186828
 20
-187.43861761282329
 30
0.0
 70
    32
  0
VERTEX
  5
536
  8
DATA
  6
CONTINUOUS
 62
     7
 10
-36.537619958186937
 20
-187.4586176128233
 30
0.0
 70
    32
  0
VERTEX
  5
537
  8
DATA
  6
CONTINUOUS
 62
     7
 10
-36.427619958187272
 20
-187.46861761282301
 30
0.0
 70
    32
  0
VERTEX
  5
538
  8
DATA
  6
CONTINUOUS
 62
     7
 10
-36.317619958186668
 20
-187.47861761282331
 30
0.0
 70
    32
  0
VERTEX
  5
539
  8
DATA
  6
CONTINUOUS
 62
     7
 10
-36.20761995818701
 20
-187.48861761282299
 30
0.0
 70
    32
  0
VERTEX
  5
53A
  8
DATA
  6
CONTINUOUS
 62
     7
 10
-36.087619958187119
 20
-187.49861761282321
 30
0.0
 70
    32
  0
VERTEX
  5
53B
  8
DATA
  6
CONTINUOUS
 62
     7
 10
-35.97761995818653
 20
-187.5086176128234
 30
0.0
 70
    32
  0
VERTEX
  5
53C
  8
DATA
  6
CONTINUOUS
 62
     7
 10
-35.867619958186872
 20
-187.51861761282319
 30
0.0
 70
    32
  0
VERTEX
  5
53D
  8
DATA
  6
CONTINUOUS
 62
     7
 10
-35.747619958186966
 20
-187.52861761282341
 30
0.0
 70
    32
  0
VERTEX
  5
53E
  8
DATA
  6
CONTINUOUS
 62
     7
 10
-35.637619958186392
 20
-187.53861761282309
 30
0.0
 70
    32
  0
VERTEX
  5
53F
  8
DATA
  6
CONTINUOUS
 62
     7
 10
-35.527619958186719
 20
-187.54861761282339
 30
0.0
 70
    32
  0
VERTEX
  5
540
  8
DATA
  6
CONTINUOUS
 62
     7
 10
-35.417619958187053
 20
-187.5686176128234
 30
0.0
 70
    32
  0
VERTEX
  5
541
  8
DATA
  6
CONTINUOUS
 62
     7
 10
-35.297619958187163
 20
-187.57861761282319
 30
0.0
 70
    32
  0
VERTEX
  5
542
  8
DATA
  6
CONTINUOUS
 62
     7
 10
-35.187619958186573
 20
-187.58861761282341
 30
0.0
 70
    32
  0
VERTEX
  5
543
  8
DATA
  6
CONTINUOUS
 62
     7
 10
-35.077619958186901
 20
-187.59861761282309
 30
0.0
 70
    32
  0
VERTEX
  5
544
  8
DATA
  6
CONTINUOUS
 62
     7
 10
-34.95761995818701
 20
-187.60861761282331
 30
0.0
 70
    32
  0
VERTEX
  5
545
  8
DATA
  6
CONTINUOUS
 62
     7
 10
-34.847619958186428
 20
-187.6186176128231
 30
0.0
 70
    32
  0
VERTEX
  5
546
  8
DATA
  6
CONTINUOUS
 62
     7
 10
-34.737619958186762
 20
-187.62861761282329
 30
0.0
 70
    32
  0
VERTEX
  5
547
  8
DATA
  6
CONTINUOUS
 62
     7
 10
-34.617619958186872
 20
-187.63861761282311
 30
0.0
 70
    32
  0
VERTEX
  5
548
  8
DATA
  6
CONTINUOUS
 62
     7
 10
-34.507619958187192
 20
-187.6486176128233
 30
0.0
 70
    32
  0
VERTEX
  5
549
  8
DATA
  6
CONTINUOUS
 62
     7
 10
-34.39761995818661
 20
-187.65861761282309
 30
0.0
 70
    32
  0
VERTEX
  5
54A
  8
DATA
  6
CONTINUOUS
 62
     7
 10
-34.28761995818693
 20
-187.66861761282331
 30
0.0
 70
    32
  0
VERTEX
  5
54B
  8
DATA
  6
CONTINUOUS
 62
     7
 10
-34.167619958187053
 20
-187.66861761282331
 30
0.0
 70
    32
  0
VERTEX
  5
54C
  8
DATA
  6
CONTINUOUS
 62
     7
 10
-34.057619958186471
 20
-187.6786176128231
 30
0.0
 70
    32
  0
VERTEX
  5
54D
  8
DATA
  6
CONTINUOUS
 62
     7
 10
-33.947619958186792
 20
-187.68861761282329
 30
0.0
 70
    32
  0
VERTEX
  5
54E
  8
DATA
  6
CONTINUOUS
 62
     7
 10
-33.827619958186901
 20
-187.698617612823
 30
0.0
 70
    32
  0
VERTEX
  5
54F
  8
DATA
  6
CONTINUOUS
 62
     7
 10
-33.717619958187242
 20
-187.7086176128233
 30
0.0
 70
    32
  0
VERTEX
  5
550
  8
DATA
  6
CONTINUOUS
 62
     7
 10
-33.607619958186653
 20
-187.71861761282301
 30
0.0
 70
    32
  0
VERTEX
  5
551
  8
DATA
  6
CONTINUOUS
 62
     7
 10
-33.497619958186966
 20
-187.72861761282331
 30
0.0
 70
    32
  0
VERTEX
  5
552
  8
DATA
  6
CONTINUOUS
 62
     7
 10
-33.377619958187083
 20
-187.73861761282299
 30
0.0
 70
    32
  0
VERTEX
  5
553
  8
DATA
  6
CONTINUOUS
 62
     7
 10
-33.267619958186501
 20
-187.74861761282321
 30
0.0
 70
    32
  0
VERTEX
  5
554
  8
DATA
  6
CONTINUOUS
 62
     7
 10
-33.157619958186828
 20
-187.7586176128234
 30
0.0
 70
    32
  0
VERTEX
  5
555
  8
DATA
  6
CONTINUOUS
 62
     7
 10
-33.03761995818693
 20
-187.7586176128234
 30
0.0
 70
    32
  0
VERTEX
  5
556
  8
DATA
  6
CONTINUOUS
 62
     7
 10
-32.927619958187272
 20
-187.76861761282319
 30
0.0
 70
    32
  0
VERTEX
  5
557
  8
DATA
  6
CONTINUOUS
 62
     7
 10
-32.817619958186683
 20
-187.77861761282341
 30
0.0
 70
    32
  0
VERTEX
  5
558
  8
DATA
  6
CONTINUOUS
 62
     7
 10
-32.70761995818701
 20
-187.78861761282309
 30
0.0
 70
    32
  0
VERTEX
  5
559
  8
DATA
  6
CONTINUOUS
 62
     7
 10
-32.587619958187119
 20
-187.79861761282339
 30
0.0
 70
    32
  0
VERTEX
  5
55A
  8
DATA
  6
CONTINUOUS
 62
     7
 10
-32.477619958186537
 20
-187.80861761282321
 30
0.0
 70
    32
  0
VERTEX
  5
55B
  8
DATA
  6
CONTINUOUS
 62
     7
 10
-32.367619958186872
 20
-187.80861761282321
 30
0.0
 70
    32
  0
VERTEX
  5
55C
  8
DATA
  6
CONTINUOUS
 62
     7
 10
-32.247619958186966
 20
-187.8186176128234
 30
0.0
 70
    32
  0
VERTEX
  5
55D
  8
DATA
  6
CONTINUOUS
 62
     7
 10
-32.137619958186392
 20
-187.82861761282319
 30
0.0
 70
    32
  0
VERTEX
  5
55E
  8
DATA
  6
CONTINUOUS
 62
     7
 10
-32.027619958186719
 20
-187.83861761282341
 30
0.0
 70
    32
  0
VERTEX
  5
55F
  8
DATA
  6
CONTINUOUS
 62
     7
 10
-31.91761995818705
 20
-187.83861761282341
 30
0.0
 70
    32
  0
VERTEX
  5
560
  8
DATA
  6
CONTINUOUS
 62
     7
 10
-31.797619958187148
 20
-187.84861761282309
 30
0.0
 70
    32
  0
VERTEX
  5
561
  8
DATA
  6
CONTINUOUS
 62
     7
 10
-31.68761995818657
 20
-187.85861761282331
 30
0.0
 70
    32
  0
VERTEX
  5
562
  8
DATA
  6
CONTINUOUS
 62
     7
 10
-31.577619958186901
 20
-187.8686176128231
 30
0.0
 70
    32
  0
VERTEX
  5
563
  8
DATA
  6
CONTINUOUS
 62
     7
 10
-31.45761995818701
 20
-187.8686176128231
 30
0.0
 70
    32
  0
VERTEX
  5
564
  8
DATA
  6
CONTINUOUS
 62
     7
 10
-31.347619958186431
 20
-187.87861761282329
 30
0.0
 70
    32
  0
VERTEX
  5
565
  8
DATA
  6
CONTINUOUS
 62
     7
 10
-31.237619958186752
 20
-187.88861761282311
 30
0.0
 70
    32
  0
VERTEX
  5
566
  8
DATA
  6
CONTINUOUS
 62
     7
 10
-31.127619958187079
 20
-187.88861761282311
 30
0.0
 70
    32
  0
VERTEX
  5
567
  8
DATA
  6
CONTINUOUS
 62
     7
 10
-31.007619958187188
 20
-187.8986176128233
 30
0.0
 70
    32
  0
VERTEX
  5
568
  8
DATA
  6
CONTINUOUS
 62
     7
 10
-30.89761995818661
 20
-187.90861761282309
 30
0.0
 70
    32
  0
VERTEX
  5
569
  8
DATA
  6
CONTINUOUS
 62
     7
 10
-30.78761995818693
 20
-187.90861761282309
 30
0.0
 70
    32
  0
VERTEX
  5
56A
  8
DATA
  6
CONTINUOUS
 62
     7
 10
-30.677619958187261
 20
-187.91861761282331
 30
0.0
 70
    32
  0
VERTEX
  5
56B
  8
DATA
  6
CONTINUOUS
 62
     7
 10
-30.557619958186471
 20
-187.9286176128231
 30
0.0
 70
    32
  0
VERTEX
  5
56C
  8
DATA
  6
CONTINUOUS
 62
     7
 10
-30.447619958186792
 20
-187.9286176128231
 30
0.0
 70
    32
  0
VERTEX
  5
56D
  8
DATA
  6
CONTINUOUS
 62
     7
 10
-30.337619958187119
 20
-187.93861761282329
 30
0.0
 70
    32
  0
VERTEX
  5
56E
  8
DATA
  6
CONTINUOUS
 62
     7
 10
-30.217619958187228
 20
-187.948617612823
 30
0.0
 70
    32
  0
VERTEX
  5
56F
  8
DATA
  6
CONTINUOUS
 62
     7
 10
-30.10761995818665
 20
-187.948617612823
 30
0.0
 70
    32
  0
VERTEX
  5
570
  8
DATA
  6
CONTINUOUS
 62
     7
 10
-29.99761995818697
 20
-187.9586176128233
 30
0.0
 70
    32
  0
VERTEX
  5
571
  8
DATA
  6
CONTINUOUS
 62
     7
 10
-29.887619958186392
 20
-187.9586176128233
 30
0.0
 70
    32
  0
VERTEX
  5
572
  8
DATA
  6
CONTINUOUS
 62
     7
 10
-29.767619958186501
 20
-187.96861761282301
 30
0.0
 70
    32
  0
VERTEX
  5
573
  8
DATA
  6
CONTINUOUS
 62
     7
 10
-29.657619958186832
 20
-187.96861761282301
 30
0.0
 70
    32
  0
VERTEX
  5
574
  8
DATA
  6
CONTINUOUS
 62
     7
 10
-29.547619958187159
 20
-187.97861761282331
 30
0.0
 70
    32
  0
VERTEX
  5
575
  8
DATA
  6
CONTINUOUS
 62
     7
 10
-29.43761995818657
 20
-187.98861761282299
 30
0.0
 70
    32
  0
VERTEX
  5
576
  8
DATA
  6
CONTINUOUS
 62
     7
 10
-29.317619958186679
 20
-187.98861761282299
 30
0.0
 70
    32
  0
VERTEX
  5
577
  8
DATA
  6
CONTINUOUS
 62
     7
 10
-29.20761995818701
 20
-187.99861761282321
 30
0.0
 70
    32
  0
VERTEX
  5
578
  8
DATA
  6
CONTINUOUS
 62
     7
 10
-29.097619958186431
 20
-187.99861761282321
 30
0.0
 70
    32
  0
VERTEX
  5
579
  8
DATA
  6
CONTINUOUS
 62
     7
 10
-28.977619958186541
 20
-188.0086176128234
 30
0.0
 70
    32
  0
VERTEX
  5
57A
  8
DATA
  6
CONTINUOUS
 62
     7
 10
-28.867619958186861
 20
-188.0086176128234
 30
0.0
 70
    32
  0
VERTEX
  5
57B
  8
DATA
  6
CONTINUOUS
 62
     7
 10
-28.757619958187188
 20
-188.01861761282319
 30
0.0
 70
    32
  0
VERTEX
  5
57C
  8
DATA
  6
CONTINUOUS
 62
     7
 10
-28.64761995818661
 20
-188.01861761282319
 30
0.0
 70
    32
  0
VERTEX
  5
57D
  8
DATA
  6
CONTINUOUS
 62
     7
 10
-28.527619958186719
 20
-188.02861761282341
 30
0.0
 70
    32
  0
VERTEX
  5
57E
  8
DATA
  6
CONTINUOUS
 62
     7
 10
-28.41761995818705
 20
-188.02861761282341
 30
0.0
 70
    32
  0
VERTEX
  5
57F
  8
DATA
  6
CONTINUOUS
 62
     7
 10
-28.307619958186461
 20
-188.03861761282309
 30
0.0
 70
    32
  0
VERTEX
  5
580
  8
DATA
  6
CONTINUOUS
 62
     7
 10
-28.197619958186792
 20
-188.03861761282309
 30
0.0
 70
    32
  0
VERTEX
  5
581
  8
DATA
  6
CONTINUOUS
 62
     7
 10
-28.077619958186901
 20
-188.03861761282309
 30
0.0
 70
    32
  0
VERTEX
  5
582
  8
DATA
  6
CONTINUOUS
 62
     7
 10
-27.967619958187228
 20
-188.04861761282339
 30
0.0
 70
    32
  0
VERTEX
  5
583
  8
DATA
  6
CONTINUOUS
 62
     7
 10
-27.85761995818665
 20
-188.04861761282339
 30
0.0
 70
    32
  0
VERTEX
  5
584
  8
DATA
  6
CONTINUOUS
 62
     7
 10
-27.737619958186759
 20
-188.05861761282321
 30
0.0
 70
    32
  0
VERTEX
  5
585
  8
DATA
  6
CONTINUOUS
 62
     7
 10
-27.62761995818709
 20
-188.05861761282321
 30
0.0
 70
    32
  0
VERTEX
  5
586
  8
DATA
  6
CONTINUOUS
 62
     7
 10
-27.517619958186501
 20
-188.05861761282321
 30
0.0
 70
    32
  0
VERTEX
  5
587
  8
DATA
  6
CONTINUOUS
 62
     7
 10
-27.407619958186832
 20
-188.0686176128234
 30
0.0
 70
    32
  0
VERTEX
  5
588
  8
DATA
  6
CONTINUOUS
 62
     7
 10
-27.28761995818693
 20
-188.0686176128234
 30
0.0
 70
    32
  0
VERTEX
  5
589
  8
DATA
  6
CONTINUOUS
 62
     7
 10
-27.177619958187261
 20
-188.07861761282319
 30
0.0
 70
    32
  0
VERTEX
  5
58A
  8
DATA
  6
CONTINUOUS
 62
     7
 10
-27.06761995818669
 20
-188.07861761282319
 30
0.0
 70
    32
  0
VERTEX
  5
58B
  8
DATA
  6
CONTINUOUS
 62
     7
 10
-26.95761995818701
 20
-188.07861761282319
 30
0.0
 70
    32
  0
VERTEX
  5
58C
  8
DATA
  6
CONTINUOUS
 62
     7
 10
-26.837619958187119
 20
-188.08861761282341
 30
0.0
 70
    32
  0
VERTEX
  5
58D
  8
DATA
  6
CONTINUOUS
 62
     7
 10
-26.727619958186541
 20
-188.08861761282341
 30
0.0
 70
    32
  0
VERTEX
  5
58E
  8
DATA
  6
CONTINUOUS
 62
     7
 10
-26.617619958186861
 20
-188.08861761282341
 30
0.0
 70
    32
  0
VERTEX
  5
58F
  8
DATA
  6
CONTINUOUS
 62
     7
 10
-26.507619958187188
 20
-188.08861761282341
 30
0.0
 70
    32
  0
VERTEX
  5
590
  8
DATA
  6
CONTINUOUS
 62
     7
 10
-26.387619958186392
 20
-188.09861761282309
 30
0.0
 70
    32
  0
VERTEX
  5
591
  8
DATA
  6
CONTINUOUS
 62
     7
 10
-26.277619958186708
 20
-188.09861761282309
 30
0.0
 70
    32
  0
VERTEX
  5
592
  8
DATA
  6
CONTINUOUS
 62
     7
 10
-26.16761995818705
 20
-188.09861761282309
 30
0.0
 70
    32
  0
VERTEX
  5
593
  8
DATA
  6
CONTINUOUS
 62
     7
 10
-26.047619958187159
 20
-188.10861761282331
 30
0.0
 70
    32
  0
VERTEX
  5
594
  8
DATA
  6
CONTINUOUS
 62
     7
 10
-25.93761995818657
 20
-188.10861761282331
 30
0.0
 70
    32
  0
VERTEX
  5
595
  8
DATA
  6
CONTINUOUS
 62
     7
 10
-25.827619958186901
 20
-188.10861761282331
 30
0.0
 70
    32
  0
VERTEX
  5
596
  8
DATA
  6
CONTINUOUS
 62
     7
 10
-25.717619958187228
 20
-188.10861761282331
 30
0.0
 70
    32
  0
VERTEX
  5
597
  8
DATA
  6
CONTINUOUS
 62
     7
 10
-25.597619958186431
 20
-188.10861761282331
 30
0.0
 70
    32
  0
VERTEX
  5
598
  8
DATA
  6
CONTINUOUS
 62
     7
 10
-25.487619958186759
 20
-188.1186176128231
 30
0.0
 70
    32
  0
VERTEX
  5
599
  8
DATA
  6
CONTINUOUS
 62
     7
 10
-25.377619958187079
 20
-188.1186176128231
 30
0.0
 70
    32
  0
VERTEX
  5
59A
  8
DATA
  6
CONTINUOUS
 62
     7
 10
-25.267619958186501
 20
-188.1186176128231
 30
0.0
 70
    32
  0
VERTEX
  5
59B
  8
DATA
  6
CONTINUOUS
 62
     7
 10
-25.14761995818661
 20
-188.1186176128231
 30
0.0
 70
    32
  0
VERTEX
  5
59C
  8
DATA
  6
CONTINUOUS
 62
     7
 10
-25.03761995818693
 20
-188.1186176128231
 30
0.0
 70
    32
  0
VERTEX
  5
59D
  8
DATA
  6
CONTINUOUS
 62
     7
 10
-24.927619958187272
 20
-188.12861761282329
 30
0.0
 70
    32
  0
VERTEX
  5
59E
  8
DATA
  6
CONTINUOUS
 62
     7
 10
-24.817619958186679
 20
-188.12861761282329
 30
0.0
 70
    32
  0
VERTEX
  5
59F
  8
DATA
  6
CONTINUOUS
 62
     7
 10
-24.697619958186792
 20
-188.12861761282329
 30
0.0
 70
    32
  0
VERTEX
  5
5A0
  8
DATA
  6
CONTINUOUS
 62
     7
 10
-24.587619958187119
 20
-188.12861761282329
 30
0.0
 70
    32
  0
VERTEX
  5
5A1
  8
DATA
  6
CONTINUOUS
 62
     7
 10
-24.477619958186541
 20
-188.12861761282329
 30
0.0
 70
    32
  0
VERTEX
  5
5A2
  8
DATA
  6
CONTINUOUS
 62
     7
 10
-24.367619958186872
 20
-188.12861761282329
 30
0.0
 70
    32
  0
VERTEX
  5
5A3
  8
DATA
  6
CONTINUOUS
 62
     7
 10
-24.24761995818697
 20
-188.12861761282329
 30
0.0
 70
    32
  0
VERTEX
  5
5A4
  8
DATA
  6
CONTINUOUS
 62
     7
 10
-24.137619958186392
 20
-188.13861761282311
 30
0.0
 70
    32
  0
VERTEX
  5
5A5
  8
DATA
  6
CONTINUOUS
 62
     7
 10
-24.027619958186719
 20
-188.13861761282311
 30
0.0
 70
    32
  0
VERTEX
  5
5A6
  8
DATA
  6
CONTINUOUS
 62
     7
 10
-23.91761995818705
 20
-188.13861761282311
 30
0.0
 70
    32
  0
VERTEX
  5
5A7
  8
DATA
  6
CONTINUOUS
 62
     7
 10
-23.797619958187159
 20
-188.13861761282311
 30
0.0
 70
    32
  0
VERTEX
  5
5A8
  8
DATA
  6
CONTINUOUS
 62
     7
 10
-23.68761995818657
 20
-188.13861761282311
 30
0.0
 70
    32
  0
VERTEX
  5
5A9
  8
DATA
  6
CONTINUOUS
 62
     7
 10
-23.577619958186901
 20
-188.13861761282311
 30
0.0
 70
    32
  0
VERTEX
  5
5AA
  8
DATA
  6
CONTINUOUS
 62
     7
 10
-23.467619958187228
 20
-188.13861761282311
 30
0.0
 70
    32
  0
VERTEX
  5
5AB
  8
DATA
  6
CONTINUOUS
 62
     7
 10
-23.347619958186431
 20
-188.13861761282311
 30
0.0
 70
    32
  0
VERTEX
  5
5AC
  8
DATA
  6
CONTINUOUS
 62
     7
 10
-23.237619958186759
 20
-188.13861761282311
 30
0.0
 70
    32
  0
VERTEX
  5
5AD
  8
DATA
  6
CONTINUOUS
 62
     7
 10
-23.127619958187079
 20
-188.13861761282311
 30
0.0
 70
    32
  0
VERTEX
  5
5AE
  8
DATA
  6
CONTINUOUS
 62
     7
 10
-23.007619958187188
 20
-188.13861761282311
 30
0.0
 70
    32
  0
SEQEND
  5
5AF
  8
DATA
  6
CONTINUOUS
 62
     7
  0
POLYLINE
  5
5B0
  8
DATA
  6
CONTINUOUS
 62
     7
 66
     1
 10
0.0
 20
0.0
 30
0.0
  0
VERTEX
  5
95C
  8
DATA
  6
CONTINUOUS
 62
     7
 10
-58.759051685547107
 20
-183.29013824462939
 30
0.0
  0
VERTEX
  5
95D
  8
DATA
  6
CONTINUOUS
 62
     7
 10
-58.913308506225817
 20
-183.83248090744021
 30
0.0
  0
VERTEX
  5
95E
  8
DATA
  6
CONTINUOUS
 62
     7
 10
-59.07233369848565
 20
-184.3914532661434
 30
0.0
  0
VERTEX
  5
95F
  8
DATA
  6
CONTINUOUS
 62
     7
 10
-59.235173588012927
 20
-184.96484994888311
 30
0.0
  0
VERTEX
  5
960
  8
DATA
  6
CONTINUOUS
 62
     7
 10
-59.401828174804933
 20
-185.5502271652222
 30
0.0
  0
VERTEX
  5
961
  8
DATA
  6
CONTINUOUS
 62
     7
 10
-59.570866947387927
 20
-186.14537954330399
 30
0.0
  0
VERTEX
  5
962
  8
DATA
  6
CONTINUOUS
 62
     7
 10
-59.742289905761957
 20
-186.74786329269409
 30
0.0
  0
VERTEX
  5
963
  8
DATA
  6
CONTINUOUS
 62
     7
 10
-59.914904957029648
 20
-187.35517501831009
 30
0.0
  0
VERTEX
  5
964
  8
DATA
  6
CONTINUOUS
 62
     7
 10
-60.088235264036499
 20
-187.9649901390072
 30
0.0
  0
SEQEND
  5
965
  8
DATA
  6
CONTINUOUS
 62
     7
  0
ARC
  5
5BC
  8
DATA
  6
CONTINUOUS
 62
     7
 10
-35.073995896897927
 20
-197.7399369045844
 30
0.0
 40
1.9999999999996221
 50
283.26139533608301
 51
87.532574087941043
  0
POLYLINE
  5
5BD
  8
DATA
  6
CONTINUOUS
 62
     7
 66
     1
 10
0.0
 20
0.0
 30
0.0
  0
VERTEX
  5
966
  8
DATA
  6
CONTINUOUS
 62
     7
 10
14.09165250756906
 20
-187.96171188354319
 30
0.0
  0
VERTEX
  5
967
  8
DATA
  6
CONTINUOUS
 62
     7
 10
13.91832220056223
 20
-187.3529696464521
 30
0.0
  0
VERTEX
  5
968
  8
DATA
  6
CONTINUOUS
 62
     7
 10
13.745945567870891
 20
-186.74667119979731
 30
0.0
  0
VERTEX
  5
969
  8
DATA
  6
CONTINUOUS
 62
     7
 10
13.57499944665507
 20
-186.14531993865839
 30
0.0
  0
VERTEX
  5
96A
  8
DATA
  6
CONTINUOUS
 62
     7
 10
13.405960674072061
 20
-185.55118083953721
 30
0.0
  0
VERTEX
  5
96B
  8
DATA
  6
CONTINUOUS
 62
     7
 10
13.23954450585917
 20
-184.96669769287021
 30
0.0
  0
VERTEX
  5
96C
  8
DATA
  6
CONTINUOUS
 62
     7
 10
13.076943034911899
 20
-184.3942546844473
 30
0.0
  0
VERTEX
  5
96D
  8
DATA
  6
CONTINUOUS
 62
     7
 10
12.91815626123026
 20
-183.83611679077009
 30
0.0
  0
VERTEX
  5
96E
  8
DATA
  6
CONTINUOUS
 62
     7
 10
12.76413785913156
 20
-183.29448938369609
 30
0.0
  0
SEQEND
  5
96F
  8
DATA
  6
CONTINUOUS
 62
     7
  0
LINE
  5
5C9
  8
DATA
  6
CONTINUOUS
 62
     7
 10
14.043253536012349
 20
-209.50002908706529
 30
0.0
 11
16.064089412476289
 21
-205.9999847412092
 31
0.0
  0
LINE
  5
5CA
  8
DATA
  6
CONTINUOUS
 62
     7
 10
10.001820201660861
 20
-209.50002908706529
 30
0.0
 11
14.043253536012349
 21
-209.50002908706529
 31
0.0
  0
LINE
  5
5CB
  8
DATA
  6
CONTINUOUS
 62
     7
 10
5.9603868673102758
 20
-195.49997091293201
 30
0.0
 11
3.9397894094254431
 21
-199.00001525878821
 31
0.0
  0
LINE
  5
5CC
  8
DATA
  6
CONTINUOUS
 62
     7
 10
10.001820201660861
 20
-195.49997091293201
 30
0.0
 11
5.9603868673102758
 21
-195.49997091293201
 31
0.0
  0
LINE
  5
5CD
  8
DATA
  6
CONTINUOUS
 62
     7
 10
3.9397894094254431
 20
-199.00001525878821
 30
0.0
 11
1.9189535329606
 21
-202.49999999999909
 31
0.0
  0
LINE
  5
5CE
  8
DATA
  6
CONTINUOUS
 62
     7
 10
1.9189535329606
 20
-202.49999999999909
 30
0.0
 11
3.9397894094254431
 21
-205.9999847412092
 31
0.0
  0
LINE
  5
5CF
  8
DATA
  6
CONTINUOUS
 62
     7
 10
16.064089412476289
 20
-199.00001525878821
 30
0.0
 11
14.043253536012349
 21
-195.49997091293201
 31
0.0
  0
LINE
  5
5D0
  8
DATA
  6
CONTINUOUS
 62
     7
 10
14.043253536012349
 20
-195.49997091293201
 30
0.0
 11
10.001820201660861
 21
-195.49997091293201
 31
0.0
  0
LINE
  5
5D1
  8
DATA
  6
CONTINUOUS
 62
     7
 10
18.084925288941129
 20
-202.49999999999909
 30
0.0
 11
16.064089412476289
 21
-199.00001525878821
 31
0.0
  0
LINE
  5
5D2
  8
DATA
  6
CONTINUOUS
 62
     7
 10
16.064089412476289
 20
-205.9999847412092
 30
0.0
 11
18.084925288941129
 21
-202.49999999999909
 31
0.0
  0
LINE
  5
5D3
  8
DATA
  6
CONTINUOUS
 62
     7
 10
3.9397894094254431
 20
-205.9999847412092
 30
0.0
 11
5.9603868673102758
 21
-209.50002908706529
 31
0.0
  0
LINE
  5
5D4
  8
DATA
  6
CONTINUOUS
 62
     7
 10
5.9603868673102758
 20
-209.50002908706529
 30
0.0
 11
10.001820201660861
 21
-209.50002908706529
 31
0.0
  0
CIRCLE
  5
5D5
  8
DATA
  6
CONTINUOUS
 62
     7
 10
10.001920785267441
 20
-202.49999999999909
 30
0.0
 40
1.600000000025829
  0
CIRCLE
  5
5D6
  8
DATA
  6
CONTINUOUS
 62
     7
 10
10.001920785267441
 20
-202.49999999999909
 30
0.0
 40
7.0
  0
CIRCLE
  5
5D7
  8
DATA
  6
CONTINUOUS
 62
     7
 10
10.001920785267441
 20
-202.49999999999909
 30
0.0
 40
4.6000000000121872
  0
ARC
  5
5D8
  8
DATA
  6
CONTINUOUS
 62
     7
 10
27.99653308798408
 20
-193.32566870415721
 30
0.0
 40
2.0000000000005338
 50
100.4745625370514
 51
264.7457412888885
  0
CIRCLE
  5
5D9
  8
DATA
  6
CONTINUOUS
 62
     7
 10
-128.3569896115286
 20
-160.858910396797
 30
0.0
 40
3.25
  0
ARC
  5
5DA
  8
DATA
  6
CONTINUOUS
 62
     7
 10
-22.894458577467041
 20
-55.764912452400097
 30
0.0
 40
17.535299028305271
 50
269.65800251342341
 51
329.78759197211218
  0
ARC
  5
5DB
  8
DATA
  6
CONTINUOUS
 62
     7
 10
-23.107478823553709
 20
-55.778031309733286
 30
0.0
 40
17.52220280877901
 50
210.1813939266969
 51
270.3543052264809
  0
ARC
  5
5DC
  8
DATA
  6
CONTINUOUS
 62
     7
 10
-22.963028750209549
 20
-55.366959229340011
 30
0.0
 40
17.666982453082252
 50
30.459942628114561
 51
90.113973674007866
  0
ARC
  5
5DD
  8
DATA
  6
CONTINUOUS
 62
     7
 10
-23.030838537484652
 20
-55.37301687516225
 30
0.0
 40
17.673035334818259
 50
89.894095944482444
 51
149.52253611673871
  0
LINE
  5
5DE
  8
DATA
  6
CONTINUOUS
 62
     7
 10
-199.99990916726281
 20
-1094.4774023217469
 30
0.0
 11
-200.0000222919
 21
-950.7469574969208
 31
0.0
  0
LINE
  5
5DF
  8
DATA
  6
CONTINUOUS
 62
     7
 10
-87.617714393489464
 20
-1254.973220017627
 30
0.0
 11
-199.99990916726281
 21
-1094.4774023217469
 31
0.0
  0
LINE
  5
5E0
  8
DATA
  6
CONTINUOUS
 62
     7
 10
-184.9981130411397
 20
85.000023841857868
 30
0.0
 11
-70.199774099555739
 21
84.999999999999915
 31
0.0
  0
LINE
  5
5E1
  8
DATA
  6
CONTINUOUS
 62
     7
 10
-196.001845722415
 20
85.000023841857868
 30
0.0
 11
-185.00002038977249
 21
85.000023841857868
 31
0.0
  0
LINE
  5
5E2
  8
DATA
  6
CONTINUOUS
 62
     7
 10
-199.9998868753691
 20
85.000023841857868
 30
0.0
 11
-196.001845722415
 21
85.000023841857868
 31
0.0
  0
LINE
  5
5E3
  8
DATA
  6
CONTINUOUS
 62
     7
 10
-184.9981130411397
 20
91.000006198883895
 30
0.0
 11
-185.00002038977249
 21
91.000006198883895
 31
0.0
  0
LINE
  5
5E4
  8
DATA
  6
CONTINUOUS
 62
     7
 10
-175.9980500986357
 20
91.000006198883895
 30
0.0
 11
-184.9981130411397
 21
91.000006198883895
 31
0.0
  0
LINE
  5
5E5
  8
DATA
  6
CONTINUOUS
 62
     7
 10
-184.9981130411397
 20
91.000006198883895
 30
0.0
 11
-184.9981130411397
 21
85.000023841857868
 31
0.0
  0
LINE
  5
5E6
  8
DATA
  6
CONTINUOUS
 62
     7
 10
-191.00006235144241
 20
91.000006198882545
 30
0.0
 11
-191.00006235144241
 21
85.000023841857868
 31
0.0
  0
LINE
  5
5E7
  8
DATA
  6
CONTINUOUS
 62
     7
 10
-185.00002038977249
 20
91.000006198883895
 30
0.0
 11
-185.00002038977249
 21
85.000023841857868
 31
0.0
  0
LINE
  5
5E8
  8
DATA
  6
CONTINUOUS
 62
     7
 10
-185.00002038977249
 20
91.000006198883895
 30
0.0
 11
-191.00006235144241
 21
91.000006198882545
 31
0.0
  0
LINE
  5
5E9
  8
DATA
  6
CONTINUOUS
 62
     7
 10
-175.9980500986357
 20
91.000006198883895
 30
0.0
 11
-175.9980500986357
 21
85.000023841857868
 31
0.0
  0
LINE
  5
5EA
  8
DATA
  6
CONTINUOUS
 62
     7
 10
-185.00002038977249
 20
85.000023841857868
 30
0.0
 11
-184.9981130411397
 21
85.000023841857868
 31
0.0
  0
ARC
  5
5EB
  8
DATA
  6
CONTINUOUS
 62
     7
 10
-39.905543781854469
 20
-1186.7401351437809
 30
0.0
 40
83.259864856216595
 50
235.03672521798489
 51
304.9632747823328
  0
LINE
  5
5EC
  8
DATA
  6
CONTINUOUS
 62
     7
 10
-10.38580258775367
 20
-1224.940945106363
 30
0.0
 11
-70.38580258775643
 21
-1224.940945106365
 31
0.0
  0
ARC
  5
5ED
  8
DATA
  6
CONTINUOUS
 62
     7
 10
-40.385802587754569
 20
-1163.574080419098
 30
0.0
 40
86.366864687267324
 50
246.86863833532681
 51
293.13136166467319
  0
LINE
  5
5EE
  8
DATA
  6
CONTINUOUS
 62
     7
 10
-70.199774099555739
 20
84.999999999999915
 30
0.0
 11
24.203615670084229
 21
85.000000000000824
 31
0.0
  0
ARC
  5
5EF
  8
DATA
  6
CONTINUOUS
 62
     7
 10
-22.998079214733458
 20
-193.50000000000821
 30
0.0
 40
278.5000000000075
 50
99.687654535490836
 51
112.5935316743184
  0
ARC
  5
5F0
  8
DATA
  6
CONTINUOUS
 62
     7
 10
-121.3509997150941
 20
42.852920500358728
 30
0.0
 40
22.000000000000629
 50
112.5935316743188
 51
157.40646832566421
  0
ARC
  5
5F1
  8
DATA
  6
CONTINUOUS
 62
     7
 10
-121.3509997150941
 20
42.852920500356923
 30
0.0
 40
22.500000000003869
 50
112.5935316743242
 51
157.40646832566441
  0
ARC
  5
5F2
  8
DATA
  6
CONTINUOUS
 62
     7
 10
-70.199774099555739
 20
82.999999999999929
 30
0.0
 40
2.0000000000003522
 50
279.6876545354886
 51
90.0
  0
ARC
  5
5F3
  8
DATA
  6
CONTINUOUS
 62
     7
 10
-70.38580258775643
 20
-1234.9409451063609
 30
0.0
 40
9.9999999999972715
 50
90.0
 51
176.7341162269274
  0
ARC
  5
5F4
  8
DATA
  6
CONTINUOUS
 62
     7
 10
-70.385802587754611
 20
-1233.8015538334571
 30
0.0
 40
9.9999999999932943
 50
183.26588377237189
 51
246.8686383353191
  0
ARC
  5
5F5
  8
DATA
  6
CONTINUOUS
 62
     7
 10
24.203615670084229
 20
83.000000000000838
 30
0.0
 40
2.0
 50
90.0
 51
260.31234546450918
  0
ARC
  5
5F6
  8
DATA
  6
CONTINUOUS
 62
     7
 10
-10.38580258775549
 20
-1234.9409451063659
 30
0.0
 40
10.000000000002229
 50
3.2658837731779919
 51
90.0
  0
ARC
  5
5F7
  8
DATA
  6
CONTINUOUS
 62
     7
 10
-10.38580258775276
 20
-1233.8015538334589
 30
0.0
 40
9.9999999999890701
 50
293.13136166467939
 51
356.73411622772318
  0
CIRCLE
  5
5F8
  8
DATA
  6
CONTINUOUS
 62
     7
 10
9.9999777080991077
 20
-1080.999999999998
 30
0.0
 40
25.49509756796397
  0
CIRCLE
  5
5F9
  8
DATA
  6
CONTINUOUS
 62
     7
 10
9.9999777080981982
 20
-1120.9999999999991
 30
0.0
 40
4.0
  0
CIRCLE
  5
5FA
  8
DATA
  6
CONTINUOUS
 62
     7
 10
-30.000022291900891
 20
-1080.9999999999991
 30
0.0
 40
4.0
  0
CIRCLE
  5
5FB
  8
DATA
  6
CONTINUOUS
 62
     7
 10
9.9999777080991077
 20
-1040.999999999998
 30
0.0
 40
4.0
  0
ARC
  5
5FC
  8
DATA
  6
CONTINUOUS
 62
     7
 10
-171.5000222919
 20
-950.7469574969208
 30
0.0
 40
28.500000000001521
 50
103.9760902307377
 51
180.0
  0
LINE
  5
5FD
  8
DATA
  6
CONTINUOUS
 62
     7
 10
219.99997164109641
 20
350.74695749691978
 30
0.0
 11
219.9999226411035
 21
506.39380132382269
 31
0.0
  0
ARC
  5
5FE
  8
DATA
  6
CONTINUOUS
 62
     7
 10
191.49997164109729
 20
350.74695749692108
 30
0.0
 40
28.500000000000639
 50
283.97609023073818
 51
0.0
  0
LINE
  5
5FF
  8
DATA
  6
CONTINUOUS
 62
     7
 10
-724.47740232174954
 20
-585.0000524520874
 30
0.0
 11
-724.47740232174954
 21
85.000023841857868
 31
0.0
  0
LINE
  5
600
  8
DATA
  6
CONTINUOUS
 62
     7
 10
-884.97327958768165
 20
85.000023841857868
 30
0.0
 11
-884.97327958768165
 21
-585.0000524520874
 31
0.0
  0
LINE
  5
601
  8
DATA
  6
CONTINUOUS
 62
     7
 10
-581.00055848782642
 20
85.000023841857868
 30
0.0
 11
-581.00055848782642
 21
-585.0000524520874
 31
0.0
  0
LINE
  5
602
  8
DATA
  6
CONTINUOUS
 62
     7
 10
-724.47740232174954
 20
-585.0000524520874
 30
0.0
 11
-724.47740232174954
 21
85.000023841857868
 31
0.0
  0
LINE
  5
603
  8
DATA
  6
CONTINUOUS
 62
     7
 10
-622.00056707089516
 20
-585.0000524520874
 30
0.0
 11
-622.00056707089516
 21
85.000023841857868
 31
0.0
  0
LINE
  5
604
  8
DATA
  6
CONTINUOUS
 62
     7
 10
-884.97322001763143
 20
-573.0
 30
0.0
 11
-884.97327958768165
 21
72.999999523162799
 31
0.0
  0
LINE
  5
605
  8
DATA
  6
CONTINUOUS
 62
     7
 10
-580.99996244137856
 20
85.000023841857868
 30
0.0
 11
-581.00000000000193
 21
-352.07778446518438
 31
0.0
  0
ARC
  5
606
  8
DATA
  6
CONTINUOUS
 62
     7
 10
-160.99807921473709
 20
-55.500000000001421
 30
0.0
 40
278.0000000000033
 50
337.4064683256766
 51
22.593531674335399
  0
CIRCLE
  5
607
  8
DATA
  6
CONTINUOUS
 62
     7
 10
82.360831182060863
 20
49.858910396795586
 30
0.0
 40
3.25
  0
LINE
  5
608
  8
DATA
  6
CONTINUOUS
 62
     7
 10
219.9999509999972
 20
85.000023841860596
 30
0.0
 11
219.99999999999639
 21
-584.99999999999795
 31
0.0
  0
LINE
  5
609
  8
DATA
  6
CONTINUOUS
 62
     7
 10
215.9999999999992
 20
-572.99999999999795
 30
0.0
 11
216.0000024984102
 21
85.000023841860596
 31
0.0
  0
LINE
  5
60A
  8
DATA
  6
CONTINUOUS
 62
     7
 10
205.00008451440499
 20
-214.00000095367119
 30
0.0
 11
205.00008451440229
 21
85.000023841860596
 31
0.0
  0
LINE
  5
60B
  8
DATA
  6
CONTINUOUS
 62
     7
 10
155.00203954675459
 20
-204.9999976158125
 30
0.0
 11
155.00192078526661
 21
85.000000000001748
 31
0.0
  0
ARC
  5
60C
  8
DATA
  6
CONTINUOUS
 62
     7
 10
-160.99807921477901
 20
-55.500000000001421
 30
0.0
 40
278.50000000004297
 50
337.4064683256766
 51
22.593531674323351
  0
LINE
  5
60D
  8
DATA
  6
CONTINUOUS
 62
     7
 10
-884.97322001763143
 20
-600.0
 30
0.0
 11
-724.47740232174954
 21
-600.00003814697311
 31
0.0
  0
LINE
  5
60E
  8
DATA
  6
CONTINUOUS
 62
     7
 10
-724.47740232174954
 20
-585.0000524520874
 30
0.0
 11
-884.97327958768165
 21
-585.0000524520874
 31
0.0
  0
LINE
  5
60F
  8
DATA
  6
CONTINUOUS
 62
     7
 10
-884.97327958768165
 20
-585.0000524520874
 30
0.0
 11
-724.47740232174954
 21
-585.0000524520874
 31
0.0
  0
LINE
  5
610
  8
DATA
  6
CONTINUOUS
 62
     7
 10
205.0019918630378
 20
-214.00000095367119
 30
0.0
 11
205.0019918630415
 21
-572.99996852874426
 31
0.0
  0
ARC
  5
611
  8
DATA
  6
CONTINUOUS
 62
     7
 10
10.00192078526926
 20
-389.0
 30
0.0
 40
194.5000000000004
 50
288.91236641883768
 51
349.1697840200294
  0
CIRCLE
  5
612
  8
DATA
  6
CONTINUOUS
 62
     7
 10
141.87733547656171
 20
-520.87541469128905
 30
0.0
 40
4.0
  0
LINE
  5
613
  8
DATA
  6
CONTINUOUS
 62
     7
 10
205.00192078526931
 20
-425.92221553481602
 30
0.0
 11
205.0019918630415
 21
-572.99996852874426
 31
0.0
  0
LINE
  5
614
  8
DATA
  6
CONTINUOUS
 62
     7
 10
197.4171656686631
 20
-572.99999999999795
 30
0.0
 11
215.9999999999992
 21
-572.99999999999795
 31
0.0
  0
LINE
  5
615
  8
DATA
  6
CONTINUOUS
 62
     7
 10
198.3832335329289
 20
-599.99999999999795
 30
0.0
 11
219.99999999999639
 21
-599.99999999999795
 31
0.0
  0
LINE
  5
616
  8
DATA
  6
CONTINUOUS
 62
     7
 10
219.99999999999639
 20
-584.99999999999795
 30
0.0
 11
198.3832335329289
 21
-584.99999999999795
 31
0.0
  0
LINE
  5
617
  8
DATA
  6
CONTINUOUS
 62
     7
 10
197.4171656686631
 20
-572.99999999999795
 30
0.0
 11
197.4171816060834
 21
-585.00005245208411
 31
0.0
  0
LINE
  5
618
  8
DATA
  6
CONTINUOUS
 62
     7
 10
198.3832335329289
 20
-584.99999999999795
 30
0.0
 11
198.3832335329289
 21
-599.99999999999795
 31
0.0
  0
LINE
  5
619
  8
DATA
  6
CONTINUOUS
 62
     7
 10
215.9999999999992
 20
-572.99999999999795
 30
0.0
 11
216.0000024984175
 21
-585.00005245208411
 31
0.0
  0
LINE
  5
61A
  8
DATA
  6
CONTINUOUS
 62
     7
 10
219.99999999999639
 20
-584.99999999999795
 30
0.0
 11
219.99999999999639
 21
-599.99999999999795
 31
0.0
  0
ARC
  5
61B
  8
DATA
  6
CONTINUOUS
 62
     7
 10
203.0019207852711
 20
-425.92221553481602
 30
0.0
 40
2.0
 50
0.0
 51
169.1697840200116
  0
LINE
  5
61C
  8
DATA
  6
CONTINUOUS
 62
     7
 10
-900.0
 20
-600.0
 30
0.0
 11
-884.97322001763143
 21
-600.0
 31
0.0
  0
LINE
  5
61D
  8
DATA
  6
CONTINUOUS
 62
     7
 10
-884.97322001763143
 20
-573.0
 30
0.0
 11
-900.0
 21
-572.9999999999992
 31
0.0
  0
LINE
  5
61E
  8
DATA
  6
CONTINUOUS
 62
     7
 10
-900.0
 20
-572.9999999999992
 30
0.0
 11
-900.0
 21
-600.0
 31
0.0
  0
LINE
  5
61F
  8
DATA
  6
CONTINUOUS
 62
     7
 10
-884.97327958768165
 20
-585.0000524520874
 30
0.0
 11
-884.97322001763143
 21
-573.0
 31
0.0
  0
LINE
  5
620
  8
DATA
  6
CONTINUOUS
 62
     7
 10
-884.97327958768165
 20
-585.0000524520874
 30
0.0
 11
-884.97322001763143
 21
-600.0
 31
0.0
  0
ARC
  5
621
  8
DATA
  6
CONTINUOUS
 62
     7
 10
75.354841285628083
 20
-153.85292050036111
 30
0.0
 40
21.999999999999719
 50
292.59353167432238
 51
337.40646832567609
  0
ARC
  5
622
  8
DATA
  6
CONTINUOUS
 62
     7
 10
75.354841285632645
 20
-153.85292050036429
 30
0.0
 40
22.499999999995051
 50
292.59353167431851
 51
337.40646832567631
  0
CIRCLE
  5
623
  8
DATA
  6
CONTINUOUS
 62
     7
 10
141.87733547655989
 20
-257.12458530870708
 30
0.0
 40
4.0
  0
LINE
  5
624
  8
DATA
  6
CONTINUOUS
 62
     7
 10
205.0019918630378
 20
-214.00000095367119
 30
0.0
 11
205.0019207852684
 21
-352.0777844651812
 31
0.0
  0
ARC
  5
625
  8
DATA
  6
CONTINUOUS
 62
     7
 10
203.00192078527019
 20
-352.0777844651812
 30
0.0
 40
2.0000000000002771
 50
190.83021597997049
 51
0.0
  0
CIRCLE
  5
626
  8
DATA
  6
CONTINUOUS
 62
     7
 10
196.50192078526931
 20
-388.99999999999818
 30
0.0
 40
4.0
  0
ARC
  5
627
  8
DATA
  6
CONTINUOUS
 62
     7
 10
10.00192078526926
 20
-390.0
 30
0.0
 40
195.00000000000071
 50
359.74569196056711
 51
0.2543080394459025
  0
LINE
  5
628
  8
DATA
  6
CONTINUOUS
 62
     7
 10
204.99999999999551
 20
-390.86550711566628
 30
0.0
 11
204.99999999999551
 21
-389.13449288427819
 31
0.0
  0
LINE
  5
629
  8
DATA
  6
CONTINUOUS
 62
     7
 10
205.00008451440499
 20
-204.99999761581111
 30
0.0
 11
155.00203954675459
 21
-204.9999976158125
 31
0.0
  0
LINE
  5
62A
  8
DATA
  6
CONTINUOUS
 62
     7
 10
205.00008451440499
 20
-214.00000095367119
 30
0.0
 11
205.0019918630378
 21
-214.00000095367119
 31
0.0
  0
CIRCLE
  5
62B
  8
DATA
  6
CONTINUOUS
 62
     7
 10
82.360831182063563
 20
-160.85891039679521
 30
0.0
 40
3.25
  0
LINE
  5
62C
  8
DATA
  6
CONTINUOUS
 62
     7
 10
-580.9999624413814
 20
-390.8654594421364
 30
0.0
 11
-581.00000000000193
 21
-423.92221553481829
 31
0.0
  0
LINE
  5
62D
  8
DATA
  6
CONTINUOUS
 62
     7
 10
-724.47740232174954
 20
-600.00003814697311
 30
0.0
 11
-580.74695749692467
 21
-600.0
 31
0.0
  0
LINE
  5
62E
  8
DATA
  6
CONTINUOUS
 62
     7
 10
-580.74695749692467
 20
-585.00000000000125
 30
0.0
 11
-724.47740232174954
 21
-585.0000524520874
 31
0.0
  0
LINE
  5
62F
  8
DATA
  6
CONTINUOUS
 62
     7
 10
-724.47740232174954
 20
-585.0000524520874
 30
0.0
 11
-622.00056707089516
 21
-585.0000524520874
 31
0.0
  0
LINE
  5
630
  8
DATA
  6
CONTINUOUS
 62
     7
 10
-724.47740232174954
 20
-585.0000524520874
 30
0.0
 11
-724.47740232174954
 21
-600.00003814697311
 31
0.0
  0
CIRCLE
  5
631
  8
DATA
  6
CONTINUOUS
 62
     7
 10
-609.00060554372885
 20
-564.00000000000125
 30
0.0
 40
4.25
  0
LINE
  5
632
  8
DATA
  6
CONTINUOUS
 62
     7
 10
-580.99996244137856
 20
-572.9999685287471
 30
0.0
 11
-581.00000000000193
 21
-425.92221553481829
 31
0.0
  0
LINE
  5
633
  8
DATA
  6
CONTINUOUS
 62
     7
 10
-556.97224087506765
 20
-573.0
 30
0.0
 11
-534.03155548224834
 21
-572.9999999999992
 31
0.0
  0
LINE
  5
634
  8
DATA
  6
CONTINUOUS
 62
     7
 10
-553.09065448782451
 20
-600.0
 30
0.0
 11
-530.00000000000557
 21
-599.9999999999992
 31
0.0
  0
LINE
  5
635
  8
DATA
  6
CONTINUOUS
 62
     7
 10
-530.00000000000557
 20
-584.9999999999992
 30
0.0
 11
-553.09065448782451
 21
-585.00000000000125
 31
0.0
  0
LINE
  5
636
  8
DATA
  6
CONTINUOUS
 62
     7
 10
-580.74695749692012
 20
-573.00000000000125
 30
0.0
 11
-556.97224087506765
 21
-573.0
 31
0.0
  0
LINE
  5
637
  8
DATA
  6
CONTINUOUS
 62
     7
 10
-580.74695749692467
 20
-600.0
 30
0.0
 11
-553.09065448782451
 21
-600.0
 31
0.0
  0
LINE
  5
638
  8
DATA
  6
CONTINUOUS
 62
     7
 10
-553.09065448782451
 20
-585.00000000000125
 30
0.0
 11
-580.74695749692467
 21
-585.00000000000125
 31
0.0
  0
LINE
  5
639
  8
DATA
  6
CONTINUOUS
 62
     7
 10
-580.99996244137856
 20
-585.0000524520874
 30
0.0
 11
-580.99996244137856
 21
-572.99996852874801
 31
0.0
  0
LINE
  5
63A
  8
DATA
  6
CONTINUOUS
 62
     7
 10
-580.74695749692467
 20
-585.00000000000125
 30
0.0
 11
-580.74695749692012
 21
-573.00000000000125
 31
0.0
  0
LINE
  5
63B
  8
DATA
  6
CONTINUOUS
 62
     7
 10
-580.74695749692012
 20
-573.00000000000125
 30
0.0
 11
-580.99996244137856
 21
-572.99996852874801
 31
0.0
  0
LINE
  5
63C
  8
DATA
  6
CONTINUOUS
 62
     7
 10
-580.74695749692467
 20
-600.0
 30
0.0
 11
-580.74695749692467
 21
-585.00000000000125
 31
0.0
  0
LINE
  5
63D
  8
DATA
  6
CONTINUOUS
 62
     7
 10
-556.97224087506765
 20
-573.0
 30
0.0
 11
-556.97225724881275
 21
-585.0000524520874
 31
0.0
  0
LINE
  5
63E
  8
DATA
  6
CONTINUOUS
 62
     7
 10
-553.09065448782451
 20
-585.00000000000125
 30
0.0
 11
-553.09065448782451
 21
-600.0
 31
0.0
  0
LINE
  5
63F
  8
DATA
  6
CONTINUOUS
 62
     7
 10
-534.03155548224834
 20
-583.49999999999989
 30
0.0
 11
-534.00000000000375
 21
-583.49999999999989
 31
0.0
  0
LINE
  5
640
  8
DATA
  6
CONTINUOUS
 62
     7
 10
-534.03155548224834
 20
-572.9999999999992
 30
0.0
 11
-534.03155548224834
 21
-583.49999999999989
 31
0.0
  0
LINE
  5
641
  8
DATA
  6
CONTINUOUS
 62
     7
 10
-534.00003110593218
 20
-585.00005245208615
 30
0.0
 11
-534.00000000000375
 21
-583.49999999999989
 31
0.0
  0
LINE
  5
642
  8
DATA
  6
CONTINUOUS
 62
     7
 10
-530.00000000000557
 20
-599.9999999999992
 30
0.0
 11
-530.00000000000557
 21
-584.9999999999992
 31
0.0
  0
LINE
  5
643
  8
DATA
  6
CONTINUOUS
 62
     7
 10
-581.00000000000193
 20
-423.92221553481829
 30
0.0
 11
-581.00000000000193
 21
-425.92221553481829
 31
0.0
  0
CIRCLE
  5
644
  8
DATA
  6
CONTINUOUS
 62
     7
 10
-711.00060554373056
 20
-250.00000000000151
 30
0.0
 40
4.0
  0
CIRCLE
  5
645
  8
DATA
  6
CONTINUOUS
 62
     7
 10
-711.00060554372806
 20
-250.00000000000151
 30
0.0
 40
7.0000000000463842
  0
ARC
  5
646
  8
DATA
  6
CONTINUOUS
 62
     7
 10
-711.00000000000364
 20
-249.99999999999821
 30
0.0
 40
4.0
 50
180.0
 51
236.95760706285509
  0
ARC
  5
647
  8
DATA
  6
CONTINUOUS
 62
     7
 10
-711.00000000000364
 20
-249.99999999999821
 30
0.0
 40
4.0000000000000391
 50
122.5384400835277
 51
180.0
  0
CIRCLE
  5
648
  8
DATA
  6
CONTINUOUS
 62
     7
 10
-609.00060554372885
 20
-250.00000000000151
 30
0.0
 40
4.25
  0
LINE
  5
649
  8
DATA
  6
CONTINUOUS
 62
     7
 10
-580.9999624413814
 20
-389.13454055785797
 30
0.0
 11
-581.00055848782915
 21
-389.13454055785797
 31
0.0
  0
LINE
  5
64A
  8
DATA
  6
CONTINUOUS
 62
     7
 10
-581.00055848782915
 20
-390.8654594421364
 30
0.0
 11
-580.9999624413814
 21
-390.8654594421364
 31
0.0
  0
LINE
  5
64B
  8
DATA
  6
CONTINUOUS
 62
     7
 10
-580.9999624413814
 20
-390.8654594421364
 30
0.0
 11
-580.9999624413814
 21
-389.13454055785797
 31
0.0
  0
LINE
  5
64C
  8
DATA
  6
CONTINUOUS
 62
     7
 10
-581.00000000000193
 20
-354.07778446518438
 30
0.0
 11
-580.9999624413814
 21
-389.13454055785797
 31
0.0
  0
LINE
  5
64D
  8
DATA
  6
CONTINUOUS
 62
     7
 10
-581.00000000000193
 20
-352.07778446518438
 30
0.0
 11
-581.00000000000193
 21
-354.07778446518438
 31
0.0
  0
LINE
  5
64E
  8
DATA
  6
CONTINUOUS
 62
     7
 10
-539.29995691007025
 20
-195.49997091293201
 30
0.0
 11
-572.00001870816425
 21
-195.49997091293201
 31
0.0
  0
LINE
  5
64F
  8
DATA
  6
CONTINUOUS
 62
     7
 10
-572.00001870816425
 20
-209.50002908706529
 30
0.0
 11
-539.29995691007025
 21
-209.50002908706529
 31
0.0
  0
LINE
  5
650
  8
DATA
  6
CONTINUOUS
 62
     7
 10
-572.00001870816425
 20
-202.49999999999909
 30
0.0
 11
-539.29995691007025
 21
-202.49999999999909
 31
0.0
  0
LINE
  5
651
  8
DATA
  6
CONTINUOUS
 62
     7
 10
-572.00001870816425
 20
-197.5000047683703
 30
0.0
 11
-579.00000000000193
 21
-197.49999999999909
 31
0.0
  0
LINE
  5
652
  8
DATA
  6
CONTINUOUS
 62
     7
 10
-579.00000000000193
 20
-207.49999999999909
 30
0.0
 11
-572.00001870816425
 21
-207.49999523162711
 31
0.0
  0
LINE
  5
653
  8
DATA
  6
CONTINUOUS
 62
     7
 10
-579.00000000000193
 20
-197.49999999999909
 30
0.0
 11
-579.00000000000193
 21
-202.50000000000011
 31
0.0
  0
LINE
  5
654
  8
DATA
  6
CONTINUOUS
 62
     7
 10
-579.00000000000193
 20
-202.50000000000011
 30
0.0
 11
-579.00000000000193
 21
-207.49999999999909
 31
0.0
  0
LINE
  5
655
  8
DATA
  6
CONTINUOUS
 62
     7
 10
-578.99998819058612
 20
-199.4999790191641
 30
0.0
 11
-580.99996244137947
 21
-199.4999790191641
 31
0.0
  0
LINE
  5
656
  8
DATA
  6
CONTINUOUS
 62
     7
 10
-580.99996244137947
 20
-205.50002098083411
 30
0.0
 11
-578.99998819058612
 21
-205.50002098083411
 31
0.0
  0
LINE
  5
657
  8
DATA
  6
CONTINUOUS
 62
     7
 10
-572.00001870816425
 20
-195.49997091293201
 30
0.0
 11
-572.00001870816425
 21
-202.49999999999909
 31
0.0
  0
LINE
  5
658
  8
DATA
  6
CONTINUOUS
 62
     7
 10
-572.00001870816425
 20
-202.49999999999909
 30
0.0
 11
-572.00001870816425
 21
-209.50002908706529
 31
0.0
  0
LINE
  5
659
  8
DATA
  6
CONTINUOUS
 62
     7
 10
-535.30000000000121
 20
-209.49999999999909
 30
0.0
 11
-535.30000000000121
 21
-202.50000000000011
 31
0.0
  0
LINE
  5
65A
  8
DATA
  6
CONTINUOUS
 62
     7
 10
-535.30000000000121
 20
-202.50000000000011
 30
0.0
 11
-535.30000000000121
 21
-195.49999999999909
 31
0.0
  0
LINE
  5
65B
  8
DATA
  6
CONTINUOUS
 62
     7
 10
-539.29995691007025
 20
-199.00001525878821
 30
0.0
 11
-539.29995691007025
 21
-202.49999999999909
 31
0.0
  0
LINE
  5
65C
  8
DATA
  6
CONTINUOUS
 62
     7
 10
-539.29995691007025
 20
-195.49997091293201
 30
0.0
 11
-539.29995691007025
 21
-199.00001525878821
 31
0.0
  0
LINE
  5
65D
  8
DATA
  6
CONTINUOUS
 62
     7
 10
-539.29995691007025
 20
-205.9999847412092
 30
0.0
 11
-539.29995691007025
 21
-209.50002908706529
 31
0.0
  0
LINE
  5
65E
  8
DATA
  6
CONTINUOUS
 62
     7
 10
-539.29995691007025
 20
-202.49999999999909
 30
0.0
 11
-539.29995691007025
 21
-205.9999847412092
 31
0.0
  0
LINE
  5
65F
  8
DATA
  6
CONTINUOUS
 62
     7
 10
-535.30000000000121
 20
-195.49999999999909
 30
0.0
 11
-539.29995691007025
 21
-195.49997091293201
 31
0.0
  0
LINE
  5
660
  8
DATA
  6
CONTINUOUS
 62
     7
 10
-539.29995691007025
 20
-209.50002908706529
 30
0.0
 11
-535.30000000000121
 21
-209.49999999999909
 31
0.0
  0
ARC
  5
661
  8
DATA
  6
CONTINUOUS
 62
     7
 10
-535.30000000000121
 20
-208.49999999999909
 30
0.0
 40
1.0000000000004541
 50
270.0
 51
0.0
  0
ARC
  5
662
  8
DATA
  6
CONTINUOUS
 62
     7
 10
-535.30000000000121
 20
-196.49999999999909
 30
0.0
 40
1.0
 50
0.0
 51
90.0
  0
LINE
  5
663
  8
DATA
  6
CONTINUOUS
 62
     7
 10
-721.64034043973038
 20
91.000006198882545
 30
0.0
 11
-872.4386612099953
 21
91.000006198883895
 31
0.0
  0
LINE
  5
664
  8
DATA
  6
CONTINUOUS
 62
     7
 10
-724.47740232174954
 20
85.000023841857868
 30
0.0
 11
-884.97327958768165
 21
85.000023841857868
 31
0.0
  0
LINE
  5
665
  8
DATA
  6
CONTINUOUS
 62
     7
 10
219.9999777080964
 20
-950.7469574969208
 30
0.0
 11
219.99992870810351
 21
-1106.393801323823
 31
0.0
  0
LINE
  5
666
  8
DATA
  6
CONTINUOUS
 62
     7
 10
205.00008451440229
 20
91.000006198885728
 30
0.0
 11
140.00193464257521
 21
91.000006198884805
 31
0.0
  0
LINE
  5
667
  8
DATA
  6
CONTINUOUS
 62
     7
 10
146.00192078526649
 20
85.000000000000824
 30
0.0
 11
155.00192078526661
 21
85.000000000001748
 31
0.0
  0
ARC
  5
668
  8
DATA
  6
CONTINUOUS
 62
     7
 10
75.354841285628083
 20
42.852920500362821
 30
0.0
 40
21.999999999997438
 50
22.593531674323572
 51
67.406468325680635
  0
ARC
  5
669
  8
DATA
  6
CONTINUOUS
 62
     7
 10
75.354841285626293
 20
42.852920500359652
 30
0.0
 40
22.50000000000184
 50
22.593531674323849
 51
67.406468325681331
  0
LINE
  5
66A
  8
DATA
  6
CONTINUOUS
 62
     7
 10
216.0000024984102
 20
85.000023841860596
 30
0.0
 11
219.9999509999972
 21
85.000023841860596
 31
0.0
  0
LINE
  5
66B
  8
DATA
  6
CONTINUOUS
 62
     7
 10
211.00203382470411
 20
85.000023841860596
 30
0.0
 11
211.00203382470411
 21
91.000006198885728
 31
0.0
  0
LINE
  5
66C
  8
DATA
  6
CONTINUOUS
 62
     7
 10
205.00008451440229
 20
91.000006198885728
 30
0.0
 11
211.00203382470411
 21
91.000006198885728
 31
0.0
  0
LINE
  5
66D
  8
DATA
  6
CONTINUOUS
 62
     7
 10
205.00008451440229
 20
85.000023841860596
 30
0.0
 11
216.0000024984102
 21
85.000023841860596
 31
0.0
  0
CIRCLE
  5
66E
  8
DATA
  6
CONTINUOUS
 62
     7
 10
49.999977708100083
 20
-1080.999999999998
 30
0.0
 40
4.0
  0
LINE
  5
66F
  8
DATA
  6
CONTINUOUS
 62
     7
 10
-872.4386612099953
 20
91.000006198883895
 30
0.0
 11
-873.9862362069432
 21
91.000006198883895
 31
0.0
  0
LINE
  5
670
  8
DATA
  6
CONTINUOUS
 62
     7
 10
-873.9862362069432
 20
91.000006198883895
 30
0.0
 11
-873.9862362069432
 21
85.000023841858734
 31
0.0
  0
LINE
  5
671
  8
DATA
  6
CONTINUOUS
 62
     7
 10
-872.4386612099953
 20
85.000023841857868
 30
0.0
 11
-872.4386612099953
 21
91.000006198883895
 31
0.0
  0
ARC
  5
672
  8
DATA
  6
CONTINUOUS
 62
     7
 10
191.4999777080973
 20
-950.7469574969208
 30
0.0
 40
28.5
 50
0.0
 51
76.023909769263341
  0
LINE
  5
673
  8
DATA
  6
CONTINUOUS
 62
     7
 10
-599.00056516354653
 20
91.000006198882545
 30
0.0
 11
-721.64034043973038
 21
91.000006198882545
 31
0.0
  0
LINE
  5
674
  8
DATA
  6
CONTINUOUS
 62
     7
 10
-622.00056707089516
 20
85.000023841857868
 30
0.0
 11
-581.00055848782642
 21
85.000023841857868
 31
0.0
  0
LINE
  5
675
  8
DATA
  6
CONTINUOUS
 62
     7
 10
-622.00056707089516
 20
85.000023841857868
 30
0.0
 11
-724.47740232174954
 21
85.000023841857868
 31
0.0
  0
LINE
  5
676
  8
DATA
  6
CONTINUOUS
 62
     7
 10
-721.64034043973038
 20
85.000023841857868
 30
0.0
 11
-721.64034043973038
 21
91.000006198882545
 31
0.0
  0
CIRCLE
  5
677
  8
DATA
  6
CONTINUOUS
 62
     7
 10
-609.00060554372885
 20
63.9999999999986
 30
0.0
 40
4.25
  0
LINE
  5
678
  8
DATA
  6
CONTINUOUS
 62
     7
 10
-599.00056516354653
 20
91.000006198882545
 30
0.0
 11
-599.00056516354653
 21
85.000023841857868
 31
0.0
  0
LINE
  5
679
  8
DATA
  6
CONTINUOUS
 62
     7
 10
-599.00056516354925
 20
86.999998092653584
 30
0.0
 11
-598.99996911710139
 21
86.999998092653584
 31
0.0
  0
LINE
  5
67A
  8
DATA
  6
CONTINUOUS
 62
     7
 10
-598.99996911710139
 20
91.000006198885728
 30
0.0
 11
-599.00056516354925
 21
91.000006198885728
 31
0.0
  0
LINE
  5
67B
  8
DATA
  6
CONTINUOUS
 62
     7
 10
-598.99996911709957
 20
91.000006198883895
 30
0.0
 11
-598.99996911709957
 21
85.000023841857868
 31
0.0
  0
LINE
  5
67C
  8
DATA
  6
CONTINUOUS
 62
     7
 10
-598.99996911709957
 20
91.000006198883895
 30
0.0
 11
-593.99997388547115
 21
91.000006198883895
 31
0.0
  0
LINE
  5
67D
  8
DATA
  6
CONTINUOUS
 62
     7
 10
-593.99997388547115
 20
91.000006198883895
 30
0.0
 11
-593.99997388547115
 21
85.000023841857868
 31
0.0
  0
LINE
  5
67E
  8
DATA
  6
CONTINUOUS
 62
     7
 10
-581.00055848782642
 20
85.000023841857868
 30
0.0
 11
-580.99996244137856
 21
85.000023841857868
 31
0.0
  0
LINE
  5
67F
  8
DATA
  6
CONTINUOUS
 62
     7
 10
1112.1933508782161
 20
-585.00000000004013
 30
0.0
 11
1112.1933508782211
 21
84.999999999959783
 31
0.0
  0
LINE
  5
680
  8
DATA
  6
CONTINUOUS
 62
     7
 10
899.99999999995543
 20
84.999999999961616
 30
0.0
 11
899.9999999999518
 21
-585.00000000003843
 31
0.0
  0
LINE
  5
681
  8
DATA
  6
CONTINUOUS
 62
     7
 10
1319.9999999999491
 20
-585.00000000004093
 30
0.0
 11
1319.9999999999529
 21
84.99999999995795
 31
0.0
  0
LINE
  5
682
  8
DATA
  6
CONTINUOUS
 62
     7
 10
1207.617692101544
 20
84.999999999958845
 30
0.0
 11
1207.6176921015381
 21
-585.00000000004093
 31
0.0
  0
LINE
  5
683
  8
DATA
  6
CONTINUOUS
 62
     7
 10
1319.9999999999491
 20
-585.00000000004093
 30
0.0
 11
1319.9999999999529
 21
84.99999999995795
 31
0.0
  0
LINE
  5
684
  8
DATA
  6
CONTINUOUS
 62
     7
 10
1207.617692101539
 20
-573.00000000004081
 30
0.0
 11
1207.617692101539
 21
72.99999999995795
 31
0.0
  0
ARC
  5
685
  8
DATA
  6
CONTINUOUS
 62
     7
 10
1177.9057802958091
 20
52.502809077384711
 30
0.0
 40
22.000000000000959
 50
292.02431283704368
 51
0.0
  0
ARC
  5
686
  8
DATA
  6
CONTINUOUS
 62
     7
 10
1141.9057802958091
 20
52.502809077384711
 30
0.0
 40
22.000000000000909
 50
180.0
 51
247.97568716295621
  0
LINE
  5
687
  8
DATA
  6
CONTINUOUS
 62
     7
 10
1112.1933508782699
 20
72.99999999995886
 30
0.0
 11
1112.193350878267
 21
-573.00000000004002
 31
0.0
  0
LINE
  5
688
  8
DATA
  6
CONTINUOUS
 62
     7
 10
899.99999999995543
 20
84.999999999961616
 30
0.0
 11
899.9999999999518
 21
-585.00000000003843
 31
0.0
  0
LINE
  5
689
  8
DATA
  6
CONTINUOUS
 62
     7
 10
1207.6176921015381
 20
-600.00000000004093
 30
0.0
 11
1319.9999999999491
 21
-600.00000000004195
 31
0.0
  0
LINE
  5
68A
  8
DATA
  6
CONTINUOUS
 62
     7
 10
1319.9999999999491
 20
-585.00000000004093
 30
0.0
 11
1207.6176921015381
 21
-585.00000000004093
 31
0.0
  0
LINE
  5
68B
  8
DATA
  6
CONTINUOUS
 62
     7
 10
1207.6176921015381
 20
-585.00000000004093
 30
0.0
 11
1319.9999999999491
 21
-585.00000000004093
 31
0.0
  0
LINE
  5
68C
  8
DATA
  6
CONTINUOUS
 62
     7
 10
899.9999999999518
 20
-600.00000000003922
 30
0.0
 11
1112.1933508778891
 21
-600.00000000004093
 31
0.0
  0
LINE
  5
68D
  8
DATA
  6
CONTINUOUS
 62
     7
 10
1112.193350878267
 20
-585.00000000004013
 30
0.0
 11
899.9999999999518
 21
-585.00000000003922
 31
0.0
  0
LINE
  5
68E
  8
DATA
  6
CONTINUOUS
 62
     7
 10
899.9999999999518
 20
-585.00000000003843
 30
0.0
 11
1112.1933508782161
 21
-585.00000000004013
 31
0.0
  0
LINE
  5
68F
  8
DATA
  6
CONTINUOUS
 62
     7
 10
899.9999999999518
 20
-585.00000000003922
 30
0.0
 11
899.9999999999518
 21
-600.00000000003922
 31
0.0
  0
LINE
  5
690
  8
DATA
  6
CONTINUOUS
 62
     7
 10
1112.1933508778891
 20
-600.00000000004093
 30
0.0
 11
1207.6176921015381
 21
-600.00000000004093
 31
0.0
  0
LINE
  5
691
  8
DATA
  6
CONTINUOUS
 62
     7
 10
1207.617692101539
 20
-573.00000000004081
 30
0.0
 11
1112.193350878267
 21
-573.00000000004002
 31
0.0
  0
LINE
  5
692
  8
DATA
  6
CONTINUOUS
 62
     7
 10
1199.9020211399679
 20
-552.00000000004195
 30
0.0
 11
1119.9020211399679
 21
-552.00000000004093
 31
0.0
  0
ARC
  5
693
  8
DATA
  6
CONTINUOUS
 62
     7
 10
1177.0669758077879
 20
-450.67911162348491
 30
0.0
 40
52.999999999999332
 50
129.76627983103799
 51
160.06538919674099
  0
LINE
  5
694
  8
DATA
  6
CONTINUOUS
 62
     7
 10
1118.9020211399691
 20
-573.00000000004081
 30
0.0
 11
1118.90202113997
 21
-471.97384982791402
 31
0.0
  0
LINE
  5
695
  8
DATA
  6
CONTINUOUS
 62
     7
 10
1112.193350878267
 20
-573.00000000004002
 30
0.0
 11
1112.193350878267
 21
-585.00000000004013
 31
0.0
  0
LINE
  5
696
  8
DATA
  6
CONTINUOUS
 62
     7
 10
1112.193350878267
 20
-585.00000000004013
 30
0.0
 11
1112.1933508778891
 21
-600.00000000004093
 31
0.0
  0
CIRCLE
  5
697
  8
DATA
  6
CONTINUOUS
 62
     7
 10
1125.9020211399679
 20
-546.00000000004195
 30
0.0
 40
2.75
  0
ARC
  5
698
  8
DATA
  6
CONTINUOUS
 62
     7
 10
1247.726397206794
 20
-478.7029010979773
 30
0.0
 40
129.00000000000631
 50
159.06443109664019
 51
177.00991242294069
  0
CIRCLE
  5
699
  8
DATA
  6
CONTINUOUS
 62
     7
 10
1125.9020211399679
 20
-472.00000000004201
 30
0.0
 40
2.75
  0
CIRCLE
  5
69A
  8
DATA
  6
CONTINUOUS
 62
     7
 10
1179.6520211399711
 20
-511.50000000004201
 30
0.0
 40
1.75
  0
CIRCLE
  5
69B
  8
DATA
  6
CONTINUOUS
 62
     7
 10
1167.65202113997
 20
-521.00000000004093
 30
0.0
 40
12.093386622446809
  0
LINE
  5
69C
  8
DATA
  6
CONTINUOUS
 62
     7
 10
1200.9020211399691
 20
-471.97384982792801
 30
0.0
 11
1200.9020211399691
 21
-573.00000000004081
 31
0.0
  0
CIRCLE
  5
69D
  8
DATA
  6
CONTINUOUS
 62
     7
 10
1155.652021139972
 20
-530.50000000004093
 30
0.0
 40
1.75
  0
CIRCLE
  5
69E
  8
DATA
  6
CONTINUOUS
 62
     7
 10
1167.6357802958039
 20
-521.00000000004331
 30
0.0
 40
2.75
  0
CIRCLE
  5
69F
  8
DATA
  6
CONTINUOUS
 62
     7
 10
1167.6357802958039
 20
-521.00000000004331
 30
0.0
 40
6.0
  0
LINE
  5
6A0
  8
DATA
  6
CONTINUOUS
 62
     7
 10
1177.635780295805
 20
-522.50000000004331
 30
0.0
 11
1176.5098999704539
 21
-522.50000000004195
 31
0.0
  0
LINE
  5
6A1
  8
DATA
  6
CONTINUOUS
 62
     7
 10
1177.6357802958071
 20
-522.50000000004195
 30
0.0
 11
1177.6357802958071
 21
-519.5000000000432
 31
0.0
  0
LINE
  5
6A2
  8
DATA
  6
CONTINUOUS
 62
     7
 10
1157.635780295805
 20
-518.50000000004195
 30
0.0
 11
1157.635780295805
 21
-523.5000000000432
 31
0.0
  0
LINE
  5
6A3
  8
DATA
  6
CONTINUOUS
 62
     7
 10
1157.6357802958059
 20
-518.50000000004195
 30
0.0
 11
1158.989972062908
 21
-518.50000000004195
 31
0.0
  0
ARC
  5
6A4
  8
DATA
  6
CONTINUOUS
 62
     7
 10
1167.6357802958039
 20
-521.00000000004331
 30
0.0
 40
9.0000000000002416
 50
9.5940682268631416
 51
163.8723797868339
  0
LINE
  5
6A5
  8
DATA
  6
CONTINUOUS
 62
     7
 10
1176.5098999704539
 20
-519.5000000000432
 30
0.0
 11
1177.6357802958071
 21
-519.5000000000432
 31
0.0
  0
ARC
  5
6A6
  8
DATA
  6
CONTINUOUS
 62
     7
 10
1167.6357802958039
 20
-521.00000000004331
 30
0.0
 40
9.0000000000002647
 50
196.12762021316331
 51
350.4059317731369
  0
LINE
  5
6A7
  8
DATA
  6
CONTINUOUS
 62
     7
 10
1158.989972062908
 20
-523.5000000000432
 30
0.0
 11
1157.635780295805
 21
-523.5000000000432
 31
0.0
  0
LINE
  5
6A8
  8
DATA
  6
CONTINUOUS
 62
     7
 10
1207.617692101539
 20
-585.00000000004093
 30
0.0
 11
1207.617692101539
 21
-573.00000000004081
 31
0.0
  0
LINE
  5
6A9
  8
DATA
  6
CONTINUOUS
 62
     7
 10
1207.6176921015381
 20
-585.00000000004093
 30
0.0
 11
1207.6176921015381
 21
-600.00000000004093
 31
0.0
  0
CIRCLE
  5
6AA
  8
DATA
  6
CONTINUOUS
 62
     7
 10
1193.902021139972
 20
-546.00000000004331
 30
0.0
 40
2.75
  0
ARC
  5
6AB
  8
DATA
  6
CONTINUOUS
 62
     7
 10
1142.73706647221
 20
-450.67911162357092
 30
0.0
 40
52.999999999975209
 50
19.934610803820281
 51
50.233720168131832
  0
ARC
  5
6AC
  8
DATA
  6
CONTINUOUS
 62
     7
 10
1167.6357802958059
 20
-462.0000000000432
 30
0.0
 40
9.0000000000002416
 50
9.5940682268631416
 51
163.8723797868339
  0
CIRCLE
  5
6AD
  8
DATA
  6
CONTINUOUS
 62
     7
 10
1179.6520211399711
 20
-452.50000000004093
 30
0.0
 40
1.75
  0
CIRCLE
  5
6AE
  8
DATA
  6
CONTINUOUS
 62
     7
 10
1167.6520211399711
 20
-462.00000000004212
 30
0.0
 40
12.093386622446809
  0
CIRCLE
  5
6AF
  8
DATA
  6
CONTINUOUS
 62
     7
 10
1155.652021139972
 20
-471.50000000004098
 30
0.0
 40
1.75
  0
CIRCLE
  5
6B0
  8
DATA
  6
CONTINUOUS
 62
     7
 10
1167.6357802958059
 20
-462.0000000000432
 30
0.0
 40
2.75
  0
CIRCLE
  5
6B1
  8
DATA
  6
CONTINUOUS
 62
     7
 10
1167.6357802958059
 20
-462.0000000000432
 30
0.0
 40
6.0
  0
LINE
  5
6B2
  8
DATA
  6
CONTINUOUS
 62
     7
 10
1177.635780295805
 20
-463.50000000004201
 30
0.0
 11
1176.5098999704539
 21
-463.50000000004201
 31
0.0
  0
LINE
  5
6B3
  8
DATA
  6
CONTINUOUS
 62
     7
 10
1177.635780295808
 20
-463.50000000004201
 30
0.0
 11
1177.635780295808
 21
-460.5000000000432
 31
0.0
  0
LINE
  5
6B4
  8
DATA
  6
CONTINUOUS
 62
     7
 10
1157.635780295805
 20
-459.5000000000432
 30
0.0
 11
1157.635780295805
 21
-464.50000000004331
 31
0.0
  0
LINE
  5
6B5
  8
DATA
  6
CONTINUOUS
 62
     7
 10
1157.6357802958059
 20
-459.5000000000432
 30
0.0
 11
1158.9899720629101
 21
-459.5000000000432
 31
0.0
  0
LINE
  5
6B6
  8
DATA
  6
CONTINUOUS
 62
     7
 10
1176.5098999704539
 20
-460.5000000000432
 30
0.0
 11
1177.635780295808
 21
-460.5000000000432
 31
0.0
  0
ARC
  5
6B7
  8
DATA
  6
CONTINUOUS
 62
     7
 10
1167.6357802958059
 20
-462.0000000000432
 30
0.0
 40
9.0000000000002647
 50
196.12762021316331
 51
350.40593177315111
  0
LINE
  5
6B8
  8
DATA
  6
CONTINUOUS
 62
     7
 10
1158.9899720629101
 20
-464.50000000004331
 30
0.0
 11
1157.635780295805
 21
-464.50000000004331
 31
0.0
  0
ARC
  5
6B9
  8
DATA
  6
CONTINUOUS
 62
     7
 10
1156.191317504703
 20
-426.41187382654698
 30
0.0
 40
21.000000000035701
 50
90.873936970740203
 51
128.33764747298881
  0
CIRCLE
  5
6BA
  8
DATA
  6
CONTINUOUS
 62
     7
 10
1159.9020211399691
 20
-412.41431667109691
 30
0.0
 40
2.75
  0
LINE
  5
6BB
  8
DATA
  6
CONTINUOUS
 62
     7
 10
1155.8710152956171
 20
-405.41431667109788
 30
0.0
 11
1163.9330269843249
 21
-405.41431667109788
 31
0.0
  0
ARC
  5
6BC
  8
DATA
  6
CONTINUOUS
 62
     7
 10
1163.6127247751281
 20
-426.41187382650799
 30
0.0
 40
20.999999999998568
 50
51.662352524301618
 51
89.126063028948025
  0
ARC
  5
6BD
  8
DATA
  6
CONTINUOUS
 62
     7
 10
1072.077645073135
 20
-478.70290109794411
 30
0.0
 40
129.0000000000133
 50
2.9900875770463959
 51
20.935568903524359
  0
CIRCLE
  5
6BE
  8
DATA
  6
CONTINUOUS
 62
     7
 10
1193.902021139972
 20
-472.00000000004201
 30
0.0
 40
2.75
  0
CIRCLE
  5
6BF
  8
DATA
  6
CONTINUOUS
 62
     7
 10
1127.193350878269
 20
-379.00000000004098
 30
0.0
 40
3.5000000000527498
  0
CIRCLE
  5
6C0
  8
DATA
  6
CONTINUOUS
 62
     7
 10
1127.193350878269
 20
-303.00000000004121
 30
0.0
 40
3.4999999999963611
  0
CIRCLE
  5
6C1
  8
DATA
  6
CONTINUOUS
 62
     7
 10
1127.193350878269
 20
-379.00000000004098
 30
0.0
 40
6.4999999999818092
  0
CIRCLE
  5
6C2
  8
DATA
  6
CONTINUOUS
 62
     7
 10
1127.193350878269
 20
-303.00000000004121
 30
0.0
 40
6.5000000000391083
  0
LINE
  5
6C3
  8
DATA
  6
CONTINUOUS
 62
     7
 10
1193.1933508782679
 20
-381.50000000004098
 30
0.0
 11
1145.1933508782679
 21
-381.50000000004098
 31
0.0
  0
LINE
  5
6C4
  8
DATA
  6
CONTINUOUS
 62
     7
 10
1145.193350878269
 20
-300.50000000004121
 30
0.0
 11
1193.1933508782699
 21
-300.50000000004212
 31
0.0
  0
LINE
  5
6C5
  8
DATA
  6
CONTINUOUS
 62
     7
 10
1138.6933508782679
 20
-375.00000000004121
 30
0.0
 11
1138.693350878269
 21
-307.00000000004121
 31
0.0
  0
ARC
  5
6C6
  8
DATA
  6
CONTINUOUS
 62
     7
 10
1145.193350878269
 20
-375.00000000004121
 30
0.0
 40
6.5
 50
180.0
 51
270.0
  0
ARC
  5
6C7
  8
DATA
  6
CONTINUOUS
 62
     7
 10
1145.193350878269
 20
-307.00000000004121
 30
0.0
 40
6.5000000000004547
 50
90.0
 51
180.0
  0
LINE
  5
6C8
  8
DATA
  6
CONTINUOUS
 62
     7
 10
1199.6933508782679
 20
-307.00000000004121
 30
0.0
 11
1199.6933508782679
 21
-375.00000000004201
 31
0.0
  0
ARC
  5
6C9
  8
DATA
  6
CONTINUOUS
 62
     7
 10
1193.1933508782679
 20
-375.00000000004201
 30
0.0
 40
6.5000000000003411
 50
270.0
 51
0.0
  0
ARC
  5
6CA
  8
DATA
  6
CONTINUOUS
 62
     7
 10
1193.1933508782679
 20
-307.00000000004121
 30
0.0
 40
6.5
 50
0.0
 51
90.0
  0
ARC
  5
6CB
  8
DATA
  6
CONTINUOUS
 62
     7
 10
1159.9057802958091
 20
96.999999999958874
 30
0.0
 40
70.000000000000625
 50
247.97568716295649
 51
292.02431283704362
  0
LINE
  5
6CC
  8
DATA
  6
CONTINUOUS
 62
     7
 10
1319.9999999999491
 20
-585.00000000004093
 30
0.0
 11
1319.9999999999491
 21
-600.00000000004195
 31
0.0
  0
LINE
  5
6CD
  8
DATA
  6
CONTINUOUS
 62
     7
 10
1310.998079214683
 20
90.999999999958874
 30
0.0
 11
1207.6176921015381
 21
90.999999999958874
 31
0.0
  0
LINE
  5
6CE
  8
DATA
  6
CONTINUOUS
 62
     7
 10
1319.9999999999529
 20
84.99999999995795
 30
0.0
 11
1207.617692101544
 21
84.999999999958845
 31
0.0
  0
LINE
  5
6CF
  8
DATA
  6
CONTINUOUS
 62
     7
 10
1112.193350878264
 20
90.999999999959769
 30
0.0
 11
908.99999999995532
 21
90.999999999961588
 31
0.0
  0
LINE
  5
6D0
  8
DATA
  6
CONTINUOUS
 62
     7
 10
1112.1933508782211
 20
84.999999999959783
 30
0.0
 11
899.99999999995543
 21
84.999999999961616
 31
0.0
  0
LINE
  5
6D1
  8
DATA
  6
CONTINUOUS
 62
     7
 10
908.99999999995532
 20
84.999999999961616
 30
0.0
 11
908.99999999995532
 21
90.999999999961588
 31
0.0
  0
LINE
  5
6D2
  8
DATA
  6
CONTINUOUS
 62
     7
 10
908.99807921468164
 20
90.999999999961588
 30
0.0
 11
908.99999999995532
 21
90.999999999961588
 31
0.0
  0
LINE
  5
6D3
  8
DATA
  6
CONTINUOUS
 62
     7
 10
908.99807921468164
 20
84.999999999960679
 30
0.0
 11
908.99807921468164
 21
90.999999999961588
 31
0.0
  0
LINE
  5
6D4
  8
DATA
  6
CONTINUOUS
 62
     7
 10
908.99999999995532
 20
90.999999999961588
 30
0.0
 11
908.99999999995532
 21
84.999999999961616
 31
0.0
  0
LINE
  5
6D5
  8
DATA
  6
CONTINUOUS
 62
     7
 10
1199.90578029581
 20
72.99999999995886
 30
0.0
 11
1119.9057802958091
 21
72.99999999995886
 31
0.0
  0
LINE
  5
6D6
  8
DATA
  6
CONTINUOUS
 62
     7
 10
1112.193350878264
 20
90.999999999959769
 30
0.0
 11
1112.193350878254
 21
84.999999999959783
 31
0.0
  0
LINE
  5
6D7
  8
DATA
  6
CONTINUOUS
 62
     7
 10
1119.905780295808
 20
52.502809077385599
 30
0.0
 11
1119.9057802958091
 21
72.99999999995886
 31
0.0
  0
LINE
  5
6D8
  8
DATA
  6
CONTINUOUS
 62
     7
 10
1119.9057802958091
 20
72.99999999995886
 30
0.0
 11
1112.1933508782699
 21
72.99999999995886
 31
0.0
  0
LINE
  5
6D9
  8
DATA
  6
CONTINUOUS
 62
     7
 10
1207.617692101539
 20
72.99999999995795
 30
0.0
 11
1199.90578029581
 21
72.99999999995795
 31
0.0
  0
LINE
  5
6DA
  8
DATA
  6
CONTINUOUS
 62
     7
 10
1199.90578029581
 20
72.99999999995795
 30
0.0
 11
1199.90578029581
 21
52.502809077384711
 31
0.0
  0
LINE
  5
6DB
  8
DATA
  6
CONTINUOUS
 62
     7
 10
1310.998079214683
 20
84.99999999995795
 30
0.0
 11
1310.998079214683
 21
90.999999999958874
 31
0.0
  0
LINE
  5
6DC
  8
DATA
  6
CONTINUOUS
 62
     7
 10
1310.9999999999541
 20
84.99999999995795
 30
0.0
 11
1310.9999999999541
 21
90.999999999958874
 31
0.0
  0
LINE
  5
6DD
  8
DATA
  6
CONTINUOUS
 62
     7
 10
1310.9999999999541
 20
90.999999999958874
 30
0.0
 11
1310.998079214683
 21
90.999999999958874
 31
0.0
  0
LINE
  5
6DE
  8
DATA
  6
CONTINUOUS
 62
     7
 10
198.3832335329289
 20
84.999971389766813
 30
0.0
 11
-178.38323353293521
 21
84.999971389769541
 31
0.0
  0
LINE
  5
6DF
  8
DATA
  6
CONTINUOUS
 62
     7
 10
-178.38323353293521
 20
99.999971389769556
 30
0.0
 11
198.3832335329289
 21
99.999971389766785
 31
0.0
  0
LINE
  5
6E0
  8
DATA
  6
CONTINUOUS
 62
     7
 10
-178.38323353293521
 20
84.999971389769541
 30
0.0
 11
-178.38323353293521
 21
99.999971389769556
 31
0.0
  0
LINE
  5
6E1
  8
DATA
  6
CONTINUOUS
 62
     7
 10
-200.0
 20
99.999971389769556
 30
0.0
 11
-200.0
 21
84.999971389769541
 31
0.0
  0
LINE
  5
6E2
  8
DATA
  6
CONTINUOUS
 62
     7
 10
-200.0
 20
99.999971389769556
 30
0.0
 11
-178.38323353293521
 21
99.999971389769556
 31
0.0
  0
LINE
  5
6E3
  8
DATA
  6
CONTINUOUS
 62
     7
 10
-178.38323353293521
 20
84.999971389769541
 30
0.0
 11
-200.0
 21
84.999971389769541
 31
0.0
  0
LINE
  5
6E4
  8
DATA
  6
CONTINUOUS
 62
     7
 10
219.99999999999639
 20
84.999971389766813
 30
0.0
 11
198.3832335329289
 21
84.999971389766813
 31
0.0
  0
LINE
  5
6E5
  8
DATA
  6
CONTINUOUS
 62
     7
 10
198.3832335329289
 20
99.999971389766785
 30
0.0
 11
219.99999999999639
 21
99.999971389766785
 31
0.0
  0
LINE
  5
6E6
  8
DATA
  6
CONTINUOUS
 62
     7
 10
198.3832335329289
 20
84.999971389766813
 30
0.0
 11
198.3832335329289
 21
99.999971389766785
 31
0.0
  0
LINE
  5
6E7
  8
DATA
  6
CONTINUOUS
 62
     7
 10
219.99999999999639
 20
84.999971389766813
 30
0.0
 11
219.99999999999639
 21
99.999971389766785
 31
0.0
  0
LINE
  5
6E8
  8
DATA
  6
CONTINUOUS
 62
     7
 10
-884.97327958768165
 20
85.000023841857868
 30
0.0
 11
-724.47740232174954
 21
85.000023841857868
 31
0.0
  0
LINE
  5
6E9
  8
DATA
  6
CONTINUOUS
 62
     7
 10
-724.47740232174954
 20
85.000023841857868
 30
0.0
 11
-884.97327958768165
 21
85.000023841857868
 31
0.0
  0
LINE
  5
6EA
  8
DATA
  6
CONTINUOUS
 62
     7
 10
-884.97322001763143
 20
99.999971389770906
 30
0.0
 11
-724.47740232174954
 21
100.00000953674351
 31
0.0
  0
LINE
  5
6EB
  8
DATA
  6
CONTINUOUS
 62
     7
 10
-884.97327958768165
 20
85.000023841857868
 30
0.0
 11
-884.97322001763143
 21
99.999971389770906
 31
0.0
  0
LINE
  5
6EC
  8
DATA
  6
CONTINUOUS
 62
     7
 10
-900.0
 20
72.99997138977092
 30
0.0
 11
-900.0
 21
99.999971389770906
 31
0.0
  0
LINE
  5
6ED
  8
DATA
  6
CONTINUOUS
 62
     7
 10
-900.0
 20
99.999971389770906
 30
0.0
 11
-884.97322001763143
 21
99.999971389770906
 31
0.0
  0
LINE
  5
6EE
  8
DATA
  6
CONTINUOUS
 62
     7
 10
-884.97322001763143
 20
72.99997138977092
 30
0.0
 11
-900.0
 21
72.99997138977092
 31
0.0
  0
LINE
  5
6EF
  8
DATA
  6
CONTINUOUS
 62
     7
 10
-884.97327958768165
 20
85.000023841857868
 30
0.0
 11
-884.97322001763143
 21
72.99997138977092
 31
0.0
  0
LINE
  5
6F0
  8
DATA
  6
CONTINUOUS
 62
     7
 10
-724.47740232174954
 20
85.000023841857868
 30
0.0
 11
-622.00056707089516
 21
85.000023841857868
 31
0.0
  0
LINE
  5
6F1
  8
DATA
  6
CONTINUOUS
 62
     7
 10
-580.74695749692467
 20
84.999971389771815
 30
0.0
 11
-724.47740232174954
 21
85.000023841857868
 31
0.0
  0
LINE
  5
6F2
  8
DATA
  6
CONTINUOUS
 62
     7
 10
-724.47740232174954
 20
100.00000953674351
 30
0.0
 11
-580.74695749692467
 21
99.999971389771801
 31
0.0
  0
LINE
  5
6F3
  8
DATA
  6
CONTINUOUS
 62
     7
 10
-724.47740232174954
 20
85.000023841857868
 30
0.0
 11
-724.47740232174954
 21
100.00000953674351
 31
0.0
  0
LINE
  5
6F4
  8
DATA
  6
CONTINUOUS
 62
     7
 10
-530.00000000000557
 20
99.999971389770906
 30
0.0
 11
-530.00000000000557
 21
84.999971389769541
 31
0.0
  0
LINE
  5
6F5
  8
DATA
  6
CONTINUOUS
 62
     7
 10
-553.09065448782451
 20
84.999971389771815
 30
0.0
 11
-553.09065448782451
 21
99.999971389771801
 31
0.0
  0
LINE
  5
6F6
  8
DATA
  6
CONTINUOUS
 62
     7
 10
-580.74695749692467
 20
99.999971389771801
 30
0.0
 11
-580.74695749692467
 21
84.999971389771815
 31
0.0
  0
LINE
  5
6F7
  8
DATA
  6
CONTINUOUS
 62
     7
 10
-580.74695749692467
 20
99.999971389771801
 30
0.0
 11
-553.09065448782451
 21
99.999971389771801
 31
0.0
  0
LINE
  5
6F8
  8
DATA
  6
CONTINUOUS
 62
     7
 10
-553.09065448782451
 20
99.999971389771801
 30
0.0
 11
-530.00000000000557
 21
99.999971389770906
 31
0.0
  0
LINE
  5
6F9
  8
DATA
  6
CONTINUOUS
 62
     7
 10
-553.09065448782451
 20
84.999971389771815
 30
0.0
 11
-580.74695749692467
 21
84.999971389771815
 31
0.0
  0
LINE
  5
6FA
  8
DATA
  6
CONTINUOUS
 62
     7
 10
-580.74695749692012
 20
72.999971389771844
 30
0.0
 11
-556.97224087506765
 21
72.99997138977092
 31
0.0
  0
LINE
  5
6FB
  8
DATA
  6
CONTINUOUS
 62
     7
 10
-580.74695749692012
 20
72.999971389771844
 30
0.0
 11
-580.99996244137856
 21
72.999939918518933
 31
0.0
  0
LINE
  5
6FC
  8
DATA
  6
CONTINUOUS
 62
     7
 10
-580.74695749692467
 20
84.999971389771815
 30
0.0
 11
-580.74695749692012
 21
72.999971389771844
 31
0.0
  0
LINE
  5
6FD
  8
DATA
  6
CONTINUOUS
 62
     7
 10
-580.99996244137856
 20
85.000023841857868
 30
0.0
 11
-580.99996244137856
 21
72.999939918518933
 31
0.0
  0
LINE
  5
6FE
  8
DATA
  6
CONTINUOUS
 62
     7
 10
-530.00000000000557
 20
84.999971389769541
 30
0.0
 11
-553.09065448782451
 21
84.999971389771815
 31
0.0
  0
LINE
  5
6FF
  8
DATA
  6
CONTINUOUS
 62
     7
 10
-534.00003110593218
 20
85.000023841856944
 30
0.0
 11
-534.00000000000375
 21
83.499971389770906
 31
0.0
  0
LINE
  5
700
  8
DATA
  6
CONTINUOUS
 62
     7
 10
-534.03155548224834
 20
72.999971389769541
 30
0.0
 11
-534.03155548224834
 21
83.499971389770906
 31
0.0
  0
LINE
  5
701
  8
DATA
  6
CONTINUOUS
 62
     7
 10
-534.03155548224834
 20
83.499971389770906
 30
0.0
 11
-534.00000000000375
 21
83.499971389770906
 31
0.0
  0
LINE
  5
702
  8
DATA
  6
CONTINUOUS
 62
     7
 10
-556.97224087506765
 20
72.99997138977092
 30
0.0
 11
-556.97225724881275
 21
85.000023841857868
 31
0.0
  0
LINE
  5
703
  8
DATA
  6
CONTINUOUS
 62
     7
 10
-556.97224087506765
 20
72.99997138977092
 30
0.0
 11
-534.03155548224834
 21
72.999971389769541
 31
0.0
  0
LINE
  5
704
  8
DATA
  6
CONTINUOUS
 62
     7
 10
1207.617692101539
 20
72.999999999964786
 30
0.0
 11
1112.193350878267
 21
72.999999999963876
 31
0.0
  0
LINE
  5
705
  8
DATA
  6
CONTINUOUS
 62
     7
 10
1112.1933508778891
 20
99.999999999964786
 30
0.0
 11
1207.6176921015381
 21
99.999999999964786
 31
0.0
  0
LINE
  5
706
  8
DATA
  6
CONTINUOUS
 62
     7
 10
899.9999999999518
 20
84.999999999961616
 30
0.0
 11
1112.1933508782161
 21
84.999999999963876
 31
0.0
  0
LINE
  5
707
  8
DATA
  6
CONTINUOUS
 62
     7
 10
1112.193350878267
 20
84.999999999963876
 30
0.0
 11
899.9999999999518
 21
84.999999999962967
 31
0.0
  0
LINE
  5
708
  8
DATA
  6
CONTINUOUS
 62
     7
 10
899.9999999999518
 20
99.999999999962981
 30
0.0
 11
1112.1933508778891
 21
99.999999999964786
 31
0.0
  0
LINE
  5
709
  8
DATA
  6
CONTINUOUS
 62
     7
 10
899.9999999999518
 20
84.999999999962967
 30
0.0
 11
899.9999999999518
 21
99.999999999962981
 31
0.0
  0
LINE
  5
70A
  8
DATA
  6
CONTINUOUS
 62
     7
 10
1112.193350878267
 20
84.999999999963876
 30
0.0
 11
1112.1933508778891
 21
99.999999999964786
 31
0.0
  0
LINE
  5
70B
  8
DATA
  6
CONTINUOUS
 62
     7
 10
1112.193350878267
 20
72.999999999963876
 30
0.0
 11
1112.193350878267
 21
84.999999999963876
 31
0.0
  0
LINE
  5
70C
  8
DATA
  6
CONTINUOUS
 62
     7
 10
1319.9999999999491
 20
84.999999999965709
 30
0.0
 11
1319.9999999999491
 21
99.999999999965723
 31
0.0
  0
LINE
  5
70D
  8
DATA
  6
CONTINUOUS
 62
     7
 10
1207.6176921015381
 20
84.999999999965709
 30
0.0
 11
1207.6176921015381
 21
99.999999999964786
 31
0.0
  0
LINE
  5
70E
  8
DATA
  6
CONTINUOUS
 62
     7
 10
1207.6176921015381
 20
99.999999999964786
 30
0.0
 11
1319.9999999999491
 21
99.999999999965723
 31
0.0
  0
LINE
  5
70F
  8
DATA
  6
CONTINUOUS
 62
     7
 10
1207.6176921015381
 20
84.999999999965709
 30
0.0
 11
1319.9999999999491
 21
84.999999999965709
 31
0.0
  0
LINE
  5
710
  8
DATA
  6
CONTINUOUS
 62
     7
 10
1319.9999999999491
 20
84.999999999965709
 30
0.0
 11
1207.6176921015381
 21
84.999999999965709
 31
0.0
  0
LINE
  5
711
  8
DATA
  6
CONTINUOUS
 62
     7
 10
1207.617692101539
 20
84.999999999965709
 30
0.0
 11
1207.617692101539
 21
72.999999999964786
 31
0.0
  0
LINE
  5
712
  8
DATA
  6
CONTINUOUS
 62
     7
 10
-534.30000000000121
 20
-208.49999999999909
 30
0.0
 11
-534.30000000000121
 21
-196.49999999999909
 31
0.0
  0
TEXT
  5
713
  8
DATA
 62
     7
 10
823.03803637881254
 20
-1531.139810657909
 30
0.0
 40
24.4326171875
  1
3Way-フルレンジ・スピーカー
 41
0.7
 11
823.03803637881254
 21
-1506.707193470409
 31
0.0
 73
     3
  0
LINE
  5
714
  8
DATA
  6
CONTINUOUS
 62
     7
 10
426.9722408750431
 20
-572.99999999999795
 30
0.0
 11
450.74695749689818
 21
-572.99999999999795
 31
0.0
  0
LINE
  5
715
  8
DATA
  6
CONTINUOUS
 62
     7
 10
423.09065448780342
 20
-599.99999999999795
 30
0.0
 11
450.74695749690079
 21
-599.99999999999795
 31
0.0
  0
LINE
  5
716
  8
DATA
  6
CONTINUOUS
 62
     7
 10
450.74695749690079
 20
-584.99999999999795
 30
0.0
 11
423.09065448780342
 21
-584.99999999999795
 31
0.0
  0
LINE
  5
717
  8
DATA
  6
CONTINUOUS
 62
     7
 10
441.99999999998079
 20
-207.49999999999909
 30
0.0
 11
448.99999999998079
 21
-207.49999999999909
 31
0.0
  0
LINE
  5
718
  8
DATA
  6
CONTINUOUS
 62
     7
 10
448.99999999998079
 20
-197.49999999999909
 30
0.0
 11
441.99999999998079
 21
-197.49999999999909
 31
0.0
  0
LINE
  5
719
  8
DATA
  6
CONTINUOUS
 62
     7
 10
404.0315901369795
 20
-572.99999999999795
 30
0.0
 11
426.9722408750431
 21
-572.99999999999795
 31
0.0
  0
LINE
  5
71A
  8
DATA
  6
CONTINUOUS
 62
     7
 10
399.99999999998357
 20
-599.9999999999992
 30
0.0
 11
423.09065448780342
 21
-599.99999999999795
 31
0.0
  0
LINE
  5
71B
  8
DATA
  6
CONTINUOUS
 62
     7
 10
423.09065448780342
 20
-584.99999999999795
 30
0.0
 11
399.99999999998357
 21
-584.9999999999992
 31
0.0
  0
LINE
  5
71C
  8
DATA
  6
CONTINUOUS
 62
     7
 10
404.0315901369795
 20
-583.49999999999989
 30
0.0
 11
404.0315901369795
 21
-572.99999999999795
 31
0.0
  0
LINE
  5
71D
  8
DATA
  6
CONTINUOUS
 62
     7
 10
403.99999999998352
 20
-583.49999999999989
 30
0.0
 11
404.0315901369795
 21
-583.49999999999989
 31
0.0
  0
LINE
  5
71E
  8
DATA
  6
CONTINUOUS
 62
     7
 10
404.0315901369795
 20
-572.99999999999795
 30
0.0
 11
404.0315901369795
 21
-583.49999999999989
 31
0.0
  0
LINE
  5
71F
  8
DATA
  6
CONTINUOUS
 62
     7
 10
403.99999999998352
 20
-583.49999999999989
 30
0.0
 11
403.99999999998352
 21
-584.9999999999992
 31
0.0
  0
LINE
  5
720
  8
DATA
  6
CONTINUOUS
 62
     7
 10
399.99999999998357
 20
-584.9999999999992
 30
0.0
 11
399.99999999998357
 21
-599.9999999999992
 31
0.0
  0
LINE
  5
721
  8
DATA
  6
CONTINUOUS
 62
     7
 10
426.9722408750431
 20
-572.99999999999795
 30
0.0
 11
426.9722408750431
 21
-584.99999999999795
 31
0.0
  0
LINE
  5
722
  8
DATA
  6
CONTINUOUS
 62
     7
 10
423.09065448780342
 20
-584.99999999999795
 30
0.0
 11
423.09065448780342
 21
-599.99999999999795
 31
0.0
  0
LINE
  5
723
  8
DATA
  6
CONTINUOUS
 62
     7
 10
441.99999999998079
 20
-209.49999999999909
 30
0.0
 11
409.29999999998103
 21
-209.49999999999909
 31
0.0
  0
LINE
  5
724
  8
DATA
  6
CONTINUOUS
 62
     7
 10
409.29999999998103
 20
-195.49999999999909
 30
0.0
 11
441.99999999998079
 21
-195.49999999999909
 31
0.0
  0
LINE
  5
725
  8
DATA
  6
CONTINUOUS
 62
     7
 10
409.29999999998103
 20
-202.49999999999909
 30
0.0
 11
441.99999999998079
 21
-202.49999999999909
 31
0.0
  0
LINE
  5
726
  8
DATA
  6
CONTINUOUS
 62
     7
 10
405.29999999998103
 20
-195.49999999999909
 30
0.0
 11
405.29999999998103
 21
-209.49999999999909
 31
0.0
  0
POLYLINE
  5
727
  8
DATA
  6
CONTINUOUS
 62
     7
 66
     1
 10
0.0
 20
0.0
 30
0.0
 70
     8
  0
VERTEX
  5
728
  8
DATA
  6
CONTINUOUS
 62
     7
 10
404.30070981441349
 20
-208.4986176128233
 30
0.0
 70
    32
  0
VERTEX
  5
729
  8
DATA
  6
CONTINUOUS
 62
     7
 10
404.30070981441349
 20
-208.4986176128233
 30
0.0
 70
    32
  0
VERTEX
  5
72A
  8
DATA
  6
CONTINUOUS
 62
     7
 10
404.30070981441349
 20
-208.4986176128233
 30
0.0
 70
    32
  0
VERTEX
  5
72B
  8
DATA
  6
CONTINUOUS
 62
     7
 10
404.30070981441349
 20
-208.4986176128233
 30
0.0
 70
    32
  0
VERTEX
  5
72C
  8
DATA
  6
CONTINUOUS
 62
     7
 10
404.30070981441349
 20
-208.4986176128233
 30
0.0
 70
    32
  0
VERTEX
  5
72D
  8
DATA
  6
CONTINUOUS
 62
     7
 10
404.30070981441349
 20
-208.48861761282299
 30
0.0
 70
    32
  0
VERTEX
  5
72E
  8
DATA
  6
CONTINUOUS
 62
     7
 10
404.30070981441349
 20
-208.48861761282299
 30
0.0
 70
    32
  0
VERTEX
  5
72F
  8
DATA
  6
CONTINUOUS
 62
     7
 10
404.30070981441349
 20
-208.48861761282299
 30
0.0
 70
    32
  0
VERTEX
  5
730
  8
DATA
  6
CONTINUOUS
 62
     7
 10
404.30070981441349
 20
-208.47861761282331
 30
0.0
 70
    32
  0
VERTEX
  5
731
  8
DATA
  6
CONTINUOUS
 62
     7
 10
404.30070981441349
 20
-208.47861761282331
 30
0.0
 70
    32
  0
VERTEX
  5
732
  8
DATA
  6
CONTINUOUS
 62
     7
 10
404.30070981441349
 20
-208.46861761282301
 30
0.0
 70
    32
  0
VERTEX
  5
733
  8
DATA
  6
CONTINUOUS
 62
     7
 10
404.30070981441349
 20
-208.46861761282301
 30
0.0
 70
    32
  0
VERTEX
  5
734
  8
DATA
  6
CONTINUOUS
 62
     7
 10
404.30070981441349
 20
-208.4586176128233
 30
0.0
 70
    32
  0
VERTEX
  5
735
  8
DATA
  6
CONTINUOUS
 62
     7
 10
404.30070981441349
 20
-208.448617612823
 30
0.0
 70
    32
  0
VERTEX
  5
736
  8
DATA
  6
CONTINUOUS
 62
     7
 10
404.30070981441349
 20
-208.43861761282329
 30
0.0
 70
    32
  0
VERTEX
  5
737
  8
DATA
  6
CONTINUOUS
 62
     7
 10
404.30070981441349
 20
-208.43861761282329
 30
0.0
 70
    32
  0
VERTEX
  5
738
  8
DATA
  6
CONTINUOUS
 62
     7
 10
404.30070981441349
 20
-208.4286176128231
 30
0.0
 70
    32
  0
VERTEX
  5
739
  8
DATA
  6
CONTINUOUS
 62
     7
 10
404.30070981441349
 20
-208.41861761282331
 30
0.0
 70
    32
  0
VERTEX
  5
73A
  8
DATA
  6
CONTINUOUS
 62
     7
 10
404.30070981441349
 20
-208.40861761282309
 30
0.0
 70
    32
  0
VERTEX
  5
73B
  8
DATA
  6
CONTINUOUS
 62
     7
 10
404.30070981441349
 20
-208.3986176128233
 30
0.0
 70
    32
  0
VERTEX
  5
73C
  8
DATA
  6
CONTINUOUS
 62
     7
 10
404.30070981441349
 20
-208.37861761282329
 30
0.0
 70
    32
  0
VERTEX
  5
73D
  8
DATA
  6
CONTINUOUS
 62
     7
 10
404.30070981441349
 20
-208.3686176128231
 30
0.0
 70
    32
  0
VERTEX
  5
73E
  8
DATA
  6
CONTINUOUS
 62
     7
 10
404.30070981441349
 20
-208.35861761282339
 30
0.0
 70
    32
  0
VERTEX
  5
73F
  8
DATA
  6
CONTINUOUS
 62
     7
 10
404.30070981441349
 20
-208.3486176128232
 30
0.0
 70
    32
  0
VERTEX
  5
740
  8
DATA
  6
CONTINUOUS
 62
     7
 10
404.30070981441349
 20
-208.32861761282319
 30
0.0
 70
    32
  0
VERTEX
  5
741
  8
DATA
  6
CONTINUOUS
 62
     7
 10
404.30070981441349
 20
-208.3186176128234
 30
0.0
 70
    32
  0
VERTEX
  5
742
  8
DATA
  6
CONTINUOUS
 62
     7
 10
404.30070981441349
 20
-208.29861761282351
 30
0.0
 70
    32
  0
VERTEX
  5
743
  8
DATA
  6
CONTINUOUS
 62
     7
 10
404.30070981441349
 20
-208.2886176128232
 30
0.0
 70
    32
  0
VERTEX
  5
744
  8
DATA
  6
CONTINUOUS
 62
     7
 10
404.30070981441349
 20
-208.26861761282319
 30
0.0
 70
    32
  0
VERTEX
  5
745
  8
DATA
  6
CONTINUOUS
 62
     7
 10
404.30070981441349
 20
-208.25861761282351
 30
0.0
 70
    32
  0
VERTEX
  5
746
  8
DATA
  6
CONTINUOUS
 62
     7
 10
404.30070981441349
 20
-208.23861761282299
 30
0.0
 70
    32
  0
VERTEX
  5
747
  8
DATA
  6
CONTINUOUS
 62
     7
 10
404.30070981441349
 20
-208.21861761282301
 30
0.0
 70
    32
  0
VERTEX
  5
748
  8
DATA
  6
CONTINUOUS
 62
     7
 10
404.30070981441349
 20
-208.2086176128233
 30
0.0
 70
    32
  0
VERTEX
  5
749
  8
DATA
  6
CONTINUOUS
 62
     7
 10
404.30070981441349
 20
-208.18861761282329
 30
0.0
 70
    32
  0
VERTEX
  5
74A
  8
DATA
  6
CONTINUOUS
 62
     7
 10
404.30070981441349
 20
-208.16861761282331
 30
0.0
 70
    32
  0
VERTEX
  5
74B
  8
DATA
  6
CONTINUOUS
 62
     7
 10
404.30070981441349
 20
-208.1486176128233
 30
0.0
 70
    32
  0
VERTEX
  5
74C
  8
DATA
  6
CONTINUOUS
 62
     7
 10
404.30070981441349
 20
-208.12861761282329
 30
0.0
 70
    32
  0
VERTEX
  5
74D
  8
DATA
  6
CONTINUOUS
 62
     7
 10
404.30070981441349
 20
-208.10861761282339
 30
0.0
 70
    32
  0
VERTEX
  5
74E
  8
DATA
  6
CONTINUOUS
 62
     7
 10
404.30070981441349
 20
-208.08861761282341
 30
0.0
 70
    32
  0
VERTEX
  5
74F
  8
DATA
  6
CONTINUOUS
 62
     7
 10
404.30070981441349
 20
-208.05861761282321
 30
0.0
 70
    32
  0
VERTEX
  5
750
  8
DATA
  6
CONTINUOUS
 62
     7
 10
404.30070981441349
 20
-208.0386176128232
 30
0.0
 70
    32
  0
VERTEX
  5
751
  8
DATA
  6
CONTINUOUS
 62
     7
 10
404.30070981441349
 20
-208.01861761282319
 30
0.0
 70
    32
  0
VERTEX
  5
752
  8
DATA
  6
CONTINUOUS
 62
     7
 10
404.30070981441349
 20
-207.9986176128233
 30
0.0
 70
    32
  0
VERTEX
  5
753
  8
DATA
  6
CONTINUOUS
 62
     7
 10
404.30070981441349
 20
-207.96861761282301
 30
0.0
 70
    32
  0
VERTEX
  5
754
  8
DATA
  6
CONTINUOUS
 62
     7
 10
404.30070981441349
 20
-207.948617612823
 30
0.0
 70
    32
  0
VERTEX
  5
755
  8
DATA
  6
CONTINUOUS
 62
     7
 10
404.30070981441349
 20
-207.91861761282331
 30
0.0
 70
    32
  0
VERTEX
  5
756
  8
DATA
  6
CONTINUOUS
 62
     7
 10
404.30070981441349
 20
-207.8986176128233
 30
0.0
 70
    32
  0
VERTEX
  5
757
  8
DATA
  6
CONTINUOUS
 62
     7
 10
404.30070981441349
 20
-207.8686176128231
 30
0.0
 70
    32
  0
VERTEX
  5
758
  8
DATA
  6
CONTINUOUS
 62
     7
 10
404.30070981441349
 20
-207.83861761282341
 30
0.0
 70
    32
  0
VERTEX
  5
759
  8
DATA
  6
CONTINUOUS
 62
     7
 10
404.30070981441349
 20
-207.8186176128234
 30
0.0
 70
    32
  0
VERTEX
  5
75A
  8
DATA
  6
CONTINUOUS
 62
     7
 10
404.30070981441349
 20
-207.7886176128232
 30
0.0
 70
    32
  0
VERTEX
  5
75B
  8
DATA
  6
CONTINUOUS
 62
     7
 10
404.30070981441349
 20
-207.75861761282351
 30
0.0
 70
    32
  0
VERTEX
  5
75C
  8
DATA
  6
CONTINUOUS
 62
     7
 10
404.30070981441349
 20
-207.72861761282331
 30
0.0
 70
    32
  0
VERTEX
  5
75D
  8
DATA
  6
CONTINUOUS
 62
     7
 10
404.30070981441349
 20
-207.698617612823
 30
0.0
 70
    32
  0
VERTEX
  5
75E
  8
DATA
  6
CONTINUOUS
 62
     7
 10
404.30070981441349
 20
-207.6786176128231
 30
0.0
 70
    32
  0
VERTEX
  5
75F
  8
DATA
  6
CONTINUOUS
 62
     7
 10
404.30070981441349
 20
-207.63861761282311
 30
0.0
 70
    32
  0
VERTEX
  5
760
  8
DATA
  6
CONTINUOUS
 62
     7
 10
404.30070981441349
 20
-207.60861761282339
 30
0.0
 70
    32
  0
VERTEX
  5
761
  8
DATA
  6
CONTINUOUS
 62
     7
 10
404.30070981441349
 20
-207.57861761282319
 30
0.0
 70
    32
  0
VERTEX
  5
762
  8
DATA
  6
CONTINUOUS
 62
     7
 10
404.30070981441349
 20
-207.54861761282339
 30
0.0
 70
    32
  0
VERTEX
  5
763
  8
DATA
  6
CONTINUOUS
 62
     7
 10
404.30070981441349
 20
-207.51861761282319
 30
0.0
 70
    32
  0
VERTEX
  5
764
  8
DATA
  6
CONTINUOUS
 62
     7
 10
404.30070981441349
 20
-207.48861761282299
 30
0.0
 70
    32
  0
VERTEX
  5
765
  8
DATA
  6
CONTINUOUS
 62
     7
 10
404.30070981441349
 20
-207.448617612823
 30
0.0
 70
    32
  0
VERTEX
  5
766
  8
DATA
  6
CONTINUOUS
 62
     7
 10
404.30070981441349
 20
-207.41861761282331
 30
0.0
 70
    32
  0
VERTEX
  5
767
  8
DATA
  6
CONTINUOUS
 62
     7
 10
404.30070981441349
 20
-207.38861761282311
 30
0.0
 70
    32
  0
VERTEX
  5
768
  8
DATA
  6
CONTINUOUS
 62
     7
 10
404.30070981441349
 20
-207.34861761282309
 30
0.0
 70
    32
  0
VERTEX
  5
769
  8
DATA
  6
CONTINUOUS
 62
     7
 10
404.30070981441349
 20
-207.3186176128234
 30
0.0
 70
    32
  0
VERTEX
  5
76A
  8
DATA
  6
CONTINUOUS
 62
     7
 10
404.30070981441349
 20
-207.27861761282341
 30
0.0
 70
    32
  0
VERTEX
  5
76B
  8
DATA
  6
CONTINUOUS
 62
     7
 10
404.30070981441349
 20
-207.24861761282321
 30
0.0
 70
    32
  0
VERTEX
  5
76C
  8
DATA
  6
CONTINUOUS
 62
     7
 10
404.30070981441349
 20
-207.2086176128233
 30
0.0
 70
    32
  0
VERTEX
  5
76D
  8
DATA
  6
CONTINUOUS
 62
     7
 10
404.30070981441349
 20
-207.16861761282331
 30
0.0
 70
    32
  0
VERTEX
  5
76E
  8
DATA
  6
CONTINUOUS
 62
     7
 10
404.30070981441349
 20
-207.12861761282329
 30
0.0
 70
    32
  0
VERTEX
  5
76F
  8
DATA
  6
CONTINUOUS
 62
     7
 10
404.30070981441349
 20
-207.09861761282309
 30
0.0
 70
    32
  0
VERTEX
  5
770
  8
DATA
  6
CONTINUOUS
 62
     7
 10
404.30070981441349
 20
-207.05861761282321
 30
0.0
 70
    32
  0
VERTEX
  5
771
  8
DATA
  6
CONTINUOUS
 62
     7
 10
404.30070981441349
 20
-207.01861761282319
 30
0.0
 70
    32
  0
VERTEX
  5
772
  8
DATA
  6
CONTINUOUS
 62
     7
 10
404.30070981441349
 20
-206.97861761282331
 30
0.0
 70
    32
  0
VERTEX
  5
773
  8
DATA
  6
CONTINUOUS
 62
     7
 10
404.30070981441349
 20
-206.93861761282329
 30
0.0
 70
    32
  0
VERTEX
  5
774
  8
DATA
  6
CONTINUOUS
 62
     7
 10
404.30070981441349
 20
-206.8986176128233
 30
0.0
 70
    32
  0
VERTEX
  5
775
  8
DATA
  6
CONTINUOUS
 62
     7
 10
404.30070981441349
 20
-206.85861761282339
 30
0.0
 70
    32
  0
VERTEX
  5
776
  8
DATA
  6
CONTINUOUS
 62
     7
 10
404.30070981441349
 20
-206.8186176128234
 30
0.0
 70
    32
  0
VERTEX
  5
777
  8
DATA
  6
CONTINUOUS
 62
     7
 10
404.30070981441349
 20
-206.7786176128235
 30
0.0
 70
    32
  0
VERTEX
  5
778
  8
DATA
  6
CONTINUOUS
 62
     7
 10
404.30070981441349
 20
-206.72861761282331
 30
0.0
 70
    32
  0
VERTEX
  5
779
  8
DATA
  6
CONTINUOUS
 62
     7
 10
404.30070981441349
 20
-206.68861761282329
 30
0.0
 70
    32
  0
VERTEX
  5
77A
  8
DATA
  6
CONTINUOUS
 62
     7
 10
404.30070981441349
 20
-206.6486176128233
 30
0.0
 70
    32
  0
VERTEX
  5
77B
  8
DATA
  6
CONTINUOUS
 62
     7
 10
404.30070981441349
 20
-206.5986176128232
 30
0.0
 70
    32
  0
VERTEX
  5
77C
  8
DATA
  6
CONTINUOUS
 62
     7
 10
404.30070981441349
 20
-206.55861761282321
 30
0.0
 70
    32
  0
VERTEX
  5
77D
  8
DATA
  6
CONTINUOUS
 62
     7
 10
404.30070981441349
 20
-206.51861761282319
 30
0.0
 70
    32
  0
VERTEX
  5
77E
  8
DATA
  6
CONTINUOUS
 62
     7
 10
404.30070981441349
 20
-206.46861761282301
 30
0.0
 70
    32
  0
VERTEX
  5
77F
  8
DATA
  6
CONTINUOUS
 62
     7
 10
404.30070981441349
 20
-206.4286176128231
 30
0.0
 70
    32
  0
VERTEX
  5
780
  8
DATA
  6
CONTINUOUS
 62
     7
 10
404.30070981441349
 20
-206.37861761282329
 30
0.0
 70
    32
  0
VERTEX
  5
781
  8
DATA
  6
CONTINUOUS
 62
     7
 10
404.30070981441349
 20
-206.33861761282341
 30
0.0
 70
    32
  0
VERTEX
  5
782
  8
DATA
  6
CONTINUOUS
 62
     7
 10
404.30070981441349
 20
-206.2886176128232
 30
0.0
 70
    32
  0
VERTEX
  5
783
  8
DATA
  6
CONTINUOUS
 62
     7
 10
404.30070981441349
 20
-206.23861761282299
 30
0.0
 70
    32
  0
VERTEX
  5
784
  8
DATA
  6
CONTINUOUS
 62
     7
 10
404.30070981441349
 20
-206.198617612823
 30
0.0
 70
    32
  0
VERTEX
  5
785
  8
DATA
  6
CONTINUOUS
 62
     7
 10
404.30070981441349
 20
-206.1486176128233
 30
0.0
 70
    32
  0
VERTEX
  5
786
  8
DATA
  6
CONTINUOUS
 62
     7
 10
404.30070981441349
 20
-206.09861761282309
 30
0.0
 70
    32
  0
VERTEX
  5
787
  8
DATA
  6
CONTINUOUS
 62
     7
 10
404.30070981441349
 20
-206.05861761282321
 30
0.0
 70
    32
  0
VERTEX
  5
788
  8
DATA
  6
CONTINUOUS
 62
     7
 10
404.30070981441349
 20
-206.00861761282351
 30
0.0
 70
    32
  0
VERTEX
  5
789
  8
DATA
  6
CONTINUOUS
 62
     7
 10
404.30070981441349
 20
-205.9586176128233
 30
0.0
 70
    32
  0
VERTEX
  5
78A
  8
DATA
  6
CONTINUOUS
 62
     7
 10
404.30070981441349
 20
-205.90861761282309
 30
0.0
 70
    32
  0
VERTEX
  5
78B
  8
DATA
  6
CONTINUOUS
 62
     7
 10
404.30070981441349
 20
-205.85861761282339
 30
0.0
 70
    32
  0
VERTEX
  5
78C
  8
DATA
  6
CONTINUOUS
 62
     7
 10
404.30070981441349
 20
-205.80861761282321
 30
0.0
 70
    32
  0
VERTEX
  5
78D
  8
DATA
  6
CONTINUOUS
 62
     7
 10
404.30070981441349
 20
-205.76861761282319
 30
0.0
 70
    32
  0
VERTEX
  5
78E
  8
DATA
  6
CONTINUOUS
 62
     7
 10
404.30070981441349
 20
-205.71861761282301
 30
0.0
 70
    32
  0
VERTEX
  5
78F
  8
DATA
  6
CONTINUOUS
 62
     7
 10
404.30070981441349
 20
-205.66861761282331
 30
0.0
 70
    32
  0
VERTEX
  5
790
  8
DATA
  6
CONTINUOUS
 62
     7
 10
404.30070981441349
 20
-205.6186176128231
 30
0.0
 70
    32
  0
VERTEX
  5
791
  8
DATA
  6
CONTINUOUS
 62
     7
 10
404.30070981441349
 20
-205.5686176128234
 30
0.0
 70
    32
  0
VERTEX
  5
792
  8
DATA
  6
CONTINUOUS
 62
     7
 10
404.30070981441349
 20
-205.5086176128234
 30
0.0
 70
    32
  0
VERTEX
  5
793
  8
DATA
  6
CONTINUOUS
 62
     7
 10
404.30070981441349
 20
-205.4586176128233
 30
0.0
 70
    32
  0
VERTEX
  5
794
  8
DATA
  6
CONTINUOUS
 62
     7
 10
404.30070981441349
 20
-205.40861761282309
 30
0.0
 70
    32
  0
VERTEX
  5
795
  8
DATA
  6
CONTINUOUS
 62
     7
 10
404.30070981441349
 20
-205.35861761282339
 30
0.0
 70
    32
  0
VERTEX
  5
796
  8
DATA
  6
CONTINUOUS
 62
     7
 10
404.30070981441349
 20
-205.30861761282321
 30
0.0
 70
    32
  0
VERTEX
  5
797
  8
DATA
  6
CONTINUOUS
 62
     7
 10
404.30070981441349
 20
-205.2586176128234
 30
0.0
 70
    32
  0
VERTEX
  5
798
  8
DATA
  6
CONTINUOUS
 62
     7
 10
404.30070981441349
 20
-205.198617612823
 30
0.0
 70
    32
  0
VERTEX
  5
799
  8
DATA
  6
CONTINUOUS
 62
     7
 10
404.30070981441349
 20
-205.1486176128233
 30
0.0
 70
    32
  0
VERTEX
  5
79A
  8
DATA
  6
CONTINUOUS
 62
     7
 10
404.30070981441349
 20
-205.09861761282309
 30
0.0
 70
    32
  0
VERTEX
  5
79B
  8
DATA
  6
CONTINUOUS
 62
     7
 10
404.30070981441349
 20
-205.04861761282339
 30
0.0
 70
    32
  0
VERTEX
  5
79C
  8
DATA
  6
CONTINUOUS
 62
     7
 10
404.30070981441349
 20
-204.98861761282299
 30
0.0
 70
    32
  0
VERTEX
  5
79D
  8
DATA
  6
CONTINUOUS
 62
     7
 10
404.30070981441349
 20
-204.93861761282329
 30
0.0
 70
    32
  0
VERTEX
  5
79E
  8
DATA
  6
CONTINUOUS
 62
     7
 10
404.30070981441349
 20
-204.88861761282311
 30
0.0
 70
    32
  0
VERTEX
  5
79F
  8
DATA
  6
CONTINUOUS
 62
     7
 10
404.30070981441349
 20
-204.82861761282319
 30
0.0
 70
    32
  0
VERTEX
  5
7A0
  8
DATA
  6
CONTINUOUS
 62
     7
 10
404.30070981441349
 20
-204.77861761282341
 30
0.0
 70
    32
  0
VERTEX
  5
7A1
  8
DATA
  6
CONTINUOUS
 62
     7
 10
404.30070981441349
 20
-204.7186176128231
 30
0.0
 70
    32
  0
VERTEX
  5
7A2
  8
DATA
  6
CONTINUOUS
 62
     7
 10
404.30070981441349
 20
-204.66861761282331
 30
0.0
 70
    32
  0
VERTEX
  5
7A3
  8
DATA
  6
CONTINUOUS
 62
     7
 10
404.30070981441349
 20
-204.60861761282339
 30
0.0
 70
    32
  0
VERTEX
  5
7A4
  8
DATA
  6
CONTINUOUS
 62
     7
 10
404.30070981441349
 20
-204.55861761282321
 30
0.0
 70
    32
  0
VERTEX
  5
7A5
  8
DATA
  6
CONTINUOUS
 62
     7
 10
404.30070981441349
 20
-204.4986176128233
 30
0.0
 70
    32
  0
VERTEX
  5
7A6
  8
DATA
  6
CONTINUOUS
 62
     7
 10
404.30070981441349
 20
-204.448617612823
 30
0.0
 70
    32
  0
VERTEX
  5
7A7
  8
DATA
  6
CONTINUOUS
 62
     7
 10
404.30070981441349
 20
-204.3886176128232
 30
0.0
 70
    32
  0
VERTEX
  5
7A8
  8
DATA
  6
CONTINUOUS
 62
     7
 10
404.30070981441349
 20
-204.33861761282341
 30
0.0
 70
    32
  0
VERTEX
  5
7A9
  8
DATA
  6
CONTINUOUS
 62
     7
 10
404.30070981441349
 20
-204.27861761282341
 30
0.0
 70
    32
  0
VERTEX
  5
7AA
  8
DATA
  6
CONTINUOUS
 62
     7
 10
404.30070981441349
 20
-204.21861761282301
 30
0.0
 70
    32
  0
VERTEX
  5
7AB
  8
DATA
  6
CONTINUOUS
 62
     7
 10
404.30070981441349
 20
-204.16861761282331
 30
0.0
 70
    32
  0
VERTEX
  5
7AC
  8
DATA
  6
CONTINUOUS
 62
     7
 10
404.30070981441349
 20
-204.10861761282339
 30
0.0
 70
    32
  0
VERTEX
  5
7AD
  8
DATA
  6
CONTINUOUS
 62
     7
 10
404.30070981441349
 20
-204.04861761282351
 30
0.0
 70
    32
  0
VERTEX
  5
7AE
  8
DATA
  6
CONTINUOUS
 62
     7
 10
404.30070981441349
 20
-203.9986176128233
 30
0.0
 70
    32
  0
VERTEX
  5
7AF
  8
DATA
  6
CONTINUOUS
 62
     7
 10
404.30070981441349
 20
-203.93861761282329
 30
0.0
 70
    32
  0
VERTEX
  5
7B0
  8
DATA
  6
CONTINUOUS
 62
     7
 10
404.30070981441349
 20
-203.87861761282329
 30
0.0
 70
    32
  0
VERTEX
  5
7B1
  8
DATA
  6
CONTINUOUS
 62
     7
 10
404.30070981441349
 20
-203.82861761282319
 30
0.0
 70
    32
  0
VERTEX
  5
7B2
  8
DATA
  6
CONTINUOUS
 62
     7
 10
404.30070981441349
 20
-203.76861761282319
 30
0.0
 70
    32
  0
VERTEX
  5
7B3
  8
DATA
  6
CONTINUOUS
 62
     7
 10
404.30070981441349
 20
-203.7086176128233
 30
0.0
 70
    32
  0
VERTEX
  5
7B4
  8
DATA
  6
CONTINUOUS
 62
     7
 10
404.30070981441349
 20
-203.6486176128233
 30
0.0
 70
    32
  0
VERTEX
  5
7B5
  8
DATA
  6
CONTINUOUS
 62
     7
 10
404.30070981441349
 20
-203.58861761282341
 30
0.0
 70
    32
  0
VERTEX
  5
7B6
  8
DATA
  6
CONTINUOUS
 62
     7
 10
404.30070981441349
 20
-203.5386176128232
 30
0.0
 70
    32
  0
VERTEX
  5
7B7
  8
DATA
  6
CONTINUOUS
 62
     7
 10
404.30070981441349
 20
-203.47861761282331
 30
0.0
 70
    32
  0
VERTEX
  5
7B8
  8
DATA
  6
CONTINUOUS
 62
     7
 10
404.30070981441349
 20
-203.41861761282331
 30
0.0
 70
    32
  0
VERTEX
  5
7B9
  8
DATA
  6
CONTINUOUS
 62
     7
 10
404.30070981441349
 20
-203.35861761282339
 30
0.0
 70
    32
  0
VERTEX
  5
7BA
  8
DATA
  6
CONTINUOUS
 62
     7
 10
404.30070981441349
 20
-203.29861761282339
 30
0.0
 70
    32
  0
VERTEX
  5
7BB
  8
DATA
  6
CONTINUOUS
 62
     7
 10
404.30070981441349
 20
-203.23861761282299
 30
0.0
 70
    32
  0
VERTEX
  5
7BC
  8
DATA
  6
CONTINUOUS
 62
     7
 10
404.30070981441349
 20
-203.1786176128231
 30
0.0
 70
    32
  0
VERTEX
  5
7BD
  8
DATA
  6
CONTINUOUS
 62
     7
 10
404.30070981441349
 20
-203.12861761282329
 30
0.0
 70
    32
  0
VERTEX
  5
7BE
  8
DATA
  6
CONTINUOUS
 62
     7
 10
404.30070981441349
 20
-203.0686176128234
 30
0.0
 70
    32
  0
VERTEX
  5
7BF
  8
DATA
  6
CONTINUOUS
 62
     7
 10
404.30070981441349
 20
-203.0086176128234
 30
0.0
 70
    32
  0
VERTEX
  5
7C0
  8
DATA
  6
CONTINUOUS
 62
     7
 10
404.30070981441349
 20
-202.948617612823
 30
0.0
 70
    32
  0
VERTEX
  5
7C1
  8
DATA
  6
CONTINUOUS
 62
     7
 10
404.30070981441349
 20
-202.88861761282311
 30
0.0
 70
    32
  0
VERTEX
  5
7C2
  8
DATA
  6
CONTINUOUS
 62
     7
 10
404.30070981441349
 20
-202.82861761282319
 30
0.0
 70
    32
  0
VERTEX
  5
7C3
  8
DATA
  6
CONTINUOUS
 62
     7
 10
404.30070981441349
 20
-202.76861761282319
 30
0.0
 70
    32
  0
VERTEX
  5
7C4
  8
DATA
  6
CONTINUOUS
 62
     7
 10
404.30070981441349
 20
-202.7086176128233
 30
0.0
 70
    32
  0
VERTEX
  5
7C5
  8
DATA
  6
CONTINUOUS
 62
     7
 10
404.30070981441349
 20
-202.6486176128233
 30
0.0
 70
    32
  0
VERTEX
  5
7C6
  8
DATA
  6
CONTINUOUS
 62
     7
 10
404.30070981441349
 20
-202.58861761282341
 30
0.0
 70
    32
  0
VERTEX
  5
7C7
  8
DATA
  6
CONTINUOUS
 62
     7
 10
404.30070981441349
 20
-202.5286176128235
 30
0.0
 70
    32
  0
VERTEX
  5
7C8
  8
DATA
  6
CONTINUOUS
 62
     7
 10
404.30070981441349
 20
-202.46861761282301
 30
0.0
 70
    32
  0
VERTEX
  5
7C9
  8
DATA
  6
CONTINUOUS
 62
     7
 10
404.30070981441349
 20
-202.40861761282309
 30
0.0
 70
    32
  0
VERTEX
  5
7CA
  8
DATA
  6
CONTINUOUS
 62
     7
 10
404.30070981441349
 20
-202.3486176128232
 30
0.0
 70
    32
  0
VERTEX
  5
7CB
  8
DATA
  6
CONTINUOUS
 62
     7
 10
404.30070981441349
 20
-202.2886176128232
 30
0.0
 70
    32
  0
VERTEX
  5
7CC
  8
DATA
  6
CONTINUOUS
 62
     7
 10
404.30070981441349
 20
-202.22861761282331
 30
0.0
 70
    32
  0
VERTEX
  5
7CD
  8
DATA
  6
CONTINUOUS
 62
     7
 10
404.30070981441349
 20
-202.16861761282331
 30
0.0
 70
    32
  0
VERTEX
  5
7CE
  8
DATA
  6
CONTINUOUS
 62
     7
 10
404.30070981441349
 20
-202.10861761282339
 30
0.0
 70
    32
  0
VERTEX
  5
7CF
  8
DATA
  6
CONTINUOUS
 62
     7
 10
404.30070981441349
 20
-202.04861761282351
 30
0.0
 70
    32
  0
VERTEX
  5
7D0
  8
DATA
  6
CONTINUOUS
 62
     7
 10
404.30070981441349
 20
-201.9986176128233
 30
0.0
 70
    32
  0
VERTEX
  5
7D1
  8
DATA
  6
CONTINUOUS
 62
     7
 10
404.30070981441349
 20
-201.93861761282329
 30
0.0
 70
    32
  0
VERTEX
  5
7D2
  8
DATA
  6
CONTINUOUS
 62
     7
 10
404.30070981441349
 20
-201.87861761282329
 30
0.0
 70
    32
  0
VERTEX
  5
7D3
  8
DATA
  6
CONTINUOUS
 62
     7
 10
404.30070981441349
 20
-201.8186176128234
 30
0.0
 70
    32
  0
VERTEX
  5
7D4
  8
DATA
  6
CONTINUOUS
 62
     7
 10
404.30070981441349
 20
-201.75861761282351
 30
0.0
 70
    32
  0
VERTEX
  5
7D5
  8
DATA
  6
CONTINUOUS
 62
     7
 10
404.30070981441349
 20
-201.698617612823
 30
0.0
 70
    32
  0
VERTEX
  5
7D6
  8
DATA
  6
CONTINUOUS
 62
     7
 10
404.30070981441349
 20
-201.63861761282311
 30
0.0
 70
    32
  0
VERTEX
  5
7D7
  8
DATA
  6
CONTINUOUS
 62
     7
 10
404.30070981441349
 20
-201.57861761282319
 30
0.0
 70
    32
  0
VERTEX
  5
7D8
  8
DATA
  6
CONTINUOUS
 62
     7
 10
404.30070981441349
 20
-201.52861761282341
 30
0.0
 70
    32
  0
VERTEX
  5
7D9
  8
DATA
  6
CONTINUOUS
 62
     7
 10
404.30070981441349
 20
-201.46861761282301
 30
0.0
 70
    32
  0
VERTEX
  5
7DA
  8
DATA
  6
CONTINUOUS
 62
     7
 10
404.30070981441349
 20
-201.40861761282309
 30
0.0
 70
    32
  0
VERTEX
  5
7DB
  8
DATA
  6
CONTINUOUS
 62
     7
 10
404.30070981441349
 20
-201.34861761282309
 30
0.0
 70
    32
  0
VERTEX
  5
7DC
  8
DATA
  6
CONTINUOUS
 62
     7
 10
404.30070981441349
 20
-201.2886176128232
 30
0.0
 70
    32
  0
VERTEX
  5
7DD
  8
DATA
  6
CONTINUOUS
 62
     7
 10
404.30070981441349
 20
-201.23861761282299
 30
0.0
 70
    32
  0
VERTEX
  5
7DE
  8
DATA
  6
CONTINUOUS
 62
     7
 10
404.30070981441349
 20
-201.1786176128231
 30
0.0
 70
    32
  0
VERTEX
  5
7DF
  8
DATA
  6
CONTINUOUS
 62
     7
 10
404.30070981441349
 20
-201.1186176128231
 30
0.0
 70
    32
  0
VERTEX
  5
7E0
  8
DATA
  6
CONTINUOUS
 62
     7
 10
404.30070981441349
 20
-201.05861761282321
 30
0.0
 70
    32
  0
VERTEX
  5
7E1
  8
DATA
  6
CONTINUOUS
 62
     7
 10
404.30070981441349
 20
-201.0086176128234
 30
0.0
 70
    32
  0
VERTEX
  5
7E2
  8
DATA
  6
CONTINUOUS
 62
     7
 10
404.30070981441349
 20
-200.948617612823
 30
0.0
 70
    32
  0
VERTEX
  5
7E3
  8
DATA
  6
CONTINUOUS
 62
     7
 10
404.30070981441349
 20
-200.88861761282311
 30
0.0
 70
    32
  0
VERTEX
  5
7E4
  8
DATA
  6
CONTINUOUS
 62
     7
 10
404.30070981441349
 20
-200.83861761282341
 30
0.0
 70
    32
  0
VERTEX
  5
7E5
  8
DATA
  6
CONTINUOUS
 62
     7
 10
404.30070981441349
 20
-200.77861761282341
 30
0.0
 70
    32
  0
VERTEX
  5
7E6
  8
DATA
  6
CONTINUOUS
 62
     7
 10
404.30070981441349
 20
-200.7186176128231
 30
0.0
 70
    32
  0
VERTEX
  5
7E7
  8
DATA
  6
CONTINUOUS
 62
     7
 10
404.30070981441349
 20
-200.66861761282331
 30
0.0
 70
    32
  0
VERTEX
  5
7E8
  8
DATA
  6
CONTINUOUS
 62
     7
 10
404.30070981441349
 20
-200.60861761282339
 30
0.0
 70
    32
  0
VERTEX
  5
7E9
  8
DATA
  6
CONTINUOUS
 62
     7
 10
404.30070981441349
 20
-200.55861761282321
 30
0.0
 70
    32
  0
VERTEX
  5
7EA
  8
DATA
  6
CONTINUOUS
 62
     7
 10
404.30070981441349
 20
-200.4986176128233
 30
0.0
 70
    32
  0
VERTEX
  5
7EB
  8
DATA
  6
CONTINUOUS
 62
     7
 10
404.30070981441349
 20
-200.43861761282329
 30
0.0
 70
    32
  0
VERTEX
  5
7EC
  8
DATA
  6
CONTINUOUS
 62
     7
 10
404.30070981441349
 20
-200.3886176128232
 30
0.0
 70
    32
  0
VERTEX
  5
7ED
  8
DATA
  6
CONTINUOUS
 62
     7
 10
404.30070981441349
 20
-200.32861761282319
 30
0.0
 70
    32
  0
VERTEX
  5
7EE
  8
DATA
  6
CONTINUOUS
 62
     7
 10
404.30070981441349
 20
-200.2786176128235
 30
0.0
 70
    32
  0
VERTEX
  5
7EF
  8
DATA
  6
CONTINUOUS
 62
     7
 10
404.30070981441349
 20
-200.22861761282331
 30
0.0
 70
    32
  0
VERTEX
  5
7F0
  8
DATA
  6
CONTINUOUS
 62
     7
 10
404.30070981441349
 20
-200.16861761282331
 30
0.0
 70
    32
  0
VERTEX
  5
7F1
  8
DATA
  6
CONTINUOUS
 62
     7
 10
404.30070981441349
 20
-200.1186176128231
 30
0.0
 70
    32
  0
VERTEX
  5
7F2
  8
DATA
  6
CONTINUOUS
 62
     7
 10
404.30070981441349
 20
-200.05861761282321
 30
0.0
 70
    32
  0
VERTEX
  5
7F3
  8
DATA
  6
CONTINUOUS
 62
     7
 10
404.30070981441349
 20
-200.00861761282351
 30
0.0
 70
    32
  0
VERTEX
  5
7F4
  8
DATA
  6
CONTINUOUS
 62
     7
 10
404.30070981441349
 20
-199.9586176128233
 30
0.0
 70
    32
  0
VERTEX
  5
7F5
  8
DATA
  6
CONTINUOUS
 62
     7
 10
404.30070981441349
 20
-199.8986176128233
 30
0.0
 70
    32
  0
VERTEX
  5
7F6
  8
DATA
  6
CONTINUOUS
 62
     7
 10
404.30070981441349
 20
-199.84861761282309
 30
0.0
 70
    32
  0
VERTEX
  5
7F7
  8
DATA
  6
CONTINUOUS
 62
     7
 10
404.30070981441349
 20
-199.79861761282339
 30
0.0
 70
    32
  0
VERTEX
  5
7F8
  8
DATA
  6
CONTINUOUS
 62
     7
 10
404.30070981441349
 20
-199.7486176128233
 30
0.0
 70
    32
  0
VERTEX
  5
7F9
  8
DATA
  6
CONTINUOUS
 62
     7
 10
404.30070981441349
 20
-199.68861761282329
 30
0.0
 70
    32
  0
VERTEX
  5
7FA
  8
DATA
  6
CONTINUOUS
 62
     7
 10
404.30070981441349
 20
-199.63861761282311
 30
0.0
 70
    32
  0
VERTEX
  5
7FB
  8
DATA
  6
CONTINUOUS
 62
     7
 10
404.30070981441349
 20
-199.58861761282341
 30
0.0
 70
    32
  0
VERTEX
  5
7FC
  8
DATA
  6
CONTINUOUS
 62
     7
 10
404.30070981441349
 20
-199.5386176128232
 30
0.0
 70
    32
  0
VERTEX
  5
7FD
  8
DATA
  6
CONTINUOUS
 62
     7
 10
404.30070981441349
 20
-199.48861761282299
 30
0.0
 70
    32
  0
VERTEX
  5
7FE
  8
DATA
  6
CONTINUOUS
 62
     7
 10
404.30070981441349
 20
-199.43861761282329
 30
0.0
 70
    32
  0
VERTEX
  5
7FF
  8
DATA
  6
CONTINUOUS
 62
     7
 10
404.30070981441349
 20
-199.38861761282311
 30
0.0
 70
    32
  0
VERTEX
  5
800
  8
DATA
  6
CONTINUOUS
 62
     7
 10
404.30070981441349
 20
-199.33861761282341
 30
0.0
 70
    32
  0
VERTEX
  5
801
  8
DATA
  6
CONTINUOUS
 62
     7
 10
404.30070981441349
 20
-199.2886176128232
 30
0.0
 70
    32
  0
VERTEX
  5
802
  8
DATA
  6
CONTINUOUS
 62
     7
 10
404.30070981441349
 20
-199.23861761282299
 30
0.0
 70
    32
  0
VERTEX
  5
803
  8
DATA
  6
CONTINUOUS
 62
     7
 10
404.30070981441349
 20
-199.18861761282329
 30
0.0
 70
    32
  0
VERTEX
  5
804
  8
DATA
  6
CONTINUOUS
 62
     7
 10
404.30070981441349
 20
-199.13861761282311
 30
0.0
 70
    32
  0
VERTEX
  5
805
  8
DATA
  6
CONTINUOUS
 62
     7
 10
404.30070981441349
 20
-199.08861761282341
 30
0.0
 70
    32
  0
VERTEX
  5
806
  8
DATA
  6
CONTINUOUS
 62
     7
 10
404.30070981441349
 20
-199.03861761282309
 30
0.0
 70
    32
  0
VERTEX
  5
807
  8
DATA
  6
CONTINUOUS
 62
     7
 10
404.30070981441349
 20
-198.98861761282299
 30
0.0
 70
    32
  0
VERTEX
  5
808
  8
DATA
  6
CONTINUOUS
 62
     7
 10
404.30070981441349
 20
-198.948617612823
 30
0.0
 70
    32
  0
VERTEX
  5
809
  8
DATA
  6
CONTINUOUS
 62
     7
 10
404.30070981441349
 20
-198.8986176128233
 30
0.0
 70
    32
  0
VERTEX
  5
80A
  8
DATA
  6
CONTINUOUS
 62
     7
 10
404.30070981441349
 20
-198.84861761282309
 30
0.0
 70
    32
  0
VERTEX
  5
80B
  8
DATA
  6
CONTINUOUS
 62
     7
 10
404.30070981441349
 20
-198.79861761282339
 30
0.0
 70
    32
  0
VERTEX
  5
80C
  8
DATA
  6
CONTINUOUS
 62
     7
 10
404.30070981441349
 20
-198.7586176128234
 30
0.0
 70
    32
  0
VERTEX
  5
80D
  8
DATA
  6
CONTINUOUS
 62
     7
 10
404.30070981441349
 20
-198.7086176128233
 30
0.0
 70
    32
  0
VERTEX
  5
80E
  8
DATA
  6
CONTINUOUS
 62
     7
 10
404.30070981441349
 20
-198.6686176128232
 30
0.0
 70
    32
  0
VERTEX
  5
80F
  8
DATA
  6
CONTINUOUS
 62
     7
 10
404.30070981441349
 20
-198.6186176128231
 30
0.0
 70
    32
  0
VERTEX
  5
810
  8
DATA
  6
CONTINUOUS
 62
     7
 10
404.30070981441349
 20
-198.57861761282319
 30
0.0
 70
    32
  0
VERTEX
  5
811
  8
DATA
  6
CONTINUOUS
 62
     7
 10
404.30070981441349
 20
-198.52861761282341
 30
0.0
 70
    32
  0
VERTEX
  5
812
  8
DATA
  6
CONTINUOUS
 62
     7
 10
404.30070981441349
 20
-198.48861761282299
 30
0.0
 70
    32
  0
VERTEX
  5
813
  8
DATA
  6
CONTINUOUS
 62
     7
 10
404.30070981441349
 20
-198.43861761282329
 30
0.0
 70
    32
  0
VERTEX
  5
814
  8
DATA
  6
CONTINUOUS
 62
     7
 10
404.30070981441349
 20
-198.3986176128233
 30
0.0
 70
    32
  0
VERTEX
  5
815
  8
DATA
  6
CONTINUOUS
 62
     7
 10
404.30070981441349
 20
-198.34861761282309
 30
0.0
 70
    32
  0
VERTEX
  5
816
  8
DATA
  6
CONTINUOUS
 62
     7
 10
404.30070981441349
 20
-198.30861761282321
 30
0.0
 70
    32
  0
VERTEX
  5
817
  8
DATA
  6
CONTINUOUS
 62
     7
 10
404.30070981441349
 20
-198.26861761282319
 30
0.0
 70
    32
  0
VERTEX
  5
818
  8
DATA
  6
CONTINUOUS
 62
     7
 10
404.30070981441349
 20
-198.22861761282331
 30
0.0
 70
    32
  0
VERTEX
  5
819
  8
DATA
  6
CONTINUOUS
 62
     7
 10
404.30070981441349
 20
-198.18861761282329
 30
0.0
 70
    32
  0
VERTEX
  5
81A
  8
DATA
  6
CONTINUOUS
 62
     7
 10
404.30070981441349
 20
-198.13861761282311
 30
0.0
 70
    32
  0
VERTEX
  5
81B
  8
DATA
  6
CONTINUOUS
 62
     7
 10
404.30070981441349
 20
-198.09861761282309
 30
0.0
 70
    32
  0
VERTEX
  5
81C
  8
DATA
  6
CONTINUOUS
 62
     7
 10
404.30070981441349
 20
-198.05861761282321
 30
0.0
 70
    32
  0
VERTEX
  5
81D
  8
DATA
  6
CONTINUOUS
 62
     7
 10
404.30070981441349
 20
-198.01861761282319
 30
0.0
 70
    32
  0
VERTEX
  5
81E
  8
DATA
  6
CONTINUOUS
 62
     7
 10
404.30070981441349
 20
-197.97861761282331
 30
0.0
 70
    32
  0
VERTEX
  5
81F
  8
DATA
  6
CONTINUOUS
 62
     7
 10
404.30070981441349
 20
-197.93861761282329
 30
0.0
 70
    32
  0
VERTEX
  5
820
  8
DATA
  6
CONTINUOUS
 62
     7
 10
404.30070981441349
 20
-197.90861761282309
 30
0.0
 70
    32
  0
VERTEX
  5
821
  8
DATA
  6
CONTINUOUS
 62
     7
 10
404.30070981441349
 20
-197.8686176128231
 30
0.0
 70
    32
  0
VERTEX
  5
822
  8
DATA
  6
CONTINUOUS
 62
     7
 10
404.30070981441349
 20
-197.82861761282319
 30
0.0
 70
    32
  0
VERTEX
  5
823
  8
DATA
  6
CONTINUOUS
 62
     7
 10
404.30070981441349
 20
-197.78861761282309
 30
0.0
 70
    32
  0
VERTEX
  5
824
  8
DATA
  6
CONTINUOUS
 62
     7
 10
404.30070981441349
 20
-197.7586176128234
 30
0.0
 70
    32
  0
VERTEX
  5
825
  8
DATA
  6
CONTINUOUS
 62
     7
 10
404.30070981441349
 20
-197.71861761282301
 30
0.0
 70
    32
  0
VERTEX
  5
826
  8
DATA
  6
CONTINUOUS
 62
     7
 10
404.30070981441349
 20
-197.68861761282329
 30
0.0
 70
    32
  0
VERTEX
  5
827
  8
DATA
  6
CONTINUOUS
 62
     7
 10
404.30070981441349
 20
-197.6486176128233
 30
0.0
 70
    32
  0
VERTEX
  5
828
  8
DATA
  6
CONTINUOUS
 62
     7
 10
404.30070981441349
 20
-197.6186176128231
 30
0.0
 70
    32
  0
VERTEX
  5
829
  8
DATA
  6
CONTINUOUS
 62
     7
 10
404.30070981441349
 20
-197.57861761282319
 30
0.0
 70
    32
  0
VERTEX
  5
82A
  8
DATA
  6
CONTINUOUS
 62
     7
 10
404.30070981441349
 20
-197.54861761282339
 30
0.0
 70
    32
  0
VERTEX
  5
82B
  8
DATA
  6
CONTINUOUS
 62
     7
 10
404.30070981441349
 20
-197.51861761282319
 30
0.0
 70
    32
  0
VERTEX
  5
82C
  8
DATA
  6
CONTINUOUS
 62
     7
 10
404.30070981441349
 20
-197.4786176128232
 30
0.0
 70
    32
  0
VERTEX
  5
82D
  8
DATA
  6
CONTINUOUS
 62
     7
 10
404.30070981441349
 20
-197.448617612823
 30
0.0
 70
    32
  0
VERTEX
  5
82E
  8
DATA
  6
CONTINUOUS
 62
     7
 10
404.30070981441349
 20
-197.41861761282331
 30
0.0
 70
    32
  0
VERTEX
  5
82F
  8
DATA
  6
CONTINUOUS
 62
     7
 10
404.30070981441349
 20
-197.38861761282311
 30
0.0
 70
    32
  0
VERTEX
  5
830
  8
DATA
  6
CONTINUOUS
 62
     7
 10
404.30070981441349
 20
-197.35861761282331
 30
0.0
 70
    32
  0
VERTEX
  5
831
  8
DATA
  6
CONTINUOUS
 62
     7
 10
404.30070981441349
 20
-197.32861761282319
 30
0.0
 70
    32
  0
VERTEX
  5
832
  8
DATA
  6
CONTINUOUS
 62
     7
 10
404.30070981441349
 20
-197.29861761282339
 30
0.0
 70
    32
  0
VERTEX
  5
833
  8
DATA
  6
CONTINUOUS
 62
     7
 10
404.30070981441349
 20
-197.26861761282319
 30
0.0
 70
    32
  0
VERTEX
  5
834
  8
DATA
  6
CONTINUOUS
 62
     7
 10
404.30070981441349
 20
-197.23861761282299
 30
0.0
 70
    32
  0
VERTEX
  5
835
  8
DATA
  6
CONTINUOUS
 62
     7
 10
404.30070981441349
 20
-197.2086176128233
 30
0.0
 70
    32
  0
VERTEX
  5
836
  8
DATA
  6
CONTINUOUS
 62
     7
 10
404.30070981441349
 20
-197.18861761282329
 30
0.0
 70
    32
  0
VERTEX
  5
837
  8
DATA
  6
CONTINUOUS
 62
     7
 10
404.30070981441349
 20
-197.15861761282309
 30
0.0
 70
    32
  0
VERTEX
  5
838
  8
DATA
  6
CONTINUOUS
 62
     7
 10
404.30070981441349
 20
-197.12861761282329
 30
0.0
 70
    32
  0
VERTEX
  5
839
  8
DATA
  6
CONTINUOUS
 62
     7
 10
404.30070981441349
 20
-197.10861761282331
 30
0.0
 70
    32
  0
VERTEX
  5
83A
  8
DATA
  6
CONTINUOUS
 62
     7
 10
404.30070981441349
 20
-197.07861761282319
 30
0.0
 70
    32
  0
VERTEX
  5
83B
  8
DATA
  6
CONTINUOUS
 62
     7
 10
404.30070981441349
 20
-197.05861761282321
 30
0.0
 70
    32
  0
VERTEX
  5
83C
  8
DATA
  6
CONTINUOUS
 62
     7
 10
404.30070981441349
 20
-197.02861761282341
 30
0.0
 70
    32
  0
VERTEX
  5
83D
  8
DATA
  6
CONTINUOUS
 62
     7
 10
404.30070981441349
 20
-197.0086176128234
 30
0.0
 70
    32
  0
VERTEX
  5
83E
  8
DATA
  6
CONTINUOUS
 62
     7
 10
404.30070981441349
 20
-196.97861761282331
 30
0.0
 70
    32
  0
VERTEX
  5
83F
  8
DATA
  6
CONTINUOUS
 62
     7
 10
404.30070981441349
 20
-196.9586176128233
 30
0.0
 70
    32
  0
VERTEX
  5
840
  8
DATA
  6
CONTINUOUS
 62
     7
 10
404.30070981441349
 20
-196.93861761282329
 30
0.0
 70
    32
  0
VERTEX
  5
841
  8
DATA
  6
CONTINUOUS
 62
     7
 10
404.30070981441349
 20
-196.9186176128232
 30
0.0
 70
    32
  0
VERTEX
  5
842
  8
DATA
  6
CONTINUOUS
 62
     7
 10
404.30070981441349
 20
-196.8986176128233
 30
0.0
 70
    32
  0
VERTEX
  5
843
  8
DATA
  6
CONTINUOUS
 62
     7
 10
404.30070981441349
 20
-196.87861761282329
 30
0.0
 70
    32
  0
VERTEX
  5
844
  8
DATA
  6
CONTINUOUS
 62
     7
 10
404.30070981441349
 20
-196.84861761282309
 30
0.0
 70
    32
  0
VERTEX
  5
845
  8
DATA
  6
CONTINUOUS
 62
     7
 10
404.30070981441349
 20
-196.83861761282341
 30
0.0
 70
    32
  0
VERTEX
  5
846
  8
DATA
  6
CONTINUOUS
 62
     7
 10
404.30070981441349
 20
-196.8186176128234
 30
0.0
 70
    32
  0
VERTEX
  5
847
  8
DATA
  6
CONTINUOUS
 62
     7
 10
404.30070981441349
 20
-196.79861761282339
 30
0.0
 70
    32
  0
VERTEX
  5
848
  8
DATA
  6
CONTINUOUS
 62
     7
 10
404.30070981441349
 20
-196.77861761282341
 30
0.0
 70
    32
  0
VERTEX
  5
849
  8
DATA
  6
CONTINUOUS
 62
     7
 10
404.30070981441349
 20
-196.7586176128234
 30
0.0
 70
    32
  0
VERTEX
  5
84A
  8
DATA
  6
CONTINUOUS
 62
     7
 10
404.30070981441349
 20
-196.74861761282321
 30
0.0
 70
    32
  0
VERTEX
  5
84B
  8
DATA
  6
CONTINUOUS
 62
     7
 10
404.30070981441349
 20
-196.72861761282331
 30
0.0
 70
    32
  0
VERTEX
  5
84C
  8
DATA
  6
CONTINUOUS
 62
     7
 10
404.30070981441349
 20
-196.7086176128233
 30
0.0
 70
    32
  0
VERTEX
  5
84D
  8
DATA
  6
CONTINUOUS
 62
     7
 10
404.30070981441349
 20
-196.698617612823
 30
0.0
 70
    32
  0
VERTEX
  5
84E
  8
DATA
  6
CONTINUOUS
 62
     7
 10
404.30070981441349
 20
-196.6786176128231
 30
0.0
 70
    32
  0
VERTEX
  5
84F
  8
DATA
  6
CONTINUOUS
 62
     7
 10
404.30070981441349
 20
-196.66861761282331
 30
0.0
 70
    32
  0
VERTEX
  5
850
  8
DATA
  6
CONTINUOUS
 62
     7
 10
404.30070981441349
 20
-196.65861761282309
 30
0.0
 70
    32
  0
VERTEX
  5
851
  8
DATA
  6
CONTINUOUS
 62
     7
 10
404.30070981441349
 20
-196.63861761282311
 30
0.0
 70
    32
  0
VERTEX
  5
852
  8
DATA
  6
CONTINUOUS
 62
     7
 10
404.30070981441349
 20
-196.62861761282329
 30
0.0
 70
    32
  0
VERTEX
  5
853
  8
DATA
  6
CONTINUOUS
 62
     7
 10
404.30070981441349
 20
-196.6186176128231
 30
0.0
 70
    32
  0
VERTEX
  5
854
  8
DATA
  6
CONTINUOUS
 62
     7
 10
404.30070981441349
 20
-196.60861761282339
 30
0.0
 70
    32
  0
VERTEX
  5
855
  8
DATA
  6
CONTINUOUS
 62
     7
 10
404.30070981441349
 20
-196.59861761282309
 30
0.0
 70
    32
  0
VERTEX
  5
856
  8
DATA
  6
CONTINUOUS
 62
     7
 10
404.30070981441349
 20
-196.58861761282341
 30
0.0
 70
    32
  0
VERTEX
  5
857
  8
DATA
  6
CONTINUOUS
 62
     7
 10
404.30070981441349
 20
-196.57861761282319
 30
0.0
 70
    32
  0
VERTEX
  5
858
  8
DATA
  6
CONTINUOUS
 62
     7
 10
404.30070981441349
 20
-196.5686176128234
 30
0.0
 70
    32
  0
VERTEX
  5
859
  8
DATA
  6
CONTINUOUS
 62
     7
 10
404.30070981441349
 20
-196.55861761282321
 30
0.0
 70
    32
  0
VERTEX
  5
85A
  8
DATA
  6
CONTINUOUS
 62
     7
 10
404.30070981441349
 20
-196.54861761282339
 30
0.0
 70
    32
  0
VERTEX
  5
85B
  8
DATA
  6
CONTINUOUS
 62
     7
 10
404.30070981441349
 20
-196.5386176128232
 30
0.0
 70
    32
  0
VERTEX
  5
85C
  8
DATA
  6
CONTINUOUS
 62
     7
 10
404.30070981441349
 20
-196.5386176128232
 30
0.0
 70
    32
  0
VERTEX
  5
85D
  8
DATA
  6
CONTINUOUS
 62
     7
 10
404.30070981441349
 20
-196.52861761282341
 30
0.0
 70
    32
  0
VERTEX
  5
85E
  8
DATA
  6
CONTINUOUS
 62
     7
 10
404.30070981441349
 20
-196.52861761282341
 30
0.0
 70
    32
  0
VERTEX
  5
85F
  8
DATA
  6
CONTINUOUS
 62
     7
 10
404.30070981441349
 20
-196.51861761282319
 30
0.0
 70
    32
  0
VERTEX
  5
860
  8
DATA
  6
CONTINUOUS
 62
     7
 10
404.30070981441349
 20
-196.51861761282319
 30
0.0
 70
    32
  0
VERTEX
  5
861
  8
DATA
  6
CONTINUOUS
 62
     7
 10
404.30070981441349
 20
-196.5086176128234
 30
0.0
 70
    32
  0
VERTEX
  5
862
  8
DATA
  6
CONTINUOUS
 62
     7
 10
404.30070981441349
 20
-196.5086176128234
 30
0.0
 70
    32
  0
VERTEX
  5
863
  8
DATA
  6
CONTINUOUS
 62
     7
 10
404.30070981441349
 20
-196.5086176128234
 30
0.0
 70
    32
  0
VERTEX
  5
864
  8
DATA
  6
CONTINUOUS
 62
     7
 10
404.30070981441349
 20
-196.4986176128233
 30
0.0
 70
    32
  0
VERTEX
  5
865
  8
DATA
  6
CONTINUOUS
 62
     7
 10
404.30070981441349
 20
-196.4986176128233
 30
0.0
 70
    32
  0
VERTEX
  5
866
  8
DATA
  6
CONTINUOUS
 62
     7
 10
404.30070981441349
 20
-196.4986176128233
 30
0.0
 70
    32
  0
VERTEX
  5
867
  8
DATA
  6
CONTINUOUS
 62
     7
 10
404.30070981441349
 20
-196.4986176128233
 30
0.0
 70
    32
  0
SEQEND
  5
868
  8
DATA
  6
CONTINUOUS
 62
     7
  0
LINE
  5
869
  8
DATA
  6
CONTINUOUS
 62
     7
 10
409.29999999998103
 20
-205.9999999999992
 30
0.0
 11
409.29999999998103
 21
-202.49999999999909
 31
0.0
  0
LINE
  5
86A
  8
DATA
  6
CONTINUOUS
 62
     7
 10
409.29999999998103
 20
-209.49999999999909
 30
0.0
 11
409.29999999998103
 21
-205.9999999999992
 31
0.0
  0
LINE
  5
86B
  8
DATA
  6
CONTINUOUS
 62
     7
 10
409.29999999998103
 20
-198.99999999999909
 30
0.0
 11
409.29999999998103
 21
-195.49999999999909
 31
0.0
  0
LINE
  5
86C
  8
DATA
  6
CONTINUOUS
 62
     7
 10
409.29999999998103
 20
-202.49999999999909
 30
0.0
 11
409.29999999998103
 21
-198.99999999999909
 31
0.0
  0
LINE
  5
86D
  8
DATA
  6
CONTINUOUS
 62
     7
 10
405.29999999998103
 20
-209.49999999999909
 30
0.0
 11
409.29999999998103
 21
-209.49999999999909
 31
0.0
  0
LINE
  5
86E
  8
DATA
  6
CONTINUOUS
 62
     7
 10
409.29999999998103
 20
-195.49999999999909
 30
0.0
 11
405.29999999998103
 21
-195.49999999999909
 31
0.0
  0
ARC
  5
86F
  8
DATA
  6
CONTINUOUS
 62
     7
 10
405.29999999998103
 20
-196.49999999999909
 30
0.0
 40
1.0
 50
90.0
 51
180.0
  0
ARC
  5
870
  8
DATA
  6
CONTINUOUS
 62
     7
 10
405.29999999998103
 20
-208.49999999999909
 30
0.0
 40
1.0
 50
180.0
 51
270.0
  0
LINE
  5
871
  8
DATA
  6
CONTINUOUS
 62
     7
 10
441.99999999998079
 20
-202.49999999999909
 30
0.0
 11
441.99999999998079
 21
-209.49999999999909
 31
0.0
  0
LINE
  5
872
  8
DATA
  6
CONTINUOUS
 62
     7
 10
441.99999999998079
 20
-202.49999999999909
 30
0.0
 11
441.99999999998079
 21
-195.49999999999909
 31
0.0
  0
LINE
  5
873
  8
DATA
  6
CONTINUOUS
 62
     7
 10
754.97322001757493
 20
-584.99999999999795
 30
0.0
 11
754.97322001757493
 21
85.000000000000824
 31
0.0
  0
LINE
  5
874
  8
DATA
  6
CONTINUOUS
 62
     7
 10
606.393836174635
 20
85.000000000002686
 30
0.0
 11
606.393836174635
 21
-584.99999999999795
 31
0.0
  0
LINE
  5
875
  8
DATA
  6
CONTINUOUS
 62
     7
 10
754.97322001760949
 20
72.999999999999957
 30
0.0
 11
754.97322001760949
 21
-572.9999999999992
 31
0.0
  0
LINE
  5
876
  8
DATA
  6
CONTINUOUS
 62
     7
 10
450.99999999997988
 20
-584.99999999999795
 30
0.0
 11
450.99999999997988
 21
85.000000000002686
 31
0.0
  0
LINE
  5
877
  8
DATA
  6
CONTINUOUS
 62
     7
 10
606.393836174635
 20
85.000000000002686
 30
0.0
 11
606.393836174635
 21
-584.99999999999795
 31
0.0
  0
LINE
  5
878
  8
DATA
  6
CONTINUOUS
 62
     7
 10
491.99999999997908
 20
85.000000000002686
 30
0.0
 11
491.99999999997908
 21
-584.99999999999795
 31
0.0
  0
LINE
  5
879
  8
DATA
  6
CONTINUOUS
 62
     7
 10
754.97322001761017
 20
-584.9999999999992
 30
0.0
 11
606.393836174635
 21
-584.99999999999795
 31
0.0
  0
LINE
  5
87A
  8
DATA
  6
CONTINUOUS
 62
     7
 10
606.393836174635
 20
-599.99999999999795
 30
0.0
 11
754.97322001734392
 21
-599.9999999999992
 31
0.0
  0
LINE
  5
87B
  8
DATA
  6
CONTINUOUS
 62
     7
 10
606.393836174635
 20
-584.99999999999795
 30
0.0
 11
754.97322001757493
 21
-584.99999999999795
 31
0.0
  0
LINE
  5
87C
  8
DATA
  6
CONTINUOUS
 62
     7
 10
450.74695749690079
 20
-599.99999999999795
 30
0.0
 11
606.393836174635
 21
-599.99999999999795
 31
0.0
  0
LINE
  5
87D
  8
DATA
  6
CONTINUOUS
 62
     7
 10
606.393836174635
 20
-584.99999999999795
 30
0.0
 11
450.74695749690079
 21
-584.99999999999795
 31
0.0
  0
LINE
  5
87E
  8
DATA
  6
CONTINUOUS
 62
     7
 10
491.99999999997908
 20
-584.99999999999795
 30
0.0
 11
606.393836174635
 21
-584.99999999999795
 31
0.0
  0
CIRCLE
  5
87F
  8
DATA
  6
CONTINUOUS
 62
     7
 10
478.99999999997999
 20
-563.99999999999807
 30
0.0
 40
4.0
  0
LINE
  5
880
  8
DATA
  6
CONTINUOUS
 62
     7
 10
450.74695749689818
 20
-572.99999999999795
 30
0.0
 11
450.74695749690079
 21
-584.99999999999795
 31
0.0
  0
LINE
  5
881
  8
DATA
  6
CONTINUOUS
 62
     7
 10
450.99999999997988
 20
-572.99999999999795
 30
0.0
 11
450.99999999997988
 21
-584.99999999999795
 31
0.0
  0
LINE
  5
882
  8
DATA
  6
CONTINUOUS
 62
     7
 10
450.99999999997988
 20
-572.99999999999795
 30
0.0
 11
450.74695749689818
 21
-572.99999999999795
 31
0.0
  0
LINE
  5
883
  8
DATA
  6
CONTINUOUS
 62
     7
 10
450.74695749690079
 20
-584.99999999999795
 30
0.0
 11
450.74695749690079
 21
-599.99999999999795
 31
0.0
  0
LINE
  5
884
  8
DATA
  6
CONTINUOUS
 62
     7
 10
606.393836174635
 20
-584.99999999999795
 30
0.0
 11
606.393836174635
 21
-599.99999999999795
 31
0.0
  0
LINE
  5
885
  8
DATA
  6
CONTINUOUS
 62
     7
 10
754.97322001734392
 20
-599.9999999999992
 30
0.0
 11
769.9999999999792
 21
-600.0
 31
0.0
  0
LINE
  5
886
  8
DATA
  6
CONTINUOUS
 62
     7
 10
769.99999999997999
 20
-572.9999999999992
 30
0.0
 11
754.97322001760949
 21
-572.9999999999992
 31
0.0
  0
LINE
  5
887
  8
DATA
  6
CONTINUOUS
 62
     7
 10
754.97322001760949
 20
-572.9999999999992
 30
0.0
 11
754.97322001761017
 21
-584.9999999999992
 31
0.0
  0
LINE
  5
888
  8
DATA
  6
CONTINUOUS
 62
     7
 10
754.97322001760949
 20
-584.9999999999992
 30
0.0
 11
754.97322001734392
 21
-599.9999999999992
 31
0.0
  0
LINE
  5
889
  8
DATA
  6
CONTINUOUS
 62
     7
 10
769.9999999999792
 20
-600.0
 30
0.0
 11
769.99999999997999
 21
-572.9999999999992
 31
0.0
  0
CIRCLE
  5
88A
  8
DATA
  6
CONTINUOUS
 62
     7
 10
478.99999999997999
 20
-249.99999999999821
 30
0.0
 40
4.0
  0
LINE
  5
88B
  8
DATA
  6
CONTINUOUS
 62
     7
 10
448.99999999998079
 20
-207.49999999999909
 30
0.0
 11
448.99999999998079
 21
-197.49999999999909
 31
0.0
  0
LINE
  5
88C
  8
DATA
  6
CONTINUOUS
 62
     7
 10
448.99999999998079
 20
-205.4999999999992
 30
0.0
 11
450.99999999997988
 21
-205.4999999999992
 31
0.0
  0
LINE
  5
88D
  8
DATA
  6
CONTINUOUS
 62
     7
 10
450.99999999997988
 20
-199.49999999999909
 30
0.0
 11
448.99999999998079
 21
-199.49999999999909
 31
0.0
  0
CIRCLE
  5
88E
  8
DATA
  6
CONTINUOUS
 62
     7
 10
581.00060554371055
 20
-250.00000000000151
 30
0.0
 40
4.0
  0
CIRCLE
  5
88F
  8
DATA
  6
CONTINUOUS
 62
     7
 10
580.99999999997897
 20
-249.99999999999821
 30
0.0
 40
4.0
  0
CIRCLE
  5
890
  8
DATA
  6
CONTINUOUS
 62
     7
 10
580.99999999997897
 20
-249.99999999999821
 30
0.0
 40
7.0000000000418359
  0
LINE
  5
891
  8
DATA
  6
CONTINUOUS
 62
     7
 10
754.97322001757493
 20
85.000000000000824
 30
0.0
 11
606.393836174635
 21
85.000000000002686
 31
0.0
  0
LINE
  5
892
  8
DATA
  6
CONTINUOUS
 62
     7
 10
491.99999999997908
 20
85.000000000002686
 30
0.0
 11
606.393836174635
 21
85.000000000002686
 31
0.0
  0
LINE
  5
893
  8
DATA
  6
CONTINUOUS
 62
     7
 10
450.99999999997988
 20
85.000000000002686
 30
0.0
 11
491.99999999997908
 21
85.000000000002686
 31
0.0
  0
CIRCLE
  5
894
  8
DATA
  6
CONTINUOUS
 62
     7
 10
478.99999999997999
 20
64.000000000001776
 30
0.0
 40
4.0
  0
LINE
  5
895
  8
DATA
  6
CONTINUOUS
 62
     7
 10
423.09065448780342
 20
84.999999999997698
 30
0.0
 11
399.99999999998357
 21
84.999999999999915
 31
0.0
  0
LINE
  5
896
  8
DATA
  6
CONTINUOUS
 62
     7
 10
399.99999999998357
 20
99.999999999999943
 30
0.0
 11
423.09065448780342
 21
99.999999999997698
 31
0.0
  0
LINE
  5
897
  8
DATA
  6
CONTINUOUS
 62
     7
 10
404.0315901369795
 20
72.999999999998593
 30
0.0
 11
426.9722408750431
 21
72.999999999997684
 31
0.0
  0
LINE
  5
898
  8
DATA
  6
CONTINUOUS
 62
     7
 10
399.99999999998357
 20
84.999999999999915
 30
0.0
 11
399.99999999998357
 21
99.999999999999943
 31
0.0
  0
LINE
  5
899
  8
DATA
  6
CONTINUOUS
 62
     7
 10
403.99999999998352
 20
83.499999999999915
 30
0.0
 11
403.99999999998352
 21
84.999999999999915
 31
0.0
  0
LINE
  5
89A
  8
DATA
  6
CONTINUOUS
 62
     7
 10
404.0315901369795
 20
72.999999999998593
 30
0.0
 11
404.0315901369795
 21
83.499999999999915
 31
0.0
  0
LINE
  5
89B
  8
DATA
  6
CONTINUOUS
 62
     7
 10
403.99999999998352
 20
83.499999999999915
 30
0.0
 11
404.0315901369795
 21
83.499999999999915
 31
0.0
  0
LINE
  5
89C
  8
DATA
  6
CONTINUOUS
 62
     7
 10
404.0315901369795
 20
83.499999999999915
 30
0.0
 11
404.0315901369795
 21
72.999999999998593
 31
0.0
  0
LINE
  5
89D
  8
DATA
  6
CONTINUOUS
 62
     7
 10
606.393836174635
 20
84.999999999997698
 30
0.0
 11
754.97322001757493
 21
84.999999999999915
 31
0.0
  0
LINE
  5
89E
  8
DATA
  6
CONTINUOUS
 62
     7
 10
606.393836174635
 20
99.999999999997698
 30
0.0
 11
754.97322001734392
 21
100.0000000000008
 31
0.0
  0
LINE
  5
89F
  8
DATA
  6
CONTINUOUS
 62
     7
 10
754.97322001761017
 20
84.999999999999915
 30
0.0
 11
606.393836174635
 21
84.999999999997698
 31
0.0
  0
LINE
  5
8A0
  8
DATA
  6
CONTINUOUS
 62
     7
 10
606.393836174635
 20
84.999999999997698
 30
0.0
 11
606.393836174635
 21
99.999999999997698
 31
0.0
  0
LINE
  5
8A1
  8
DATA
  6
CONTINUOUS
 62
     7
 10
450.74695749690079
 20
84.999999999997698
 30
0.0
 11
450.74695749690079
 21
99.999999999997698
 31
0.0
  0
LINE
  5
8A2
  8
DATA
  6
CONTINUOUS
 62
     7
 10
423.09065448780342
 20
84.999999999997698
 30
0.0
 11
423.09065448780342
 21
99.999999999997698
 31
0.0
  0
LINE
  5
8A3
  8
DATA
  6
CONTINUOUS
 62
     7
 10
450.74695749690079
 20
99.999999999997698
 30
0.0
 11
606.393836174635
 21
99.999999999997698
 31
0.0
  0
LINE
  5
8A4
  8
DATA
  6
CONTINUOUS
 62
     7
 10
423.09065448780342
 20
99.999999999997698
 30
0.0
 11
450.74695749690079
 21
99.999999999997698
 31
0.0
  0
LINE
  5
8A5
  8
DATA
  6
CONTINUOUS
 62
     7
 10
491.99999999997908
 20
84.999999999997698
 30
0.0
 11
606.393836174635
 21
84.999999999997698
 31
0.0
  0
LINE
  5
8A6
  8
DATA
  6
CONTINUOUS
 62
     7
 10
606.393836174635
 20
84.999999999997698
 30
0.0
 11
450.74695749690079
 21
84.999999999997698
 31
0.0
  0
LINE
  5
8A7
  8
DATA
  6
CONTINUOUS
 62
     7
 10
450.74695749690079
 20
84.999999999997698
 30
0.0
 11
423.09065448780342
 21
84.999999999997698
 31
0.0
  0
LINE
  5
8A8
  8
DATA
  6
CONTINUOUS
 62
     7
 10
426.9722408750431
 20
72.999999999997684
 30
0.0
 11
450.74695749689818
 21
72.999999999997684
 31
0.0
  0
LINE
  5
8A9
  8
DATA
  6
CONTINUOUS
 62
     7
 10
426.9722408750431
 20
72.999999999997684
 30
0.0
 11
426.9722408750431
 21
84.999999999997698
 31
0.0
  0
LINE
  5
8AA
  8
DATA
  6
CONTINUOUS
 62
     7
 10
450.99999999997988
 20
72.999999999997684
 30
0.0
 11
450.74695749689818
 21
72.999999999997684
 31
0.0
  0
LINE
  5
8AB
  8
DATA
  6
CONTINUOUS
 62
     7
 10
450.99999999997988
 20
72.999999999997684
 30
0.0
 11
450.99999999997988
 21
84.999999999997698
 31
0.0
  0
LINE
  5
8AC
  8
DATA
  6
CONTINUOUS
 62
     7
 10
450.74695749689818
 20
72.999999999997684
 30
0.0
 11
450.74695749690079
 21
84.999999999997698
 31
0.0
  0
LINE
  5
8AD
  8
DATA
  6
CONTINUOUS
 62
     7
 10
769.9999999999792
 20
100.0000000000008
 30
0.0
 11
769.99999999997999
 21
72.999999999999957
 31
0.0
  0
LINE
  5
8AE
  8
DATA
  6
CONTINUOUS
 62
     7
 10
754.97322001760949
 20
84.999999999999915
 30
0.0
 11
754.97322001734392
 21
100.0000000000008
 31
0.0
  0
LINE
  5
8AF
  8
DATA
  6
CONTINUOUS
 62
     7
 10
754.97322001734392
 20
100.0000000000008
 30
0.0
 11
769.9999999999792
 21
100.0000000000008
 31
0.0
  0
LINE
  5
8B0
  8
DATA
  6
CONTINUOUS
 62
     7
 10
754.97322001760949
 20
72.999999999999957
 30
0.0
 11
754.97322001761017
 21
84.999999999999915
 31
0.0
  0
LINE
  5
8B1
  8
DATA
  6
CONTINUOUS
 62
     7
 10
769.99999999997999
 20
72.999999999999957
 30
0.0
 11
754.97322001760949
 21
72.999999999999957
 31
0.0
  0
ARC
  5
8B2
  8
DATA
  6
CONTINUOUS
 62
     7
 10
-75.263677605468672
 20
-55.513728589937251
 30
0.0
 40
38.105351260473398
 50
346.22477042533478
 51
13.823324555517949
  0
ARC
  5
8B3
  8
DATA
  6
CONTINUOUS
 62
     7
 10
29.53332226570415
 20
-55.513553588946372
 30
0.0
 40
38.363251524635672
 50
166.27426563830181
 51
193.68365125286849
  0
CIRCLE
  5
8B4
  8
DATA
  6
CONTINUOUS
 62
     7
 10
-22.998079214733892
 20
-55.500000000000753
 30
0.0
 40
137.17296914528211
  0
LINE
  5
8B5
  8
DATA
  6
CONTINUOUS
 62
     7
 10
399.99999999998357
 20
84.999999999999915
 30
0.0
 11
399.99999999998357
 21
-584.9999999999992
 31
0.0
  0
LINE
  5
8B6
  8
DATA
  6
CONTINUOUS
 62
     7
 10
-530.00000000000557
 20
84.999971389769541
 30
0.0
 11
-530.00000000000557
 21
-584.9999999999992
 31
0.0
  0
TEXT
  5
8B7
  8
DATA
 62
     7
 10
344.32489881697518
 20
-1279.8700541538119
 30
0.0
 40
40.721028645833343
  1
寸法図はG715-96-R(右側仕様）
 41
0.7
 11
344.32489881697518
 21
-1239.149025507978
 31
0.0
 73
     3
  0
LINE
  5
8B8
  8
DATA
  6
CONTINUOUS
 62
     7
 10
300.0
 20
-1300.0
 30
0.0
 11
1100.0
 21
-1300.0
 31
0.0
  0
ENDSEC
  0
EOF
