  0
SECTION
  2
HEADER
  9
$ACADVER
  1
AC1015
  9
$ACADMAINTVER
 70
    20
  9
$DWGCODEPAGE
  3
ANSI_932
  9
$INSBASE
 10
0.0
 20
0.0
 30
0.0
  9
$EXTMIN
 10
-1250.082391174605
 20
-1874.553312064382
 30
-0.0015258207003583
  9
$EXTMAX
 10
1450.082403747461
 20
2139.593333561439
 30
0.0000000349246037
  9
$LIMMIN
 10
0.0
 20
0.0
  9
$LIMMAX
 10
0.0
 20
0.0
  9
$ORTHOMODE
 70
     0
  9
$REGENMODE
 70
     1
  9
$FILLMODE
 70
     1
  9
$QTEXTMODE
 70
     0
  9
$MIRRTEXT
 70
     1
  9
$LTSCALE
 40
76.2
  9
$ATTMODE
 70
     1
  9
$TEXTSIZE
 40
0.0
  9
$TRACEWID
 40
1.0
  9
$TEXTSTYLE
  7
STANDARD
  9
$CLAYER
  8
DATA
  9
$CELTYPE
  6
ByLayer
  9
$CECOLOR
 62
   256
  9
$CELTSCALE
 40
1.0
  9
$DISPSILH
 70
     0
  9
$DIMSCALE
 40
1.0
  9
$DIMASZ
 40
0.18
  9
$DIMEXO
 40
0.0625
  9
$DIMDLI
 40
0.38
  9
$DIMRND
 40
0.0
  9
$DIMDLE
 40
0.0
  9
$DIMEXE
 40
0.18
  9
$DIMTP
 40
0.0
  9
$DIMTM
 40
0.0
  9
$DIMTXT
 40
0.18
  9
$DIMCEN
 40
0.09
  9
$DIMTSZ
 40
0.0
  9
$DIMTOL
 70
     0
  9
$DIMLIM
 70
     0
  9
$DIMTIH
 70
     1
  9
$DIMTOH
 70
     1
  9
$DIMSE1
 70
     0
  9
$DIMSE2
 70
     0
  9
$DIMTAD
 70
     0
  9
$DIMZIN
 70
     0
  9
$DIMBLK
  1

  9
$DIMASO
 70
     1
  9
$DIMSHO
 70
     1
  9
$DIMPOST
  1

  9
$DIMAPOST
  1

  9
$DIMALT
 70
     0
  9
$DIMALTD
 70
     2
  9
$DIMALTF
 40
25.4
  9
$DIMLFAC
 40
1.0
  9
$DIMTOFL
 70
     0
  9
$DIMTVP
 40
0.0
  9
$DIMTIX
 70
     0
  9
$DIMSOXD
 70
     0
  9
$DIMSAH
 70
     0
  9
$DIMBLK1
  1

  9
$DIMBLK2
  1

  9
$DIMSTYLE
  2
STANDARD
  9
$DIMCLRD
 70
     0
  9
$DIMCLRE
 70
     0
  9
$DIMCLRT
 70
     0
  9
$DIMTFAC
 40
1.0
  9
$DIMGAP
 40
0.09
  9
$DIMJUST
 70
     0
  9
$DIMSD1
 70
     0
  9
$DIMSD2
 70
     0
  9
$DIMTOLJ
 70
     1
  9
$DIMTZIN
 70
     0
  9
$DIMALTZ
 70
     0
  9
$DIMALTTZ
 70
     0
  9
$DIMUPT
 70
     0
  9
$DIMDEC
 70
     4
  9
$DIMTDEC
 70
     4
  9
$DIMALTU
 70
     2
  9
$DIMALTTD
 70
     2
  9
$DIMTXSTY
  7
STANDARD
  9
$DIMAUNIT
 70
     0
  9
$DIMADEC
 70
     0
  9
$DIMALTRND
 40
0.0
  9
$DIMAZIN
 70
     0
  9
$DIMDSEP
 70
    46
  9
$DIMATFIT
 70
     3
  9
$DIMFRAC
 70
     0
  9
$DIMLDRBLK
  1

  9
$DIMLUNIT
 70
     2
  9
$DIMLWD
 70
    -2
  9
$DIMLWE
 70
    -2
  9
$DIMTMOVE
 70
     0
  9
$LUNITS
 70
     2
  9
$LUPREC
 70
     4
  9
$SKETCHINC
 40
0.1
  9
$FILLETRAD
 40
0.0
  9
$AUNITS
 70
     0
  9
$AUPREC
 70
     0
  9
$MENU
  1
acad
  9
$ELEVATION
 40
0.0
  9
$PELEVATION
 40
0.0
  9
$THICKNESS
 40
0.0
  9
$LIMCHECK
 70
     0
  9
$CHAMFERA
 40
0.0
  9
$CHAMFERB
 40
0.0
  9
$CHAMFERC
 40
0.0
  9
$CHAMFERD
 40
0.0
  9
$SKPOLY
 70
     0
  9
$TDCREATE
 40
2456114.637094907
  9
$TDUCREATE
 40
2456114.262094907
  9
$TDUPDATE
 40
2456114.638415475
  9
$TDUUPDATE
 40
2456114.263415475
  9
$TDINDWG
 40
0.0003562731
  9
$TDUSRTIMER
 40
0.0003562731
  9
$USRTIMER
 70
     1
  9
$ANGBASE
 50
0.0
  9
$ANGDIR
 70
     0
  9
$PDMODE
 70
     1
  9
$PDSIZE
 40
-2.0
  9
$PLINEWID
 40
0.0
  9
$SPLFRAME
 70
     0
  9
$SPLINETYPE
 70
     6
  9
$SPLINESEGS
 70
     8
  9
$HANDSEED
  5
4C4
  9
$SURFTAB1
 70
     6
  9
$SURFTAB2
 70
     6
  9
$SURFTYPE
 70
     6
  9
$SURFU
 70
     6
  9
$SURFV
 70
     6
  9
$UCSBASE
  2

  9
$UCSNAME
  2

  9
$UCSORG
 10
0.0
 20
0.0
 30
0.0
  9
$UCSXDIR
 10
1.0
 20
0.0
 30
0.0
  9
$UCSYDIR
 10
0.0
 20
1.0
 30
0.0
  9
$UCSORTHOREF
  2

  9
$UCSORTHOVIEW
 70
     0
  9
$UCSORGTOP
 10
0.0
 20
0.0
 30
0.0
  9
$UCSORGBOTTOM
 10
0.0
 20
0.0
 30
0.0
  9
$UCSORGLEFT
 10
0.0
 20
0.0
 30
0.0
  9
$UCSORGRIGHT
 10
0.0
 20
0.0
 30
0.0
  9
$UCSORGFRONT
 10
0.0
 20
0.0
 30
0.0
  9
$UCSORGBACK
 10
0.0
 20
0.0
 30
0.0
  9
$PUCSBASE
  2

  9
$PUCSNAME
  2

  9
$PUCSORG
 10
0.0
 20
0.0
 30
0.0
  9
$PUCSXDIR
 10
1.0
 20
0.0
 30
0.0
  9
$PUCSYDIR
 10
0.0
 20
1.0
 30
0.0
  9
$PUCSORTHOREF
  2

  9
$PUCSORTHOVIEW
 70
     0
  9
$PUCSORGTOP
 10
0.0
 20
0.0
 30
0.0
  9
$PUCSORGBOTTOM
 10
0.0
 20
0.0
 30
0.0
  9
$PUCSORGLEFT
 10
0.0
 20
0.0
 30
0.0
  9
$PUCSORGRIGHT
 10
0.0
 20
0.0
 30
0.0
  9
$PUCSORGFRONT
 10
0.0
 20
0.0
 30
0.0
  9
$PUCSORGBACK
 10
0.0
 20
0.0
 30
0.0
  9
$USERI1
 70
     0
  9
$USERI2
 70
     0
  9
$USERI3
 70
     0
  9
$USERI4
 70
     0
  9
$USERI5
 70
     0
  9
$USERR1
 40
0.0
  9
$USERR2
 40
0.0
  9
$USERR3
 40
0.0
  9
$USERR4
 40
0.0
  9
$USERR5
 40
0.0
  9
$WORLDVIEW
 70
     1
  9
$SHADEDGE
 70
     3
  9
$SHADEDIF
 70
    70
  9
$TILEMODE
 70
     1
  9
$MAXACTVP
 70
    64
  9
$PINSBASE
 10
0.0
 20
0.0
 30
0.0
  9
$PLIMCHECK
 70
     0
  9
$PEXTMIN
 10
1.000000000000000E+20
 20
1.000000000000000E+20
 30
1.000000000000000E+20
  9
$PEXTMAX
 10
-1.000000000000000E+20
 20
-1.000000000000000E+20
 30
-1.000000000000000E+20
  9
$PLIMMIN
 10
0.0
 20
0.0
  9
$PLIMMAX
 10
12.0
 20
9.0
  9
$UNITMODE
 70
     0
  9
$VISRETAIN
 70
     0
  9
$PLINEGEN
 70
     1
  9
$PSLTSCALE
 70
     0
  9
$TREEDEPTH
 70
  3020
  9
$CMLSTYLE
  2
Standard
  9
$CMLJUST
 70
     0
  9
$CMLSCALE
 40
1.0
  9
$PROXYGRAPHICS
 70
     1
  9
$MEASUREMENT
 70
     0
  9
$CELWEIGHT
370
    -1
  9
$ENDCAPS
280
     0
  9
$JOINSTYLE
280
     0
  9
$LWDISPLAY
290
     0
  9
$INSUNITS
 70
     0
  9
$HYPERLINKBASE
  1

  9
$STYLESHEET
  1

  9
$XEDIT
290
     1
  9
$CEPSNTYPE
380
     0
  9
$PSTYLEMODE
290
     1
  9
$FINGERPRINTGUID
  2
{497BA42C-1C2A-40AD-B437-69005E066951}
  9
$VERSIONGUID
  2
{7B7D91AF-A393-4180-935F-DB377EE04D59}
  9
$EXTNAMES
290
     1
  9
$PSVPSCALE
 40
0.0
  9
$OLESTARTUP
290
     0
  0
ENDSEC
  0
SECTION
  2
CLASSES
  0
CLASS
  1
ACDBDICTIONARYWDFLT
  2
AcDbDictionaryWithDefault
  3
ObjectDBX Classes
 90
        0
280
     0
281
     0
  0
CLASS
  1
MATERIAL
  2
AcDbMaterial
  3
ObjectDBX Classes
 90
     1153
280
     0
281
     0
  0
CLASS
  1
VISUALSTYLE
  2
AcDbVisualStyle
  3
ObjectDBX Classes
 90
     4095
280
     0
281
     0
  0
CLASS
  1
SCALE
  2
AcDbScale
  3
ObjectDBX Classes
 90
     1153
280
     0
281
     0
  0
CLASS
  1
TABLESTYLE
  2
AcDbTableStyle
  3
ObjectDBX Classes
 90
     4095
280
     0
281
     0
  0
CLASS
  1
MLEADERSTYLE
  2
AcDbMLeaderStyle
  3
ACDB_MLEADERSTYLE_CLASS
 90
     4095
280
     0
281
     0
  0
CLASS
  1
ACDBSECTIONVIEWSTYLE
  2
AcDbSectionViewStyle
  3
ObjectDBX Classes
 90
     1025
280
     0
281
     0
  0
CLASS
  1
ACDBDETAILVIEWSTYLE
  2
AcDbDetailViewStyle
  3
ObjectDBX Classes
 90
     1025
280
     0
281
     0
  0
CLASS
  1
DICTIONARYVAR
  2
AcDbDictionaryVar
  3
ObjectDBX Classes
 90
        0
280
     0
281
     0
  0
CLASS
  1
CELLSTYLEMAP
  2
AcDbCellStyleMap
  3
ObjectDBX Classes
 90
     1152
280
     0
281
     0
  0
CLASS
  1
ACDBPLACEHOLDER
  2
AcDbPlaceHolder
  3
ObjectDBX Classes
 90
        0
280
     0
281
     0
  0
CLASS
  1
LAYOUT
  2
AcDbLayout
  3
ObjectDBX Classes
 90
        0
280
     0
281
     0
  0
ENDSEC
  0
SECTION
  2
TABLES
  0
TABLE
  2
VPORT
  5
3F1
330
0
100
AcDbSymbolTable
 70
     1
  0
VPORT
  5
45E
330
3F1
100
AcDbSymbolTableRecord
100
AcDbViewportTableRecord
  2
*ACTIVE
 70
     0
 10
0.0
 20
0.0
 11
1.0
 21
1.0
 12
100.0000062864278
 22
136.4663614323497
 13
0.0
 23
0.0
 14
1.0
 24
1.0
 15
0.0
 25
0.0
 16
0.0
 26
0.0
 36
1.0
 17
0.0
 27
0.0
 37
0.0
 40
4037.390632944123
 41
2.172503242542152
 42
50.0
 43
0.0
 44
0.0
 50
0.0
 51
0.0
 71
     0
 72
  2000
 73
     1
 74
     1
 75
     0
 76
     0
 77
     0
 78
     0
281
     0
 65
     1
110
0.0
120
0.0
130
0.0
111
1.0
121
0.0
131
0.0
112
0.0
122
1.0
132
0.0
 79
     0
146
0.0
1001
ACAD_NAV_VCDISPLAY
1070
     3
  0
ENDTAB
  0
TABLE
  2
LTYPE
  5
3EE
330
0
100
AcDbSymbolTable
 70
    12
  0
LTYPE
  5
443
330
3EE
100
AcDbSymbolTableRecord
100
AcDbLinetypeTableRecord
  2
ByBlock
 70
     0
  3

 72
    65
 73
     0
 40
0.0
  0
LTYPE
  5
444
330
3EE
100
AcDbSymbolTableRecord
100
AcDbLinetypeTableRecord
  2
ByLayer
 70
     0
  3

 72
    65
 73
     0
 40
0.0
  0
LTYPE
  5
445
330
3EE
100
AcDbSymbolTableRecord
100
AcDbLinetypeTableRecord
  2
CONTINUOUS
 70
     0
  3
Solid line
 72
    65
 73
     0
 40
0.0
  0
LTYPE
  5
451
330
3EE
100
AcDbSymbolTableRecord
100
AcDbLinetypeTableRecord
  2
PHANTOM2
 70
     0
  3
___ _ _ ___ _ _ ___ _ _ ___ _ _
 72
    65
 73
     6
 40
1.25
 49
0.625
 74
     0
 49
-0.125
 74
     0
 49
0.125
 74
     0
 49
-0.125
 74
     0
 49
0.125
 74
     0
 49
-0.125
 74
     0
  0
ENDTAB
  0
TABLE
  2
LAYER
  5
3EB
330
0
100
AcDbSymbolTable
 70
     5
  0
LAYER
  5
43D
102
{ACAD_XDICTIONARY
360
472
102
}
330
3EB
100
AcDbSymbolTableRecord
100
AcDbLayerTableRecord
  2
0
 70
     0
 62
     7
  6
CONTINUOUS
370
    -3
390
3F8
  0
LAYER
  5
45D
102
{ACAD_XDICTIONARY
360
474
102
}
330
3EB
100
AcDbSymbolTableRecord
100
AcDbLayerTableRecord
  2
DATA
 70
     0
 62
     7
  6
CONTINUOUS
370
    -3
390
3F8
  0
LAYER
  5
469
102
{ACAD_XDICTIONARY
360
476
102
}
330
3EB
100
AcDbSymbolTableRecord
100
AcDbLayerTableRecord
  2
HIBINO-BASE
 70
     0
 62
     7
  6
CONTINUOUS
370
    -3
390
3F8
  0
LAYER
  5
46A
102
{ACAD_XDICTIONARY
360
478
102
}
330
3EB
100
AcDbSymbolTableRecord
100
AcDbLayerTableRecord
  2
SPEC
 70
     0
 62
     7
  6
CONTINUOUS
370
    -3
390
3F8
  0
LAYER
  5
46B
102
{ACAD_XDICTIONARY
360
47A
102
}
330
3EB
100
AcDbSymbolTableRecord
100
AcDbLayerTableRecord
  2
DIMNSIONS
 70
     0
 62
     7
  6
CONTINUOUS
370
    -3
390
3F8
  0
ENDTAB
  0
TABLE
  2
STYLE
  5
3EC
330
0
100
AcDbSymbolTable
 70
     3
  0
STYLE
  5
43E
330
3EC
100
AcDbSymbolTableRecord
100
AcDbTextStyleTableRecord
  2
STANDARD
 70
     0
 40
0.0
 41
1.0
 50
0.0
 71
     0
 42
0.0
  3
txt
  4
BIGFONT.SHX
  0
ENDTAB
  0
TABLE
  2
VIEW
  5
3EF
330
0
100
AcDbSymbolTable
 70
     0
  0
ENDTAB
  0
TABLE
  2
UCS
  5
3F0
330
0
100
AcDbSymbolTable
 70
     0
  0
ENDTAB
  0
TABLE
  2
APPID
  5
3F2
330
0
100
AcDbSymbolTable
 70
     4
  0
APPID
  5
43F
330
3F2
100
AcDbSymbolTableRecord
100
AcDbRegAppTableRecord
  2
ACAD
 70
     0
  0
APPID
  5
446
330
3F2
100
AcDbSymbolTableRecord
100
AcDbRegAppTableRecord
  2
AcadAnnotative
 70
     0
  0
APPID
  5
486
330
3F2
100
AcDbSymbolTableRecord
100
AcDbRegAppTableRecord
  2
ACAD_NAV_VCDISPLAY
 70
     0
  0
APPID
  5
4BF
330
3F2
100
AcDbSymbolTableRecord
100
AcDbRegAppTableRecord
  2
ACAD_MLEADERVER
 70
     0
  0
ENDTAB
  0
TABLE
  2
DIMSTYLE
  5
3F3
330
0
100
AcDbSymbolTable
 70
     2
100
AcDbDimStyleTable
 71
     0
  0
DIMSTYLE
105
440
330
3F3
100
AcDbSymbolTableRecord
100
AcDbDimStyleTableRecord
  2
STANDARD
 70
     0
279
     2
340
43E
  0
ENDTAB
  0
TABLE
  2
BLOCK_RECORD
  5
3EA
330
0
100
AcDbSymbolTable
 70
     0
  0
BLOCK_RECORD
  5
459
330
3EA
100
AcDbSymbolTableRecord
100
AcDbBlockTableRecord
  2
*Model_Space
340
45C
  0
BLOCK_RECORD
  5
455
330
3EA
100
AcDbSymbolTableRecord
100
AcDbBlockTableRecord
  2
*Paper_Space
340
458
  0
ENDTAB
  0
ENDSEC
  0
SECTION
  2
BLOCKS
  0
BLOCK
  5
45A
330
459
100
AcDbEntity
  8
0
100
AcDbBlockBegin
  2
*Model_Space
 70
     0
 10
0.0
 20
0.0
 30
0.0
  3
*Model_Space
  1

  0
ENDBLK
  5
45B
330
459
100
AcDbEntity
  8
0
100
AcDbBlockEnd
  0
BLOCK
  5
456
330
455
100
AcDbEntity
 67
     1
  8
0
100
AcDbBlockBegin
  2
*Paper_Space
 70
     0
 10
0.0
 20
0.0
 30
0.0
  3
*Paper_Space
  1

  0
ENDBLK
  5
457
330
455
100
AcDbEntity
 67
     1
  8
0
100
AcDbBlockEnd
  0
ENDSEC
  0
SECTION
  2
ENTITIES
  0
LINE
  5
2C
330
459
100
AcDbEntity
  8
HIBINO-BASE
  6
Continuous
 62
     7
100
AcDbLine
 10
-1250.0
 20
2139.471070528123
 30
0.0
 11
1450.0
 21
2139.471070528123
 31
0.0
  0
LINE
  5
2D
330
459
100
AcDbEntity
  8
HIBINO-BASE
  6
Continuous
 62
     7
100
AcDbLine
 10
1450.0
 20
-1760.528929471877
 30
0.0
 11
-1250.0
 21
-1760.528929471877
 31
0.0
  0
LINE
  5
2E
330
459
100
AcDbEntity
  8
HIBINO-BASE
  6
Continuous
 62
     7
100
AcDbLine
 10
-1250.0
 20
-1760.528929471877
 30
0.0
 11
-1250.0
 21
2139.471070528123
 31
0.0
  0
LINE
  5
2F
330
459
100
AcDbEntity
  8
HIBINO-BASE
  6
Continuous
 62
     7
100
AcDbLine
 10
1450.0
 20
2139.471070528123
 30
0.0
 11
1450.0
 21
-1760.528929471877
 31
0.0
  0
LINE
  5
30
330
459
100
AcDbEntity
  8
HIBINO-BASE
  6
Continuous
 62
     7
100
AcDbLine
 10
100.0
 20
-1423.028929471877
 30
0.0
 11
1450.0
 21
-1423.028929471877
 31
0.0
  0
LINE
  5
31
330
459
100
AcDbEntity
  8
HIBINO-BASE
  6
Continuous
 62
     7
100
AcDbLine
 10
100.0
 20
-1760.528929471877
 30
0.0
 11
100.0
 21
-1423.028929471877
 31
0.0
  0
TEXT
  5
32
330
459
100
AcDbEntity
  8
HIBINO-BASE
 62
     7
100
AcDbText
 10
113.5
 20
-1460.659329471877
 30
0.0
 40
24.4326171875
  1
NOTE
 41
0.7
 11
113.5
 21
-1436.226712284377
 31
0.0
100
AcDbText
 73
     3
  0
LINE
  5
33
330
459
100
AcDbEntity
  8
HIBINO-BASE
  6
Continuous
 62
     7
100
AcDbLine
 10
625.0
 20
-1760.528929471877
 30
0.0
 11
625.0
 21
-1423.028929471877
 31
0.0
  0
TEXT
  5
34
330
459
100
AcDbEntity
  8
HIBINO-BASE
 62
     7
100
AcDbText
 10
638.4999999999999
 20
-1460.659329471877
 30
0.0
 40
24.4326171875
  1
TITLE
 41
0.7
 11
638.4999999999999
 21
-1436.226712284377
 31
0.0
100
AcDbText
 73
     3
  0
LINE
  5
35
330
459
100
AcDbEntity
  8
HIBINO-BASE
  6
Continuous
 62
     7
100
AcDbLine
 10
100.0
 20
-1610.528929471877
 30
0.0
 11
1450.0
 21
-1610.528929471877
 31
0.0
  0
TEXT
  5
36
330
459
100
AcDbEntity
  8
HIBINO-BASE
 62
     7
100
AcDbText
 10
826.0
 20
-1647.314529471877
 30
0.0
 40
24.4326171875
  1
DRAWN
 41
0.7
 11
826.0
 21
-1622.881912284377
 31
0.0
100
AcDbText
 73
     3
  0
TEXT
  5
37
330
459
100
AcDbEntity
  8
HIBINO-BASE
 62
     7
100
AcDbText
 10
451.0
 20
-1647.314529471877
 30
0.0
 40
24.4326171875
  1
DATE
 41
0.7
 11
451.0
 21
-1622.881912284377
 31
0.0
100
AcDbText
 73
     3
  0
TEXT
  5
38
330
459
100
AcDbEntity
  8
HIBINO-BASE
 62
     7
100
AcDbText
 10
300.9999999999999
 20
-1647.314529471877
 30
0.0
 40
24.4326171875
  1
SCALE
 41
0.7
 11
300.9999999999999
 21
-1622.881912284377
 31
0.0
100
AcDbText
 73
     3
  0
TEXT
  5
39
330
459
100
AcDbEntity
  8
HIBINO-BASE
 62
     7
100
AcDbText
 10
638.4999999999999
 20
-1647.314529471877
 30
0.0
 40
24.4326171875
  1
DESIGN
 41
0.7
 11
638.4999999999999
 21
-1622.881912284377
 31
0.0
100
AcDbText
 73
     3
  0
TEXT
  5
3A
330
459
100
AcDbEntity
  8
HIBINO-BASE
 62
     7
100
AcDbText
 10
1201.0
 20
-1647.314529471877
 30
0.0
 40
24.4326171875
  1
DRAWING NO.
 41
0.7
 11
1201.0
 21
-1622.881912284377
 31
0.0
100
AcDbText
 73
     3
  0
TEXT
  5
3B
330
459
100
AcDbEntity
  8
HIBINO-BASE
 62
     7
100
AcDbText
 10
1013.5
 20
-1647.314529471877
 30
0.0
 40
24.4326171875
  1
CHECK
 41
0.7
 11
1013.5
 21
-1622.881912284377
 31
0.0
100
AcDbText
 73
     3
  0
LINE
  5
3C
330
459
100
AcDbEntity
  8
HIBINO-BASE
  6
Continuous
 62
     7
100
AcDbLine
 10
315.625
 20
-1741.778929471877
 30
0.0
 11
371.875
 21
-1685.528929471877
 31
0.0
  0
TEXT
  5
3D
330
459
100
AcDbEntity
  8
HIBINO-BASE
 62
     7
100
AcDbText
 10
306.25
 20
-1702.163079471877
 30
0.0
 40
24.4326171875
  1
1
 41
0.7
 11
306.25
 21
-1677.730462284377
 31
0.0
100
AcDbText
 73
     3
  0
LINE
  5
3E
330
459
100
AcDbEntity
  8
HIBINO-BASE
  6
Continuous
 62
     7
100
AcDbLine
 10
287.5
 20
-1760.528929471877
 30
0.0
 11
287.5
 21
-1610.528929471877
 31
0.0
  0
LINE
  5
3F
330
459
100
AcDbEntity
  8
HIBINO-BASE
  6
Continuous
 62
     7
100
AcDbLine
 10
437.5
 20
-1760.528929471877
 30
0.0
 11
437.5
 21
-1610.528929471877
 31
0.0
  0
LINE
  5
40
330
459
100
AcDbEntity
  8
HIBINO-BASE
  6
Continuous
 62
     7
100
AcDbLine
 10
812.5
 20
-1610.528929471877
 30
0.0
 11
812.5
 21
-1760.528929471877
 31
0.0
  0
LINE
  5
41
330
459
100
AcDbEntity
  8
HIBINO-BASE
  6
Continuous
 62
     7
100
AcDbLine
 10
1187.5
 20
-1610.528929471877
 30
0.0
 11
1187.5
 21
-1760.528929471877
 31
0.0
  0
LINE
  5
42
330
459
100
AcDbEntity
  8
HIBINO-BASE
  6
Continuous
 62
     7
100
AcDbLine
 10
1000.0
 20
-1760.528929471877
 30
0.0
 11
1000.0
 21
-1610.528929471877
 31
0.0
  0
TEXT
  5
43
330
459
100
AcDbEntity
  8
HIBINO-BASE
 62
     7
100
AcDbText
 10
450.3480999999999
 20
-1717.574229471877
 30
0.0
 40
24.4326171875
  1
'11.05.
 41
0.7
 11
450.3480999999999
 21
-1693.141612284377
 31
0.0
100
AcDbText
 73
     3
  0
TEXT
  5
44
330
459
100
AcDbEntity
  8
HIBINO-BASE
 62
     7
100
AcDbText
 10
362.5
 20
-1730.288079471877
 30
0.0
 40
24.4326171875
  1
15
 41
0.7
 11
362.5
 21
-1705.855462284377
 31
0.0
100
AcDbText
 73
     3
  0
TEXT
  5
45
330
459
100
AcDbEntity
  8
HIBINO-BASE
 62
     7
100
AcDbText
 10
835.0871501655195
 20
-1717.574229471877
 30
0.0
 40
24.4326171875
  1
T.Ootake
 41
0.7
 11
835.0871501655195
 21
-1693.141612284377
 31
0.0
100
AcDbText
 73
     3
  0
TEXT
  5
46
330
459
100
AcDbEntity
  8
HIBINO-BASE
 62
     7
100
AcDbText
 10
158.2500000000002
 20
-1730.888929471877
 30
0.0
 40
48.86523437499999
  1
A4
 41
0.7
 11
158.2500000000002
 21
-1682.023695096877
 31
0.0
100
AcDbText
 73
     3
  0
TEXT
  5
47
330
459
100
AcDbEntity
  8
HIBINO-BASE
 62
     7
100
AcDbText
 10
114.3749999999999
 20
-1649.820754471877
 30
0.0
 40
24.4326171875
  1
PAPER SIZE
 41
0.7
 11
114.3749999999999
 21
-1625.388137284377
 31
0.0
100
AcDbText
 73
     3
  0
TEXT
  5
48
330
459
100
AcDbEntity
  8
HIBINO-BASE
 62
     7
100
AcDbText
 10
-1208.605471146647
 20
-1856.907532984521
 30
0.0
 40
52.93733723958332
  1
Hibino-Intersound Corporation
 41
0.7
 11
-1208.605471146647
 21
-1803.970195744937
 31
0.0
100
AcDbText
 73
     3
  0
TEXT
  5
49
330
459
100
AcDbEntity
  8
HIBINO-BASE
 62
     7
100
AcDbText
 10
402.7091452032085
 20
-1851.64120918518
 30
0.0
 40
52.93733723958332
  1
ヒビノインターサウンド株式会社
 41
0.7
 11
402.7091452032085
 21
-1798.703871945597
 31
0.0
100
AcDbText
 73
     3
  0
TEXT
  5
4A
330
459
100
AcDbEntity
  8
SPEC
 62
     7
100
AcDbText
 10
-1118.75
 20
2010.370120528123
 30
0.0
 40
36.64892578125
  1
仕様
 41
0.7
 11
-1118.75
 21
2047.019046309373
 31
0.0
100
AcDbText
 73
     3
  0
LINE
  5
4B
330
459
100
AcDbEntity
  8
SPEC
  6
Continuous
 62
     7
100
AcDbLine
 10
-1137.5
 20
1989.471070528122
 30
0.0
 11
1075.0
 21
1989.471070528122
 31
0.0
  0
LINE
  5
4C
330
459
100
AcDbEntity
  8
SPEC
  6
Continuous
 62
     7
100
AcDbLine
 10
-1137.5
 20
1933.221070528122
 30
0.0
 11
1075.0
 21
1933.221070528122
 31
0.0
  0
LINE
  5
4D
330
459
100
AcDbEntity
  8
SPEC
  6
Continuous
 62
     7
100
AcDbLine
 10
-1137.5
 20
1989.471070528122
 30
0.0
 11
-1137.5
 21
1033.221070528122
 31
0.0
  0
LINE
  5
4E
330
459
100
AcDbEntity
  8
SPEC
  6
Continuous
 62
     7
100
AcDbLine
 10
-649.9999999999999
 20
1989.471070528122
 30
0.0
 11
-649.9999999999999
 21
1033.221070528122
 31
0.0
  0
LINE
  5
4F
330
459
100
AcDbEntity
  8
SPEC
  6
Continuous
 62
     7
100
AcDbLine
 10
1075.0
 20
1989.471070528122
 30
0.0
 11
1075.0
 21
1033.221070528122
 31
0.0
  0
TEXT
  5
50
330
459
100
AcDbEntity
  8
SPEC
 62
     7
100
AcDbText
 10
-1124.807441957067
 20
1889.415886783582
 30
0.0
 40
28.50472005208333
  1
形式
 41
0.7
 11
-1124.807441957067
 21
1917.920606835665
 31
0.0
100
AcDbText
 73
     3
  0
TEXT
  5
51
330
459
100
AcDbEntity
  8
SPEC
 62
     7
100
AcDbText
 10
-636.4821648183147
 20
1889.514163010929
 30
0.0
 40
28.50472005208333
  1
2-Way フルレンジ・スピーカーシステム
 41
0.7
 11
-636.4821648183147
 21
1918.018883063012
 31
0.0
100
AcDbText
 73
     3
  0
LINE
  5
52
330
459
100
AcDbEntity
  8
SPEC
  6
Continuous
 62
     7
100
AcDbLine
 10
-649.9999999999999
 20
1876.971070528122
 30
0.0
 11
1075.0
 21
1876.971070528122
 31
0.0
  0
LINE
  5
53
330
459
100
AcDbEntity
  8
SPEC
  6
Continuous
 62
     7
100
AcDbLine
 10
-1137.5
 20
1820.721070528122
 30
0.0
 11
1075.0
 21
1820.721070528122
 31
0.0
  0
LINE
  5
54
330
459
100
AcDbEntity
  8
SPEC
  6
Continuous
 62
     7
100
AcDbLine
 10
-1137.5
 20
1708.221070528122
 30
0.0
 11
1075.0
 21
1708.221070528122
 31
0.0
  0
LINE
  5
55
330
459
100
AcDbEntity
  8
SPEC
  6
Continuous
 62
     7
100
AcDbLine
 10
-1137.5
 20
1764.471070528122
 30
0.0
 11
1075.0
 21
1764.471070528122
 31
0.0
  0
LINE
  5
56
330
459
100
AcDbEntity
  8
SPEC
  6
Continuous
 62
     7
100
AcDbLine
 10
-1137.5
 20
1651.971070528122
 30
0.0
 11
1075.0
 21
1651.971070528122
 31
0.0
  0
LINE
  5
57
330
459
100
AcDbEntity
  8
SPEC
  6
Continuous
 62
     7
100
AcDbLine
 10
-1137.5
 20
1595.721070528122
 30
0.0
 11
1075.0
 21
1595.721070528122
 31
0.0
  0
LINE
  5
58
330
459
100
AcDbEntity
  8
SPEC
  6
Continuous
 62
     7
100
AcDbLine
 10
-1137.5
 20
1539.471070528122
 30
0.0
 11
1075.0
 21
1539.471070528122
 31
0.0
  0
LINE
  5
59
330
459
100
AcDbEntity
  8
SPEC
  6
Continuous
 62
     7
100
AcDbLine
 10
-649.9999999999999
 20
1483.221070528122
 30
0.0
 11
1075.0
 21
1483.221070528122
 31
0.0
  0
LINE
  5
5A
330
459
100
AcDbEntity
  8
SPEC
  6
Continuous
 62
     7
100
AcDbLine
 10
-1137.5
 20
1426.971070528122
 30
0.0
 11
1075.0
 21
1426.971070528122
 31
0.0
  0
LINE
  5
5B
330
459
100
AcDbEntity
  8
SPEC
  6
Continuous
 62
     7
100
AcDbLine
 10
-1137.5
 20
1370.721070528122
 30
0.0
 11
1075.0
 21
1370.721070528122
 31
0.0
  0
LINE
  5
5C
330
459
100
AcDbEntity
  8
SPEC
  6
Continuous
 62
     7
100
AcDbLine
 10
-1137.5
 20
1314.471070528122
 30
0.0
 11
1075.0
 21
1314.471070528122
 31
0.0
  0
LINE
  5
5D
330
459
100
AcDbEntity
  8
SPEC
  6
Continuous
 62
     7
100
AcDbLine
 10
-1137.5
 20
1258.221070528122
 30
0.0
 11
1075.0
 21
1258.221070528122
 31
0.0
  0
LINE
  5
5E
330
459
100
AcDbEntity
  8
SPEC
  6
Continuous
 62
     7
100
AcDbLine
 10
-1137.5
 20
1201.971070528122
 30
0.0
 11
1075.0
 21
1201.971070528122
 31
0.0
  0
LINE
  5
5F
330
459
100
AcDbEntity
  8
SPEC
  6
Continuous
 62
     7
100
AcDbLine
 10
-1137.5
 20
1145.721070528122
 30
0.0
 11
1075.0
 21
1145.721070528122
 31
0.0
  0
TEXT
  5
60
330
459
100
AcDbEntity
  8
SPEC
 62
     7
100
AcDbText
 10
-1126.253402260606
 20
1216.173188815022
 30
0.0
 40
28.50472005208333
  1
エンクロージャー
 41
0.7
 11
-1126.253402260606
 21
1244.677908867106
 31
0.0
100
AcDbText
 73
     3
  0
TEXT
  5
61
330
459
100
AcDbEntity
  8
SPEC
 62
     7
100
AcDbText
 10
-636.0484672333671
 20
1102.911497899208
 30
0.0
 40
28.50472005208333
  1
420(W)\U+00D7700(H)\U+00D7370(D)mm(突起部含まず）
 41
0.7
 11
-636.0484672333671
 21
1131.416217951291
 31
0.0
100
AcDbText
 73
     3
  0
TEXT
  5
62
330
459
100
AcDbEntity
  8
SPEC
 62
     7
100
AcDbText
 10
-637.4431449143315
 20
1160.681550564935
 30
0.0
 40
28.50472005208333
  1
黒
 41
0.7
 11
-637.4431449143315
 21
1189.186270617018
 31
0.0
100
AcDbText
 73
     3
  0
TEXT
  5
63
330
459
100
AcDbEntity
  8
SPEC
 62
     7
100
AcDbText
 10
-1124.226043314866
 20
1160.126428628899
 30
0.0
 40
28.50472005208333
  1
仕上げ
 41
0.7
 11
-1124.226043314866
 21
1188.631148680983
 31
0.0
100
AcDbText
 73
     3
  0
TEXT
  5
64
330
459
100
AcDbEntity
  8
SPEC
 62
     7
100
AcDbText
 10
-1124.57396669454
 20
1328.566896092256
 30
0.0
 40
28.50472005208333
  1
入力コネクター
 41
0.7
 11
-1124.57396669454
 21
1357.071616144339
 31
0.0
100
AcDbText
 73
     3
  0
TEXT
  5
65
330
459
100
AcDbEntity
  8
SPEC
 62
     7
100
AcDbText
 10
-636.3898085202236
 20
1326.799867236498
 30
0.0
 40
28.50472005208333
  1
2\U+00D7Neutrik NL4MP
 41
0.7
 11
-636.3898085202236
 21
1355.304587288581
 31
0.0
100
AcDbText
 73
     3
  0
TEXT
  5
66
330
459
100
AcDbEntity
  8
SPEC
 62
     7
100
AcDbText
 10
-1124.23872389091
 20
1271.483606587339
 30
0.0
 40
28.50472005208333
  1
公称インピーダンス
 41
0.7
 11
-1124.23872389091
 21
1299.988326639422
 31
0.0
100
AcDbText
 73
     3
  0
TEXT
  5
67
330
459
100
AcDbEntity
  8
SPEC
 62
     7
100
AcDbText
 10
-636.6964956188224
 20
1270.577913278583
 30
0.0
 40
28.50472005208333
  1
8\U+03A9
 41
0.7
 11
-636.6964956188224
 21
1299.082633330667
 31
0.0
100
AcDbText
 73
     3
  0
TEXT
  5
68
330
459
100
AcDbEntity
  8
SPEC
 62
     7
100
AcDbText
 10
-1124.347062237732
 20
1776.818890126214
 30
0.0
 40
28.50472005208333
  1
周波数特性
 41
0.7
 11
-1124.347062237732
 21
1805.323610178297
 31
0.0
100
AcDbText
 73
     3
  0
TEXT
  5
69
330
459
100
AcDbEntity
  8
SPEC
 62
     7
100
AcDbText
 10
-1124.986543087498
 20
1721.862823470616
 30
0.0
 40
28.50472005208333
  1
許容入力(AES/ピーク）
 41
0.7
 11
-1124.986543087498
 21
1750.367543522699
 31
0.0
100
AcDbText
 73
     3
  0
TEXT
  5
6A
330
459
100
AcDbEntity
  8
SPEC
 62
     7
100
AcDbText
 10
-1124.697360109893
 20
1666.579635516807
 30
0.0
 40
28.50472005208333
  1
感度
 41
0.7
 11
-1124.697360109893
 21
1695.08435556889
 31
0.0
100
AcDbText
 73
     3
  0
TEXT
  5
6B
330
459
100
AcDbEntity
  8
SPEC
 62
     7
100
AcDbText
 10
-1127.392490371855
 20
1608.57112056873
 30
0.0
 40
28.50472005208333
  1
最大音圧
 41
0.7
 11
-1127.392490371855
 21
1637.075840620813
 31
0.0
100
AcDbText
 73
     3
  0
TEXT
  5
6C
330
459
100
AcDbEntity
  8
SPEC
 62
     7
100
AcDbText
 10
-1126.860906236918
 20
1553.398857706451
 30
0.0
 40
28.50472005208333
  1
カバレージ角
 41
0.7
 11
-1126.860906236918
 21
1581.903577758535
 31
0.0
100
AcDbText
 73
     3
  0
TEXT
  5
6D
330
459
100
AcDbEntity
  8
SPEC
 62
     7
100
AcDbText
 10
-1136.186283100519
 20
1500.950935350142
 30
0.0
 40
28.50472005208333
  1
ドライバー構成
 41
0.7
 11
-1136.186283100519
 21
1529.455655402225
 31
0.0
100
AcDbText
 73
     3
  0
TEXT
  5
6E
330
459
100
AcDbEntity
  8
SPEC
 62
     7
100
AcDbText
 10
-1126.16823987322
 20
1384.45912148131
 30
0.0
 40
28.50472005208333
  1
クロスオーバー
 41
0.7
 11
-1126.16823987322
 21
1412.963841533393
 31
0.0
100
AcDbText
 73
     3
  0
TEXT
  5
6F
330
459
100
AcDbEntity
  8
SPEC
 62
     7
100
AcDbText
 10
-1125.484970992062
 20
1103.556555085664
 30
0.0
 40
28.50472005208333
  1
寸法
 41
0.7
 11
-1125.484970992062
 21
1132.061275137747
 31
0.0
100
AcDbText
 73
     3
  0
TEXT
  5
70
330
459
100
AcDbEntity
  8
SPEC
 62
     7
100
AcDbText
 10
-637.7791124607308
 20
1048.149773426666
 30
0.0
 40
28.50472005208333
  1
約17.5kg
 41
0.7
 11
-637.7791124607308
 21
1076.654493478749
 31
0.0
100
AcDbText
 73
     3
  0
TEXT
  5
71
330
459
100
AcDbEntity
  8
SPEC
 62
     7
100
AcDbText
 10
-1124.840346889505
 20
1047.599380249025
 30
0.0
 40
28.50472005208333
  1
重量
 41
0.7
 11
-1124.840346889505
 21
1076.104100301108
 31
0.0
100
AcDbText
 73
     3
  0
TEXT
  5
72
330
459
100
AcDbEntity
  8
SPEC
 62
     7
100
AcDbText
 10
-636.3633376538472
 20
1776.407968583575
 30
0.0
 40
28.50472005208333
  1
50Hz～21kHz(-3dB)
 41
0.7
 11
-636.3633376538472
 21
1804.912688635658
 31
0.0
100
AcDbText
 73
     3
  0
TEXT
  5
73
330
459
100
AcDbEntity
  8
SPEC
 62
     7
100
AcDbText
 10
-636.9711203813844
 20
1720.708454964339
 30
0.0
 40
28.50472005208333
  1
600W/2400W
 41
0.7
 11
-636.9711203813844
 21
1749.213175016422
 31
0.0
100
AcDbText
 73
     3
  0
TEXT
  5
74
330
459
100
AcDbEntity
  8
SPEC
 62
     7
100
AcDbText
 10
-636.5415257608844
 20
1664.890588636269
 30
0.0
 40
28.50472005208333
  1
98dB
 41
0.7
 11
-636.5415257608844
 21
1693.395308688353
 31
0.0
100
AcDbText
 73
     3
  0
TEXT
  5
75
330
459
100
AcDbEntity
  8
SPEC
 62
     7
100
AcDbText
 10
-638.3456991755702
 20
1608.880619270022
 30
0.0
 40
28.50472005208333
  1
132dB
 41
0.7
 11
-638.3456991755702
 21
1637.385339322105
 31
0.0
100
AcDbText
 73
     3
  0
TEXT
  5
76
330
459
100
AcDbEntity
  8
SPEC
 62
     7
100
AcDbText
 10
-636.2774062529494
 20
1551.298792789602
 30
0.0
 40
28.50472005208333
  1
90\U+00B0\U+00D760\U+00B0
 41
0.7
 11
-636.2774062529494
 21
1579.803512841685
 31
0.0
100
AcDbText
 73
     3
  0
TEXT
  5
77
330
459
100
AcDbEntity
  8
SPEC
 62
     7
100
AcDbText
 10
-636.663059633214
 20
1497.936492170075
 30
0.0
 40
28.50472005208333
  1
低域：1\U+00D715インチネオジム磁石採用、3インチボイスコイル
 41
0.7
 11
-636.663059633214
 21
1526.441212222159
 31
0.0
100
AcDbText
 73
     3
  0
TEXT
  5
78
330
459
100
AcDbEntity
  8
SPEC
 62
     7
100
AcDbText
 10
-637.1188751151134
 20
1441.812079101604
 30
0.0
 40
28.50472005208333
  1
高域：2インチネオジム磁石採用コンプレッションドライバー、1.75インチボイスコイル 
 41
0.7
 11
-637.1188751151134
 21
1470.316799153687
 31
0.0
100
AcDbText
 73
     3
  0
TEXT
  5
79
330
459
100
AcDbEntity
  8
SPEC
 62
     7
100
AcDbText
 10
-638.5288050667424
 20
1382.49848622133
 30
0.0
 40
28.50472005208333
  1
1.2kHz
 41
0.7
 11
-638.5288050667424
 21
1411.003206273413
 31
0.0
100
AcDbText
 73
     3
  0
TEXT
  5
7A
330
459
100
AcDbEntity
  8
SPEC
 62
     7
100
AcDbText
 10
-637.1088607621542
 20
1214.231347215813
 30
0.0
 40
28.50472005208333
  1
合板
 41
0.7
 11
-637.1088607621542
 21
1242.736067267897
 31
0.0
100
AcDbText
 73
     3
  0
LINE
  5
7B
330
459
100
AcDbEntity
  8
SPEC
  6
Continuous
 62
     7
100
AcDbLine
 10
-1137.5
 20
1089.471070528122
 30
0.0
 11
1075.0
 21
1089.471070528122
 31
0.0
  0
LINE
  5
7C
330
459
100
AcDbEntity
  8
SPEC
  6
Continuous
 62
     7
100
AcDbLine
 10
-1137.5
 20
1033.221070528122
 30
0.0
 11
1075.0
 21
1033.221070528122
 31
0.0
  0
LINE
  5
7D
330
459
100
AcDbEntity
  8
SPEC
  6
Continuous
 62
     7
100
AcDbLine
 10
300.0
 20
1989.471070528122
 30
0.0
 11
300.0
 21
1933.221070528122
 31
0.0
  0
LINE
  5
7E
330
459
100
AcDbEntity
  8
SPEC
  6
Continuous
 62
     7
100
AcDbLine
 10
300.0
 20
1876.971070528122
 30
0.0
 11
300.0
 21
1820.721070528122
 31
0.0
  0
TEXT
  5
7F
330
459
100
AcDbEntity
  8
SPEC
 62
     7
100
AcDbText
 10
-283.34375
 20
1945.764163010929
 30
0.0
 40
28.50472005208333
  1
G515-96-L
 41
0.7
 11
-283.34375
 21
1974.268883063012
 31
0.0
100
AcDbText
 73
     3
  0
TEXT
  5
80
330
459
100
AcDbEntity
  8
SPEC
 62
     7
100
AcDbText
 10
344.3248988169752
 20
-1229.870054153812
 30
0.0
 40
40.72102864583334
  1
寸法図はG515-96-R(右側仕様）
 41
0.7
 11
344.3248988169752
 21
-1189.149025507978
 31
0.0
100
AcDbText
 73
     3
  0
LINE
  5
81
330
459
100
AcDbEntity
  8
SPEC
  6
Continuous
 62
     7
100
AcDbLine
 10
300.0
 20
-1250.0
 30
0.0
 11
1100.0
 21
-1250.0
 31
0.0
  0
TEXT
  5
82
330
459
100
AcDbEntity
  8
SPEC
 62
     7
100
AcDbText
 10
-636.4821648183147
 20
1833.264163010929
 30
0.0
 40
28.50472005208333
  1
L仕様
 41
0.7
 11
-636.4821648183147
 21
1861.768883063012
 31
0.0
100
AcDbText
 73
     3
  0
TEXT
  5
83
330
459
100
AcDbEntity
  8
SPEC
 62
     7
100
AcDbText
 10
313.5178351816851
 20
1833.264163010929
 30
0.0
 40
28.50472005208333
  1
R仕様
 41
0.7
 11
313.5178351816851
 21
1861.768883063012
 31
0.0
100
AcDbText
 73
     3
  0
TEXT
  5
84
330
459
100
AcDbEntity
  8
SPEC
 62
     7
100
AcDbText
 10
516.65625
 20
1945.764163010929
 30
0.0
 40
28.50472005208333
  1
G515-96-R
 41
0.7
 11
516.65625
 21
1974.268883063012
 31
0.0
100
AcDbText
 73
     3
  0
TEXT
  5
85
330
459
100
AcDbEntity
  8
DIMNSIONS
 62
     7
100
AcDbText
 10
-200.0
 20
-1576.486579471877
 30
0.0
 40
36.64892578125
  1
(単位：mm)
 41
0.7
 11
-200.0
 21
-1539.837653690627
 31
0.0
100
AcDbText
 73
     3
  0
LINE
  5
86
330
459
100
AcDbEntity
  8
DIMNSIONS
  6
Continuous
 62
     7
100
AcDbLine
 10
-200.0
 20
-630.0
 30
0.0
 11
-200.0
 21
-780.0
 31
0.0
  0
LINE
  5
87
330
459
100
AcDbEntity
  8
DIMNSIONS
  6
Continuous
 62
     7
100
AcDbLine
 10
219.9999999999963
 20
-629.9999999999981
 30
0.0
 11
219.9999999999963
 21
-780.0
 31
0.0
  0
LINE
  5
88
330
459
100
AcDbEntity
  8
DIMNSIONS
  6
Continuous
 62
     7
100
AcDbLine
 10
-200.0
 20
-750.0
 30
0.0
 11
219.9999999999963
 21
-750.0
 31
0.0
  0
LINE
  5
89
330
459
100
AcDbEntity
  8
DIMNSIONS
  6
Continuous
 62
     7
100
AcDbLine
 10
-200.0
 20
-750.0
 30
0.0
 11
-162.4906616210937
 21
-739.9494030727462
 31
0.0
  0
LINE
  5
8A
330
459
100
AcDbEntity
  8
DIMNSIONS
  6
Continuous
 62
     7
100
AcDbLine
 10
-200.0
 20
-750.0
 30
0.0
 11
-162.4906616210937
 21
-760.0505969272535
 31
0.0
  0
LINE
  5
8B
330
459
100
AcDbEntity
  8
DIMNSIONS
  6
Continuous
 62
     7
100
AcDbLine
 10
219.9999999999963
 20
-750.0
 30
0.0
 11
182.4906616210901
 21
-760.0505969272535
 31
0.0
  0
LINE
  5
8C
330
459
100
AcDbEntity
  8
DIMNSIONS
  6
Continuous
 62
     7
100
AcDbLine
 10
219.9999999999963
 20
-750.0
 30
0.0
 11
182.4906616210901
 21
-739.9494030727462
 31
0.0
  0
TEXT
  5
8D
330
459
100
AcDbEntity
  8
DIMNSIONS
 62
     7
100
AcDbText
 10
-29.68750000000184
 20
-735.0916666666667
 30
0.0
 40
40.72102864583334
  1
420
 41
0.7
 11
-29.68750000000184
 21
-694.3706380208332
 31
0.0
100
AcDbText
 73
     3
  0
LINE
  5
8E
330
459
100
AcDbEntity
  8
DIMNSIONS
  6
Continuous
 62
     7
100
AcDbLine
 10
-230.0
 20
-600.0
 30
0.0
 11
-380.0
 21
-600.0
 31
0.0
  0
LINE
  5
8F
330
459
100
AcDbEntity
  8
DIMNSIONS
  6
Continuous
 62
     7
100
AcDbLine
 10
-230.0
 20
99.99997138976983
 30
0.0
 11
-380.0
 21
99.99997138976983
 31
0.0
  0
LINE
  5
90
330
459
100
AcDbEntity
  8
DIMNSIONS
  6
Continuous
 62
     7
100
AcDbLine
 10
-350.0
 20
-600.0
 30
0.0
 11
-350.0
 21
99.99997138976983
 31
0.0
  0
LINE
  5
91
330
459
100
AcDbEntity
  8
DIMNSIONS
  6
Continuous
 62
     7
100
AcDbLine
 10
-350.0
 20
-600.0
 30
0.0
 11
-360.0505969272536
 21
-562.4906616210937
 31
0.0
  0
LINE
  5
92
330
459
100
AcDbEntity
  8
DIMNSIONS
  6
Continuous
 62
     7
100
AcDbLine
 10
-350.0
 20
-600.0
 30
0.0
 11
-339.9494030727464
 21
-562.4906616210937
 31
0.0
  0
LINE
  5
93
330
459
100
AcDbEntity
  8
DIMNSIONS
  6
Continuous
 62
     7
100
AcDbLine
 10
-350.0
 20
99.99997138976983
 30
0.0
 11
-339.9494030727464
 21
62.49063301086358
 31
0.0
  0
LINE
  5
94
330
459
100
AcDbEntity
  8
DIMNSIONS
  6
Continuous
 62
     7
100
AcDbLine
 10
-350.0
 20
99.99997138976983
 30
0.0
 11
-360.0505969272536
 21
62.49063301086358
 31
0.0
  0
TEXT
  5
95
330
459
100
AcDbEntity
  8
DIMNSIONS
 62
     7
100
AcDbText
 10
-364.9083333333332
 20
-289.6875143051151
 30
0.0
 40
40.72102864583334
  1
700
 50
90.0
 41
0.7
 11
-405.6293619791665
 21
-289.6875143051151
 31
0.0
100
AcDbText
 73
     3
  0
LINE
  5
96
330
459
100
AcDbEntity
  8
DIMNSIONS
  6
Continuous
 62
     7
100
AcDbLine
 10
-55.99980000025245
 20
400.0040062157143
 30
0.0
 11
-379.9998000002524
 21
400.0040062157143
 31
0.0
  0
LINE
  5
97
330
459
100
AcDbEntity
  8
DIMNSIONS
  6
Continuous
 62
     7
100
AcDbLine
 10
-68.99980000025246
 20
769.9950750027003
 30
0.0
 11
-379.9998000002524
 21
769.9950750027003
 31
0.0
  0
LINE
  5
98
330
459
100
AcDbEntity
  8
DIMNSIONS
  6
Continuous
 62
     7
100
AcDbLine
 10
-349.9998000002524
 20
400.0040062157143
 30
0.0
 11
-349.9998000002524
 21
769.9950750027003
 31
0.0
  0
LINE
  5
99
330
459
100
AcDbEntity
  8
DIMNSIONS
  6
Continuous
 62
     7
100
AcDbLine
 10
-349.9998000002524
 20
400.0040062157143
 30
0.0
 11
-360.050396927506
 21
437.5133445946207
 31
0.0
  0
LINE
  5
9A
330
459
100
AcDbEntity
  8
DIMNSIONS
  6
Continuous
 62
     7
100
AcDbLine
 10
-349.9998000002524
 20
400.0040062157143
 30
0.0
 11
-339.9492030729988
 21
437.5133445946207
 31
0.0
  0
LINE
  5
9B
330
459
100
AcDbEntity
  8
DIMNSIONS
  6
Continuous
 62
     7
100
AcDbLine
 10
-349.9998000002524
 20
769.9950750027003
 30
0.0
 11
-339.9492030729988
 21
732.485736623794
 31
0.0
  0
LINE
  5
9C
330
459
100
AcDbEntity
  8
DIMNSIONS
  6
Continuous
 62
     7
100
AcDbLine
 10
-349.9998000002524
 20
769.9950750027003
 30
0.0
 11
-360.050396927506
 21
732.485736623794
 31
0.0
  0
TEXT
  5
9D
330
459
100
AcDbEntity
  8
DIMNSIONS
 62
     7
100
AcDbText
 10
-364.9081333335856
 20
545.3120406092072
 30
0.0
 40
40.72102864583334
  1
370
 50
90.0
 41
0.7
 11
-405.629161979419
 21
545.3120406092072
 31
0.0
100
AcDbText
 73
     3
  0
LINE
  5
9E
330
459
100
AcDbEntity
  8
DIMNSIONS
  6
Continuous
 62
     7
100
AcDbLine
 10
220.0000870640034
 20
656.393801323823
 30
0.0
 11
220.0000870640034
 21
859.4332653789001
 31
0.0
  0
ARC
  5
9F
330
459
100
AcDbEntity
  8
DIMNSIONS
  6
Continuous
 62
     7
100
AcDbCircle
 10
220.0000870640034
 20
606.393801323823
 30
0.0
 40
223.0394640550773
100
AcDbArc
 50
90.0
 51
144.9999874691317
  0
LINE
  5
A0
330
459
100
AcDbEntity
  8
DIMNSIONS
  6
Continuous
 62
     7
100
AcDbLine
 10
37.29688210512865
 20
734.3240222402723
 30
0.0
 11
51.213214309737
 21
770.5773070871436
 31
0.0
  0
LINE
  5
A1
330
459
100
AcDbEntity
  8
DIMNSIONS
  6
Continuous
 62
     7
100
AcDbLine
 10
37.29688210512865
 20
734.3240222402723
 30
0.0
 11
67.47542174525865
 21
758.7621217859921
 31
0.0
  0
LINE
  5
A2
330
459
100
AcDbEntity
  8
DIMNSIONS
  6
Continuous
 62
     7
100
AcDbLine
 10
220.0000870640034
 20
829.4332653789002
 30
0.0
 11
182.4907486850971
 21
819.3826684516466
 31
0.0
  0
LINE
  5
A3
330
459
100
AcDbEntity
  8
DIMNSIONS
  6
Continuous
 62
     7
100
AcDbLine
 10
220.0000870640034
 20
829.4332653789002
 30
0.0
 11
182.4907486850971
 21
839.483862306154
 31
0.0
  0
TEXT
  5
A4
330
459
100
AcDbEntity
  8
DIMNSIONS
 62
     7
100
AcDbText
 10
80.99351732773083
 20
806.6349202524277
 30
0.0
 40
40.72104684955553
  1
55\U+00B0
 50
22.23037526146624
 41
0.7
 11
65.58745923466489
 21
844.3291775147319
 31
0.0
100
AcDbText
 73
     3
  0
LINE
  5
A5
330
459
100
AcDbEntity
  8
DIMNSIONS
  6
Continuous
 62
     7
100
AcDbLine
 10
-199.9997508113628
 20
644.4774023217481
 30
0.0
 11
-199.9997508113628
 21
880.0000000001213
 31
0.0
  0
LINE
  5
A6
330
459
100
AcDbEntity
  8
DIMNSIONS
  6
Continuous
 62
     7
100
AcDbLine
 10
-70.41007663775658
 20
779.5476508900669
 30
0.0
 11
-36.22894355345021
 21
828.3625802939699
 31
0.0
  0
ARC
  5
A7
330
459
100
AcDbEntity
  8
DIMNSIONS
  6
Continuous
 62
     7
100
AcDbCircle
 10
-199.9997508113628
 20
594.4774023217481
 30
0.0
 40
255.5225976783734
100
AcDbArc
 50
54.99956561727185
 51
90.0
  0
LINE
  5
A8
330
459
100
AcDbEntity
  8
DIMNSIONS
  6
Continuous
 62
     7
100
AcDbLine
 10
-199.9997508113628
 20
850.0000000001215
 30
0.0
 11
-162.4904124324565
 21
860.0505969273751
 31
0.0
  0
LINE
  5
A9
330
459
100
AcDbEntity
  8
DIMNSIONS
  6
Continuous
 62
     7
100
AcDbLine
 10
-199.9997508113628
 20
850.0000000001215
 30
0.0
 11
-162.4904124324565
 21
839.9494030728678
 31
0.0
  0
LINE
  5
AA
330
459
100
AcDbEntity
  8
DIMNSIONS
  6
Continuous
 62
     7
100
AcDbLine
 10
-53.43642295328304
 20
803.7881494215298
 30
0.0
 11
-89.68970780015437
 21
817.7044816261382
 31
0.0
  0
LINE
  5
AB
330
459
100
AcDbEntity
  8
DIMNSIONS
  6
Continuous
 62
     7
100
AcDbLine
 10
-53.43642295328304
 20
803.7881494215298
 30
0.0
 11
-77.87452249900288
 21
833.9666890616602
 31
0.0
  0
TEXT
  5
AC
330
459
100
AcDbEntity
  8
DIMNSIONS
 62
     7
100
AcDbText
 10
-143.6298588605155
 20
864.2096803347646
 30
0.0
 40
40.72104684955553
  1
35\U+00B0
 50
337.1244667051325
 41
0.7
 11
-127.8003440898927
 21
901.7280774040735
 31
0.0
100
AcDbText
 73
     3
  0
TEXT
  5
AD
330
459
100
AcDbEntity
  8
DATA
 62
     7
100
AcDbText
 10
850.0
 20
-1595.941901795027
 30
0.0
 40
36.64892578125
  1
G515-96
 41
0.7
 11
850.0
 21
-1559.292976013777
 31
0.0
100
AcDbText
 73
     3
  0
TEXT
  5
AE
330
459
100
AcDbEntity
  8
DATA
 62
     7
100
AcDbText
 10
850.0
 20
-1480.721363006435
 30
0.0
 40
36.64892578125
  1
CODA
 41
0.7
 11
850.0
 21
-1444.072437225185
 31
0.0
100
AcDbText
 73
     3
  0
TEXT
  5
AF
330
459
100
AcDbEntity
  8
DATA
 62
     7
100
AcDbText
 10
-1100.0
 20
-1696.958929471877
 30
0.0
 40
24.4326171875
  1
仕様および外観は予告なく変更されることがありますので、ご了承ください。
 41
0.7
 11
-1100.0
 21
-1672.526312284377
 31
0.0
100
AcDbText
 73
     3
  0
TEXT
  5
B0
330
459
100
AcDbEntity
  8
DATA
 62
     7
100
AcDbText
 10
818.0827368125559
 20
-1532.804063737026
 30
0.0
 40
24.4326171875
  1
2Way-フルレンジ・スピーカー
 41
0.7
 11
818.0827368125559
 21
-1508.371446549526
 31
0.0
100
AcDbText
 73
     3
  0
ARC
  5
B1
330
459
100
AcDbEntity
  8
DATA
  6
Continuous
 62
     7
100
AcDbCircle
 10
10.00013606399905
 20
1180.000000000006
 30
0.0
 40
780.0000000000058
100
AcDbArc
 50
256.0239097692626
 51
283.9760902307375
  0
LINE
  5
B2
330
459
100
AcDbEntity
  8
DATA
  6
Continuous
 62
     7
100
AcDbLine
 10
220.0000870640034
 20
606.393801323823
 30
0.0
 11
7.806785186058803
 21
754.9732200173628
 31
0.0
  0
LINE
  5
B3
330
459
100
AcDbEntity
  8
DATA
  6
Continuous
 62
     7
100
AcDbLine
 10
220.0001510000034
 20
-1106.393801323823
 30
0.0
 11
7.806849122058777
 21
-1254.973220017362
 31
0.0
  0
ARC
  5
B4
330
459
100
AcDbEntity
  8
DATA
  6
Continuous
 62
     7
100
AcDbCircle
 10
10.00019999999902
 20
-1680.000000000005
 30
0.0
 40
780.0000000000054
100
AcDbArc
 50
76.02390976926258
 51
103.9760902307374
  0
CIRCLE
  5
B5
330
459
100
AcDbEntity
  8
DATA
  6
Continuous
 62
     7
100
AcDbCircle
 10
10.00019999999902
 20
-1080.999999999997
 30
0.0
 40
53.5
  0
LINE
  5
B6
330
459
100
AcDbEntity
  8
DATA
  6
Continuous
 62
     7
100
AcDbLine
 10
17.00192078527011
 20
-572.999999999998
 30
0.0
 11
197.417165668663
 21
-572.999999999998
 31
0.0
  0
LINE
  5
B7
330
459
100
AcDbEntity
  8
DATA
  6
Continuous
 62
     7
100
AcDbLine
 10
-178.3832335329352
 20
-600.0
 30
0.0
 11
198.3832335329288
 21
-599.999999999998
 31
0.0
  0
LINE
  5
B8
330
459
100
AcDbEntity
  8
DATA
  6
Continuous
 62
     7
100
AcDbLine
 10
198.3832335329288
 20
-584.999999999998
 30
0.0
 11
-178.3832335329352
 21
-585.0000000000013
 31
0.0
  0
LINE
  5
B9
330
459
100
AcDbEntity
  8
DATA
  6
Continuous
 62
     7
100
AcDbLine
 10
-175.9980500986357
 20
91.00000619888421
 30
0.0
 11
140.0019346425751
 21
91.00000619888509
 31
0.0
  0
ARC
  5
BA
330
459
100
AcDbEntity
  8
DATA
  6
Continuous
 62
     7
100
AcDbCircle
 10
10.00192078526739
 20
-388.9999999999996
 30
0.0
 40
180.0000000000002
100
AcDbArc
 50
91.36901016307273
 51
88.63098983692697
  0
LINE
  5
BB
330
459
100
AcDbEntity
  8
DATA
  6
Continuous
 62
     7
100
AcDbLine
 10
24.20361567008418
 20
85.00000000000115
 30
0.0
 11
146.0019207852664
 21
85.00000000000115
 31
0.0
  0
ARC
  5
BC
330
459
100
AcDbEntity
  8
DATA
  6
Continuous
 62
     7
100
AcDbCircle
 10
-22.99807921473261
 20
-193.5000000000078
 30
0.0
 40
278.5000000000076
100
AcDbArc
 50
67.40646832568161
 51
80.31234546450919
  0
ARC
  5
BD
330
459
100
AcDbEntity
  8
DATA
  6
Continuous
 62
     7
100
AcDbCircle
 10
-22.99807921473716
 20
82.50000000000387
 30
0.0
 40
278.5000000000037
100
AcDbArc
 50
280.4745625370537
 51
292.5935316743184
  0
ARC
  5
BE
330
459
100
AcDbEntity
  8
DATA
  6
Continuous
 62
     7
100
AcDbCircle
 10
10.0019207852692
 20
-388.9999999999996
 30
0.0
 40
194.5000000000001
100
AcDbArc
 50
10.83021597997065
 51
84.74574128883542
  0
LINE
  5
BF
330
459
100
AcDbEntity
  8
DATA
  6
Continuous
 62
     7
100
AcDbLine
 10
-87.61755603758945
 20
754.9732200176269
 30
0.0
 11
-199.9997508113628
 21
594.4774023217481
 31
0.0
  0
LINE
  5
C0
330
459
100
AcDbEntity
  8
DATA
  6
Continuous
 62
     7
100
AcDbLine
 10
-199.9997508113628
 20
594.4774023217481
 30
0.0
 11
-199.999863936
 21
450.7469574969208
 31
0.0
  0
ARC
  5
C1
330
459
100
AcDbEntity
  8
DATA
  6
Continuous
 62
     7
100
AcDbCircle
 10
-171.499863936
 20
450.7469574969208
 30
0.0
 40
28.50000000000182
100
AcDbArc
 50
180.0
 51
256.0239097692622
  0
CIRCLE
  5
C2
330
459
100
AcDbEntity
  8
DATA
  6
Continuous
 62
     7
100
AcDbCircle
 10
10.00013606399905
 20
540.999999999998
 30
0.0
 40
4.0
  0
CIRCLE
  5
C3
330
459
100
AcDbEntity
  8
DATA
  6
Continuous
 62
     7
100
AcDbCircle
 10
10.00013606399814
 20
620.9999999999991
 30
0.0
 40
4.0
  0
CIRCLE
  5
C4
330
459
100
AcDbEntity
  8
DATA
  6
Continuous
 62
     7
100
AcDbCircle
 10
-128.3569896115295
 20
49.85891039679497
 30
0.0
 40
3.25
  0
LINE
  5
C5
330
459
100
AcDbEntity
  8
DATA
  6
Continuous
 62
     7
100
AcDbLine
 10
-200.0
 20
-585.0000000000013
 30
0.0
 11
-199.9998868753691
 21
85.00002384185814
 31
0.0
  0
LINE
  5
C6
330
459
100
AcDbEntity
  8
DATA
  6
Continuous
 62
     7
100
AcDbLine
 10
-185.0000203897671
 20
-572.9999685287471
 30
0.0
 11
-185.0000203897725
 21
85.00002384185814
 31
0.0
  0
LINE
  5
C7
330
459
100
AcDbEntity
  8
DATA
  6
Continuous
 62
     7
100
AcDbLine
 10
-196.001845722415
 20
85.00002384185814
 30
0.0
 11
-196.0018457224087
 21
-585.0000524520874
 31
0.0
  0
LINE
  5
C8
330
459
100
AcDbEntity
  8
DATA
  6
Continuous
 62
     7
100
AcDbLine
 10
-184.9981130411397
 20
85.00002384185814
 30
0.0
 11
-184.9980792147334
 21
-352.0777844651839
 31
0.0
  0
ARC
  5
C9
330
459
100
AcDbEntity
  8
DATA
  6
Continuous
 62
     7
100
AcDbCircle
 10
115.0019207852437
 20
-55.49999999999889
 30
0.0
 40
278.4999999999805
100
AcDbArc
 50
157.4064683256646
 51
202.5935316743354
  0
LINE
  5
CA
330
459
100
AcDbEntity
  8
DATA
  6
Continuous
 62
     7
100
AcDbLine
 10
-184.9980792147334
 20
-352.0777844651839
 30
0.0
 11
-184.9980792147334
 21
-425.9222155348179
 31
0.0
  0
LINE
  5
CB
330
459
100
AcDbEntity
  8
DATA
  6
Continuous
 62
     7
100
AcDbLine
 10
-177.4171656686658
 20
-573.0
 30
0.0
 11
3.001920785271024
 21
-572.9999999999992
 31
0.0
  0
ARC
  5
CC
330
459
100
AcDbEntity
  8
DATA
  6
Continuous
 62
     7
100
AcDbCircle
 10
10.00192078526829
 20
-388.9999999999996
 30
0.0
 40
194.500000000001
100
AcDbArc
 50
190.8302159799705
 51
251.0876335811623
  0
LINE
  5
CD
330
459
100
AcDbEntity
  8
DATA
  6
Continuous
 62
     7
100
AcDbLine
 10
-184.9981130411343
 20
-572.9999685287471
 30
0.0
 11
-184.9980792147334
 21
-425.9222155348179
 31
0.0
  0
LINE
  5
CE
330
459
100
AcDbEntity
  8
DATA
  6
Continuous
 62
     7
100
AcDbLine
 10
-196.0000000000009
 20
-573.0000000000013
 30
0.0
 11
-177.4171656686658
 21
-573.0
 31
0.0
  0
LINE
  5
CF
330
459
100
AcDbEntity
  8
DATA
  6
Continuous
 62
     7
100
AcDbLine
 10
-200.0
 20
-600.0
 30
0.0
 11
-178.3832335329352
 21
-600.0
 31
0.0
  0
LINE
  5
D0
330
459
100
AcDbEntity
  8
DATA
  6
Continuous
 62
     7
100
AcDbLine
 10
-178.3832335329352
 20
-585.0000000000013
 30
0.0
 11
-200.0
 21
-585.0000000000013
 31
0.0
  0
LINE
  5
D1
330
459
100
AcDbEntity
  8
DATA
  6
Continuous
 62
     7
100
AcDbLine
 10
-195.9999383737758
 20
-585.0000524520874
 30
0.0
 11
-196.0000000000009
 21
-573.0000000000013
 31
0.0
  0
LINE
  5
D2
330
459
100
AcDbEntity
  8
DATA
  6
Continuous
 62
     7
100
AcDbLine
 10
-200.0
 20
-600.0
 30
0.0
 11
-200.0
 21
-585.0000000000013
 31
0.0
  0
LINE
  5
D3
330
459
100
AcDbEntity
  8
DATA
  6
Continuous
 62
     7
100
AcDbLine
 10
-177.4171656686658
 20
-573.0
 30
0.0
 11
-177.4171174814419
 21
-585.0000524520874
 31
0.0
  0
LINE
  5
D4
330
459
100
AcDbEntity
  8
DATA
  6
Continuous
 62
     7
100
AcDbLine
 10
-178.3832335329352
 20
-585.0000000000013
 30
0.0
 11
-178.3832335329352
 21
-600.0
 31
0.0
  0
ARC
  5
D5
330
459
100
AcDbEntity
  8
DATA
  6
Continuous
 62
     7
100
AcDbCircle
 10
-182.9980792147335
 20
-425.9222155348179
 30
0.0
 40
2.000000000000362
100
AcDbArc
 50
10.83021597998343
 51
180.0
  0
ARC
  5
D6
330
459
100
AcDbEntity
  8
DATA
  6
Continuous
 62
     7
100
AcDbCircle
 10
-40.38564423185464
 20
663.5740804190971
 30
0.0
 40
86.36686468726722
100
AcDbArc
 50
66.86863833532675
 51
113.1313616646732
  0
LINE
  5
D7
330
459
100
AcDbEntity
  8
DATA
  6
Continuous
 62
     7
100
AcDbLine
 10
-10.38564423185373
 20
724.9409451063641
 30
0.0
 11
-70.38564423185644
 21
724.9409451063641
 31
0.0
  0
ARC
  5
D8
330
459
100
AcDbEntity
  8
DATA
  6
Continuous
 62
     7
100
AcDbCircle
 10
-39.90538542595452
 20
686.7401351437811
 30
0.0
 40
83.25986485621694
100
AcDbArc
 50
55.03672521766664
 51
124.963274782015
  0
ARC
  5
D9
330
459
100
AcDbEntity
  8
DATA
  6
Continuous
 62
     7
100
AcDbCircle
 10
-70.38564423185461
 20
733.8015538334559
 30
0.0
 40
9.999999999992773
100
AcDbArc
 50
113.131361664676
 51
176.7341162276281
  0
ARC
  5
DA
330
459
100
AcDbEntity
  8
DATA
  6
Continuous
 62
     7
100
AcDbCircle
 10
-70.38564423185644
 20
734.9409451063618
 30
0.0
 40
9.999999999997537
100
AcDbArc
 50
183.2658837730725
 51
270.0
  0
ARC
  5
DB
330
459
100
AcDbEntity
  8
DATA
  6
Continuous
 62
     7
100
AcDbCircle
 10
-10.38564423185555
 20
734.940945106365
 30
0.0
 40
10.00000000000182
100
AcDbArc
 50
270.0
 51
356.734116226822
  0
ARC
  5
DC
330
459
100
AcDbEntity
  8
DATA
  6
Continuous
 62
     7
100
AcDbCircle
 10
-10.38564423185282
 20
733.80155383346
 30
0.0
 40
9.999999999988702
100
AcDbArc
 50
3.265883772276832
 51
66.86863833532052
  0
CIRCLE
  5
DD
330
459
100
AcDbEntity
  8
DATA
  6
Continuous
 62
     7
100
AcDbCircle
 10
-121.8734939060241
 20
-520.8754146912911
 30
0.0
 40
4.0
  0
LINE
  5
DE
330
459
100
AcDbEntity
  8
DATA
  6
Continuous
 62
     7
100
AcDbLine
 10
3.001920785271024
 20
-583.4999999999999
 30
0.0
 11
17.00192078527011
 21
-583.4999999999999
 31
0.0
  0
LINE
  5
DF
330
459
100
AcDbEntity
  8
DATA
  6
Continuous
 62
     7
100
AcDbLine
 10
17.00192078527011
 20
-583.4999999999999
 30
0.0
 11
17.00192078527011
 21
-572.999999999998
 31
0.0
  0
LINE
  5
E0
330
459
100
AcDbEntity
  8
DATA
  6
Continuous
 62
     7
100
AcDbLine
 10
3.001920785271024
 20
-572.9999999999992
 30
0.0
 11
3.001920785271024
 21
-583.4999999999999
 31
0.0
  0
CIRCLE
  5
E1
330
459
100
AcDbEntity
  8
DATA
  6
Continuous
 62
     7
100
AcDbCircle
 10
10.00192078527102
 20
-575.4999999999991
 30
0.0
 40
4.0
  0
ARC
  5
E2
330
459
100
AcDbEntity
  8
DATA
  6
Continuous
 62
     7
100
AcDbCircle
 10
10.00192078526739
 20
-388.9999999999996
 30
0.0
 40
194.5000000000004
100
AcDbArc
 50
103.2613953361337
 51
169.1697840200293
  0
CIRCLE
  5
E3
330
459
100
AcDbEntity
  8
DATA
  6
Continuous
 62
     7
100
AcDbCircle
 10
-176.4980792147307
 20
-389.0000000000009
 30
0.0
 40
4.0
  0
ARC
  5
E4
330
459
100
AcDbEntity
  8
DATA
  6
Continuous
 62
     7
100
AcDbCircle
 10
-182.9980792147335
 20
-352.0777844651839
 30
0.0
 40
2.0
100
AcDbArc
 50
180.0
 51
349.1697840200421
  0
ARC
  5
E5
330
459
100
AcDbEntity
  8
DATA
  6
Continuous
 62
     7
100
AcDbCircle
 10
-121.3509997150904
 20
-153.8529205003558
 30
0.0
 40
22.50000000000579
100
AcDbArc
 50
202.593531674336
 51
247.4064683256806
  0
ARC
  5
E6
330
459
100
AcDbEntity
  8
DATA
  6
Continuous
 62
     7
100
AcDbCircle
 10
-22.99807921473716
 20
82.50000000000387
 30
0.0
 40
278.5000000000039
100
AcDbArc
 50
247.4064683256815
 51
267.532574087941
  0
CIRCLE
  5
E7
330
459
100
AcDbEntity
  8
DATA
  6
Continuous
 62
     7
100
AcDbCircle
 10
-121.8734939060241
 20
-257.1245853087089
 30
0.0
 40
4.0
  0
ARC
  5
E8
330
459
100
AcDbEntity
  8
DATA
  6
Continuous
 62
     7
100
AcDbCircle
 10
-22.99807921473716
 20
82.50000000000387
 30
0.0
 40
278.5000000000037
100
AcDbArc
 50
267.532574087941
 51
280.4745625370537
  0
ARC
  5
E9
330
459
100
AcDbEntity
  8
DATA
  6
Continuous
 62
     7
100
AcDbCircle
 10
-35.07399589689799
 20
-197.739936904584
 30
0.0
 40
1.999999999999622
100
AcDbArc
 50
283.261395336083
 51
87.53257408794105
  0
LINE
  5
EA
330
459
100
AcDbEntity
  8
DATA
  6
Continuous
 62
     7
100
AcDbLine
 10
14.0432535360123
 20
-209.5000290870649
 30
0.0
 11
16.06408941247623
 21
-205.9999847412086
 31
0.0
  0
LINE
  5
EB
330
459
100
AcDbEntity
  8
DATA
  6
Continuous
 62
     7
100
AcDbLine
 10
10.0018202016608
 20
-209.5000290870649
 30
0.0
 11
14.0432535360123
 21
-209.5000290870649
 31
0.0
  0
LINE
  5
EC
330
459
100
AcDbEntity
  8
DATA
  6
Continuous
 62
     7
100
AcDbLine
 10
5.960386867310219
 20
-195.4999709129316
 30
0.0
 11
3.939789409425387
 21
-199.0000152587878
 31
0.0
  0
LINE
  5
ED
330
459
100
AcDbEntity
  8
DATA
  6
Continuous
 62
     7
100
AcDbLine
 10
10.0018202016608
 20
-195.4999709129316
 30
0.0
 11
5.960386867310219
 21
-195.4999709129316
 31
0.0
  0
LINE
  5
EE
330
459
100
AcDbEntity
  8
DATA
  6
Continuous
 62
     7
100
AcDbLine
 10
3.939789409425387
 20
-199.0000152587878
 30
0.0
 11
1.918953532960543
 21
-202.4999999999987
 31
0.0
  0
LINE
  5
EF
330
459
100
AcDbEntity
  8
DATA
  6
Continuous
 62
     7
100
AcDbLine
 10
1.918953532960543
 20
-202.4999999999987
 30
0.0
 11
3.939789409425387
 21
-205.9999847412086
 31
0.0
  0
LINE
  5
F0
330
459
100
AcDbEntity
  8
DATA
  6
Continuous
 62
     7
100
AcDbLine
 10
16.06408941247623
 20
-199.0000152587878
 30
0.0
 11
14.0432535360123
 21
-195.4999709129316
 31
0.0
  0
LINE
  5
F1
330
459
100
AcDbEntity
  8
DATA
  6
Continuous
 62
     7
100
AcDbLine
 10
14.0432535360123
 20
-195.4999709129316
 30
0.0
 11
10.0018202016608
 21
-195.4999709129316
 31
0.0
  0
LINE
  5
F2
330
459
100
AcDbEntity
  8
DATA
  6
Continuous
 62
     7
100
AcDbLine
 10
18.08492528894108
 20
-202.4999999999987
 30
0.0
 11
16.06408941247623
 21
-199.0000152587878
 31
0.0
  0
LINE
  5
F3
330
459
100
AcDbEntity
  8
DATA
  6
Continuous
 62
     7
100
AcDbLine
 10
16.06408941247623
 20
-205.9999847412086
 30
0.0
 11
18.08492528894108
 21
-202.4999999999987
 31
0.0
  0
LINE
  5
F4
330
459
100
AcDbEntity
  8
DATA
  6
Continuous
 62
     7
100
AcDbLine
 10
3.939789409425387
 20
-205.9999847412086
 30
0.0
 11
5.960386867310219
 21
-209.5000290870649
 31
0.0
  0
LINE
  5
F5
330
459
100
AcDbEntity
  8
DATA
  6
Continuous
 62
     7
100
AcDbLine
 10
5.960386867310219
 20
-209.5000290870649
 30
0.0
 11
10.0018202016608
 21
-209.5000290870649
 31
0.0
  0
CIRCLE
  5
F6
330
459
100
AcDbEntity
  8
DATA
  6
Continuous
 62
     7
100
AcDbCircle
 10
10.00192078526739
 20
-202.4999999999987
 30
0.0
 40
1.600000000025829
  0
CIRCLE
  5
F7
330
459
100
AcDbEntity
  8
DATA
  6
Continuous
 62
     7
100
AcDbCircle
 10
10.00192078526739
 20
-202.4999999999987
 30
0.0
 40
7.0
  0
CIRCLE
  5
F8
330
459
100
AcDbEntity
  8
DATA
  6
Continuous
 62
     7
100
AcDbCircle
 10
10.00192078526739
 20
-202.4999999999987
 30
0.0
 40
4.600000000012187
  0
ARC
  5
F9
330
459
100
AcDbEntity
  8
DATA
  6
Continuous
 62
     7
100
AcDbCircle
 10
27.99653308798402
 20
-193.3256687041568
 30
0.0
 40
2.000000000000534
100
AcDbArc
 50
100.4745625370514
 51
264.7457412888885
  0
CIRCLE
  5
FA
330
459
100
AcDbEntity
  8
DATA
  6
Continuous
 62
     7
100
AcDbCircle
 10
-128.3569896115286
 20
-160.8589103967967
 30
0.0
 40
3.25
  0
LINE
  5
FB
330
459
100
AcDbEntity
  8
DATA
  6
Continuous
 62
     7
100
AcDbLine
 10
-199.9996868753628
 20
-1094.477402321747
 30
0.0
 11
-199.9998
 21
-950.7469574969203
 31
0.0
  0
LINE
  5
FC
330
459
100
AcDbEntity
  8
DATA
  6
Continuous
 62
     7
100
AcDbLine
 10
-87.61749210158951
 20
-1254.973220017627
 30
0.0
 11
-199.9996868753628
 21
-1094.477402321747
 31
0.0
  0
LINE
  5
FD
330
459
100
AcDbEntity
  8
DATA
  6
Continuous
 62
     7
100
AcDbLine
 10
-184.9981130411397
 20
85.00002384185814
 30
0.0
 11
-70.19977409955574
 21
85.00000000000021
 31
0.0
  0
LINE
  5
FE
330
459
100
AcDbEntity
  8
DATA
  6
Continuous
 62
     7
100
AcDbLine
 10
-196.001845722415
 20
85.00002384185814
 30
0.0
 11
-185.0000203897725
 21
85.00002384185814
 31
0.0
  0
LINE
  5
FF
330
459
100
AcDbEntity
  8
DATA
  6
Continuous
 62
     7
100
AcDbLine
 10
-199.9998868753691
 20
85.00002384185814
 30
0.0
 11
-196.001845722415
 21
85.00002384185814
 31
0.0
  0
LINE
  5
100
330
459
100
AcDbEntity
  8
DATA
  6
Continuous
 62
     7
100
AcDbLine
 10
-184.9981130411397
 20
91.00000619888421
 30
0.0
 11
-185.0000203897725
 21
91.00000619888421
 31
0.0
  0
LINE
  5
101
330
459
100
AcDbEntity
  8
DATA
  6
Continuous
 62
     7
100
AcDbLine
 10
-175.9980500986357
 20
91.00000619888421
 30
0.0
 11
-184.9981130411397
 21
91.00000619888421
 31
0.0
  0
LINE
  5
102
330
459
100
AcDbEntity
  8
DATA
  6
Continuous
 62
     7
100
AcDbLine
 10
-184.9981130411397
 20
91.00000619888421
 30
0.0
 11
-184.9981130411397
 21
85.00002384185814
 31
0.0
  0
LINE
  5
103
330
459
100
AcDbEntity
  8
DATA
  6
Continuous
 62
     7
100
AcDbLine
 10
-191.0000623514424
 20
91.00000619888284
 30
0.0
 11
-191.0000623514424
 21
85.00002384185814
 31
0.0
  0
LINE
  5
104
330
459
100
AcDbEntity
  8
DATA
  6
Continuous
 62
     7
100
AcDbLine
 10
-185.0000203897725
 20
91.00000619888421
 30
0.0
 11
-185.0000203897725
 21
85.00002384185814
 31
0.0
  0
LINE
  5
105
330
459
100
AcDbEntity
  8
DATA
  6
Continuous
 62
     7
100
AcDbLine
 10
-185.0000203897725
 20
91.00000619888421
 30
0.0
 11
-191.0000623514424
 21
91.00000619888284
 31
0.0
  0
LINE
  5
106
330
459
100
AcDbEntity
  8
DATA
  6
Continuous
 62
     7
100
AcDbLine
 10
-175.9980500986357
 20
91.00000619888421
 30
0.0
 11
-175.9980500986357
 21
85.00002384185814
 31
0.0
  0
LINE
  5
107
330
459
100
AcDbEntity
  8
DATA
  6
Continuous
 62
     7
100
AcDbLine
 10
-185.0000203897725
 20
85.00002384185814
 30
0.0
 11
-184.9981130411397
 21
85.00002384185814
 31
0.0
  0
ARC
  5
108
330
459
100
AcDbEntity
  8
DATA
  6
Continuous
 62
     7
100
AcDbCircle
 10
-39.90532148995455
 20
-1186.740135143781
 30
0.0
 40
83.25986485621658
100
AcDbArc
 50
235.0367252179849
 51
304.9632747823328
  0
LINE
  5
109
330
459
100
AcDbEntity
  8
DATA
  6
Continuous
 62
     7
100
AcDbLine
 10
-10.38558029585375
 20
-1224.940945106362
 30
0.0
 11
-70.38558029585648
 21
-1224.940945106365
 31
0.0
  0
ARC
  5
10A
330
459
100
AcDbEntity
  8
DATA
  6
Continuous
 62
     7
100
AcDbCircle
 10
-40.38558029585466
 20
-1163.574080419097
 30
0.0
 40
86.36686468726733
100
AcDbArc
 50
246.8686383353268
 51
293.1313616646732
  0
LINE
  5
10B
330
459
100
AcDbEntity
  8
DATA
  6
Continuous
 62
     7
100
AcDbLine
 10
-70.19977409955574
 20
85.00000000000021
 30
0.0
 11
24.20361567008418
 21
85.00000000000115
 31
0.0
  0
ARC
  5
10C
330
459
100
AcDbEntity
  8
DATA
  6
Continuous
 62
     7
100
AcDbCircle
 10
-22.99807921473352
 20
-193.5000000000078
 30
0.0
 40
278.5000000000074
100
AcDbArc
 50
99.68765453549083
 51
112.5935316743184
  0
ARC
  5
10D
330
459
100
AcDbEntity
  8
DATA
  6
Continuous
 62
     7
100
AcDbCircle
 10
-121.3509997150941
 20
42.8529205003572
 30
0.0
 40
22.50000000000387
100
AcDbArc
 50
112.5935316743242
 51
157.4064683256644
  0
ARC
  5
10E
330
459
100
AcDbEntity
  8
DATA
  6
Continuous
 62
     7
100
AcDbCircle
 10
-70.19977409955574
 20
83.00000000000023
 30
0.0
 40
2.000000000000352
100
AcDbArc
 50
279.6876545354886
 51
90.0
  0
ARC
  5
10F
330
459
100
AcDbEntity
  8
DATA
  6
Continuous
 62
     7
100
AcDbCircle
 10
-70.38558029585648
 20
-1234.940945106361
 30
0.0
 40
9.999999999997271
100
AcDbArc
 50
90.0
 51
176.7341162269274
  0
ARC
  5
110
330
459
100
AcDbEntity
  8
DATA
  6
Continuous
 62
     7
100
AcDbCircle
 10
-70.38558029585465
 20
-1233.801553833457
 30
0.0
 40
9.999999999993294
100
AcDbArc
 50
183.2658837723719
 51
246.8686383353191
  0
LWPOLYLINE
  5
111
330
459
100
AcDbEntity
  8
DATA
  6
Continuous
 62
     7
100
AcDbPolyline
 90
        9
 70
     0
 43
0.0
 10
-60.08871210119924
 20
76.96841716766425
 10
-59.9149049570342
 20
76.35764837265083
 10
-59.74205148718466
 20
75.74932336807319
 10
-59.57039011023154
 20
75.14594554901191
 10
-59.40087450049123
 20
74.549899101258
 10
-59.23421991369924
 20
73.96362781524726
 10
-59.07090318701377
 20
73.38945627212594
 10
-58.91187799475392
 20
72.82976865768501
 10
-58.75738275549613
 20
72.28677034378122
  0
LWPOLYLINE
  5
11D
330
459
100
AcDbEntity
  8
DATA
  6
Continuous
 62
     7
100
AcDbPolyline
 90
        9
 70
     0
 43
0.0
 10
14.09284460046088
 20
76.96752309799308
 10
13.91927587487494
 20
76.35693311691399
 10
13.74618398644721
 20
75.74878692627112
 10
13.57476102807318
 20
75.14558792114417
 10
13.40524541833197
 20
74.54972028732412
 10
13.23835241296088
 20
73.96356821060294
 10
13.07527410485632
 20
73.38957548141594
 10
12.91601049401647
 20
72.83000707626502
 10
12.76151525475775
 20
72.28712797165123
  0
ARC
  5
129
330
459
100
AcDbEntity
  8
DATA
  6
Continuous
 62
     7
100
AcDbCircle
 10
24.20361567008418
 20
83.00000000000116
 30
0.0
 40
1.999999999999992
100
AcDbArc
 50
90.0
 51
260.3123454645092
  0
ARC
  5
12A
330
459
100
AcDbEntity
  8
DATA
  6
Continuous
 62
     7
100
AcDbCircle
 10
-10.38558029585557
 20
-1234.940945106365
 30
0.0
 40
10.00000000000223
100
AcDbArc
 50
3.265883773177992
 51
90.0
  0
ARC
  5
12B
330
459
100
AcDbEntity
  8
DATA
  6
Continuous
 62
     7
100
AcDbCircle
 10
-10.38558029585284
 20
-1233.801553833459
 30
0.0
 40
9.99999999998907
100
AcDbArc
 50
293.1313616646794
 51
356.7341162277232
  0
CIRCLE
  5
12C
330
459
100
AcDbEntity
  8
DATA
  6
Continuous
 62
     7
100
AcDbCircle
 10
10.00019999999902
 20
-1080.999999999997
 30
0.0
 40
25.49509756796397
  0
CIRCLE
  5
12D
330
459
100
AcDbEntity
  8
DATA
  6
Continuous
 62
     7
100
AcDbCircle
 10
10.00019999999812
 20
-1120.999999999998
 30
0.0
 40
4.0
  0
CIRCLE
  5
12E
330
459
100
AcDbEntity
  8
DATA
  6
Continuous
 62
     7
100
AcDbCircle
 10
-29.99980000000097
 20
-1080.999999999998
 30
0.0
 40
4.0
  0
CIRCLE
  5
12F
330
459
100
AcDbEntity
  8
DATA
  6
Continuous
 62
     7
100
AcDbCircle
 10
10.00019999999902
 20
-1040.999999999997
 30
0.0
 40
4.0
  0
LINE
  5
130
330
459
100
AcDbEntity
  8
DATA
  6
Continuous
 62
     7
100
AcDbLine
 10
9.729984602904991
 20
-1044.945108048373
 30
0.0
 11
13.36944421289125
 21
-1038.992272965364
 31
0.0
  0
ARC
  5
131
330
459
100
AcDbEntity
  8
DATA
  6
Continuous
 62
     7
100
AcDbCircle
 10
-171.4998
 20
-950.7469574969203
 30
0.0
 40
28.50000000000152
100
AcDbArc
 50
103.9760902307377
 51
180.0
  0
LINE
  5
132
330
459
100
AcDbEntity
  8
DATA
  6
Continuous
 62
     7
100
AcDbLine
 10
220.0001360639963
 20
450.7469574969197
 30
0.0
 11
220.0000870640034
 21
606.393801323823
 31
0.0
  0
ARC
  5
133
330
459
100
AcDbEntity
  8
DATA
  6
Continuous
 62
     7
100
AcDbCircle
 10
191.5001360639972
 20
450.7469574969208
 30
0.0
 40
28.50000000000042
100
AcDbArc
 50
283.9760902307382
 51
0.0
  0
LINE
  5
134
330
459
100
AcDbEntity
  8
DATA
  6
Continuous
 62
     7
100
AcDbLine
 10
-724.4774023217495
 20
-585.0000524520874
 30
0.0
 11
-724.4774023217495
 21
85.00002384185814
 31
0.0
  0
LINE
  5
135
330
459
100
AcDbEntity
  8
DATA
  6
Continuous
 62
     7
100
AcDbLine
 10
-884.9732795876816
 20
85.00002384185814
 30
0.0
 11
-884.9732795876816
 21
-585.0000524520874
 31
0.0
  0
LINE
  5
136
330
459
100
AcDbEntity
  8
DATA
  6
Continuous
 62
     7
100
AcDbLine
 10
-581.0005584878264
 20
85.00002384185814
 30
0.0
 11
-581.0005584878264
 21
-585.0000524520874
 31
0.0
  0
LINE
  5
137
330
459
100
AcDbEntity
  8
DATA
  6
Continuous
 62
     7
100
AcDbLine
 10
-724.4774023217495
 20
-585.0000524520874
 30
0.0
 11
-724.4774023217495
 21
85.00002384185814
 31
0.0
  0
LINE
  5
138
330
459
100
AcDbEntity
  8
DATA
  6
Continuous
 62
     7
100
AcDbLine
 10
-622.0005670708952
 20
-585.0000524520874
 30
0.0
 11
-622.0005670708952
 21
85.00002384185814
 31
0.0
  0
LINE
  5
139
330
459
100
AcDbEntity
  8
DATA
  6
Continuous
 62
     7
100
AcDbLine
 10
-884.9732200176314
 20
-573.0
 30
0.0
 11
-884.9732795876816
 21
72.99999952316305
 31
0.0
  0
LINE
  5
13A
330
459
100
AcDbEntity
  8
DATA
  6
Continuous
 62
     7
100
AcDbLine
 10
-580.9999624413784
 20
85.00002384185814
 30
0.0
 11
-581.0000000000017
 21
-352.0777844651839
 31
0.0
  0
CIRCLE
  5
13B
330
459
100
AcDbEntity
  8
DATA
  6
Continuous
 62
     7
100
AcDbCircle
 10
82.36083118206074
 20
49.85891039679589
 30
0.0
 40
3.25
  0
LINE
  5
13C
330
459
100
AcDbEntity
  8
DATA
  6
Continuous
 62
     7
100
AcDbLine
 10
219.999950999997
 20
85.00002384186085
 30
0.0
 11
219.9999999999963
 21
-584.999999999998
 31
0.0
  0
LINE
  5
13D
330
459
100
AcDbEntity
  8
DATA
  6
Continuous
 62
     7
100
AcDbLine
 10
215.999999999999
 20
-572.999999999998
 30
0.0
 11
216.0000024984101
 21
85.00002384186085
 31
0.0
  0
LINE
  5
13E
330
459
100
AcDbEntity
  8
DATA
  6
Continuous
 62
     7
100
AcDbLine
 10
205.0000845144049
 20
-214.0000009536707
 30
0.0
 11
205.0000845144022
 21
85.00002384186085
 31
0.0
  0
LINE
  5
13F
330
459
100
AcDbEntity
  8
DATA
  6
Continuous
 62
     7
100
AcDbLine
 10
155.0020395467545
 20
-204.999997615812
 30
0.0
 11
155.0019207852664
 21
85.00000000000204
 31
0.0
  0
ARC
  5
140
330
459
100
AcDbEntity
  8
DATA
  6
Continuous
 62
     7
100
AcDbCircle
 10
-160.998079214779
 20
-55.50000000000117
 30
0.0
 40
278.5000000000429
100
AcDbArc
 50
337.4064683256766
 51
22.59353167432335
  0
LINE
  5
141
330
459
100
AcDbEntity
  8
DATA
  6
Continuous
 62
     7
100
AcDbLine
 10
-884.9732200176314
 20
-600.0
 30
0.0
 11
-724.4774023217495
 21
-600.0000381469731
 31
0.0
  0
LINE
  5
142
330
459
100
AcDbEntity
  8
DATA
  6
Continuous
 62
     7
100
AcDbLine
 10
-724.4774023217495
 20
-585.0000524520874
 30
0.0
 11
-884.9732795876816
 21
-585.0000524520874
 31
0.0
  0
LINE
  5
143
330
459
100
AcDbEntity
  8
DATA
  6
Continuous
 62
     7
100
AcDbLine
 10
-884.9732795876816
 20
-585.0000524520874
 30
0.0
 11
-724.4774023217495
 21
-585.0000524520874
 31
0.0
  0
LINE
  5
144
330
459
100
AcDbEntity
  8
DATA
  6
Continuous
 62
     7
100
AcDbLine
 10
205.0019918630377
 20
-214.0000009536707
 30
0.0
 11
205.0019918630414
 21
-572.9999685287443
 31
0.0
  0
ARC
  5
145
330
459
100
AcDbEntity
  8
DATA
  6
Continuous
 62
     7
100
AcDbCircle
 10
10.0019207852692
 20
-388.9999999999996
 30
0.0
 40
194.5000000000008
100
AcDbArc
 50
288.9123664188376
 51
349.1697840200293
  0
CIRCLE
  5
146
330
459
100
AcDbEntity
  8
DATA
  6
Continuous
 62
     7
100
AcDbCircle
 10
141.8773354765616
 20
-520.8754146912891
 30
0.0
 40
4.0
  0
LINE
  5
147
330
459
100
AcDbEntity
  8
DATA
  6
Continuous
 62
     7
100
AcDbLine
 10
205.0019207852692
 20
-425.9222155348156
 30
0.0
 11
205.0019918630414
 21
-572.9999685287443
 31
0.0
  0
LINE
  5
148
330
459
100
AcDbEntity
  8
DATA
  6
Continuous
 62
     7
100
AcDbLine
 10
197.417165668663
 20
-572.999999999998
 30
0.0
 11
215.999999999999
 21
-572.999999999998
 31
0.0
  0
LINE
  5
149
330
459
100
AcDbEntity
  8
DATA
  6
Continuous
 62
     7
100
AcDbLine
 10
198.3832335329288
 20
-599.999999999998
 30
0.0
 11
219.9999999999963
 21
-599.999999999998
 31
0.0
  0
LINE
  5
14A
330
459
100
AcDbEntity
  8
DATA
  6
Continuous
 62
     7
100
AcDbLine
 10
219.9999999999963
 20
-584.999999999998
 30
0.0
 11
198.3832335329288
 21
-584.999999999998
 31
0.0
  0
LINE
  5
14B
330
459
100
AcDbEntity
  8
DATA
  6
Continuous
 62
     7
100
AcDbLine
 10
197.417165668663
 20
-572.999999999998
 30
0.0
 11
197.4171816060833
 21
-585.0000524520841
 31
0.0
  0
LINE
  5
14C
330
459
100
AcDbEntity
  8
DATA
  6
Continuous
 62
     7
100
AcDbLine
 10
198.3832335329288
 20
-584.999999999998
 30
0.0
 11
198.3832335329288
 21
-599.999999999998
 31
0.0
  0
LINE
  5
14D
330
459
100
AcDbEntity
  8
DATA
  6
Continuous
 62
     7
100
AcDbLine
 10
215.999999999999
 20
-572.999999999998
 30
0.0
 11
216.0000024984173
 21
-585.0000524520841
 31
0.0
  0
LINE
  5
14E
330
459
100
AcDbEntity
  8
DATA
  6
Continuous
 62
     7
100
AcDbLine
 10
219.9999999999963
 20
-584.999999999998
 30
0.0
 11
219.9999999999963
 21
-599.999999999998
 31
0.0
  0
ARC
  5
14F
330
459
100
AcDbEntity
  8
DATA
  6
Continuous
 62
     7
100
AcDbCircle
 10
203.001920785271
 20
-425.9222155348156
 30
0.0
 40
2.0
100
AcDbArc
 50
0.0
 51
169.1697840200116
  0
LINE
  5
150
330
459
100
AcDbEntity
  8
DATA
  6
Continuous
 62
     7
100
AcDbLine
 10
-900.0
 20
-600.0
 30
0.0
 11
-884.9732200176314
 21
-600.0
 31
0.0
  0
LINE
  5
151
330
459
100
AcDbEntity
  8
DATA
  6
Continuous
 62
     7
100
AcDbLine
 10
-884.9732200176314
 20
-573.0
 30
0.0
 11
-900.0
 21
-572.9999999999992
 31
0.0
  0
LINE
  5
152
330
459
100
AcDbEntity
  8
DATA
  6
Continuous
 62
     7
100
AcDbLine
 10
-900.0
 20
-572.9999999999992
 30
0.0
 11
-900.0
 21
-600.0
 31
0.0
  0
LINE
  5
153
330
459
100
AcDbEntity
  8
DATA
  6
Continuous
 62
     7
100
AcDbLine
 10
-884.9732795876816
 20
-585.0000524520874
 30
0.0
 11
-884.9732200176314
 21
-573.0
 31
0.0
  0
LINE
  5
154
330
459
100
AcDbEntity
  8
DATA
  6
Continuous
 62
     7
100
AcDbLine
 10
-884.9732795876816
 20
-585.0000524520874
 30
0.0
 11
-884.9732200176314
 21
-600.0
 31
0.0
  0
ARC
  5
155
330
459
100
AcDbEntity
  8
DATA
  6
Continuous
 62
     7
100
AcDbCircle
 10
75.35484128563253
 20
-153.852920500364
 30
0.0
 40
22.49999999999505
100
AcDbArc
 50
292.5935316743185
 51
337.4064683256763
  0
CIRCLE
  5
156
330
459
100
AcDbEntity
  8
DATA
  6
Continuous
 62
     7
100
AcDbCircle
 10
141.8773354765598
 20
-257.1245853087066
 30
0.0
 40
4.0
  0
LINE
  5
157
330
459
100
AcDbEntity
  8
DATA
  6
Continuous
 62
     7
100
AcDbLine
 10
205.0019918630377
 20
-214.0000009536707
 30
0.0
 11
205.0019207852683
 21
-352.0777844651807
 31
0.0
  0
ARC
  5
158
330
459
100
AcDbEntity
  8
DATA
  6
Continuous
 62
     7
100
AcDbCircle
 10
203.0019207852701
 20
-352.0777844651807
 30
0.0
 40
2.000000000000277
100
AcDbArc
 50
190.8302159799705
 51
0.0
  0
CIRCLE
  5
159
330
459
100
AcDbEntity
  8
DATA
  6
Continuous
 62
     7
100
AcDbCircle
 10
196.5019207852692
 20
-388.9999999999977
 30
0.0
 40
4.0
  0
ARC
  5
15A
330
459
100
AcDbEntity
  8
DATA
  6
Continuous
 62
     7
100
AcDbCircle
 10
10.0019207852692
 20
-389.9999999999996
 30
0.0
 40
195.0000000000006
100
AcDbArc
 50
359.7456919605671
 51
0.2543080394459025
  0
LINE
  5
15B
330
459
100
AcDbEntity
  8
DATA
  6
Continuous
 62
     7
100
AcDbLine
 10
204.9999999999954
 20
-390.8655071156658
 30
0.0
 11
204.9999999999954
 21
-389.1344928842777
 31
0.0
  0
LINE
  5
15C
330
459
100
AcDbEntity
  8
DATA
  6
Continuous
 62
     7
100
AcDbLine
 10
205.0000845144049
 20
-204.9999976158106
 30
0.0
 11
155.0020395467545
 21
-204.999997615812
 31
0.0
  0
LINE
  5
15D
330
459
100
AcDbEntity
  8
DATA
  6
Continuous
 62
     7
100
AcDbLine
 10
205.0000845144049
 20
-214.0000009536707
 30
0.0
 11
205.0019918630377
 21
-214.0000009536707
 31
0.0
  0
CIRCLE
  5
15E
330
459
100
AcDbEntity
  8
DATA
  6
Continuous
 62
     7
100
AcDbCircle
 10
82.36083118206348
 20
-160.8589103967949
 30
0.0
 40
3.25
  0
LINE
  5
15F
330
459
100
AcDbEntity
  8
DATA
  6
Continuous
 62
     7
100
AcDbLine
 10
-580.9999624413811
 20
-390.865459442136
 30
0.0
 11
-581.0000000000017
 21
-423.9222155348179
 31
0.0
  0
LINE
  5
160
330
459
100
AcDbEntity
  8
DATA
  6
Continuous
 62
     7
100
AcDbLine
 10
-724.4774023217495
 20
-600.0000381469731
 30
0.0
 11
-580.7469574969245
 21
-600.0
 31
0.0
  0
LINE
  5
161
330
459
100
AcDbEntity
  8
DATA
  6
Continuous
 62
     7
100
AcDbLine
 10
-580.7469574969245
 20
-585.0000000000013
 30
0.0
 11
-724.4774023217495
 21
-585.0000524520874
 31
0.0
  0
LINE
  5
162
330
459
100
AcDbEntity
  8
DATA
  6
Continuous
 62
     7
100
AcDbLine
 10
-724.4774023217495
 20
-585.0000524520874
 30
0.0
 11
-622.0005670708952
 21
-585.0000524520874
 31
0.0
  0
LINE
  5
163
330
459
100
AcDbEntity
  8
DATA
  6
Continuous
 62
     7
100
AcDbLine
 10
-724.4774023217495
 20
-585.0000524520874
 30
0.0
 11
-724.4774023217495
 21
-600.0000381469731
 31
0.0
  0
CIRCLE
  5
164
330
459
100
AcDbEntity
  8
DATA
  6
Continuous
 62
     7
100
AcDbCircle
 10
-609.0006055437288
 20
-564.0000000000013
 30
0.0
 40
4.25
  0
LINE
  5
165
330
459
100
AcDbEntity
  8
DATA
  6
Continuous
 62
     7
100
AcDbLine
 10
-580.9999624413784
 20
-572.9999685287471
 30
0.0
 11
-581.0000000000017
 21
-425.9222155348179
 31
0.0
  0
LINE
  5
166
330
459
100
AcDbEntity
  8
DATA
  6
Continuous
 62
     7
100
AcDbLine
 10
-556.9722408750676
 20
-573.0
 30
0.0
 11
-534.031555482248
 21
-572.9999999999992
 31
0.0
  0
LINE
  5
167
330
459
100
AcDbEntity
  8
DATA
  6
Continuous
 62
     7
100
AcDbLine
 10
-553.0906544878243
 20
-600.0
 30
0.0
 11
-530.0000000000054
 21
-599.9999999999992
 31
0.0
  0
LINE
  5
168
330
459
100
AcDbEntity
  8
DATA
  6
Continuous
 62
     7
100
AcDbLine
 10
-530.0000000000054
 20
-584.9999999999992
 30
0.0
 11
-553.0906544878243
 21
-585.0000000000013
 31
0.0
  0
LINE
  5
169
330
459
100
AcDbEntity
  8
DATA
  6
Continuous
 62
     7
100
AcDbLine
 10
-580.74695749692
 20
-573.0000000000013
 30
0.0
 11
-556.9722408750676
 21
-573.0
 31
0.0
  0
LINE
  5
16A
330
459
100
AcDbEntity
  8
DATA
  6
Continuous
 62
     7
100
AcDbLine
 10
-580.7469574969245
 20
-600.0
 30
0.0
 11
-553.0906544878243
 21
-600.0
 31
0.0
  0
LINE
  5
16B
330
459
100
AcDbEntity
  8
DATA
  6
Continuous
 62
     7
100
AcDbLine
 10
-553.0906544878243
 20
-585.0000000000013
 30
0.0
 11
-580.7469574969245
 21
-585.0000000000013
 31
0.0
  0
LINE
  5
16C
330
459
100
AcDbEntity
  8
DATA
  6
Continuous
 62
     7
100
AcDbLine
 10
-580.9999624413784
 20
-585.0000524520874
 30
0.0
 11
-580.9999624413784
 21
-572.999968528748
 31
0.0
  0
LINE
  5
16D
330
459
100
AcDbEntity
  8
DATA
  6
Continuous
 62
     7
100
AcDbLine
 10
-580.7469574969245
 20
-585.0000000000013
 30
0.0
 11
-580.74695749692
 21
-573.0000000000013
 31
0.0
  0
LINE
  5
16E
330
459
100
AcDbEntity
  8
DATA
  6
Continuous
 62
     7
100
AcDbLine
 10
-580.74695749692
 20
-573.0000000000013
 30
0.0
 11
-580.9999624413784
 21
-572.999968528748
 31
0.0
  0
LINE
  5
16F
330
459
100
AcDbEntity
  8
DATA
  6
Continuous
 62
     7
100
AcDbLine
 10
-580.7469574969245
 20
-600.0
 30
0.0
 11
-580.7469574969245
 21
-585.0000000000013
 31
0.0
  0
LINE
  5
170
330
459
100
AcDbEntity
  8
DATA
  6
Continuous
 62
     7
100
AcDbLine
 10
-556.9722408750676
 20
-573.0
 30
0.0
 11
-556.9722572488126
 21
-585.0000524520874
 31
0.0
  0
LINE
  5
171
330
459
100
AcDbEntity
  8
DATA
  6
Continuous
 62
     7
100
AcDbLine
 10
-553.0906544878243
 20
-585.0000000000013
 30
0.0
 11
-553.0906544878243
 21
-600.0
 31
0.0
  0
LINE
  5
172
330
459
100
AcDbEntity
  8
DATA
  6
Continuous
 62
     7
100
AcDbLine
 10
-534.031555482248
 20
-583.4999999999999
 30
0.0
 11
-534.0000000000036
 21
-583.4999999999999
 31
0.0
  0
LINE
  5
173
330
459
100
AcDbEntity
  8
DATA
  6
Continuous
 62
     7
100
AcDbLine
 10
-534.031555482248
 20
-572.9999999999992
 30
0.0
 11
-534.031555482248
 21
-583.4999999999999
 31
0.0
  0
LINE
  5
174
330
459
100
AcDbEntity
  8
DATA
  6
Continuous
 62
     7
100
AcDbLine
 10
-534.000031105932
 20
-585.0000524520861
 30
0.0
 11
-534.0000000000036
 21
-583.4999999999999
 31
0.0
  0
LINE
  5
175
330
459
100
AcDbEntity
  8
DATA
  6
Continuous
 62
     7
100
AcDbLine
 10
-530.0000000000054
 20
-599.9999999999992
 30
0.0
 11
-530.0000000000054
 21
-584.9999999999992
 31
0.0
  0
LINE
  5
176
330
459
100
AcDbEntity
  8
DATA
  6
Continuous
 62
     7
100
AcDbLine
 10
-581.0000000000017
 20
-423.9222155348179
 30
0.0
 11
-581.0000000000017
 21
-425.9222155348179
 31
0.0
  0
CIRCLE
  5
177
330
459
100
AcDbEntity
  8
DATA
  6
Continuous
 62
     7
100
AcDbCircle
 10
-711.0006055437306
 20
-250.0000000000009
 30
0.0
 40
4.0
  0
CIRCLE
  5
178
330
459
100
AcDbEntity
  8
DATA
  6
Continuous
 62
     7
100
AcDbCircle
 10
-711.000605543728
 20
-250.0000000000009
 30
0.0
 40
7.000000000046384
  0
ARC
  5
179
330
459
100
AcDbEntity
  8
DATA
  6
Continuous
 62
     7
100
AcDbCircle
 10
-711.0000000000036
 20
-249.9999999999977
 30
0.0
 40
4.0
100
AcDbArc
 50
180.0
 51
236.9576070628551
  0
ARC
  5
17A
330
459
100
AcDbEntity
  8
DATA
  6
Continuous
 62
     7
100
AcDbCircle
 10
-711.0000000000036
 20
-249.9999999999977
 30
0.0
 40
4.000000000000039
100
AcDbArc
 50
122.5384400835277
 51
180.0
  0
CIRCLE
  5
17B
330
459
100
AcDbEntity
  8
DATA
  6
Continuous
 62
     7
100
AcDbCircle
 10
-609.0006055437288
 20
-250.0000000000009
 30
0.0
 40
4.25
  0
LINE
  5
17C
330
459
100
AcDbEntity
  8
DATA
  6
Continuous
 62
     7
100
AcDbLine
 10
-580.9999624413811
 20
-389.1345405578577
 30
0.0
 11
-581.0005584878289
 21
-389.1345405578577
 31
0.0
  0
LINE
  5
17D
330
459
100
AcDbEntity
  8
DATA
  6
Continuous
 62
     7
100
AcDbLine
 10
-581.0005584878289
 20
-390.865459442136
 30
0.0
 11
-580.9999624413811
 21
-390.865459442136
 31
0.0
  0
LINE
  5
17E
330
459
100
AcDbEntity
  8
DATA
  6
Continuous
 62
     7
100
AcDbLine
 10
-580.9999624413811
 20
-390.865459442136
 30
0.0
 11
-580.9999624413811
 21
-389.1345405578577
 31
0.0
  0
LINE
  5
17F
330
459
100
AcDbEntity
  8
DATA
  6
Continuous
 62
     7
100
AcDbLine
 10
-581.0000000000017
 20
-354.0777844651838
 30
0.0
 11
-580.9999624413811
 21
-389.1345405578577
 31
0.0
  0
LINE
  5
180
330
459
100
AcDbEntity
  8
DATA
  6
Continuous
 62
     7
100
AcDbLine
 10
-581.0000000000017
 20
-352.0777844651839
 30
0.0
 11
-581.0000000000017
 21
-354.0777844651838
 31
0.0
  0
LINE
  5
181
330
459
100
AcDbEntity
  8
DATA
  6
Continuous
 62
     7
100
AcDbLine
 10
-539.2999569100703
 20
-195.4999709129316
 30
0.0
 11
-572.0000187081641
 21
-195.4999709129316
 31
0.0
  0
LINE
  5
182
330
459
100
AcDbEntity
  8
DATA
  6
Continuous
 62
     7
100
AcDbLine
 10
-572.0000187081641
 20
-209.5000290870649
 30
0.0
 11
-539.2999569100703
 21
-209.5000290870649
 31
0.0
  0
LINE
  5
183
330
459
100
AcDbEntity
  8
DATA
  6
Continuous
 62
     7
100
AcDbLine
 10
-572.0000187081641
 20
-202.4999999999987
 30
0.0
 11
-539.2999569100703
 21
-202.4999999999987
 31
0.0
  0
LINE
  5
184
330
459
100
AcDbEntity
  8
DATA
  6
Continuous
 62
     7
100
AcDbLine
 10
-572.0000187081641
 20
-197.5000047683699
 30
0.0
 11
-579.0000000000016
 21
-197.4999999999987
 31
0.0
  0
LINE
  5
185
330
459
100
AcDbEntity
  8
DATA
  6
Continuous
 62
     7
100
AcDbLine
 10
-579.0000000000016
 20
-207.4999999999986
 30
0.0
 11
-572.0000187081641
 21
-207.4999952316266
 31
0.0
  0
LINE
  5
186
330
459
100
AcDbEntity
  8
DATA
  6
Continuous
 62
     7
100
AcDbLine
 10
-579.0000000000016
 20
-197.4999999999987
 30
0.0
 11
-579.0000000000016
 21
-202.4999999999997
 31
0.0
  0
LINE
  5
187
330
459
100
AcDbEntity
  8
DATA
  6
Continuous
 62
     7
100
AcDbLine
 10
-579.0000000000016
 20
-202.4999999999997
 30
0.0
 11
-579.0000000000016
 21
-207.4999999999986
 31
0.0
  0
LINE
  5
188
330
459
100
AcDbEntity
  8
DATA
  6
Continuous
 62
     7
100
AcDbLine
 10
-578.999988190586
 20
-199.4999790191637
 30
0.0
 11
-580.9999624413794
 21
-199.4999790191637
 31
0.0
  0
LINE
  5
189
330
459
100
AcDbEntity
  8
DATA
  6
Continuous
 62
     7
100
AcDbLine
 10
-580.9999624413794
 20
-205.5000209808336
 30
0.0
 11
-578.999988190586
 21
-205.5000209808336
 31
0.0
  0
LINE
  5
18A
330
459
100
AcDbEntity
  8
DATA
  6
Continuous
 62
     7
100
AcDbLine
 10
-572.0000187081641
 20
-195.4999709129316
 30
0.0
 11
-572.0000187081641
 21
-202.4999999999987
 31
0.0
  0
LINE
  5
18B
330
459
100
AcDbEntity
  8
DATA
  6
Continuous
 62
     7
100
AcDbLine
 10
-572.0000187081641
 20
-202.4999999999987
 30
0.0
 11
-572.0000187081641
 21
-209.5000290870649
 31
0.0
  0
LINE
  5
18C
330
459
100
AcDbEntity
  8
DATA
  6
Continuous
 62
     7
100
AcDbLine
 10
-535.3000000000011
 20
-209.4999999999986
 30
0.0
 11
-535.3000000000011
 21
-202.4999999999997
 31
0.0
  0
LINE
  5
18D
330
459
100
AcDbEntity
  8
DATA
  6
Continuous
 62
     7
100
AcDbLine
 10
-535.3000000000011
 20
-202.4999999999997
 30
0.0
 11
-535.3000000000011
 21
-195.4999999999987
 31
0.0
  0
LINE
  5
18E
330
459
100
AcDbEntity
  8
DATA
  6
Continuous
 62
     7
100
AcDbLine
 10
-539.2999569100703
 20
-199.0000152587878
 30
0.0
 11
-539.2999569100703
 21
-202.4999999999987
 31
0.0
  0
LINE
  5
18F
330
459
100
AcDbEntity
  8
DATA
  6
Continuous
 62
     7
100
AcDbLine
 10
-539.2999569100703
 20
-195.4999709129316
 30
0.0
 11
-539.2999569100703
 21
-199.0000152587878
 31
0.0
  0
LINE
  5
190
330
459
100
AcDbEntity
  8
DATA
  6
Continuous
 62
     7
100
AcDbLine
 10
-539.2999569100703
 20
-205.9999847412086
 30
0.0
 11
-539.2999569100703
 21
-209.5000290870649
 31
0.0
  0
LINE
  5
191
330
459
100
AcDbEntity
  8
DATA
  6
Continuous
 62
     7
100
AcDbLine
 10
-539.2999569100703
 20
-202.4999999999987
 30
0.0
 11
-539.2999569100703
 21
-205.9999847412086
 31
0.0
  0
LINE
  5
192
330
459
100
AcDbEntity
  8
DATA
  6
Continuous
 62
     7
100
AcDbLine
 10
-535.3000000000011
 20
-195.4999999999987
 30
0.0
 11
-539.2999569100703
 21
-195.4999709129316
 31
0.0
  0
LINE
  5
193
330
459
100
AcDbEntity
  8
DATA
  6
Continuous
 62
     7
100
AcDbLine
 10
-539.2999569100703
 20
-209.5000290870649
 30
0.0
 11
-535.3000000000011
 21
-209.4999999999986
 31
0.0
  0
ARC
  5
194
330
459
100
AcDbEntity
  8
DATA
  6
Continuous
 62
     7
100
AcDbCircle
 10
-535.3000000000011
 20
-208.4999999999986
 30
0.0
 40
1.000000000000454
100
AcDbArc
 50
270.0
 51
0.0
  0
ARC
  5
195
330
459
100
AcDbEntity
  8
DATA
  6
Continuous
 62
     7
100
AcDbCircle
 10
-535.3000000000011
 20
-196.4999999999987
 30
0.0
 40
1.0
100
AcDbArc
 50
0.0
 51
90.0
  0
LINE
  5
196
330
459
100
AcDbEntity
  8
DATA
  6
Continuous
 62
     7
100
AcDbLine
 10
-721.6403404397304
 20
91.00000619888284
 30
0.0
 11
-872.4386612099953
 21
91.00000619888421
 31
0.0
  0
LINE
  5
197
330
459
100
AcDbEntity
  8
DATA
  6
Continuous
 62
     7
100
AcDbLine
 10
-724.4774023217495
 20
85.00002384185814
 30
0.0
 11
-884.9732795876816
 21
85.00002384185814
 31
0.0
  0
LINE
  5
198
330
459
100
AcDbEntity
  8
DATA
  6
Continuous
 62
     7
100
AcDbLine
 10
220.0001999999963
 20
-950.7469574969203
 30
0.0
 11
220.0001510000034
 21
-1106.393801323823
 31
0.0
  0
LINE
  5
199
330
459
100
AcDbEntity
  8
DATA
  6
Continuous
 62
     7
100
AcDbLine
 10
205.0000845144022
 20
91.000006198886
 30
0.0
 11
140.0019346425751
 21
91.00000619888509
 31
0.0
  0
LINE
  5
19A
330
459
100
AcDbEntity
  8
DATA
  6
Continuous
 62
     7
100
AcDbLine
 10
146.0019207852664
 20
85.00000000000115
 30
0.0
 11
155.0019207852664
 21
85.00000000000204
 31
0.0
  0
ARC
  5
19B
330
459
100
AcDbEntity
  8
DATA
  6
Continuous
 62
     7
100
AcDbCircle
 10
75.35484128562615
 20
42.85292050035993
 30
0.0
 40
22.50000000000184
100
AcDbArc
 50
22.59353167432385
 51
67.40646832568133
  0
LINE
  5
19C
330
459
100
AcDbEntity
  8
DATA
  6
Continuous
 62
     7
100
AcDbLine
 10
216.0000024984101
 20
85.00002384186085
 30
0.0
 11
219.999950999997
 21
85.00002384186085
 31
0.0
  0
LINE
  5
19D
330
459
100
AcDbEntity
  8
DATA
  6
Continuous
 62
     7
100
AcDbLine
 10
211.002033824704
 20
85.00002384186085
 30
0.0
 11
211.002033824704
 21
91.000006198886
 31
0.0
  0
LINE
  5
19E
330
459
100
AcDbEntity
  8
DATA
  6
Continuous
 62
     7
100
AcDbLine
 10
205.0000845144022
 20
91.000006198886
 30
0.0
 11
211.002033824704
 21
91.000006198886
 31
0.0
  0
LINE
  5
19F
330
459
100
AcDbEntity
  8
DATA
  6
Continuous
 62
     7
100
AcDbLine
 10
205.0000845144022
 20
85.00002384186085
 30
0.0
 11
216.0000024984101
 21
85.00002384186085
 31
0.0
  0
CIRCLE
  5
1A0
330
459
100
AcDbEntity
  8
DATA
  6
Continuous
 62
     7
100
AcDbCircle
 10
50.00019999999993
 20
-1080.999999999997
 30
0.0
 40
4.0
  0
LINE
  5
1A1
330
459
100
AcDbEntity
  8
DATA
  6
Continuous
 62
     7
100
AcDbLine
 10
-872.4386612099953
 20
91.00000619888421
 30
0.0
 11
-873.9862362069432
 21
91.00000619888421
 31
0.0
  0
LINE
  5
1A2
330
459
100
AcDbEntity
  8
DATA
  6
Continuous
 62
     7
100
AcDbLine
 10
-873.9862362069432
 20
91.00000619888421
 30
0.0
 11
-873.9862362069432
 21
85.00002384185904
 31
0.0
  0
LINE
  5
1A3
330
459
100
AcDbEntity
  8
DATA
  6
Continuous
 62
     7
100
AcDbLine
 10
-872.4386612099953
 20
85.00002384185814
 30
0.0
 11
-872.4386612099953
 21
91.00000619888421
 31
0.0
  0
ARC
  5
1A4
330
459
100
AcDbEntity
  8
DATA
  6
Continuous
 62
     7
100
AcDbCircle
 10
191.5001999999971
 20
-950.7469574969203
 30
0.0
 40
28.5
100
AcDbArc
 50
0.0
 51
76.02390976926334
  0
LINE
  5
1A5
330
459
100
AcDbEntity
  8
DATA
  6
Continuous
 62
     7
100
AcDbLine
 10
-599.0005651635465
 20
91.00000619888284
 30
0.0
 11
-721.6403404397304
 21
91.00000619888284
 31
0.0
  0
LINE
  5
1A6
330
459
100
AcDbEntity
  8
DATA
  6
Continuous
 62
     7
100
AcDbLine
 10
-622.0005670708952
 20
85.00002384185814
 30
0.0
 11
-581.0005584878264
 21
85.00002384185814
 31
0.0
  0
LINE
  5
1A7
330
459
100
AcDbEntity
  8
DATA
  6
Continuous
 62
     7
100
AcDbLine
 10
-622.0005670708952
 20
85.00002384185814
 30
0.0
 11
-724.4774023217495
 21
85.00002384185814
 31
0.0
  0
LINE
  5
1A8
330
459
100
AcDbEntity
  8
DATA
  6
Continuous
 62
     7
100
AcDbLine
 10
-721.6403404397304
 20
85.00002384185814
 30
0.0
 11
-721.6403404397304
 21
91.00000619888284
 31
0.0
  0
CIRCLE
  5
1A9
330
459
100
AcDbEntity
  8
DATA
  6
Continuous
 62
     7
100
AcDbCircle
 10
-609.0006055437288
 20
63.99999999999888
 30
0.0
 40
4.25
  0
LINE
  5
1AA
330
459
100
AcDbEntity
  8
DATA
  6
Continuous
 62
     7
100
AcDbLine
 10
-599.0005651635465
 20
91.00000619888284
 30
0.0
 11
-599.0005651635465
 21
85.00002384185814
 31
0.0
  0
LINE
  5
1AB
330
459
100
AcDbEntity
  8
DATA
  6
Continuous
 62
     7
100
AcDbLine
 10
-599.0005651635492
 20
86.99999809265387
 30
0.0
 11
-598.9999691171014
 21
86.99999809265387
 31
0.0
  0
LINE
  5
1AC
330
459
100
AcDbEntity
  8
DATA
  6
Continuous
 62
     7
100
AcDbLine
 10
-598.9999691171014
 20
91.000006198886
 30
0.0
 11
-599.0005651635492
 21
91.000006198886
 31
0.0
  0
LINE
  5
1AD
330
459
100
AcDbEntity
  8
DATA
  6
Continuous
 62
     7
100
AcDbLine
 10
-598.9999691170996
 20
91.00000619888421
 30
0.0
 11
-598.9999691170996
 21
85.00002384185814
 31
0.0
  0
LINE
  5
1AE
330
459
100
AcDbEntity
  8
DATA
  6
Continuous
 62
     7
100
AcDbLine
 10
-598.9999691170996
 20
91.00000619888421
 30
0.0
 11
-593.9999738854712
 21
91.00000619888421
 31
0.0
  0
LINE
  5
1AF
330
459
100
AcDbEntity
  8
DATA
  6
Continuous
 62
     7
100
AcDbLine
 10
-593.9999738854712
 20
91.00000619888421
 30
0.0
 11
-593.9999738854712
 21
85.00002384185814
 31
0.0
  0
LINE
  5
1B0
330
459
100
AcDbEntity
  8
DATA
  6
Continuous
 62
     7
100
AcDbLine
 10
-581.0005584878264
 20
85.00002384185814
 30
0.0
 11
-580.9999624413784
 21
85.00002384185814
 31
0.0
  0
LINE
  5
1B1
330
459
100
AcDbEntity
  8
DATA
  6
Continuous
 62
     7
100
AcDbLine
 10
1112.193550878251
 20
-585.0000000000529
 30
0.0
 11
1112.193550878256
 21
84.99999999994718
 31
0.0
  0
LINE
  5
1B2
330
459
100
AcDbEntity
  8
DATA
  6
Continuous
 62
     7
100
AcDbLine
 10
900.00019999999
 20
84.99999999994898
 30
0.0
 11
900.0001999999865
 21
-585.0000000000513
 31
0.0
  0
LINE
  5
1B3
330
459
100
AcDbEntity
  8
DATA
  6
Continuous
 62
     7
100
AcDbLine
 10
1320.000199999984
 20
-585.000000000054
 30
0.0
 11
1320.000199999988
 21
84.99999999994535
 31
0.0
  0
LINE
  5
1B4
330
459
100
AcDbEntity
  8
DATA
  6
Continuous
 62
     7
100
AcDbLine
 10
1207.617892101578
 20
84.99999999994626
 30
0.0
 11
1207.617892101573
 21
-585.000000000054
 31
0.0
  0
LINE
  5
1B5
330
459
100
AcDbEntity
  8
DATA
  6
Continuous
 62
     7
100
AcDbLine
 10
1320.000199999984
 20
-585.000000000054
 30
0.0
 11
1320.000199999988
 21
84.99999999994535
 31
0.0
  0
LINE
  5
1B6
330
459
100
AcDbEntity
  8
DATA
  6
Continuous
 62
     7
100
AcDbLine
 10
1207.617892101574
 20
-573.000000000054
 30
0.0
 11
1207.617892101574
 21
72.99999999994537
 31
0.0
  0
ARC
  5
1B7
330
459
100
AcDbEntity
  8
DATA
  6
Continuous
 62
     7
100
AcDbCircle
 10
1177.905980295843
 20
52.50280907737215
 30
0.0
 40
22.00000000000096
100
AcDbArc
 50
292.0243128370437
 51
0.0
  0
ARC
  5
1B8
330
459
100
AcDbEntity
  8
DATA
  6
Continuous
 62
     7
100
AcDbCircle
 10
1141.905980295844
 20
52.50280907737215
 30
0.0
 40
22.00000000000091
100
AcDbArc
 50
180.0
 51
247.9756871629563
  0
LINE
  5
1B9
330
459
100
AcDbEntity
  8
DATA
  6
Continuous
 62
     7
100
AcDbLine
 10
1112.193550878305
 20
72.99999999994627
 30
0.0
 11
1112.193550878302
 21
-573.0000000000529
 31
0.0
  0
LINE
  5
1BA
330
459
100
AcDbEntity
  8
DATA
  6
Continuous
 62
     7
100
AcDbLine
 10
900.00019999999
 20
84.99999999994898
 30
0.0
 11
900.0001999999865
 21
-585.0000000000513
 31
0.0
  0
LINE
  5
1BB
330
459
100
AcDbEntity
  8
DATA
  6
Continuous
 62
     7
100
AcDbLine
 10
1207.617892101573
 20
-600.000000000054
 30
0.0
 11
1320.000199999984
 21
-600.0000000000548
 31
0.0
  0
LINE
  5
1BC
330
459
100
AcDbEntity
  8
DATA
  6
Continuous
 62
     7
100
AcDbLine
 10
1320.000199999984
 20
-585.000000000054
 30
0.0
 11
1207.617892101573
 21
-585.000000000054
 31
0.0
  0
LINE
  5
1BD
330
459
100
AcDbEntity
  8
DATA
  6
Continuous
 62
     7
100
AcDbLine
 10
1207.617892101573
 20
-585.000000000054
 30
0.0
 11
1320.000199999984
 21
-585.000000000054
 31
0.0
  0
LINE
  5
1BE
330
459
100
AcDbEntity
  8
DATA
  6
Continuous
 62
     7
100
AcDbLine
 10
900.0001999999865
 20
-600.000000000052
 30
0.0
 11
1112.193550877924
 21
-600.000000000054
 31
0.0
  0
LINE
  5
1BF
330
459
100
AcDbEntity
  8
DATA
  6
Continuous
 62
     7
100
AcDbLine
 10
1112.193550878302
 20
-585.0000000000529
 30
0.0
 11
900.0001999999865
 21
-585.0000000000521
 31
0.0
  0
LINE
  5
1C0
330
459
100
AcDbEntity
  8
DATA
  6
Continuous
 62
     7
100
AcDbLine
 10
900.0001999999865
 20
-585.0000000000513
 30
0.0
 11
1112.193550878251
 21
-585.0000000000529
 31
0.0
  0
LINE
  5
1C1
330
459
100
AcDbEntity
  8
DATA
  6
Continuous
 62
     7
100
AcDbLine
 10
900.0001999999865
 20
-585.0000000000521
 30
0.0
 11
900.0001999999865
 21
-600.000000000052
 31
0.0
  0
LINE
  5
1C2
330
459
100
AcDbEntity
  8
DATA
  6
Continuous
 62
     7
100
AcDbLine
 10
1112.193550877924
 20
-600.000000000054
 30
0.0
 11
1207.617892101573
 21
-600.000000000054
 31
0.0
  0
LINE
  5
1C3
330
459
100
AcDbEntity
  8
DATA
  6
Continuous
 62
     7
100
AcDbLine
 10
1207.617892101574
 20
-573.000000000054
 30
0.0
 11
1112.193550878302
 21
-573.0000000000529
 31
0.0
  0
LINE
  5
1C4
330
459
100
AcDbEntity
  8
DATA
  6
Continuous
 62
     7
100
AcDbLine
 10
1199.902221140003
 20
-552.0000000000549
 30
0.0
 11
1119.902221140003
 21
-552.000000000054
 31
0.0
  0
ARC
  5
1C5
330
459
100
AcDbEntity
  8
DATA
  6
Continuous
 62
     7
100
AcDbCircle
 10
1177.067175807823
 20
-450.6791116234977
 30
0.0
 40
52.9999999999995
100
AcDbArc
 50
129.7662798310378
 51
160.0653891967408
  0
LINE
  5
1C6
330
459
100
AcDbEntity
  8
DATA
  6
Continuous
 62
     7
100
AcDbLine
 10
1118.902221140004
 20
-573.000000000054
 30
0.0
 11
1118.902221140005
 21
-471.9738498279268
 31
0.0
  0
LINE
  5
1C7
330
459
100
AcDbEntity
  8
DATA
  6
Continuous
 62
     7
100
AcDbLine
 10
1112.193550878302
 20
-573.0000000000529
 30
0.0
 11
1112.193550878302
 21
-585.0000000000529
 31
0.0
  0
LINE
  5
1C8
330
459
100
AcDbEntity
  8
DATA
  6
Continuous
 62
     7
100
AcDbLine
 10
1112.193550878302
 20
-585.0000000000529
 30
0.0
 11
1112.193550877924
 21
-600.000000000054
 31
0.0
  0
CIRCLE
  5
1C9
330
459
100
AcDbEntity
  8
DATA
  6
Continuous
 62
     7
100
AcDbCircle
 10
1125.902221140003
 20
-546.0000000000548
 30
0.0
 40
2.75
  0
ARC
  5
1CA
330
459
100
AcDbEntity
  8
DATA
  6
Continuous
 62
     7
100
AcDbCircle
 10
1247.726597206829
 20
-478.7029010979903
 30
0.0
 40
129.0000000000065
100
AcDbArc
 50
159.06443109664
 51
177.0099124229407
  0
CIRCLE
  5
1CB
330
459
100
AcDbEntity
  8
DATA
  6
Continuous
 62
     7
100
AcDbCircle
 10
1125.902221140003
 20
-472.0000000000548
 30
0.0
 40
2.75
  0
CIRCLE
  5
1CC
330
459
100
AcDbEntity
  8
DATA
  6
Continuous
 62
     7
100
AcDbCircle
 10
1179.652221140006
 20
-511.5000000000548
 30
0.0
 40
1.75
  0
CIRCLE
  5
1CD
330
459
100
AcDbEntity
  8
DATA
  6
Continuous
 62
     7
100
AcDbCircle
 10
1167.652221140005
 20
-521.0000000000539
 30
0.0
 40
12.09338662244681
  0
LINE
  5
1CE
330
459
100
AcDbEntity
  8
DATA
  6
Continuous
 62
     7
100
AcDbLine
 10
1200.902221140003
 20
-471.9738498279411
 30
0.0
 11
1200.902221140003
 21
-573.000000000054
 31
0.0
  0
CIRCLE
  5
1CF
330
459
100
AcDbEntity
  8
DATA
  6
Continuous
 62
     7
100
AcDbCircle
 10
1155.652221140007
 20
-530.5000000000539
 30
0.0
 40
1.75
  0
CIRCLE
  5
1D0
330
459
100
AcDbEntity
  8
DATA
  6
Continuous
 62
     7
100
AcDbCircle
 10
1167.635980295839
 20
-521.0000000000563
 30
0.0
 40
2.75
  0
CIRCLE
  5
1D1
330
459
100
AcDbEntity
  8
DATA
  6
Continuous
 62
     7
100
AcDbCircle
 10
1167.635980295839
 20
-521.0000000000563
 30
0.0
 40
6.0
  0
LINE
  5
1D2
330
459
100
AcDbEntity
  8
DATA
  6
Continuous
 62
     7
100
AcDbLine
 10
1177.63598029584
 20
-522.5000000000562
 30
0.0
 11
1176.510099970488
 21
-522.5000000000549
 31
0.0
  0
LINE
  5
1D3
330
459
100
AcDbEntity
  8
DATA
  6
Continuous
 62
     7
100
AcDbLine
 10
1177.635980295842
 20
-522.5000000000549
 30
0.0
 11
1177.635980295842
 21
-519.5000000000562
 31
0.0
  0
LINE
  5
1D4
330
459
100
AcDbEntity
  8
DATA
  6
Continuous
 62
     7
100
AcDbLine
 10
1157.63598029584
 20
-518.5000000000549
 30
0.0
 11
1157.63598029584
 21
-523.5000000000562
 31
0.0
  0
LINE
  5
1D5
330
459
100
AcDbEntity
  8
DATA
  6
Continuous
 62
     7
100
AcDbLine
 10
1157.635980295841
 20
-518.5000000000549
 30
0.0
 11
1158.990172062943
 21
-518.5000000000549
 31
0.0
  0
ARC
  5
1D6
330
459
100
AcDbEntity
  8
DATA
  6
Continuous
 62
     7
100
AcDbCircle
 10
1167.635980295839
 20
-521.0000000000563
 30
0.0
 40
9.000000000000241
100
AcDbArc
 50
9.594068226863141
 51
163.8723797868339
  0
LINE
  5
1D7
330
459
100
AcDbEntity
  8
DATA
  6
Continuous
 62
     7
100
AcDbLine
 10
1176.510099970488
 20
-519.5000000000562
 30
0.0
 11
1177.635980295842
 21
-519.5000000000562
 31
0.0
  0
ARC
  5
1D8
330
459
100
AcDbEntity
  8
DATA
  6
Continuous
 62
     7
100
AcDbCircle
 10
1167.635980295839
 20
-521.0000000000563
 30
0.0
 40
9.000000000000264
100
AcDbArc
 50
196.1276202131633
 51
350.4059317731369
  0
LINE
  5
1D9
330
459
100
AcDbEntity
  8
DATA
  6
Continuous
 62
     7
100
AcDbLine
 10
1158.990172062943
 20
-523.5000000000562
 30
0.0
 11
1157.63598029584
 21
-523.5000000000562
 31
0.0
  0
LINE
  5
1DA
330
459
100
AcDbEntity
  8
DATA
  6
Continuous
 62
     7
100
AcDbLine
 10
1207.617892101574
 20
-585.000000000054
 30
0.0
 11
1207.617892101574
 21
-573.000000000054
 31
0.0
  0
LINE
  5
1DB
330
459
100
AcDbEntity
  8
DATA
  6
Continuous
 62
     7
100
AcDbLine
 10
1207.617892101573
 20
-585.000000000054
 30
0.0
 11
1207.617892101573
 21
-600.000000000054
 31
0.0
  0
CIRCLE
  5
1DC
330
459
100
AcDbEntity
  8
DATA
  6
Continuous
 62
     7
100
AcDbCircle
 10
1193.902221140007
 20
-546.0000000000563
 30
0.0
 40
2.75
  0
ARC
  5
1DD
330
459
100
AcDbEntity
  8
DATA
  6
Continuous
 62
     7
100
AcDbCircle
 10
1142.737266472245
 20
-450.6791116235836
 30
0.0
 40
52.9999999999753
100
AcDbArc
 50
19.93461080382051
 51
50.23372016813201
  0
ARC
  5
1DE
330
459
100
AcDbEntity
  8
DATA
  6
Continuous
 62
     7
100
AcDbCircle
 10
1167.635980295841
 20
-462.0000000000561
 30
0.0
 40
9.000000000000241
100
AcDbArc
 50
9.594068226863141
 51
163.8723797868339
  0
CIRCLE
  5
1DF
330
459
100
AcDbEntity
  8
DATA
  6
Continuous
 62
     7
100
AcDbCircle
 10
1179.652221140006
 20
-452.5000000000537
 30
0.0
 40
1.75
  0
CIRCLE
  5
1E0
330
459
100
AcDbEntity
  8
DATA
  6
Continuous
 62
     7
100
AcDbCircle
 10
1167.652221140006
 20
-462.0000000000548
 30
0.0
 40
12.09338662244681
  0
CIRCLE
  5
1E1
330
459
100
AcDbEntity
  8
DATA
  6
Continuous
 62
     7
100
AcDbCircle
 10
1155.652221140007
 20
-471.5000000000539
 30
0.0
 40
1.75
  0
CIRCLE
  5
1E2
330
459
100
AcDbEntity
  8
DATA
  6
Continuous
 62
     7
100
AcDbCircle
 10
1167.635980295841
 20
-462.0000000000561
 30
0.0
 40
2.75
  0
CIRCLE
  5
1E3
330
459
100
AcDbEntity
  8
DATA
  6
Continuous
 62
     7
100
AcDbCircle
 10
1167.635980295841
 20
-462.0000000000561
 30
0.0
 40
6.0
  0
LINE
  5
1E4
330
459
100
AcDbEntity
  8
DATA
  6
Continuous
 62
     7
100
AcDbLine
 10
1177.63598029584
 20
-463.5000000000547
 30
0.0
 11
1176.510099970488
 21
-463.5000000000547
 31
0.0
  0
LINE
  5
1E5
330
459
100
AcDbEntity
  8
DATA
  6
Continuous
 62
     7
100
AcDbLine
 10
1177.635980295843
 20
-463.5000000000547
 30
0.0
 11
1177.635980295843
 21
-460.5000000000561
 31
0.0
  0
LINE
  5
1E6
330
459
100
AcDbEntity
  8
DATA
  6
Continuous
 62
     7
100
AcDbLine
 10
1157.63598029584
 20
-459.5000000000561
 30
0.0
 11
1157.63598029584
 21
-464.5000000000562
 31
0.0
  0
LINE
  5
1E7
330
459
100
AcDbEntity
  8
DATA
  6
Continuous
 62
     7
100
AcDbLine
 10
1157.635980295841
 20
-459.5000000000561
 30
0.0
 11
1158.990172062945
 21
-459.5000000000561
 31
0.0
  0
LINE
  5
1E8
330
459
100
AcDbEntity
  8
DATA
  6
Continuous
 62
     7
100
AcDbLine
 10
1176.510099970488
 20
-460.5000000000561
 30
0.0
 11
1177.635980295843
 21
-460.5000000000561
 31
0.0
  0
ARC
  5
1E9
330
459
100
AcDbEntity
  8
DATA
  6
Continuous
 62
     7
100
AcDbCircle
 10
1167.635980295841
 20
-462.0000000000561
 30
0.0
 40
9.000000000000296
100
AcDbArc
 50
196.127620213164
 51
350.4059317731511
  0
LINE
  5
1EA
330
459
100
AcDbEntity
  8
DATA
  6
Continuous
 62
     7
100
AcDbLine
 10
1158.990172062945
 20
-464.5000000000562
 30
0.0
 11
1157.63598029584
 21
-464.5000000000562
 31
0.0
  0
ARC
  5
1EB
330
459
100
AcDbEntity
  8
DATA
  6
Continuous
 62
     7
100
AcDbCircle
 10
1156.191517504737
 20
-426.4118738265596
 30
0.0
 40
21.0000000000357
100
AcDbArc
 50
90.8739369707402
 51
128.3376474729888
  0
CIRCLE
  5
1EC
330
459
100
AcDbEntity
  8
DATA
  6
Continuous
 62
     7
100
AcDbCircle
 10
1159.902221140004
 20
-412.4143166711094
 30
0.0
 40
2.75
  0
LINE
  5
1ED
330
459
100
AcDbEntity
  8
DATA
  6
Continuous
 62
     7
100
AcDbLine
 10
1155.871215295652
 20
-405.4143166711104
 30
0.0
 11
1163.933226984359
 21
-405.4143166711104
 31
0.0
  0
ARC
  5
1EE
330
459
100
AcDbEntity
  8
DATA
  6
Continuous
 62
     7
100
AcDbCircle
 10
1163.612924775163
 20
-426.4118738265204
 30
0.0
 40
20.99999999999857
100
AcDbArc
 50
51.66235252430162
 51
89.12606302894802
  0
ARC
  5
1EF
330
459
100
AcDbEntity
  8
DATA
  6
Continuous
 62
     7
100
AcDbCircle
 10
1072.07784507317
 20
-478.7029010979572
 30
0.0
 40
129.0000000000133
100
AcDbArc
 50
2.990087577046396
 51
20.93556890352456
  0
CIRCLE
  5
1F0
330
459
100
AcDbEntity
  8
DATA
  6
Continuous
 62
     7
100
AcDbCircle
 10
1193.902221140007
 20
-472.0000000000548
 30
0.0
 40
2.75
  0
CIRCLE
  5
1F1
330
459
100
AcDbEntity
  8
DATA
  6
Continuous
 62
     7
100
AcDbCircle
 10
1127.193550878304
 20
-379.0000000000536
 30
0.0
 40
3.50000000005275
  0
CIRCLE
  5
1F2
330
459
100
AcDbEntity
  8
DATA
  6
Continuous
 62
     7
100
AcDbCircle
 10
1127.193550878304
 20
-303.0000000000535
 30
0.0
 40
3.499999999996361
  0
CIRCLE
  5
1F3
330
459
100
AcDbEntity
  8
DATA
  6
Continuous
 62
     7
100
AcDbCircle
 10
1127.193550878304
 20
-379.0000000000536
 30
0.0
 40
6.499999999981809
  0
CIRCLE
  5
1F4
330
459
100
AcDbEntity
  8
DATA
  6
Continuous
 62
     7
100
AcDbCircle
 10
1127.193550878304
 20
-303.0000000000535
 30
0.0
 40
6.500000000039108
  0
LINE
  5
1F5
330
459
100
AcDbEntity
  8
DATA
  6
Continuous
 62
     7
100
AcDbLine
 10
1193.193550878303
 20
-381.5000000000537
 30
0.0
 11
1145.193550878303
 21
-381.5000000000537
 31
0.0
  0
LINE
  5
1F6
330
459
100
AcDbEntity
  8
DATA
  6
Continuous
 62
     7
100
AcDbLine
 10
1145.193550878304
 20
-300.5000000000535
 30
0.0
 11
1193.193550878305
 21
-300.5000000000545
 31
0.0
  0
LINE
  5
1F7
330
459
100
AcDbEntity
  8
DATA
  6
Continuous
 62
     7
100
AcDbLine
 10
1138.693550878303
 20
-375.0000000000536
 30
0.0
 11
1138.693550878304
 21
-307.0000000000535
 31
0.0
  0
ARC
  5
1F8
330
459
100
AcDbEntity
  8
DATA
  6
Continuous
 62
     7
100
AcDbCircle
 10
1145.193550878304
 20
-375.0000000000536
 30
0.0
 40
6.5
100
AcDbArc
 50
180.0
 51
270.0
  0
ARC
  5
1F9
330
459
100
AcDbEntity
  8
DATA
  6
Continuous
 62
     7
100
AcDbCircle
 10
1145.193550878304
 20
-307.0000000000535
 30
0.0
 40
6.500000000000455
100
AcDbArc
 50
90.0
 51
180.0
  0
LINE
  5
1FA
330
459
100
AcDbEntity
  8
DATA
  6
Continuous
 62
     7
100
AcDbLine
 10
1199.693550878303
 20
-307.0000000000535
 30
0.0
 11
1199.693550878303
 21
-375.0000000000544
 31
0.0
  0
ARC
  5
1FB
330
459
100
AcDbEntity
  8
DATA
  6
Continuous
 62
     7
100
AcDbCircle
 10
1193.193550878303
 20
-375.0000000000544
 30
0.0
 40
6.500000000000455
100
AcDbArc
 50
270.0
 51
0.0
  0
ARC
  5
1FC
330
459
100
AcDbEntity
  8
DATA
  6
Continuous
 62
     7
100
AcDbCircle
 10
1193.193550878303
 20
-307.0000000000535
 30
0.0
 40
6.5
100
AcDbArc
 50
0.0
 51
90.0
  0
ARC
  5
1FD
330
459
100
AcDbEntity
  8
DATA
  6
Continuous
 62
     7
100
AcDbCircle
 10
1159.905980295844
 20
96.99999999994624
 30
0.0
 40
70.0000000000006
100
AcDbArc
 50
247.9756871629565
 51
292.0243128370436
  0
LINE
  5
1FE
330
459
100
AcDbEntity
  8
DATA
  6
Continuous
 62
     7
100
AcDbLine
 10
1320.000199999984
 20
-585.000000000054
 30
0.0
 11
1320.000199999984
 21
-600.0000000000548
 31
0.0
  0
LINE
  5
1FF
330
459
100
AcDbEntity
  8
DATA
  6
Continuous
 62
     7
100
AcDbLine
 10
1310.998279214718
 20
90.99999999994627
 30
0.0
 11
1207.617892101573
 21
90.99999999994627
 31
0.0
  0
LINE
  5
200
330
459
100
AcDbEntity
  8
DATA
  6
Continuous
 62
     7
100
AcDbLine
 10
1320.000199999988
 20
84.99999999994535
 30
0.0
 11
1207.617892101578
 21
84.99999999994626
 31
0.0
  0
LINE
  5
201
330
459
100
AcDbEntity
  8
DATA
  6
Continuous
 62
     7
100
AcDbLine
 10
1112.193550878299
 20
90.99999999994714
 30
0.0
 11
909.00019999999
 21
90.99999999994899
 31
0.0
  0
LINE
  5
202
330
459
100
AcDbEntity
  8
DATA
  6
Continuous
 62
     7
100
AcDbLine
 10
1112.193550878256
 20
84.99999999994718
 30
0.0
 11
900.00019999999
 21
84.99999999994898
 31
0.0
  0
LINE
  5
203
330
459
100
AcDbEntity
  8
DATA
  6
Continuous
 62
     7
100
AcDbLine
 10
909.00019999999
 20
84.99999999994898
 30
0.0
 11
909.00019999999
 21
90.99999999994899
 31
0.0
  0
LINE
  5
204
330
459
100
AcDbEntity
  8
DATA
  6
Continuous
 62
     7
100
AcDbLine
 10
908.9982792147164
 20
90.99999999994899
 30
0.0
 11
909.00019999999
 21
90.99999999994899
 31
0.0
  0
LINE
  5
205
330
459
100
AcDbEntity
  8
DATA
  6
Continuous
 62
     7
100
AcDbLine
 10
908.9982792147164
 20
84.99999999994809
 30
0.0
 11
908.9982792147164
 21
90.99999999994899
 31
0.0
  0
LINE
  5
206
330
459
100
AcDbEntity
  8
DATA
  6
Continuous
 62
     7
100
AcDbLine
 10
909.00019999999
 20
90.99999999994899
 30
0.0
 11
909.00019999999
 21
84.99999999994898
 31
0.0
  0
LINE
  5
207
330
459
100
AcDbEntity
  8
DATA
  6
Continuous
 62
     7
100
AcDbLine
 10
1199.905980295845
 20
72.99999999994627
 30
0.0
 11
1119.905980295843
 21
72.99999999994627
 31
0.0
  0
LINE
  5
208
330
459
100
AcDbEntity
  8
DATA
  6
Continuous
 62
     7
100
AcDbLine
 10
1112.193550878299
 20
90.99999999994714
 30
0.0
 11
1112.193550878289
 21
84.99999999994718
 31
0.0
  0
LINE
  5
209
330
459
100
AcDbEntity
  8
DATA
  6
Continuous
 62
     7
100
AcDbLine
 10
1119.905980295842
 20
52.50280907737306
 30
0.0
 11
1119.905980295843
 21
72.99999999994627
 31
0.0
  0
LINE
  5
20A
330
459
100
AcDbEntity
  8
DATA
  6
Continuous
 62
     7
100
AcDbLine
 10
1119.905980295843
 20
72.99999999994627
 30
0.0
 11
1112.193550878305
 21
72.99999999994627
 31
0.0
  0
LINE
  5
20B
330
459
100
AcDbEntity
  8
DATA
  6
Continuous
 62
     7
100
AcDbLine
 10
1207.617892101574
 20
72.99999999994537
 30
0.0
 11
1199.905980295845
 21
72.99999999994537
 31
0.0
  0
LINE
  5
20C
330
459
100
AcDbEntity
  8
DATA
  6
Continuous
 62
     7
100
AcDbLine
 10
1199.905980295845
 20
72.99999999994537
 30
0.0
 11
1199.905980295845
 21
52.50280907737215
 31
0.0
  0
LINE
  5
20D
330
459
100
AcDbEntity
  8
DATA
  6
Continuous
 62
     7
100
AcDbLine
 10
1310.998279214718
 20
84.99999999994535
 30
0.0
 11
1310.998279214718
 21
90.99999999994627
 31
0.0
  0
LINE
  5
20E
330
459
100
AcDbEntity
  8
DATA
  6
Continuous
 62
     7
100
AcDbLine
 10
1311.000199999989
 20
84.99999999994535
 30
0.0
 11
1311.000199999989
 21
90.99999999994627
 31
0.0
  0
LINE
  5
20F
330
459
100
AcDbEntity
  8
DATA
  6
Continuous
 62
     7
100
AcDbLine
 10
1311.000199999989
 20
90.99999999994627
 30
0.0
 11
1310.998279214718
 21
90.99999999994627
 31
0.0
  0
LINE
  5
210
330
459
100
AcDbEntity
  8
DATA
  6
Continuous
 62
     7
100
AcDbLine
 10
198.3832335329288
 20
84.99997138976709
 30
0.0
 11
-178.3832335329352
 21
84.99997138976981
 31
0.0
  0
LINE
  5
211
330
459
100
AcDbEntity
  8
DATA
  6
Continuous
 62
     7
100
AcDbLine
 10
-178.3832335329352
 20
99.99997138976983
 30
0.0
 11
198.3832335329288
 21
99.99997138976707
 31
0.0
  0
LINE
  5
212
330
459
100
AcDbEntity
  8
DATA
  6
Continuous
 62
     7
100
AcDbLine
 10
-178.3832335329352
 20
84.99997138976981
 30
0.0
 11
-178.3832335329352
 21
99.99997138976983
 31
0.0
  0
LINE
  5
213
330
459
100
AcDbEntity
  8
DATA
  6
Continuous
 62
     7
100
AcDbLine
 10
-200.0
 20
99.99997138976983
 30
0.0
 11
-200.0
 21
84.99997138976981
 31
0.0
  0
LINE
  5
214
330
459
100
AcDbEntity
  8
DATA
  6
Continuous
 62
     7
100
AcDbLine
 10
-200.0
 20
99.99997138976983
 30
0.0
 11
-178.3832335329352
 21
99.99997138976983
 31
0.0
  0
LINE
  5
215
330
459
100
AcDbEntity
  8
DATA
  6
Continuous
 62
     7
100
AcDbLine
 10
-178.3832335329352
 20
84.99997138976981
 30
0.0
 11
-200.0
 21
84.99997138976981
 31
0.0
  0
LINE
  5
216
330
459
100
AcDbEntity
  8
DATA
  6
Continuous
 62
     7
100
AcDbLine
 10
219.9999999999963
 20
84.99997138976709
 30
0.0
 11
198.3832335329288
 21
84.99997138976709
 31
0.0
  0
LINE
  5
217
330
459
100
AcDbEntity
  8
DATA
  6
Continuous
 62
     7
100
AcDbLine
 10
198.3832335329288
 20
99.99997138976707
 30
0.0
 11
219.9999999999963
 21
99.99997138976707
 31
0.0
  0
LINE
  5
218
330
459
100
AcDbEntity
  8
DATA
  6
Continuous
 62
     7
100
AcDbLine
 10
198.3832335329288
 20
84.99997138976709
 30
0.0
 11
198.3832335329288
 21
99.99997138976707
 31
0.0
  0
LINE
  5
219
330
459
100
AcDbEntity
  8
DATA
  6
Continuous
 62
     7
100
AcDbLine
 10
219.9999999999963
 20
84.99997138976709
 30
0.0
 11
219.9999999999963
 21
99.99997138976707
 31
0.0
  0
LINE
  5
21A
330
459
100
AcDbEntity
  8
DATA
  6
Continuous
 62
     7
100
AcDbLine
 10
-884.9732795876816
 20
85.00002384185814
 30
0.0
 11
-724.4774023217495
 21
85.00002384185814
 31
0.0
  0
LINE
  5
21B
330
459
100
AcDbEntity
  8
DATA
  6
Continuous
 62
     7
100
AcDbLine
 10
-724.4774023217495
 20
85.00002384185814
 30
0.0
 11
-884.9732795876816
 21
85.00002384185814
 31
0.0
  0
LINE
  5
21C
330
459
100
AcDbEntity
  8
DATA
  6
Continuous
 62
     7
100
AcDbLine
 10
-884.9732200176314
 20
99.9999713897712
 30
0.0
 11
-724.4774023217495
 21
100.0000095367438
 31
0.0
  0
LINE
  5
21D
330
459
100
AcDbEntity
  8
DATA
  6
Continuous
 62
     7
100
AcDbLine
 10
-884.9732795876816
 20
85.00002384185814
 30
0.0
 11
-884.9732200176314
 21
99.9999713897712
 31
0.0
  0
LINE
  5
21E
330
459
100
AcDbEntity
  8
DATA
  6
Continuous
 62
     7
100
AcDbLine
 10
-900.0
 20
72.9999713897712
 30
0.0
 11
-900.0
 21
99.9999713897712
 31
0.0
  0
LINE
  5
21F
330
459
100
AcDbEntity
  8
DATA
  6
Continuous
 62
     7
100
AcDbLine
 10
-900.0
 20
99.9999713897712
 30
0.0
 11
-884.9732200176314
 21
99.9999713897712
 31
0.0
  0
LINE
  5
220
330
459
100
AcDbEntity
  8
DATA
  6
Continuous
 62
     7
100
AcDbLine
 10
-884.9732200176314
 20
72.9999713897712
 30
0.0
 11
-900.0
 21
72.9999713897712
 31
0.0
  0
LINE
  5
221
330
459
100
AcDbEntity
  8
DATA
  6
Continuous
 62
     7
100
AcDbLine
 10
-884.9732795876816
 20
85.00002384185814
 30
0.0
 11
-884.9732200176314
 21
72.9999713897712
 31
0.0
  0
LINE
  5
222
330
459
100
AcDbEntity
  8
DATA
  6
Continuous
 62
     7
100
AcDbLine
 10
-724.4774023217495
 20
85.00002384185814
 30
0.0
 11
-622.0005670708952
 21
85.00002384185814
 31
0.0
  0
LINE
  5
223
330
459
100
AcDbEntity
  8
DATA
  6
Continuous
 62
     7
100
AcDbLine
 10
-580.7469574969245
 20
84.99997138977212
 30
0.0
 11
-724.4774023217495
 21
85.00002384185814
 31
0.0
  0
LINE
  5
224
330
459
100
AcDbEntity
  8
DATA
  6
Continuous
 62
     7
100
AcDbLine
 10
-724.4774023217495
 20
100.0000095367438
 30
0.0
 11
-580.7469574969245
 21
99.99997138977208
 31
0.0
  0
LINE
  5
225
330
459
100
AcDbEntity
  8
DATA
  6
Continuous
 62
     7
100
AcDbLine
 10
-724.4774023217495
 20
85.00002384185814
 30
0.0
 11
-724.4774023217495
 21
100.0000095367438
 31
0.0
  0
LINE
  5
226
330
459
100
AcDbEntity
  8
DATA
  6
Continuous
 62
     7
100
AcDbLine
 10
-530.0000000000054
 20
99.9999713897712
 30
0.0
 11
-530.0000000000054
 21
84.99997138976981
 31
0.0
  0
LINE
  5
227
330
459
100
AcDbEntity
  8
DATA
  6
Continuous
 62
     7
100
AcDbLine
 10
-553.0906544878243
 20
84.99997138977212
 30
0.0
 11
-553.0906544878243
 21
99.99997138977208
 31
0.0
  0
LINE
  5
228
330
459
100
AcDbEntity
  8
DATA
  6
Continuous
 62
     7
100
AcDbLine
 10
-580.7469574969245
 20
99.99997138977208
 30
0.0
 11
-580.7469574969245
 21
84.99997138977212
 31
0.0
  0
LINE
  5
229
330
459
100
AcDbEntity
  8
DATA
  6
Continuous
 62
     7
100
AcDbLine
 10
-580.7469574969245
 20
99.99997138977208
 30
0.0
 11
-553.0906544878243
 21
99.99997138977208
 31
0.0
  0
LINE
  5
22A
330
459
100
AcDbEntity
  8
DATA
  6
Continuous
 62
     7
100
AcDbLine
 10
-553.0906544878243
 20
99.99997138977208
 30
0.0
 11
-530.0000000000054
 21
99.9999713897712
 31
0.0
  0
LINE
  5
22B
330
459
100
AcDbEntity
  8
DATA
  6
Continuous
 62
     7
100
AcDbLine
 10
-553.0906544878243
 20
84.99997138977212
 30
0.0
 11
-580.7469574969245
 21
84.99997138977212
 31
0.0
  0
LINE
  5
22C
330
459
100
AcDbEntity
  8
DATA
  6
Continuous
 62
     7
100
AcDbLine
 10
-580.74695749692
 20
72.99997138977211
 30
0.0
 11
-556.9722408750676
 21
72.9999713897712
 31
0.0
  0
LINE
  5
22D
330
459
100
AcDbEntity
  8
DATA
  6
Continuous
 62
     7
100
AcDbLine
 10
-580.74695749692
 20
72.99997138977211
 30
0.0
 11
-580.9999624413784
 21
72.99993991851922
 31
0.0
  0
LINE
  5
22E
330
459
100
AcDbEntity
  8
DATA
  6
Continuous
 62
     7
100
AcDbLine
 10
-580.7469574969245
 20
84.99997138977212
 30
0.0
 11
-580.74695749692
 21
72.99997138977211
 31
0.0
  0
LINE
  5
22F
330
459
100
AcDbEntity
  8
DATA
  6
Continuous
 62
     7
100
AcDbLine
 10
-580.9999624413784
 20
85.00002384185814
 30
0.0
 11
-580.9999624413784
 21
72.99993991851922
 31
0.0
  0
LINE
  5
230
330
459
100
AcDbEntity
  8
DATA
  6
Continuous
 62
     7
100
AcDbLine
 10
-530.0000000000054
 20
84.99997138976981
 30
0.0
 11
-553.0906544878243
 21
84.99997138977212
 31
0.0
  0
LINE
  5
231
330
459
100
AcDbEntity
  8
DATA
  6
Continuous
 62
     7
100
AcDbLine
 10
-534.000031105932
 20
85.00002384185723
 30
0.0
 11
-534.0000000000036
 21
83.49997138977121
 31
0.0
  0
LINE
  5
232
330
459
100
AcDbEntity
  8
DATA
  6
Continuous
 62
     7
100
AcDbLine
 10
-534.031555482248
 20
72.99997138976983
 30
0.0
 11
-534.031555482248
 21
83.49997138977121
 31
0.0
  0
LINE
  5
233
330
459
100
AcDbEntity
  8
DATA
  6
Continuous
 62
     7
100
AcDbLine
 10
-534.031555482248
 20
83.49997138977121
 30
0.0
 11
-534.0000000000036
 21
83.49997138977121
 31
0.0
  0
LINE
  5
234
330
459
100
AcDbEntity
  8
DATA
  6
Continuous
 62
     7
100
AcDbLine
 10
-556.9722408750676
 20
72.9999713897712
 30
0.0
 11
-556.9722572488126
 21
85.00002384185814
 31
0.0
  0
LINE
  5
235
330
459
100
AcDbEntity
  8
DATA
  6
Continuous
 62
     7
100
AcDbLine
 10
-556.9722408750676
 20
72.9999713897712
 30
0.0
 11
-534.031555482248
 21
72.99997138976983
 31
0.0
  0
LINE
  5
236
330
459
100
AcDbEntity
  8
DATA
  6
Continuous
 62
     7
100
AcDbLine
 10
1207.617892101574
 20
72.99999999995218
 30
0.0
 11
1112.193550878302
 21
72.99999999995127
 31
0.0
  0
LINE
  5
237
330
459
100
AcDbEntity
  8
DATA
  6
Continuous
 62
     7
100
AcDbLine
 10
1112.193550877924
 20
99.99999999995218
 30
0.0
 11
1207.617892101573
 21
99.99999999995218
 31
0.0
  0
LINE
  5
238
330
459
100
AcDbEntity
  8
DATA
  6
Continuous
 62
     7
100
AcDbLine
 10
900.0001999999865
 20
84.99999999994898
 30
0.0
 11
1112.193550878251
 21
84.99999999995127
 31
0.0
  0
LINE
  5
239
330
459
100
AcDbEntity
  8
DATA
  6
Continuous
 62
     7
100
AcDbLine
 10
1112.193550878302
 20
84.99999999995127
 30
0.0
 11
900.0001999999865
 21
84.99999999995038
 31
0.0
  0
LINE
  5
23A
330
459
100
AcDbEntity
  8
DATA
  6
Continuous
 62
     7
100
AcDbLine
 10
900.0001999999865
 20
99.99999999995035
 30
0.0
 11
1112.193550877924
 21
99.99999999995218
 31
0.0
  0
LINE
  5
23B
330
459
100
AcDbEntity
  8
DATA
  6
Continuous
 62
     7
100
AcDbLine
 10
900.0001999999865
 20
84.99999999995038
 30
0.0
 11
900.0001999999865
 21
99.99999999995035
 31
0.0
  0
LINE
  5
23C
330
459
100
AcDbEntity
  8
DATA
  6
Continuous
 62
     7
100
AcDbLine
 10
1112.193550878302
 20
84.99999999995127
 30
0.0
 11
1112.193550877924
 21
99.99999999995218
 31
0.0
  0
LINE
  5
23D
330
459
100
AcDbEntity
  8
DATA
  6
Continuous
 62
     7
100
AcDbLine
 10
1112.193550878302
 20
72.99999999995127
 30
0.0
 11
1112.193550878302
 21
84.99999999995127
 31
0.0
  0
LINE
  5
23E
330
459
100
AcDbEntity
  8
DATA
  6
Continuous
 62
     7
100
AcDbLine
 10
1320.000199999984
 20
84.9999999999531
 30
0.0
 11
1320.000199999984
 21
99.99999999995308
 31
0.0
  0
LINE
  5
23F
330
459
100
AcDbEntity
  8
DATA
  6
Continuous
 62
     7
100
AcDbLine
 10
1207.617892101573
 20
84.9999999999531
 30
0.0
 11
1207.617892101573
 21
99.99999999995218
 31
0.0
  0
LINE
  5
240
330
459
100
AcDbEntity
  8
DATA
  6
Continuous
 62
     7
100
AcDbLine
 10
1207.617892101573
 20
99.99999999995218
 30
0.0
 11
1320.000199999984
 21
99.99999999995308
 31
0.0
  0
LINE
  5
241
330
459
100
AcDbEntity
  8
DATA
  6
Continuous
 62
     7
100
AcDbLine
 10
1207.617892101573
 20
84.9999999999531
 30
0.0
 11
1320.000199999984
 21
84.9999999999531
 31
0.0
  0
LINE
  5
242
330
459
100
AcDbEntity
  8
DATA
  6
Continuous
 62
     7
100
AcDbLine
 10
1320.000199999984
 20
84.9999999999531
 30
0.0
 11
1207.617892101573
 21
84.9999999999531
 31
0.0
  0
LINE
  5
243
330
459
100
AcDbEntity
  8
DATA
  6
Continuous
 62
     7
100
AcDbLine
 10
1207.617892101574
 20
84.9999999999531
 30
0.0
 11
1207.617892101574
 21
72.99999999995218
 31
0.0
  0
CIRCLE
  5
244
330
459
100
AcDbEntity
  8
DATA
  6
Continuous
 62
     7
100
AcDbCircle
 10
-22.89445857746709
 20
-55.76491245239985
 30
0.0
 40
12.69999999999982
  0
LINE
  5
245
330
459
100
AcDbEntity
  8
DATA
  6
Continuous
 62
     7
100
AcDbLine
 10
-534.300000000001
 20
-208.4999999999986
 30
0.0
 11
-534.300000000001
 21
-196.5000000003347
 31
0.0
  0
LINE
  5
246
330
459
100
AcDbEntity
  8
DATA
  6
Continuous
 62
     7
100
AcDbLine
 10
426.972440875043
 20
-572.999999999998
 30
0.0
 11
450.747157496898
 21
-572.999999999998
 31
0.0
  0
LINE
  5
247
330
459
100
AcDbEntity
  8
DATA
  6
Continuous
 62
     7
100
AcDbLine
 10
423.0908544878033
 20
-599.999999999998
 30
0.0
 11
450.7471574969009
 21
-599.999999999998
 31
0.0
  0
LINE
  5
248
330
459
100
AcDbEntity
  8
DATA
  6
Continuous
 62
     7
100
AcDbLine
 10
450.7471574969009
 20
-584.999999999998
 30
0.0
 11
423.0908544878033
 21
-584.999999999998
 31
0.0
  0
LINE
  5
249
330
459
100
AcDbEntity
  8
DATA
  6
Continuous
 62
     7
100
AcDbLine
 10
442.0001999999808
 20
-207.4999999999986
 30
0.0
 11
449.0001999999808
 21
-207.4999999999986
 31
0.0
  0
LINE
  5
24A
330
459
100
AcDbEntity
  8
DATA
  6
Continuous
 62
     7
100
AcDbLine
 10
449.0001999999808
 20
-197.4999999999987
 30
0.0
 11
442.0001999999808
 21
-197.4999999999987
 31
0.0
  0
LINE
  5
24B
330
459
100
AcDbEntity
  8
DATA
  6
Continuous
 62
     7
100
AcDbLine
 10
404.0317901369794
 20
-572.999999999998
 30
0.0
 11
426.972440875043
 21
-572.999999999998
 31
0.0
  0
LINE
  5
24C
330
459
100
AcDbEntity
  8
DATA
  6
Continuous
 62
     7
100
AcDbLine
 10
400.0001999999835
 20
-599.9999999999992
 30
0.0
 11
423.0908544878033
 21
-599.999999999998
 31
0.0
  0
LINE
  5
24D
330
459
100
AcDbEntity
  8
DATA
  6
Continuous
 62
     7
100
AcDbLine
 10
423.0908544878033
 20
-584.999999999998
 30
0.0
 11
400.0001999999835
 21
-584.9999999999992
 31
0.0
  0
LINE
  5
24E
330
459
100
AcDbEntity
  8
DATA
  6
Continuous
 62
     7
100
AcDbLine
 10
404.0317901369794
 20
-583.4999999999999
 30
0.0
 11
404.0317901369794
 21
-572.999999999998
 31
0.0
  0
LINE
  5
24F
330
459
100
AcDbEntity
  8
DATA
  6
Continuous
 62
     7
100
AcDbLine
 10
404.0001999999836
 20
-583.4999999999999
 30
0.0
 11
404.0317901369794
 21
-583.4999999999999
 31
0.0
  0
LINE
  5
250
330
459
100
AcDbEntity
  8
DATA
  6
Continuous
 62
     7
100
AcDbLine
 10
404.0317901369794
 20
-572.999999999998
 30
0.0
 11
404.0317901369794
 21
-583.4999999999999
 31
0.0
  0
LINE
  5
251
330
459
100
AcDbEntity
  8
DATA
  6
Continuous
 62
     7
100
AcDbLine
 10
404.0001999999836
 20
-583.4999999999999
 30
0.0
 11
404.0001999999836
 21
-584.9999999999992
 31
0.0
  0
LINE
  5
252
330
459
100
AcDbEntity
  8
DATA
  6
Continuous
 62
     7
100
AcDbLine
 10
400.0001999999835
 20
-584.9999999999992
 30
0.0
 11
400.0001999999835
 21
-599.9999999999992
 31
0.0
  0
LINE
  5
253
330
459
100
AcDbEntity
  8
DATA
  6
Continuous
 62
     7
100
AcDbLine
 10
426.972440875043
 20
-572.999999999998
 30
0.0
 11
426.972440875043
 21
-584.999999999998
 31
0.0
  0
LINE
  5
254
330
459
100
AcDbEntity
  8
DATA
  6
Continuous
 62
     7
100
AcDbLine
 10
423.0908544878033
 20
-584.999999999998
 30
0.0
 11
423.0908544878033
 21
-599.999999999998
 31
0.0
  0
LINE
  5
255
330
459
100
AcDbEntity
  8
DATA
  6
Continuous
 62
     7
100
AcDbLine
 10
442.0001999999808
 20
-209.4999999999986
 30
0.0
 11
409.3001999999809
 21
-209.4999999999986
 31
0.0
  0
LINE
  5
256
330
459
100
AcDbEntity
  8
DATA
  6
Continuous
 62
     7
100
AcDbLine
 10
409.3001999999809
 20
-195.4999999999987
 30
0.0
 11
442.0001999999808
 21
-195.4999999999987
 31
0.0
  0
LINE
  5
257
330
459
100
AcDbEntity
  8
DATA
  6
Continuous
 62
     7
100
AcDbLine
 10
409.3001999999809
 20
-202.4999999999987
 30
0.0
 11
442.0001999999808
 21
-202.4999999999987
 31
0.0
  0
LINE
  5
258
330
459
100
AcDbEntity
  8
DATA
  6
Continuous
 62
     7
100
AcDbLine
 10
405.3001999999809
 20
-195.4999999999987
 30
0.0
 11
405.3001999999809
 21
-209.4999999999986
 31
0.0
  0
POLYLINE
  5
259
330
459
100
AcDbEntity
  8
DATA
  6
Continuous
 62
     7
100
AcDb3dPolyline
 66
     1
 10
0.0
 20
0.0
 30
0.0
 70
     8
  0
VERTEX
  5
25A
330
259
100
AcDbEntity
  8
DATA
  6
Continuous
 62
     7
100
AcDbVertex
100
AcDb3dPolylineVertex
 10
404.3009098144134
 20
-208.4986176128228
 30
0.0
 70
    32
  0
VERTEX
  5
25B
330
259
100
AcDbEntity
  8
DATA
  6
Continuous
 62
     7
100
AcDbVertex
100
AcDb3dPolylineVertex
 10
404.3009098144134
 20
-208.4986176128228
 30
0.0
 70
    32
  0
VERTEX
  5
25C
330
259
100
AcDbEntity
  8
DATA
  6
Continuous
 62
     7
100
AcDbVertex
100
AcDb3dPolylineVertex
 10
404.3009098144134
 20
-208.4986176128228
 30
0.0
 70
    32
  0
VERTEX
  5
25D
330
259
100
AcDbEntity
  8
DATA
  6
Continuous
 62
     7
100
AcDbVertex
100
AcDb3dPolylineVertex
 10
404.3009098144134
 20
-208.4986176128228
 30
0.0
 70
    32
  0
VERTEX
  5
25E
330
259
100
AcDbEntity
  8
DATA
  6
Continuous
 62
     7
100
AcDbVertex
100
AcDb3dPolylineVertex
 10
404.3009098144134
 20
-208.4986176128228
 30
0.0
 70
    32
  0
VERTEX
  5
25F
330
259
100
AcDbEntity
  8
DATA
  6
Continuous
 62
     7
100
AcDbVertex
100
AcDb3dPolylineVertex
 10
404.3009098144134
 20
-208.4886176128224
 30
0.0
 70
    32
  0
VERTEX
  5
260
330
259
100
AcDbEntity
  8
DATA
  6
Continuous
 62
     7
100
AcDbVertex
100
AcDb3dPolylineVertex
 10
404.3009098144134
 20
-208.4886176128224
 30
0.0
 70
    32
  0
VERTEX
  5
261
330
259
100
AcDbEntity
  8
DATA
  6
Continuous
 62
     7
100
AcDbVertex
100
AcDb3dPolylineVertex
 10
404.3009098144134
 20
-208.4886176128224
 30
0.0
 70
    32
  0
VERTEX
  5
262
330
259
100
AcDbEntity
  8
DATA
  6
Continuous
 62
     7
100
AcDbVertex
100
AcDb3dPolylineVertex
 10
404.3009098144134
 20
-208.4786176128228
 30
0.0
 70
    32
  0
VERTEX
  5
263
330
259
100
AcDbEntity
  8
DATA
  6
Continuous
 62
     7
100
AcDbVertex
100
AcDb3dPolylineVertex
 10
404.3009098144134
 20
-208.4786176128228
 30
0.0
 70
    32
  0
VERTEX
  5
264
330
259
100
AcDbEntity
  8
DATA
  6
Continuous
 62
     7
100
AcDbVertex
100
AcDb3dPolylineVertex
 10
404.3009098144134
 20
-208.4686176128225
 30
0.0
 70
    32
  0
VERTEX
  5
265
330
259
100
AcDbEntity
  8
DATA
  6
Continuous
 62
     7
100
AcDbVertex
100
AcDb3dPolylineVertex
 10
404.3009098144134
 20
-208.4686176128225
 30
0.0
 70
    32
  0
VERTEX
  5
266
330
259
100
AcDbEntity
  8
DATA
  6
Continuous
 62
     7
100
AcDbVertex
100
AcDb3dPolylineVertex
 10
404.3009098144134
 20
-208.4586176128228
 30
0.0
 70
    32
  0
VERTEX
  5
267
330
259
100
AcDbEntity
  8
DATA
  6
Continuous
 62
     7
100
AcDbVertex
100
AcDb3dPolylineVertex
 10
404.3009098144134
 20
-208.4486176128225
 30
0.0
 70
    32
  0
VERTEX
  5
268
330
259
100
AcDbEntity
  8
DATA
  6
Continuous
 62
     7
100
AcDbVertex
100
AcDb3dPolylineVertex
 10
404.3009098144134
 20
-208.4386176128228
 30
0.0
 70
    32
  0
VERTEX
  5
269
330
259
100
AcDbEntity
  8
DATA
  6
Continuous
 62
     7
100
AcDbVertex
100
AcDb3dPolylineVertex
 10
404.3009098144134
 20
-208.4386176128228
 30
0.0
 70
    32
  0
VERTEX
  5
26A
330
259
100
AcDbEntity
  8
DATA
  6
Continuous
 62
     7
100
AcDbVertex
100
AcDb3dPolylineVertex
 10
404.3009098144134
 20
-208.4286176128226
 30
0.0
 70
    32
  0
VERTEX
  5
26B
330
259
100
AcDbEntity
  8
DATA
  6
Continuous
 62
     7
100
AcDbVertex
100
AcDb3dPolylineVertex
 10
404.3009098144134
 20
-208.4186176128228
 30
0.0
 70
    32
  0
VERTEX
  5
26C
330
259
100
AcDbEntity
  8
DATA
  6
Continuous
 62
     7
100
AcDbVertex
100
AcDb3dPolylineVertex
 10
404.3009098144134
 20
-208.4086176128226
 30
0.0
 70
    32
  0
VERTEX
  5
26D
330
259
100
AcDbEntity
  8
DATA
  6
Continuous
 62
     7
100
AcDbVertex
100
AcDb3dPolylineVertex
 10
404.3009098144134
 20
-208.3986176128228
 30
0.0
 70
    32
  0
VERTEX
  5
26E
330
259
100
AcDbEntity
  8
DATA
  6
Continuous
 62
     7
100
AcDbVertex
100
AcDb3dPolylineVertex
 10
404.3009098144134
 20
-208.3786176128228
 30
0.0
 70
    32
  0
VERTEX
  5
26F
330
259
100
AcDbEntity
  8
DATA
  6
Continuous
 62
     7
100
AcDbVertex
100
AcDb3dPolylineVertex
 10
404.3009098144134
 20
-208.3686176128226
 30
0.0
 70
    32
  0
VERTEX
  5
270
330
259
100
AcDbEntity
  8
DATA
  6
Continuous
 62
     7
100
AcDbVertex
100
AcDb3dPolylineVertex
 10
404.3009098144134
 20
-208.3586176128228
 30
0.0
 70
    32
  0
VERTEX
  5
271
330
259
100
AcDbEntity
  8
DATA
  6
Continuous
 62
     7
100
AcDbVertex
100
AcDb3dPolylineVertex
 10
404.3009098144134
 20
-208.3486176128226
 30
0.0
 70
    32
  0
VERTEX
  5
272
330
259
100
AcDbEntity
  8
DATA
  6
Continuous
 62
     7
100
AcDbVertex
100
AcDb3dPolylineVertex
 10
404.3009098144134
 20
-208.3286176128226
 30
0.0
 70
    32
  0
VERTEX
  5
273
330
259
100
AcDbEntity
  8
DATA
  6
Continuous
 62
     7
100
AcDbVertex
100
AcDb3dPolylineVertex
 10
404.3009098144134
 20
-208.3186176128229
 30
0.0
 70
    32
  0
VERTEX
  5
274
330
259
100
AcDbEntity
  8
DATA
  6
Continuous
 62
     7
100
AcDbVertex
100
AcDb3dPolylineVertex
 10
404.3009098144134
 20
-208.2986176128229
 30
0.0
 70
    32
  0
VERTEX
  5
275
330
259
100
AcDbEntity
  8
DATA
  6
Continuous
 62
     7
100
AcDbVertex
100
AcDb3dPolylineVertex
 10
404.3009098144134
 20
-208.2886176128227
 30
0.0
 70
    32
  0
VERTEX
  5
276
330
259
100
AcDbEntity
  8
DATA
  6
Continuous
 62
     7
100
AcDbVertex
100
AcDb3dPolylineVertex
 10
404.3009098144134
 20
-208.2686176128227
 30
0.0
 70
    32
  0
VERTEX
  5
277
330
259
100
AcDbEntity
  8
DATA
  6
Continuous
 62
     7
100
AcDbVertex
100
AcDb3dPolylineVertex
 10
404.3009098144134
 20
-208.2586176128229
 30
0.0
 70
    32
  0
VERTEX
  5
278
330
259
100
AcDbEntity
  8
DATA
  6
Continuous
 62
     7
100
AcDbVertex
100
AcDb3dPolylineVertex
 10
404.3009098144134
 20
-208.2386176128224
 30
0.0
 70
    32
  0
VERTEX
  5
279
330
259
100
AcDbEntity
  8
DATA
  6
Continuous
 62
     7
100
AcDbVertex
100
AcDb3dPolylineVertex
 10
404.3009098144134
 20
-208.2186176128225
 30
0.0
 70
    32
  0
VERTEX
  5
27A
330
259
100
AcDbEntity
  8
DATA
  6
Continuous
 62
     7
100
AcDbVertex
100
AcDb3dPolylineVertex
 10
404.3009098144134
 20
-208.2086176128228
 30
0.0
 70
    32
  0
VERTEX
  5
27B
330
259
100
AcDbEntity
  8
DATA
  6
Continuous
 62
     7
100
AcDbVertex
100
AcDb3dPolylineVertex
 10
404.3009098144134
 20
-208.1886176128228
 30
0.0
 70
    32
  0
VERTEX
  5
27C
330
259
100
AcDbEntity
  8
DATA
  6
Continuous
 62
     7
100
AcDbVertex
100
AcDb3dPolylineVertex
 10
404.3009098144134
 20
-208.1686176128228
 30
0.0
 70
    32
  0
VERTEX
  5
27D
330
259
100
AcDbEntity
  8
DATA
  6
Continuous
 62
     7
100
AcDbVertex
100
AcDb3dPolylineVertex
 10
404.3009098144134
 20
-208.1486176128228
 30
0.0
 70
    32
  0
VERTEX
  5
27E
330
259
100
AcDbEntity
  8
DATA
  6
Continuous
 62
     7
100
AcDbVertex
100
AcDb3dPolylineVertex
 10
404.3009098144134
 20
-208.1286176128228
 30
0.0
 70
    32
  0
VERTEX
  5
27F
330
259
100
AcDbEntity
  8
DATA
  6
Continuous
 62
     7
100
AcDbVertex
100
AcDb3dPolylineVertex
 10
404.3009098144134
 20
-208.1086176128228
 30
0.0
 70
    32
  0
VERTEX
  5
280
330
259
100
AcDbEntity
  8
DATA
  6
Continuous
 62
     7
100
AcDbVertex
100
AcDb3dPolylineVertex
 10
404.3009098144134
 20
-208.0886176128229
 30
0.0
 70
    32
  0
VERTEX
  5
281
330
259
100
AcDbEntity
  8
DATA
  6
Continuous
 62
     7
100
AcDbVertex
100
AcDb3dPolylineVertex
 10
404.3009098144134
 20
-208.0586176128227
 30
0.0
 70
    32
  0
VERTEX
  5
282
330
259
100
AcDbEntity
  8
DATA
  6
Continuous
 62
     7
100
AcDbVertex
100
AcDb3dPolylineVertex
 10
404.3009098144134
 20
-208.0386176128227
 30
0.0
 70
    32
  0
VERTEX
  5
283
330
259
100
AcDbEntity
  8
DATA
  6
Continuous
 62
     7
100
AcDbVertex
100
AcDb3dPolylineVertex
 10
404.3009098144134
 20
-208.0186176128227
 30
0.0
 70
    32
  0
VERTEX
  5
284
330
259
100
AcDbEntity
  8
DATA
  6
Continuous
 62
     7
100
AcDbVertex
100
AcDb3dPolylineVertex
 10
404.3009098144134
 20
-207.9986176128227
 30
0.0
 70
    32
  0
VERTEX
  5
285
330
259
100
AcDbEntity
  8
DATA
  6
Continuous
 62
     7
100
AcDbVertex
100
AcDb3dPolylineVertex
 10
404.3009098144134
 20
-207.9686176128225
 30
0.0
 70
    32
  0
VERTEX
  5
286
330
259
100
AcDbEntity
  8
DATA
  6
Continuous
 62
     7
100
AcDbVertex
100
AcDb3dPolylineVertex
 10
404.3009098144134
 20
-207.9486176128225
 30
0.0
 70
    32
  0
VERTEX
  5
287
330
259
100
AcDbEntity
  8
DATA
  6
Continuous
 62
     7
100
AcDbVertex
100
AcDb3dPolylineVertex
 10
404.3009098144134
 20
-207.9186176128228
 30
0.0
 70
    32
  0
VERTEX
  5
288
330
259
100
AcDbEntity
  8
DATA
  6
Continuous
 62
     7
100
AcDbVertex
100
AcDb3dPolylineVertex
 10
404.3009098144134
 20
-207.8986176128228
 30
0.0
 70
    32
  0
VERTEX
  5
289
330
259
100
AcDbEntity
  8
DATA
  6
Continuous
 62
     7
100
AcDbVertex
100
AcDb3dPolylineVertex
 10
404.3009098144134
 20
-207.8686176128226
 30
0.0
 70
    32
  0
VERTEX
  5
28A
330
259
100
AcDbEntity
  8
DATA
  6
Continuous
 62
     7
100
AcDbVertex
100
AcDb3dPolylineVertex
 10
404.3009098144134
 20
-207.8386176128229
 30
0.0
 70
    32
  0
VERTEX
  5
28B
330
259
100
AcDbEntity
  8
DATA
  6
Continuous
 62
     7
100
AcDbVertex
100
AcDb3dPolylineVertex
 10
404.3009098144134
 20
-207.8186176128228
 30
0.0
 70
    32
  0
VERTEX
  5
28C
330
259
100
AcDbEntity
  8
DATA
  6
Continuous
 62
     7
100
AcDbVertex
100
AcDb3dPolylineVertex
 10
404.3009098144134
 20
-207.7886176128227
 30
0.0
 70
    32
  0
VERTEX
  5
28D
330
259
100
AcDbEntity
  8
DATA
  6
Continuous
 62
     7
100
AcDbVertex
100
AcDb3dPolylineVertex
 10
404.3009098144134
 20
-207.7586176128229
 30
0.0
 70
    32
  0
VERTEX
  5
28E
330
259
100
AcDbEntity
  8
DATA
  6
Continuous
 62
     7
100
AcDbVertex
100
AcDb3dPolylineVertex
 10
404.3009098144134
 20
-207.7286176128228
 30
0.0
 70
    32
  0
VERTEX
  5
28F
330
259
100
AcDbEntity
  8
DATA
  6
Continuous
 62
     7
100
AcDbVertex
100
AcDb3dPolylineVertex
 10
404.3009098144134
 20
-207.6986176128226
 30
0.0
 70
    32
  0
VERTEX
  5
290
330
259
100
AcDbEntity
  8
DATA
  6
Continuous
 62
     7
100
AcDbVertex
100
AcDb3dPolylineVertex
 10
404.3009098144134
 20
-207.6786176128226
 30
0.0
 70
    32
  0
VERTEX
  5
291
330
259
100
AcDbEntity
  8
DATA
  6
Continuous
 62
     7
100
AcDbVertex
100
AcDb3dPolylineVertex
 10
404.3009098144134
 20
-207.6386176128226
 30
0.0
 70
    32
  0
VERTEX
  5
292
330
259
100
AcDbEntity
  8
DATA
  6
Continuous
 62
     7
100
AcDbVertex
100
AcDb3dPolylineVertex
 10
404.3009098144134
 20
-207.6086176128228
 30
0.0
 70
    32
  0
VERTEX
  5
293
330
259
100
AcDbEntity
  8
DATA
  6
Continuous
 62
     7
100
AcDbVertex
100
AcDb3dPolylineVertex
 10
404.3009098144134
 20
-207.5786176128226
 30
0.0
 70
    32
  0
VERTEX
  5
294
330
259
100
AcDbEntity
  8
DATA
  6
Continuous
 62
     7
100
AcDbVertex
100
AcDb3dPolylineVertex
 10
404.3009098144134
 20
-207.5486176128229
 30
0.0
 70
    32
  0
VERTEX
  5
295
330
259
100
AcDbEntity
  8
DATA
  6
Continuous
 62
     7
100
AcDbVertex
100
AcDb3dPolylineVertex
 10
404.3009098144134
 20
-207.5186176128227
 30
0.0
 70
    32
  0
VERTEX
  5
296
330
259
100
AcDbEntity
  8
DATA
  6
Continuous
 62
     7
100
AcDbVertex
100
AcDb3dPolylineVertex
 10
404.3009098144134
 20
-207.4886176128225
 30
0.0
 70
    32
  0
VERTEX
  5
297
330
259
100
AcDbEntity
  8
DATA
  6
Continuous
 62
     7
100
AcDbVertex
100
AcDb3dPolylineVertex
 10
404.3009098144134
 20
-207.4486176128226
 30
0.0
 70
    32
  0
VERTEX
  5
298
330
259
100
AcDbEntity
  8
DATA
  6
Continuous
 62
     7
100
AcDbVertex
100
AcDb3dPolylineVertex
 10
404.3009098144134
 20
-207.4186176128228
 30
0.0
 70
    32
  0
VERTEX
  5
299
330
259
100
AcDbEntity
  8
DATA
  6
Continuous
 62
     7
100
AcDbVertex
100
AcDb3dPolylineVertex
 10
404.3009098144134
 20
-207.3886176128226
 30
0.0
 70
    32
  0
VERTEX
  5
29A
330
259
100
AcDbEntity
  8
DATA
  6
Continuous
 62
     7
100
AcDbVertex
100
AcDb3dPolylineVertex
 10
404.3009098144134
 20
-207.3486176128226
 30
0.0
 70
    32
  0
VERTEX
  5
29B
330
259
100
AcDbEntity
  8
DATA
  6
Continuous
 62
     7
100
AcDbVertex
100
AcDb3dPolylineVertex
 10
404.3009098144134
 20
-207.3186176128229
 30
0.0
 70
    32
  0
VERTEX
  5
29C
330
259
100
AcDbEntity
  8
DATA
  6
Continuous
 62
     7
100
AcDbVertex
100
AcDb3dPolylineVertex
 10
404.3009098144134
 20
-207.2786176128229
 30
0.0
 70
    32
  0
VERTEX
  5
29D
330
259
100
AcDbEntity
  8
DATA
  6
Continuous
 62
     7
100
AcDbVertex
100
AcDb3dPolylineVertex
 10
404.3009098144134
 20
-207.2486176128228
 30
0.0
 70
    32
  0
VERTEX
  5
29E
330
259
100
AcDbEntity
  8
DATA
  6
Continuous
 62
     7
100
AcDbVertex
100
AcDb3dPolylineVertex
 10
404.3009098144134
 20
-207.2086176128228
 30
0.0
 70
    32
  0
VERTEX
  5
29F
330
259
100
AcDbEntity
  8
DATA
  6
Continuous
 62
     7
100
AcDbVertex
100
AcDb3dPolylineVertex
 10
404.3009098144134
 20
-207.1686176128228
 30
0.0
 70
    32
  0
VERTEX
  5
2A0
330
259
100
AcDbEntity
  8
DATA
  6
Continuous
 62
     7
100
AcDbVertex
100
AcDb3dPolylineVertex
 10
404.3009098144134
 20
-207.1286176128228
 30
0.0
 70
    32
  0
VERTEX
  5
2A1
330
259
100
AcDbEntity
  8
DATA
  6
Continuous
 62
     7
100
AcDbVertex
100
AcDb3dPolylineVertex
 10
404.3009098144134
 20
-207.0986176128226
 30
0.0
 70
    32
  0
VERTEX
  5
2A2
330
259
100
AcDbEntity
  8
DATA
  6
Continuous
 62
     7
100
AcDbVertex
100
AcDb3dPolylineVertex
 10
404.3009098144134
 20
-207.0586176128227
 30
0.0
 70
    32
  0
VERTEX
  5
2A3
330
259
100
AcDbEntity
  8
DATA
  6
Continuous
 62
     7
100
AcDbVertex
100
AcDb3dPolylineVertex
 10
404.3009098144134
 20
-207.0186176128227
 30
0.0
 70
    32
  0
VERTEX
  5
2A4
330
259
100
AcDbEntity
  8
DATA
  6
Continuous
 62
     7
100
AcDbVertex
100
AcDb3dPolylineVertex
 10
404.3009098144134
 20
-206.9786176128228
 30
0.0
 70
    32
  0
VERTEX
  5
2A5
330
259
100
AcDbEntity
  8
DATA
  6
Continuous
 62
     7
100
AcDbVertex
100
AcDb3dPolylineVertex
 10
404.3009098144134
 20
-206.9386176128228
 30
0.0
 70
    32
  0
VERTEX
  5
2A6
330
259
100
AcDbEntity
  8
DATA
  6
Continuous
 62
     7
100
AcDbVertex
100
AcDb3dPolylineVertex
 10
404.3009098144134
 20
-206.8986176128228
 30
0.0
 70
    32
  0
VERTEX
  5
2A7
330
259
100
AcDbEntity
  8
DATA
  6
Continuous
 62
     7
100
AcDbVertex
100
AcDb3dPolylineVertex
 10
404.3009098144134
 20
-206.8586176128228
 30
0.0
 70
    32
  0
VERTEX
  5
2A8
330
259
100
AcDbEntity
  8
DATA
  6
Continuous
 62
     7
100
AcDbVertex
100
AcDb3dPolylineVertex
 10
404.3009098144134
 20
-206.8186176128229
 30
0.0
 70
    32
  0
VERTEX
  5
2A9
330
259
100
AcDbEntity
  8
DATA
  6
Continuous
 62
     7
100
AcDbVertex
100
AcDb3dPolylineVertex
 10
404.3009098144134
 20
-206.7786176128229
 30
0.0
 70
    32
  0
VERTEX
  5
2AA
330
259
100
AcDbEntity
  8
DATA
  6
Continuous
 62
     7
100
AcDbVertex
100
AcDb3dPolylineVertex
 10
404.3009098144134
 20
-206.7286176128228
 30
0.0
 70
    32
  0
VERTEX
  5
2AB
330
259
100
AcDbEntity
  8
DATA
  6
Continuous
 62
     7
100
AcDbVertex
100
AcDb3dPolylineVertex
 10
404.3009098144134
 20
-206.6886176128228
 30
0.0
 70
    32
  0
VERTEX
  5
2AC
330
259
100
AcDbEntity
  8
DATA
  6
Continuous
 62
     7
100
AcDbVertex
100
AcDb3dPolylineVertex
 10
404.3009098144134
 20
-206.6486176128228
 30
0.0
 70
    32
  0
VERTEX
  5
2AD
330
259
100
AcDbEntity
  8
DATA
  6
Continuous
 62
     7
100
AcDbVertex
100
AcDb3dPolylineVertex
 10
404.3009098144134
 20
-206.5986176128226
 30
0.0
 70
    32
  0
VERTEX
  5
2AE
330
259
100
AcDbEntity
  8
DATA
  6
Continuous
 62
     7
100
AcDbVertex
100
AcDb3dPolylineVertex
 10
404.3009098144134
 20
-206.5586176128227
 30
0.0
 70
    32
  0
VERTEX
  5
2AF
330
259
100
AcDbEntity
  8
DATA
  6
Continuous
 62
     7
100
AcDbVertex
100
AcDb3dPolylineVertex
 10
404.3009098144134
 20
-206.5186176128227
 30
0.0
 70
    32
  0
VERTEX
  5
2B0
330
259
100
AcDbEntity
  8
DATA
  6
Continuous
 62
     7
100
AcDbVertex
100
AcDb3dPolylineVertex
 10
404.3009098144134
 20
-206.4686176128225
 30
0.0
 70
    32
  0
VERTEX
  5
2B1
330
259
100
AcDbEntity
  8
DATA
  6
Continuous
 62
     7
100
AcDbVertex
100
AcDb3dPolylineVertex
 10
404.3009098144134
 20
-206.4286176128226
 30
0.0
 70
    32
  0
VERTEX
  5
2B2
330
259
100
AcDbEntity
  8
DATA
  6
Continuous
 62
     7
100
AcDbVertex
100
AcDb3dPolylineVertex
 10
404.3009098144134
 20
-206.3786176128228
 30
0.0
 70
    32
  0
VERTEX
  5
2B3
330
259
100
AcDbEntity
  8
DATA
  6
Continuous
 62
     7
100
AcDbVertex
100
AcDb3dPolylineVertex
 10
404.3009098144134
 20
-206.3386176128229
 30
0.0
 70
    32
  0
VERTEX
  5
2B4
330
259
100
AcDbEntity
  8
DATA
  6
Continuous
 62
     7
100
AcDbVertex
100
AcDb3dPolylineVertex
 10
404.3009098144134
 20
-206.2886176128227
 30
0.0
 70
    32
  0
VERTEX
  5
2B5
330
259
100
AcDbEntity
  8
DATA
  6
Continuous
 62
     7
100
AcDbVertex
100
AcDb3dPolylineVertex
 10
404.3009098144134
 20
-206.2386176128224
 30
0.0
 70
    32
  0
VERTEX
  5
2B6
330
259
100
AcDbEntity
  8
DATA
  6
Continuous
 62
     7
100
AcDbVertex
100
AcDb3dPolylineVertex
 10
404.3009098144134
 20
-206.1986176128225
 30
0.0
 70
    32
  0
VERTEX
  5
2B7
330
259
100
AcDbEntity
  8
DATA
  6
Continuous
 62
     7
100
AcDbVertex
100
AcDb3dPolylineVertex
 10
404.3009098144134
 20
-206.1486176128228
 30
0.0
 70
    32
  0
VERTEX
  5
2B8
330
259
100
AcDbEntity
  8
DATA
  6
Continuous
 62
     7
100
AcDbVertex
100
AcDb3dPolylineVertex
 10
404.3009098144134
 20
-206.0986176128226
 30
0.0
 70
    32
  0
VERTEX
  5
2B9
330
259
100
AcDbEntity
  8
DATA
  6
Continuous
 62
     7
100
AcDbVertex
100
AcDb3dPolylineVertex
 10
404.3009098144134
 20
-206.0586176128227
 30
0.0
 70
    32
  0
VERTEX
  5
2BA
330
259
100
AcDbEntity
  8
DATA
  6
Continuous
 62
     7
100
AcDbVertex
100
AcDb3dPolylineVertex
 10
404.3009098144134
 20
-206.0086176128229
 30
0.0
 70
    32
  0
VERTEX
  5
2BB
330
259
100
AcDbEntity
  8
DATA
  6
Continuous
 62
     7
100
AcDbVertex
100
AcDb3dPolylineVertex
 10
404.3009098144134
 20
-205.9586176128228
 30
0.0
 70
    32
  0
VERTEX
  5
2BC
330
259
100
AcDbEntity
  8
DATA
  6
Continuous
 62
     7
100
AcDbVertex
100
AcDb3dPolylineVertex
 10
404.3009098144134
 20
-205.9086176128226
 30
0.0
 70
    32
  0
VERTEX
  5
2BD
330
259
100
AcDbEntity
  8
DATA
  6
Continuous
 62
     7
100
AcDbVertex
100
AcDb3dPolylineVertex
 10
404.3009098144134
 20
-205.8586176128228
 30
0.0
 70
    32
  0
VERTEX
  5
2BE
330
259
100
AcDbEntity
  8
DATA
  6
Continuous
 62
     7
100
AcDbVertex
100
AcDb3dPolylineVertex
 10
404.3009098144134
 20
-205.8086176128227
 30
0.0
 70
    32
  0
VERTEX
  5
2BF
330
259
100
AcDbEntity
  8
DATA
  6
Continuous
 62
     7
100
AcDbVertex
100
AcDb3dPolylineVertex
 10
404.3009098144134
 20
-205.7686176128227
 30
0.0
 70
    32
  0
VERTEX
  5
2C0
330
259
100
AcDbEntity
  8
DATA
  6
Continuous
 62
     7
100
AcDbVertex
100
AcDb3dPolylineVertex
 10
404.3009098144134
 20
-205.7186176128225
 30
0.0
 70
    32
  0
VERTEX
  5
2C1
330
259
100
AcDbEntity
  8
DATA
  6
Continuous
 62
     7
100
AcDbVertex
100
AcDb3dPolylineVertex
 10
404.3009098144134
 20
-205.6686176128228
 30
0.0
 70
    32
  0
VERTEX
  5
2C2
330
259
100
AcDbEntity
  8
DATA
  6
Continuous
 62
     7
100
AcDbVertex
100
AcDb3dPolylineVertex
 10
404.3009098144134
 20
-205.6186176128226
 30
0.0
 70
    32
  0
VERTEX
  5
2C3
330
259
100
AcDbEntity
  8
DATA
  6
Continuous
 62
     7
100
AcDbVertex
100
AcDb3dPolylineVertex
 10
404.3009098144134
 20
-205.5686176128229
 30
0.0
 70
    32
  0
VERTEX
  5
2C4
330
259
100
AcDbEntity
  8
DATA
  6
Continuous
 62
     7
100
AcDbVertex
100
AcDb3dPolylineVertex
 10
404.3009098144134
 20
-205.5086176128229
 30
0.0
 70
    32
  0
VERTEX
  5
2C5
330
259
100
AcDbEntity
  8
DATA
  6
Continuous
 62
     7
100
AcDbVertex
100
AcDb3dPolylineVertex
 10
404.3009098144134
 20
-205.4586176128228
 30
0.0
 70
    32
  0
VERTEX
  5
2C6
330
259
100
AcDbEntity
  8
DATA
  6
Continuous
 62
     7
100
AcDbVertex
100
AcDb3dPolylineVertex
 10
404.3009098144134
 20
-205.4086176128226
 30
0.0
 70
    32
  0
VERTEX
  5
2C7
330
259
100
AcDbEntity
  8
DATA
  6
Continuous
 62
     7
100
AcDbVertex
100
AcDb3dPolylineVertex
 10
404.3009098144134
 20
-205.3586176128228
 30
0.0
 70
    32
  0
VERTEX
  5
2C8
330
259
100
AcDbEntity
  8
DATA
  6
Continuous
 62
     7
100
AcDbVertex
100
AcDb3dPolylineVertex
 10
404.3009098144134
 20
-205.3086176128227
 30
0.0
 70
    32
  0
VERTEX
  5
2C9
330
259
100
AcDbEntity
  8
DATA
  6
Continuous
 62
     7
100
AcDbVertex
100
AcDb3dPolylineVertex
 10
404.3009098144134
 20
-205.2586176128229
 30
0.0
 70
    32
  0
VERTEX
  5
2CA
330
259
100
AcDbEntity
  8
DATA
  6
Continuous
 62
     7
100
AcDbVertex
100
AcDb3dPolylineVertex
 10
404.3009098144134
 20
-205.1986176128226
 30
0.0
 70
    32
  0
VERTEX
  5
2CB
330
259
100
AcDbEntity
  8
DATA
  6
Continuous
 62
     7
100
AcDbVertex
100
AcDb3dPolylineVertex
 10
404.3009098144134
 20
-205.1486176128228
 30
0.0
 70
    32
  0
VERTEX
  5
2CC
330
259
100
AcDbEntity
  8
DATA
  6
Continuous
 62
     7
100
AcDbVertex
100
AcDb3dPolylineVertex
 10
404.3009098144134
 20
-205.0986176128226
 30
0.0
 70
    32
  0
VERTEX
  5
2CD
330
259
100
AcDbEntity
  8
DATA
  6
Continuous
 62
     7
100
AcDbVertex
100
AcDb3dPolylineVertex
 10
404.3009098144134
 20
-205.0486176128229
 30
0.0
 70
    32
  0
VERTEX
  5
2CE
330
259
100
AcDbEntity
  8
DATA
  6
Continuous
 62
     7
100
AcDbVertex
100
AcDb3dPolylineVertex
 10
404.3009098144134
 20
-204.9886176128225
 30
0.0
 70
    32
  0
VERTEX
  5
2CF
330
259
100
AcDbEntity
  8
DATA
  6
Continuous
 62
     7
100
AcDbVertex
100
AcDb3dPolylineVertex
 10
404.3009098144134
 20
-204.9386176128228
 30
0.0
 70
    32
  0
VERTEX
  5
2D0
330
259
100
AcDbEntity
  8
DATA
  6
Continuous
 62
     7
100
AcDbVertex
100
AcDb3dPolylineVertex
 10
404.3009098144134
 20
-204.8886176128226
 30
0.0
 70
    32
  0
VERTEX
  5
2D1
330
259
100
AcDbEntity
  8
DATA
  6
Continuous
 62
     7
100
AcDbVertex
100
AcDb3dPolylineVertex
 10
404.3009098144134
 20
-204.8286176128226
 30
0.0
 70
    32
  0
VERTEX
  5
2D2
330
259
100
AcDbEntity
  8
DATA
  6
Continuous
 62
     7
100
AcDbVertex
100
AcDb3dPolylineVertex
 10
404.3009098144134
 20
-204.7786176128229
 30
0.0
 70
    32
  0
VERTEX
  5
2D3
330
259
100
AcDbEntity
  8
DATA
  6
Continuous
 62
     7
100
AcDbVertex
100
AcDb3dPolylineVertex
 10
404.3009098144134
 20
-204.7186176128225
 30
0.0
 70
    32
  0
VERTEX
  5
2D4
330
259
100
AcDbEntity
  8
DATA
  6
Continuous
 62
     7
100
AcDbVertex
100
AcDb3dPolylineVertex
 10
404.3009098144134
 20
-204.6686176128228
 30
0.0
 70
    32
  0
VERTEX
  5
2D5
330
259
100
AcDbEntity
  8
DATA
  6
Continuous
 62
     7
100
AcDbVertex
100
AcDb3dPolylineVertex
 10
404.3009098144134
 20
-204.6086176128228
 30
0.0
 70
    32
  0
VERTEX
  5
2D6
330
259
100
AcDbEntity
  8
DATA
  6
Continuous
 62
     7
100
AcDbVertex
100
AcDb3dPolylineVertex
 10
404.3009098144134
 20
-204.5586176128227
 30
0.0
 70
    32
  0
VERTEX
  5
2D7
330
259
100
AcDbEntity
  8
DATA
  6
Continuous
 62
     7
100
AcDbVertex
100
AcDb3dPolylineVertex
 10
404.3009098144134
 20
-204.4986176128228
 30
0.0
 70
    32
  0
VERTEX
  5
2D8
330
259
100
AcDbEntity
  8
DATA
  6
Continuous
 62
     7
100
AcDbVertex
100
AcDb3dPolylineVertex
 10
404.3009098144134
 20
-204.4486176128225
 30
0.0
 70
    32
  0
VERTEX
  5
2D9
330
259
100
AcDbEntity
  8
DATA
  6
Continuous
 62
     7
100
AcDbVertex
100
AcDb3dPolylineVertex
 10
404.3009098144134
 20
-204.3886176128226
 30
0.0
 70
    32
  0
VERTEX
  5
2DA
330
259
100
AcDbEntity
  8
DATA
  6
Continuous
 62
     7
100
AcDbVertex
100
AcDb3dPolylineVertex
 10
404.3009098144134
 20
-204.3386176128229
 30
0.0
 70
    32
  0
VERTEX
  5
2DB
330
259
100
AcDbEntity
  8
DATA
  6
Continuous
 62
     7
100
AcDbVertex
100
AcDb3dPolylineVertex
 10
404.3009098144134
 20
-204.2786176128229
 30
0.0
 70
    32
  0
VERTEX
  5
2DC
330
259
100
AcDbEntity
  8
DATA
  6
Continuous
 62
     7
100
AcDbVertex
100
AcDb3dPolylineVertex
 10
404.3009098144134
 20
-204.2186176128225
 30
0.0
 70
    32
  0
VERTEX
  5
2DD
330
259
100
AcDbEntity
  8
DATA
  6
Continuous
 62
     7
100
AcDbVertex
100
AcDb3dPolylineVertex
 10
404.3009098144134
 20
-204.1686176128228
 30
0.0
 70
    32
  0
VERTEX
  5
2DE
330
259
100
AcDbEntity
  8
DATA
  6
Continuous
 62
     7
100
AcDbVertex
100
AcDb3dPolylineVertex
 10
404.3009098144134
 20
-204.1086176128228
 30
0.0
 70
    32
  0
VERTEX
  5
2DF
330
259
100
AcDbEntity
  8
DATA
  6
Continuous
 62
     7
100
AcDbVertex
100
AcDb3dPolylineVertex
 10
404.3009098144134
 20
-204.0486176128229
 30
0.0
 70
    32
  0
VERTEX
  5
2E0
330
259
100
AcDbEntity
  8
DATA
  6
Continuous
 62
     7
100
AcDbVertex
100
AcDb3dPolylineVertex
 10
404.3009098144134
 20
-203.9986176128227
 30
0.0
 70
    32
  0
VERTEX
  5
2E1
330
259
100
AcDbEntity
  8
DATA
  6
Continuous
 62
     7
100
AcDbVertex
100
AcDb3dPolylineVertex
 10
404.3009098144134
 20
-203.9386176128228
 30
0.0
 70
    32
  0
VERTEX
  5
2E2
330
259
100
AcDbEntity
  8
DATA
  6
Continuous
 62
     7
100
AcDbVertex
100
AcDb3dPolylineVertex
 10
404.3009098144134
 20
-203.8786176128228
 30
0.0
 70
    32
  0
VERTEX
  5
2E3
330
259
100
AcDbEntity
  8
DATA
  6
Continuous
 62
     7
100
AcDbVertex
100
AcDb3dPolylineVertex
 10
404.3009098144134
 20
-203.8286176128226
 30
0.0
 70
    32
  0
VERTEX
  5
2E4
330
259
100
AcDbEntity
  8
DATA
  6
Continuous
 62
     7
100
AcDbVertex
100
AcDb3dPolylineVertex
 10
404.3009098144134
 20
-203.7686176128227
 30
0.0
 70
    32
  0
VERTEX
  5
2E5
330
259
100
AcDbEntity
  8
DATA
  6
Continuous
 62
     7
100
AcDbVertex
100
AcDb3dPolylineVertex
 10
404.3009098144134
 20
-203.7086176128228
 30
0.0
 70
    32
  0
VERTEX
  5
2E6
330
259
100
AcDbEntity
  8
DATA
  6
Continuous
 62
     7
100
AcDbVertex
100
AcDb3dPolylineVertex
 10
404.3009098144134
 20
-203.6486176128228
 30
0.0
 70
    32
  0
VERTEX
  5
2E7
330
259
100
AcDbEntity
  8
DATA
  6
Continuous
 62
     7
100
AcDbVertex
100
AcDb3dPolylineVertex
 10
404.3009098144134
 20
-203.5886176128229
 30
0.0
 70
    32
  0
VERTEX
  5
2E8
330
259
100
AcDbEntity
  8
DATA
  6
Continuous
 62
     7
100
AcDbVertex
100
AcDb3dPolylineVertex
 10
404.3009098144134
 20
-203.5386176128227
 30
0.0
 70
    32
  0
VERTEX
  5
2E9
330
259
100
AcDbEntity
  8
DATA
  6
Continuous
 62
     7
100
AcDbVertex
100
AcDb3dPolylineVertex
 10
404.3009098144134
 20
-203.4786176128228
 30
0.0
 70
    32
  0
VERTEX
  5
2EA
330
259
100
AcDbEntity
  8
DATA
  6
Continuous
 62
     7
100
AcDbVertex
100
AcDb3dPolylineVertex
 10
404.3009098144134
 20
-203.4186176128228
 30
0.0
 70
    32
  0
VERTEX
  5
2EB
330
259
100
AcDbEntity
  8
DATA
  6
Continuous
 62
     7
100
AcDbVertex
100
AcDb3dPolylineVertex
 10
404.3009098144134
 20
-203.3586176128229
 30
0.0
 70
    32
  0
VERTEX
  5
2EC
330
259
100
AcDbEntity
  8
DATA
  6
Continuous
 62
     7
100
AcDbVertex
100
AcDb3dPolylineVertex
 10
404.3009098144134
 20
-203.298617612823
 30
0.0
 70
    32
  0
VERTEX
  5
2ED
330
259
100
AcDbEntity
  8
DATA
  6
Continuous
 62
     7
100
AcDbVertex
100
AcDb3dPolylineVertex
 10
404.3009098144134
 20
-203.2386176128226
 30
0.0
 70
    32
  0
VERTEX
  5
2EE
330
259
100
AcDbEntity
  8
DATA
  6
Continuous
 62
     7
100
AcDbVertex
100
AcDb3dPolylineVertex
 10
404.3009098144134
 20
-203.1786176128227
 30
0.0
 70
    32
  0
VERTEX
  5
2EF
330
259
100
AcDbEntity
  8
DATA
  6
Continuous
 62
     7
100
AcDbVertex
100
AcDb3dPolylineVertex
 10
404.3009098144134
 20
-203.1286176128229
 30
0.0
 70
    32
  0
VERTEX
  5
2F0
330
259
100
AcDbEntity
  8
DATA
  6
Continuous
 62
     7
100
AcDbVertex
100
AcDb3dPolylineVertex
 10
404.3009098144134
 20
-203.068617612823
 30
0.0
 70
    32
  0
VERTEX
  5
2F1
330
259
100
AcDbEntity
  8
DATA
  6
Continuous
 62
     7
100
AcDbVertex
100
AcDb3dPolylineVertex
 10
404.3009098144134
 20
-203.008617612823
 30
0.0
 70
    32
  0
VERTEX
  5
2F2
330
259
100
AcDbEntity
  8
DATA
  6
Continuous
 62
     7
100
AcDbVertex
100
AcDb3dPolylineVertex
 10
404.3009098144134
 20
-202.9486176128226
 30
0.0
 70
    32
  0
VERTEX
  5
2F3
330
259
100
AcDbEntity
  8
DATA
  6
Continuous
 62
     7
100
AcDbVertex
100
AcDb3dPolylineVertex
 10
404.3009098144134
 20
-202.8886176128227
 30
0.0
 70
    32
  0
VERTEX
  5
2F4
330
259
100
AcDbEntity
  8
DATA
  6
Continuous
 62
     7
100
AcDbVertex
100
AcDb3dPolylineVertex
 10
404.3009098144134
 20
-202.8286176128228
 30
0.0
 70
    32
  0
VERTEX
  5
2F5
330
259
100
AcDbEntity
  8
DATA
  6
Continuous
 62
     7
100
AcDbVertex
100
AcDb3dPolylineVertex
 10
404.3009098144134
 20
-202.7686176128228
 30
0.0
 70
    32
  0
VERTEX
  5
2F6
330
259
100
AcDbEntity
  8
DATA
  6
Continuous
 62
     7
100
AcDbVertex
100
AcDb3dPolylineVertex
 10
404.3009098144134
 20
-202.7086176128229
 30
0.0
 70
    32
  0
VERTEX
  5
2F7
330
259
100
AcDbEntity
  8
DATA
  6
Continuous
 62
     7
100
AcDbVertex
100
AcDb3dPolylineVertex
 10
404.3009098144134
 20
-202.6486176128229
 30
0.0
 70
    32
  0
VERTEX
  5
2F8
330
259
100
AcDbEntity
  8
DATA
  6
Continuous
 62
     7
100
AcDbVertex
100
AcDb3dPolylineVertex
 10
404.3009098144134
 20
-202.588617612823
 30
0.0
 70
    32
  0
VERTEX
  5
2F9
330
259
100
AcDbEntity
  8
DATA
  6
Continuous
 62
     7
100
AcDbVertex
100
AcDb3dPolylineVertex
 10
404.3009098144134
 20
-202.5286176128231
 30
0.0
 70
    32
  0
VERTEX
  5
2FA
330
259
100
AcDbEntity
  8
DATA
  6
Continuous
 62
     7
100
AcDbVertex
100
AcDb3dPolylineVertex
 10
404.3009098144134
 20
-202.4686176128226
 30
0.0
 70
    32
  0
VERTEX
  5
2FB
330
259
100
AcDbEntity
  8
DATA
  6
Continuous
 62
     7
100
AcDbVertex
100
AcDb3dPolylineVertex
 10
404.3009098144134
 20
-202.4086176128227
 30
0.0
 70
    32
  0
VERTEX
  5
2FC
330
259
100
AcDbEntity
  8
DATA
  6
Continuous
 62
     7
100
AcDbVertex
100
AcDb3dPolylineVertex
 10
404.3009098144134
 20
-202.3486176128228
 30
0.0
 70
    32
  0
VERTEX
  5
2FD
330
259
100
AcDbEntity
  8
DATA
  6
Continuous
 62
     7
100
AcDbVertex
100
AcDb3dPolylineVertex
 10
404.3009098144134
 20
-202.2886176128228
 30
0.0
 70
    32
  0
VERTEX
  5
2FE
330
259
100
AcDbEntity
  8
DATA
  6
Continuous
 62
     7
100
AcDbVertex
100
AcDb3dPolylineVertex
 10
404.3009098144134
 20
-202.2286176128229
 30
0.0
 70
    32
  0
VERTEX
  5
2FF
330
259
100
AcDbEntity
  8
DATA
  6
Continuous
 62
     7
100
AcDbVertex
100
AcDb3dPolylineVertex
 10
404.3009098144134
 20
-202.1686176128229
 30
0.0
 70
    32
  0
VERTEX
  5
300
330
259
100
AcDbEntity
  8
DATA
  6
Continuous
 62
     7
100
AcDbVertex
100
AcDb3dPolylineVertex
 10
404.3009098144134
 20
-202.1086176128229
 30
0.0
 70
    32
  0
VERTEX
  5
301
330
259
100
AcDbEntity
  8
DATA
  6
Continuous
 62
     7
100
AcDbVertex
100
AcDb3dPolylineVertex
 10
404.3009098144134
 20
-202.048617612823
 30
0.0
 70
    32
  0
VERTEX
  5
302
330
259
100
AcDbEntity
  8
DATA
  6
Continuous
 62
     7
100
AcDbVertex
100
AcDb3dPolylineVertex
 10
404.3009098144134
 20
-201.9986176128228
 30
0.0
 70
    32
  0
VERTEX
  5
303
330
259
100
AcDbEntity
  8
DATA
  6
Continuous
 62
     7
100
AcDbVertex
100
AcDb3dPolylineVertex
 10
404.3009098144134
 20
-201.9386176128229
 30
0.0
 70
    32
  0
VERTEX
  5
304
330
259
100
AcDbEntity
  8
DATA
  6
Continuous
 62
     7
100
AcDbVertex
100
AcDb3dPolylineVertex
 10
404.3009098144134
 20
-201.8786176128229
 30
0.0
 70
    32
  0
VERTEX
  5
305
330
259
100
AcDbEntity
  8
DATA
  6
Continuous
 62
     7
100
AcDbVertex
100
AcDb3dPolylineVertex
 10
404.3009098144134
 20
-201.818617612823
 30
0.0
 70
    32
  0
VERTEX
  5
306
330
259
100
AcDbEntity
  8
DATA
  6
Continuous
 62
     7
100
AcDbVertex
100
AcDb3dPolylineVertex
 10
404.3009098144134
 20
-201.758617612823
 30
0.0
 70
    32
  0
VERTEX
  5
307
330
259
100
AcDbEntity
  8
DATA
  6
Continuous
 62
     7
100
AcDbVertex
100
AcDb3dPolylineVertex
 10
404.3009098144134
 20
-201.6986176128226
 30
0.0
 70
    32
  0
VERTEX
  5
308
330
259
100
AcDbEntity
  8
DATA
  6
Continuous
 62
     7
100
AcDbVertex
100
AcDb3dPolylineVertex
 10
404.3009098144134
 20
-201.6386176128227
 30
0.0
 70
    32
  0
VERTEX
  5
309
330
259
100
AcDbEntity
  8
DATA
  6
Continuous
 62
     7
100
AcDbVertex
100
AcDb3dPolylineVertex
 10
404.3009098144134
 20
-201.5786176128228
 30
0.0
 70
    32
  0
VERTEX
  5
30A
330
259
100
AcDbEntity
  8
DATA
  6
Continuous
 62
     7
100
AcDbVertex
100
AcDb3dPolylineVertex
 10
404.3009098144134
 20
-201.528617612823
 30
0.0
 70
    32
  0
VERTEX
  5
30B
330
259
100
AcDbEntity
  8
DATA
  6
Continuous
 62
     7
100
AcDbVertex
100
AcDb3dPolylineVertex
 10
404.3009098144134
 20
-201.4686176128226
 30
0.0
 70
    32
  0
VERTEX
  5
30C
330
259
100
AcDbEntity
  8
DATA
  6
Continuous
 62
     7
100
AcDbVertex
100
AcDb3dPolylineVertex
 10
404.3009098144134
 20
-201.4086176128227
 30
0.0
 70
    32
  0
VERTEX
  5
30D
330
259
100
AcDbEntity
  8
DATA
  6
Continuous
 62
     7
100
AcDbVertex
100
AcDb3dPolylineVertex
 10
404.3009098144134
 20
-201.3486176128227
 30
0.0
 70
    32
  0
VERTEX
  5
30E
330
259
100
AcDbEntity
  8
DATA
  6
Continuous
 62
     7
100
AcDbVertex
100
AcDb3dPolylineVertex
 10
404.3009098144134
 20
-201.2886176128228
 30
0.0
 70
    32
  0
VERTEX
  5
30F
330
259
100
AcDbEntity
  8
DATA
  6
Continuous
 62
     7
100
AcDbVertex
100
AcDb3dPolylineVertex
 10
404.3009098144134
 20
-201.2386176128226
 30
0.0
 70
    32
  0
VERTEX
  5
310
330
259
100
AcDbEntity
  8
DATA
  6
Continuous
 62
     7
100
AcDbVertex
100
AcDb3dPolylineVertex
 10
404.3009098144134
 20
-201.1786176128227
 30
0.0
 70
    32
  0
VERTEX
  5
311
330
259
100
AcDbEntity
  8
DATA
  6
Continuous
 62
     7
100
AcDbVertex
100
AcDb3dPolylineVertex
 10
404.3009098144134
 20
-201.1186176128227
 30
0.0
 70
    32
  0
VERTEX
  5
312
330
259
100
AcDbEntity
  8
DATA
  6
Continuous
 62
     7
100
AcDbVertex
100
AcDb3dPolylineVertex
 10
404.3009098144134
 20
-201.0586176128228
 30
0.0
 70
    32
  0
VERTEX
  5
313
330
259
100
AcDbEntity
  8
DATA
  6
Continuous
 62
     7
100
AcDbVertex
100
AcDb3dPolylineVertex
 10
404.3009098144134
 20
-201.008617612823
 30
0.0
 70
    32
  0
VERTEX
  5
314
330
259
100
AcDbEntity
  8
DATA
  6
Continuous
 62
     7
100
AcDbVertex
100
AcDb3dPolylineVertex
 10
404.3009098144134
 20
-200.9486176128226
 30
0.0
 70
    32
  0
VERTEX
  5
315
330
259
100
AcDbEntity
  8
DATA
  6
Continuous
 62
     7
100
AcDbVertex
100
AcDb3dPolylineVertex
 10
404.3009098144134
 20
-200.8886176128227
 30
0.0
 70
    32
  0
VERTEX
  5
316
330
259
100
AcDbEntity
  8
DATA
  6
Continuous
 62
     7
100
AcDbVertex
100
AcDb3dPolylineVertex
 10
404.3009098144134
 20
-200.838617612823
 30
0.0
 70
    32
  0
VERTEX
  5
317
330
259
100
AcDbEntity
  8
DATA
  6
Continuous
 62
     7
100
AcDbVertex
100
AcDb3dPolylineVertex
 10
404.3009098144134
 20
-200.778617612823
 30
0.0
 70
    32
  0
VERTEX
  5
318
330
259
100
AcDbEntity
  8
DATA
  6
Continuous
 62
     7
100
AcDbVertex
100
AcDb3dPolylineVertex
 10
404.3009098144134
 20
-200.7186176128226
 30
0.0
 70
    32
  0
VERTEX
  5
319
330
259
100
AcDbEntity
  8
DATA
  6
Continuous
 62
     7
100
AcDbVertex
100
AcDb3dPolylineVertex
 10
404.3009098144134
 20
-200.6686176128229
 30
0.0
 70
    32
  0
VERTEX
  5
31A
330
259
100
AcDbEntity
  8
DATA
  6
Continuous
 62
     7
100
AcDbVertex
100
AcDb3dPolylineVertex
 10
404.3009098144134
 20
-200.608617612823
 30
0.0
 70
    32
  0
VERTEX
  5
31B
330
259
100
AcDbEntity
  8
DATA
  6
Continuous
 62
     7
100
AcDbVertex
100
AcDb3dPolylineVertex
 10
404.3009098144134
 20
-200.5586176128228
 30
0.0
 70
    32
  0
VERTEX
  5
31C
330
259
100
AcDbEntity
  8
DATA
  6
Continuous
 62
     7
100
AcDbVertex
100
AcDb3dPolylineVertex
 10
404.3009098144134
 20
-200.4986176128229
 30
0.0
 70
    32
  0
VERTEX
  5
31D
330
259
100
AcDbEntity
  8
DATA
  6
Continuous
 62
     7
100
AcDbVertex
100
AcDb3dPolylineVertex
 10
404.3009098144134
 20
-200.4386176128229
 30
0.0
 70
    32
  0
VERTEX
  5
31E
330
259
100
AcDbEntity
  8
DATA
  6
Continuous
 62
     7
100
AcDbVertex
100
AcDb3dPolylineVertex
 10
404.3009098144134
 20
-200.3886176128227
 30
0.0
 70
    32
  0
VERTEX
  5
31F
330
259
100
AcDbEntity
  8
DATA
  6
Continuous
 62
     7
100
AcDbVertex
100
AcDb3dPolylineVertex
 10
404.3009098144134
 20
-200.3286176128228
 30
0.0
 70
    32
  0
VERTEX
  5
320
330
259
100
AcDbEntity
  8
DATA
  6
Continuous
 62
     7
100
AcDbVertex
100
AcDb3dPolylineVertex
 10
404.3009098144134
 20
-200.2786176128231
 30
0.0
 70
    32
  0
VERTEX
  5
321
330
259
100
AcDbEntity
  8
DATA
  6
Continuous
 62
     7
100
AcDbVertex
100
AcDb3dPolylineVertex
 10
404.3009098144134
 20
-200.2286176128229
 30
0.0
 70
    32
  0
VERTEX
  5
322
330
259
100
AcDbEntity
  8
DATA
  6
Continuous
 62
     7
100
AcDbVertex
100
AcDb3dPolylineVertex
 10
404.3009098144134
 20
-200.1686176128229
 30
0.0
 70
    32
  0
VERTEX
  5
323
330
259
100
AcDbEntity
  8
DATA
  6
Continuous
 62
     7
100
AcDbVertex
100
AcDb3dPolylineVertex
 10
404.3009098144134
 20
-200.1186176128228
 30
0.0
 70
    32
  0
VERTEX
  5
324
330
259
100
AcDbEntity
  8
DATA
  6
Continuous
 62
     7
100
AcDbVertex
100
AcDb3dPolylineVertex
 10
404.3009098144134
 20
-200.0586176128228
 30
0.0
 70
    32
  0
VERTEX
  5
325
330
259
100
AcDbEntity
  8
DATA
  6
Continuous
 62
     7
100
AcDbVertex
100
AcDb3dPolylineVertex
 10
404.3009098144134
 20
-200.008617612823
 30
0.0
 70
    32
  0
VERTEX
  5
326
330
259
100
AcDbEntity
  8
DATA
  6
Continuous
 62
     7
100
AcDbVertex
100
AcDb3dPolylineVertex
 10
404.3009098144134
 20
-199.9586176128229
 30
0.0
 70
    32
  0
VERTEX
  5
327
330
259
100
AcDbEntity
  8
DATA
  6
Continuous
 62
     7
100
AcDbVertex
100
AcDb3dPolylineVertex
 10
404.3009098144134
 20
-199.8986176128229
 30
0.0
 70
    32
  0
VERTEX
  5
328
330
259
100
AcDbEntity
  8
DATA
  6
Continuous
 62
     7
100
AcDbVertex
100
AcDb3dPolylineVertex
 10
404.3009098144134
 20
-199.8486176128227
 30
0.0
 70
    32
  0
VERTEX
  5
329
330
259
100
AcDbEntity
  8
DATA
  6
Continuous
 62
     7
100
AcDbVertex
100
AcDb3dPolylineVertex
 10
404.3009098144134
 20
-199.798617612823
 30
0.0
 70
    32
  0
VERTEX
  5
32A
330
259
100
AcDbEntity
  8
DATA
  6
Continuous
 62
     7
100
AcDbVertex
100
AcDb3dPolylineVertex
 10
404.3009098144134
 20
-199.7486176128228
 30
0.0
 70
    32
  0
VERTEX
  5
32B
330
259
100
AcDbEntity
  8
DATA
  6
Continuous
 62
     7
100
AcDbVertex
100
AcDb3dPolylineVertex
 10
404.3009098144134
 20
-199.6886176128229
 30
0.0
 70
    32
  0
VERTEX
  5
32C
330
259
100
AcDbEntity
  8
DATA
  6
Continuous
 62
     7
100
AcDbVertex
100
AcDb3dPolylineVertex
 10
404.3009098144134
 20
-199.6386176128227
 30
0.0
 70
    32
  0
VERTEX
  5
32D
330
259
100
AcDbEntity
  8
DATA
  6
Continuous
 62
     7
100
AcDbVertex
100
AcDb3dPolylineVertex
 10
404.3009098144134
 20
-199.5886176128229
 30
0.0
 70
    32
  0
VERTEX
  5
32E
330
259
100
AcDbEntity
  8
DATA
  6
Continuous
 62
     7
100
AcDbVertex
100
AcDb3dPolylineVertex
 10
404.3009098144134
 20
-199.5386176128228
 30
0.0
 70
    32
  0
VERTEX
  5
32F
330
259
100
AcDbEntity
  8
DATA
  6
Continuous
 62
     7
100
AcDbVertex
100
AcDb3dPolylineVertex
 10
404.3009098144134
 20
-199.4886176128226
 30
0.0
 70
    32
  0
VERTEX
  5
330
330
259
100
AcDbEntity
  8
DATA
  6
Continuous
 62
     7
100
AcDbVertex
100
AcDb3dPolylineVertex
 10
404.3009098144134
 20
-199.4386176128229
 30
0.0
 70
    32
  0
VERTEX
  5
331
330
259
100
AcDbEntity
  8
DATA
  6
Continuous
 62
     7
100
AcDbVertex
100
AcDb3dPolylineVertex
 10
404.3009098144134
 20
-199.3886176128227
 30
0.0
 70
    32
  0
VERTEX
  5
332
330
259
100
AcDbEntity
  8
DATA
  6
Continuous
 62
     7
100
AcDbVertex
100
AcDb3dPolylineVertex
 10
404.3009098144134
 20
-199.3386176128229
 30
0.0
 70
    32
  0
VERTEX
  5
333
330
259
100
AcDbEntity
  8
DATA
  6
Continuous
 62
     7
100
AcDbVertex
100
AcDb3dPolylineVertex
 10
404.3009098144134
 20
-199.2886176128228
 30
0.0
 70
    32
  0
VERTEX
  5
334
330
259
100
AcDbEntity
  8
DATA
  6
Continuous
 62
     7
100
AcDbVertex
100
AcDb3dPolylineVertex
 10
404.3009098144134
 20
-199.2386176128226
 30
0.0
 70
    32
  0
VERTEX
  5
335
330
259
100
AcDbEntity
  8
DATA
  6
Continuous
 62
     7
100
AcDbVertex
100
AcDb3dPolylineVertex
 10
404.3009098144134
 20
-199.1886176128229
 30
0.0
 70
    32
  0
VERTEX
  5
336
330
259
100
AcDbEntity
  8
DATA
  6
Continuous
 62
     7
100
AcDbVertex
100
AcDb3dPolylineVertex
 10
404.3009098144134
 20
-199.1386176128227
 30
0.0
 70
    32
  0
VERTEX
  5
337
330
259
100
AcDbEntity
  8
DATA
  6
Continuous
 62
     7
100
AcDbVertex
100
AcDb3dPolylineVertex
 10
404.3009098144134
 20
-199.0886176128229
 30
0.0
 70
    32
  0
VERTEX
  5
338
330
259
100
AcDbEntity
  8
DATA
  6
Continuous
 62
     7
100
AcDbVertex
100
AcDb3dPolylineVertex
 10
404.3009098144134
 20
-199.0386176128228
 30
0.0
 70
    32
  0
VERTEX
  5
339
330
259
100
AcDbEntity
  8
DATA
  6
Continuous
 62
     7
100
AcDbVertex
100
AcDb3dPolylineVertex
 10
404.3009098144134
 20
-198.9886176128226
 30
0.0
 70
    32
  0
VERTEX
  5
33A
330
259
100
AcDbEntity
  8
DATA
  6
Continuous
 62
     7
100
AcDbVertex
100
AcDb3dPolylineVertex
 10
404.3009098144134
 20
-198.9486176128226
 30
0.0
 70
    32
  0
VERTEX
  5
33B
330
259
100
AcDbEntity
  8
DATA
  6
Continuous
 62
     7
100
AcDbVertex
100
AcDb3dPolylineVertex
 10
404.3009098144134
 20
-198.8986176128229
 30
0.0
 70
    32
  0
VERTEX
  5
33C
330
259
100
AcDbEntity
  8
DATA
  6
Continuous
 62
     7
100
AcDbVertex
100
AcDb3dPolylineVertex
 10
404.3009098144134
 20
-198.8486176128227
 30
0.0
 70
    32
  0
VERTEX
  5
33D
330
259
100
AcDbEntity
  8
DATA
  6
Continuous
 62
     7
100
AcDbVertex
100
AcDb3dPolylineVertex
 10
404.3009098144134
 20
-198.798617612823
 30
0.0
 70
    32
  0
VERTEX
  5
33E
330
259
100
AcDbEntity
  8
DATA
  6
Continuous
 62
     7
100
AcDbVertex
100
AcDb3dPolylineVertex
 10
404.3009098144134
 20
-198.758617612823
 30
0.0
 70
    32
  0
VERTEX
  5
33F
330
259
100
AcDbEntity
  8
DATA
  6
Continuous
 62
     7
100
AcDbVertex
100
AcDb3dPolylineVertex
 10
404.3009098144134
 20
-198.7086176128229
 30
0.0
 70
    32
  0
VERTEX
  5
340
330
259
100
AcDbEntity
  8
DATA
  6
Continuous
 62
     7
100
AcDbVertex
100
AcDb3dPolylineVertex
 10
404.3009098144134
 20
-198.6686176128229
 30
0.0
 70
    32
  0
VERTEX
  5
341
330
259
100
AcDbEntity
  8
DATA
  6
Continuous
 62
     7
100
AcDbVertex
100
AcDb3dPolylineVertex
 10
404.3009098144134
 20
-198.6186176128227
 30
0.0
 70
    32
  0
VERTEX
  5
342
330
259
100
AcDbEntity
  8
DATA
  6
Continuous
 62
     7
100
AcDbVertex
100
AcDb3dPolylineVertex
 10
404.3009098144134
 20
-198.5786176128228
 30
0.0
 70
    32
  0
VERTEX
  5
343
330
259
100
AcDbEntity
  8
DATA
  6
Continuous
 62
     7
100
AcDbVertex
100
AcDb3dPolylineVertex
 10
404.3009098144134
 20
-198.528617612823
 30
0.0
 70
    32
  0
VERTEX
  5
344
330
259
100
AcDbEntity
  8
DATA
  6
Continuous
 62
     7
100
AcDbVertex
100
AcDb3dPolylineVertex
 10
404.3009098144134
 20
-198.4886176128226
 30
0.0
 70
    32
  0
VERTEX
  5
345
330
259
100
AcDbEntity
  8
DATA
  6
Continuous
 62
     7
100
AcDbVertex
100
AcDb3dPolylineVertex
 10
404.3009098144134
 20
-198.4386176128229
 30
0.0
 70
    32
  0
VERTEX
  5
346
330
259
100
AcDbEntity
  8
DATA
  6
Continuous
 62
     7
100
AcDbVertex
100
AcDb3dPolylineVertex
 10
404.3009098144134
 20
-198.3986176128229
 30
0.0
 70
    32
  0
VERTEX
  5
347
330
259
100
AcDbEntity
  8
DATA
  6
Continuous
 62
     7
100
AcDbVertex
100
AcDb3dPolylineVertex
 10
404.3009098144134
 20
-198.3486176128227
 30
0.0
 70
    32
  0
VERTEX
  5
348
330
259
100
AcDbEntity
  8
DATA
  6
Continuous
 62
     7
100
AcDbVertex
100
AcDb3dPolylineVertex
 10
404.3009098144134
 20
-198.3086176128228
 30
0.0
 70
    32
  0
VERTEX
  5
349
330
259
100
AcDbEntity
  8
DATA
  6
Continuous
 62
     7
100
AcDbVertex
100
AcDb3dPolylineVertex
 10
404.3009098144134
 20
-198.2686176128228
 30
0.0
 70
    32
  0
VERTEX
  5
34A
330
259
100
AcDbEntity
  8
DATA
  6
Continuous
 62
     7
100
AcDbVertex
100
AcDb3dPolylineVertex
 10
404.3009098144134
 20
-198.2286176128229
 30
0.0
 70
    32
  0
VERTEX
  5
34B
330
259
100
AcDbEntity
  8
DATA
  6
Continuous
 62
     7
100
AcDbVertex
100
AcDb3dPolylineVertex
 10
404.3009098144134
 20
-198.1886176128229
 30
0.0
 70
    32
  0
VERTEX
  5
34C
330
259
100
AcDbEntity
  8
DATA
  6
Continuous
 62
     7
100
AcDbVertex
100
AcDb3dPolylineVertex
 10
404.3009098144134
 20
-198.1386176128227
 30
0.0
 70
    32
  0
VERTEX
  5
34D
330
259
100
AcDbEntity
  8
DATA
  6
Continuous
 62
     7
100
AcDbVertex
100
AcDb3dPolylineVertex
 10
404.3009098144134
 20
-198.0986176128227
 30
0.0
 70
    32
  0
VERTEX
  5
34E
330
259
100
AcDbEntity
  8
DATA
  6
Continuous
 62
     7
100
AcDbVertex
100
AcDb3dPolylineVertex
 10
404.3009098144134
 20
-198.0586176128228
 30
0.0
 70
    32
  0
VERTEX
  5
34F
330
259
100
AcDbEntity
  8
DATA
  6
Continuous
 62
     7
100
AcDbVertex
100
AcDb3dPolylineVertex
 10
404.3009098144134
 20
-198.0186176128228
 30
0.0
 70
    32
  0
VERTEX
  5
350
330
259
100
AcDbEntity
  8
DATA
  6
Continuous
 62
     7
100
AcDbVertex
100
AcDb3dPolylineVertex
 10
404.3009098144134
 20
-197.9786176128229
 30
0.0
 70
    32
  0
VERTEX
  5
351
330
259
100
AcDbEntity
  8
DATA
  6
Continuous
 62
     7
100
AcDbVertex
100
AcDb3dPolylineVertex
 10
404.3009098144134
 20
-197.9386176128229
 30
0.0
 70
    32
  0
VERTEX
  5
352
330
259
100
AcDbEntity
  8
DATA
  6
Continuous
 62
     7
100
AcDbVertex
100
AcDb3dPolylineVertex
 10
404.3009098144134
 20
-197.9086176128227
 30
0.0
 70
    32
  0
VERTEX
  5
353
330
259
100
AcDbEntity
  8
DATA
  6
Continuous
 62
     7
100
AcDbVertex
100
AcDb3dPolylineVertex
 10
404.3009098144134
 20
-197.8686176128227
 30
0.0
 70
    32
  0
VERTEX
  5
354
330
259
100
AcDbEntity
  8
DATA
  6
Continuous
 62
     7
100
AcDbVertex
100
AcDb3dPolylineVertex
 10
404.3009098144134
 20
-197.8286176128228
 30
0.0
 70
    32
  0
VERTEX
  5
355
330
259
100
AcDbEntity
  8
DATA
  6
Continuous
 62
     7
100
AcDbVertex
100
AcDb3dPolylineVertex
 10
404.3009098144134
 20
-197.7886176128228
 30
0.0
 70
    32
  0
VERTEX
  5
356
330
259
100
AcDbEntity
  8
DATA
  6
Continuous
 62
     7
100
AcDbVertex
100
AcDb3dPolylineVertex
 10
404.3009098144134
 20
-197.758617612823
 30
0.0
 70
    32
  0
VERTEX
  5
357
330
259
100
AcDbEntity
  8
DATA
  6
Continuous
 62
     7
100
AcDbVertex
100
AcDb3dPolylineVertex
 10
404.3009098144134
 20
-197.7186176128226
 30
0.0
 70
    32
  0
VERTEX
  5
358
330
259
100
AcDbEntity
  8
DATA
  6
Continuous
 62
     7
100
AcDbVertex
100
AcDb3dPolylineVertex
 10
404.3009098144134
 20
-197.6886176128229
 30
0.0
 70
    32
  0
VERTEX
  5
359
330
259
100
AcDbEntity
  8
DATA
  6
Continuous
 62
     7
100
AcDbVertex
100
AcDb3dPolylineVertex
 10
404.3009098144134
 20
-197.6486176128229
 30
0.0
 70
    32
  0
VERTEX
  5
35A
330
259
100
AcDbEntity
  8
DATA
  6
Continuous
 62
     7
100
AcDbVertex
100
AcDb3dPolylineVertex
 10
404.3009098144134
 20
-197.6186176128227
 30
0.0
 70
    32
  0
VERTEX
  5
35B
330
259
100
AcDbEntity
  8
DATA
  6
Continuous
 62
     7
100
AcDbVertex
100
AcDb3dPolylineVertex
 10
404.3009098144134
 20
-197.5786176128228
 30
0.0
 70
    32
  0
VERTEX
  5
35C
330
259
100
AcDbEntity
  8
DATA
  6
Continuous
 62
     7
100
AcDbVertex
100
AcDb3dPolylineVertex
 10
404.3009098144134
 20
-197.548617612823
 30
0.0
 70
    32
  0
VERTEX
  5
35D
330
259
100
AcDbEntity
  8
DATA
  6
Continuous
 62
     7
100
AcDbVertex
100
AcDb3dPolylineVertex
 10
404.3009098144134
 20
-197.5186176128228
 30
0.0
 70
    32
  0
VERTEX
  5
35E
330
259
100
AcDbEntity
  8
DATA
  6
Continuous
 62
     7
100
AcDbVertex
100
AcDb3dPolylineVertex
 10
404.3009098144134
 20
-197.4786176128229
 30
0.0
 70
    32
  0
VERTEX
  5
35F
330
259
100
AcDbEntity
  8
DATA
  6
Continuous
 62
     7
100
AcDbVertex
100
AcDb3dPolylineVertex
 10
404.3009098144134
 20
-197.4486176128226
 30
0.0
 70
    32
  0
VERTEX
  5
360
330
259
100
AcDbEntity
  8
DATA
  6
Continuous
 62
     7
100
AcDbVertex
100
AcDb3dPolylineVertex
 10
404.3009098144134
 20
-197.4186176128229
 30
0.0
 70
    32
  0
VERTEX
  5
361
330
259
100
AcDbEntity
  8
DATA
  6
Continuous
 62
     7
100
AcDbVertex
100
AcDb3dPolylineVertex
 10
404.3009098144134
 20
-197.3886176128227
 30
0.0
 70
    32
  0
VERTEX
  5
362
330
259
100
AcDbEntity
  8
DATA
  6
Continuous
 62
     7
100
AcDbVertex
100
AcDb3dPolylineVertex
 10
404.3009098144134
 20
-197.3586176128229
 30
0.0
 70
    32
  0
VERTEX
  5
363
330
259
100
AcDbEntity
  8
DATA
  6
Continuous
 62
     7
100
AcDbVertex
100
AcDb3dPolylineVertex
 10
404.3009098144134
 20
-197.3286176128228
 30
0.0
 70
    32
  0
VERTEX
  5
364
330
259
100
AcDbEntity
  8
DATA
  6
Continuous
 62
     7
100
AcDbVertex
100
AcDb3dPolylineVertex
 10
404.3009098144134
 20
-197.298617612823
 30
0.0
 70
    32
  0
VERTEX
  5
365
330
259
100
AcDbEntity
  8
DATA
  6
Continuous
 62
     7
100
AcDbVertex
100
AcDb3dPolylineVertex
 10
404.3009098144134
 20
-197.2686176128228
 30
0.0
 70
    32
  0
VERTEX
  5
366
330
259
100
AcDbEntity
  8
DATA
  6
Continuous
 62
     7
100
AcDbVertex
100
AcDb3dPolylineVertex
 10
404.3009098144134
 20
-197.2386176128226
 30
0.0
 70
    32
  0
VERTEX
  5
367
330
259
100
AcDbEntity
  8
DATA
  6
Continuous
 62
     7
100
AcDbVertex
100
AcDb3dPolylineVertex
 10
404.3009098144134
 20
-197.2086176128229
 30
0.0
 70
    32
  0
VERTEX
  5
368
330
259
100
AcDbEntity
  8
DATA
  6
Continuous
 62
     7
100
AcDbVertex
100
AcDb3dPolylineVertex
 10
404.3009098144134
 20
-197.1886176128229
 30
0.0
 70
    32
  0
VERTEX
  5
369
330
259
100
AcDbEntity
  8
DATA
  6
Continuous
 62
     7
100
AcDbVertex
100
AcDb3dPolylineVertex
 10
404.3009098144134
 20
-197.1586176128227
 30
0.0
 70
    32
  0
VERTEX
  5
36A
330
259
100
AcDbEntity
  8
DATA
  6
Continuous
 62
     7
100
AcDbVertex
100
AcDb3dPolylineVertex
 10
404.3009098144134
 20
-197.1286176128229
 30
0.0
 70
    32
  0
VERTEX
  5
36B
330
259
100
AcDbEntity
  8
DATA
  6
Continuous
 62
     7
100
AcDbVertex
100
AcDb3dPolylineVertex
 10
404.3009098144134
 20
-197.1086176128229
 30
0.0
 70
    32
  0
VERTEX
  5
36C
330
259
100
AcDbEntity
  8
DATA
  6
Continuous
 62
     7
100
AcDbVertex
100
AcDb3dPolylineVertex
 10
404.3009098144134
 20
-197.0786176128228
 30
0.0
 70
    32
  0
VERTEX
  5
36D
330
259
100
AcDbEntity
  8
DATA
  6
Continuous
 62
     7
100
AcDbVertex
100
AcDb3dPolylineVertex
 10
404.3009098144134
 20
-197.0586176128228
 30
0.0
 70
    32
  0
VERTEX
  5
36E
330
259
100
AcDbEntity
  8
DATA
  6
Continuous
 62
     7
100
AcDbVertex
100
AcDb3dPolylineVertex
 10
404.3009098144134
 20
-197.028617612823
 30
0.0
 70
    32
  0
VERTEX
  5
36F
330
259
100
AcDbEntity
  8
DATA
  6
Continuous
 62
     7
100
AcDbVertex
100
AcDb3dPolylineVertex
 10
404.3009098144134
 20
-197.008617612823
 30
0.0
 70
    32
  0
VERTEX
  5
370
330
259
100
AcDbEntity
  8
DATA
  6
Continuous
 62
     7
100
AcDbVertex
100
AcDb3dPolylineVertex
 10
404.3009098144134
 20
-196.9786176128229
 30
0.0
 70
    32
  0
VERTEX
  5
371
330
259
100
AcDbEntity
  8
DATA
  6
Continuous
 62
     7
100
AcDbVertex
100
AcDb3dPolylineVertex
 10
404.3009098144134
 20
-196.9586176128228
 30
0.0
 70
    32
  0
VERTEX
  5
372
330
259
100
AcDbEntity
  8
DATA
  6
Continuous
 62
     7
100
AcDbVertex
100
AcDb3dPolylineVertex
 10
404.3009098144134
 20
-196.9386176128229
 30
0.0
 70
    32
  0
VERTEX
  5
373
330
259
100
AcDbEntity
  8
DATA
  6
Continuous
 62
     7
100
AcDbVertex
100
AcDb3dPolylineVertex
 10
404.3009098144134
 20
-196.9186176128229
 30
0.0
 70
    32
  0
VERTEX
  5
374
330
259
100
AcDbEntity
  8
DATA
  6
Continuous
 62
     7
100
AcDbVertex
100
AcDb3dPolylineVertex
 10
404.3009098144134
 20
-196.8986176128229
 30
0.0
 70
    32
  0
VERTEX
  5
375
330
259
100
AcDbEntity
  8
DATA
  6
Continuous
 62
     7
100
AcDbVertex
100
AcDb3dPolylineVertex
 10
404.3009098144134
 20
-196.8786176128229
 30
0.0
 70
    32
  0
VERTEX
  5
376
330
259
100
AcDbEntity
  8
DATA
  6
Continuous
 62
     7
100
AcDbVertex
100
AcDb3dPolylineVertex
 10
404.3009098144134
 20
-196.8486176128227
 30
0.0
 70
    32
  0
VERTEX
  5
377
330
259
100
AcDbEntity
  8
DATA
  6
Continuous
 62
     7
100
AcDbVertex
100
AcDb3dPolylineVertex
 10
404.3009098144134
 20
-196.8386176128229
 30
0.0
 70
    32
  0
VERTEX
  5
378
330
259
100
AcDbEntity
  8
DATA
  6
Continuous
 62
     7
100
AcDbVertex
100
AcDb3dPolylineVertex
 10
404.3009098144134
 20
-196.818617612823
 30
0.0
 70
    32
  0
VERTEX
  5
379
330
259
100
AcDbEntity
  8
DATA
  6
Continuous
 62
     7
100
AcDbVertex
100
AcDb3dPolylineVertex
 10
404.3009098144134
 20
-196.798617612823
 30
0.0
 70
    32
  0
VERTEX
  5
37A
330
259
100
AcDbEntity
  8
DATA
  6
Continuous
 62
     7
100
AcDbVertex
100
AcDb3dPolylineVertex
 10
404.3009098144134
 20
-196.778617612823
 30
0.0
 70
    32
  0
VERTEX
  5
37B
330
259
100
AcDbEntity
  8
DATA
  6
Continuous
 62
     7
100
AcDbVertex
100
AcDb3dPolylineVertex
 10
404.3009098144134
 20
-196.758617612823
 30
0.0
 70
    32
  0
VERTEX
  5
37C
330
259
100
AcDbEntity
  8
DATA
  6
Continuous
 62
     7
100
AcDbVertex
100
AcDb3dPolylineVertex
 10
404.3009098144134
 20
-196.7486176128228
 30
0.0
 70
    32
  0
VERTEX
  5
37D
330
259
100
AcDbEntity
  8
DATA
  6
Continuous
 62
     7
100
AcDbVertex
100
AcDb3dPolylineVertex
 10
404.3009098144134
 20
-196.7286176128229
 30
0.0
 70
    32
  0
VERTEX
  5
37E
330
259
100
AcDbEntity
  8
DATA
  6
Continuous
 62
     7
100
AcDbVertex
100
AcDb3dPolylineVertex
 10
404.3009098144134
 20
-196.7086176128228
 30
0.0
 70
    32
  0
VERTEX
  5
37F
330
259
100
AcDbEntity
  8
DATA
  6
Continuous
 62
     7
100
AcDbVertex
100
AcDb3dPolylineVertex
 10
404.3009098144134
 20
-196.6986176128226
 30
0.0
 70
    32
  0
VERTEX
  5
380
330
259
100
AcDbEntity
  8
DATA
  6
Continuous
 62
     7
100
AcDbVertex
100
AcDb3dPolylineVertex
 10
404.3009098144134
 20
-196.6786176128227
 30
0.0
 70
    32
  0
VERTEX
  5
381
330
259
100
AcDbEntity
  8
DATA
  6
Continuous
 62
     7
100
AcDbVertex
100
AcDb3dPolylineVertex
 10
404.3009098144134
 20
-196.6686176128229
 30
0.0
 70
    32
  0
VERTEX
  5
382
330
259
100
AcDbEntity
  8
DATA
  6
Continuous
 62
     7
100
AcDbVertex
100
AcDb3dPolylineVertex
 10
404.3009098144134
 20
-196.6586176128227
 30
0.0
 70
    32
  0
VERTEX
  5
383
330
259
100
AcDbEntity
  8
DATA
  6
Continuous
 62
     7
100
AcDbVertex
100
AcDb3dPolylineVertex
 10
404.3009098144134
 20
-196.6386176128227
 30
0.0
 70
    32
  0
VERTEX
  5
384
330
259
100
AcDbEntity
  8
DATA
  6
Continuous
 62
     7
100
AcDbVertex
100
AcDb3dPolylineVertex
 10
404.3009098144134
 20
-196.6286176128229
 30
0.0
 70
    32
  0
VERTEX
  5
385
330
259
100
AcDbEntity
  8
DATA
  6
Continuous
 62
     7
100
AcDbVertex
100
AcDb3dPolylineVertex
 10
404.3009098144134
 20
-196.6186176128227
 30
0.0
 70
    32
  0
VERTEX
  5
386
330
259
100
AcDbEntity
  8
DATA
  6
Continuous
 62
     7
100
AcDbVertex
100
AcDb3dPolylineVertex
 10
404.3009098144134
 20
-196.6086176128229
 30
0.0
 70
    32
  0
VERTEX
  5
387
330
259
100
AcDbEntity
  8
DATA
  6
Continuous
 62
     7
100
AcDbVertex
100
AcDb3dPolylineVertex
 10
404.3009098144134
 20
-196.5986176128227
 30
0.0
 70
    32
  0
VERTEX
  5
388
330
259
100
AcDbEntity
  8
DATA
  6
Continuous
 62
     7
100
AcDbVertex
100
AcDb3dPolylineVertex
 10
404.3009098144134
 20
-196.5886176128229
 30
0.0
 70
    32
  0
VERTEX
  5
389
330
259
100
AcDbEntity
  8
DATA
  6
Continuous
 62
     7
100
AcDbVertex
100
AcDb3dPolylineVertex
 10
404.3009098144134
 20
-196.5786176128228
 30
0.0
 70
    32
  0
VERTEX
  5
38A
330
259
100
AcDbEntity
  8
DATA
  6
Continuous
 62
     7
100
AcDbVertex
100
AcDb3dPolylineVertex
 10
404.3009098144134
 20
-196.568617612823
 30
0.0
 70
    32
  0
VERTEX
  5
38B
330
259
100
AcDbEntity
  8
DATA
  6
Continuous
 62
     7
100
AcDbVertex
100
AcDb3dPolylineVertex
 10
404.3009098144134
 20
-196.5586176128228
 30
0.0
 70
    32
  0
VERTEX
  5
38C
330
259
100
AcDbEntity
  8
DATA
  6
Continuous
 62
     7
100
AcDbVertex
100
AcDb3dPolylineVertex
 10
404.3009098144134
 20
-196.548617612823
 30
0.0
 70
    32
  0
VERTEX
  5
38D
330
259
100
AcDbEntity
  8
DATA
  6
Continuous
 62
     7
100
AcDbVertex
100
AcDb3dPolylineVertex
 10
404.3009098144134
 20
-196.5386176128228
 30
0.0
 70
    32
  0
VERTEX
  5
38E
330
259
100
AcDbEntity
  8
DATA
  6
Continuous
 62
     7
100
AcDbVertex
100
AcDb3dPolylineVertex
 10
404.3009098144134
 20
-196.5386176128228
 30
0.0
 70
    32
  0
VERTEX
  5
38F
330
259
100
AcDbEntity
  8
DATA
  6
Continuous
 62
     7
100
AcDbVertex
100
AcDb3dPolylineVertex
 10
404.3009098144134
 20
-196.528617612823
 30
0.0
 70
    32
  0
VERTEX
  5
390
330
259
100
AcDbEntity
  8
DATA
  6
Continuous
 62
     7
100
AcDbVertex
100
AcDb3dPolylineVertex
 10
404.3009098144134
 20
-196.528617612823
 30
0.0
 70
    32
  0
VERTEX
  5
391
330
259
100
AcDbEntity
  8
DATA
  6
Continuous
 62
     7
100
AcDbVertex
100
AcDb3dPolylineVertex
 10
404.3009098144134
 20
-196.5186176128228
 30
0.0
 70
    32
  0
VERTEX
  5
392
330
259
100
AcDbEntity
  8
DATA
  6
Continuous
 62
     7
100
AcDbVertex
100
AcDb3dPolylineVertex
 10
404.3009098144134
 20
-196.5186176128228
 30
0.0
 70
    32
  0
VERTEX
  5
393
330
259
100
AcDbEntity
  8
DATA
  6
Continuous
 62
     7
100
AcDbVertex
100
AcDb3dPolylineVertex
 10
404.3009098144134
 20
-196.508617612823
 30
0.0
 70
    32
  0
VERTEX
  5
394
330
259
100
AcDbEntity
  8
DATA
  6
Continuous
 62
     7
100
AcDbVertex
100
AcDb3dPolylineVertex
 10
404.3009098144134
 20
-196.508617612823
 30
0.0
 70
    32
  0
VERTEX
  5
395
330
259
100
AcDbEntity
  8
DATA
  6
Continuous
 62
     7
100
AcDbVertex
100
AcDb3dPolylineVertex
 10
404.3009098144134
 20
-196.508617612823
 30
0.0
 70
    32
  0
VERTEX
  5
396
330
259
100
AcDbEntity
  8
DATA
  6
Continuous
 62
     7
100
AcDbVertex
100
AcDb3dPolylineVertex
 10
404.3009098144134
 20
-196.4986176128228
 30
0.0
 70
    32
  0
VERTEX
  5
397
330
259
100
AcDbEntity
  8
DATA
  6
Continuous
 62
     7
100
AcDbVertex
100
AcDb3dPolylineVertex
 10
404.3009098144134
 20
-196.4986176128228
 30
0.0
 70
    32
  0
VERTEX
  5
398
330
259
100
AcDbEntity
  8
DATA
  6
Continuous
 62
     7
100
AcDbVertex
100
AcDb3dPolylineVertex
 10
404.3009098144134
 20
-196.4986176128228
 30
0.0
 70
    32
  0
VERTEX
  5
399
330
259
100
AcDbEntity
  8
DATA
  6
Continuous
 62
     7
100
AcDbVertex
100
AcDb3dPolylineVertex
 10
404.3009098144134
 20
-196.4986176128228
 30
0.0
 70
    32
  0
SEQEND
  5
39A
330
259
100
AcDbEntity
  8
DATA
  6
Continuous
 62
     7
  0
LINE
  5
39B
330
459
100
AcDbEntity
  8
DATA
  6
Continuous
 62
     7
100
AcDbLine
 10
409.3001999999809
 20
-205.9999999999986
 30
0.0
 11
409.3001999999809
 21
-202.4999999999987
 31
0.0
  0
LINE
  5
39C
330
459
100
AcDbEntity
  8
DATA
  6
Continuous
 62
     7
100
AcDbLine
 10
409.3001999999809
 20
-209.4999999999986
 30
0.0
 11
409.3001999999809
 21
-205.9999999999986
 31
0.0
  0
LINE
  5
39D
330
459
100
AcDbEntity
  8
DATA
  6
Continuous
 62
     7
100
AcDbLine
 10
409.3001999999809
 20
-198.9999999999987
 30
0.0
 11
409.3001999999809
 21
-195.4999999999987
 31
0.0
  0
LINE
  5
39E
330
459
100
AcDbEntity
  8
DATA
  6
Continuous
 62
     7
100
AcDbLine
 10
409.3001999999809
 20
-202.4999999999987
 30
0.0
 11
409.3001999999809
 21
-198.9999999999987
 31
0.0
  0
LINE
  5
39F
330
459
100
AcDbEntity
  8
DATA
  6
Continuous
 62
     7
100
AcDbLine
 10
405.3001999999809
 20
-209.4999999999986
 30
0.0
 11
409.3001999999809
 21
-209.4999999999986
 31
0.0
  0
LINE
  5
3A0
330
459
100
AcDbEntity
  8
DATA
  6
Continuous
 62
     7
100
AcDbLine
 10
409.3001999999809
 20
-195.4999999999987
 30
0.0
 11
405.3001999999809
 21
-195.4999999999987
 31
0.0
  0
ARC
  5
3A1
330
459
100
AcDbEntity
  8
DATA
  6
Continuous
 62
     7
100
AcDbCircle
 10
405.3001999999809
 20
-196.4999999999987
 30
0.0
 40
1.0
100
AcDbArc
 50
90.0
 51
180.0
  0
ARC
  5
3A2
330
459
100
AcDbEntity
  8
DATA
  6
Continuous
 62
     7
100
AcDbCircle
 10
405.3001999999809
 20
-208.4999999999986
 30
0.0
 40
1.0
100
AcDbArc
 50
180.0
 51
270.0
  0
LINE
  5
3A3
330
459
100
AcDbEntity
  8
DATA
  6
Continuous
 62
     7
100
AcDbLine
 10
442.0001999999808
 20
-202.4999999999987
 30
0.0
 11
442.0001999999808
 21
-209.4999999999986
 31
0.0
  0
LINE
  5
3A4
330
459
100
AcDbEntity
  8
DATA
  6
Continuous
 62
     7
100
AcDbLine
 10
442.0001999999808
 20
-202.4999999999987
 30
0.0
 11
442.0001999999808
 21
-195.4999999999987
 31
0.0
  0
LINE
  5
3A5
330
459
100
AcDbEntity
  8
DATA
  6
Continuous
 62
     7
100
AcDbLine
 10
754.9734200175747
 20
-584.999999999998
 30
0.0
 11
754.9734200175747
 21
85.00000000000115
 31
0.0
  0
LINE
  5
3A6
330
459
100
AcDbEntity
  8
DATA
  6
Continuous
 62
     7
100
AcDbLine
 10
606.394036174635
 20
85.00000000000294
 30
0.0
 11
606.394036174635
 21
-584.999999999998
 31
0.0
  0
LINE
  5
3A7
330
459
100
AcDbEntity
  8
DATA
  6
Continuous
 62
     7
100
AcDbLine
 10
754.9734200176096
 20
73.00000000000024
 30
0.0
 11
754.9734200176096
 21
-572.9999999999992
 31
0.0
  0
LINE
  5
3A8
330
459
100
AcDbEntity
  8
DATA
  6
Continuous
 62
     7
100
AcDbLine
 10
451.00019999998
 20
-584.999999999998
 30
0.0
 11
451.00019999998
 21
85.00000000000294
 31
0.0
  0
LINE
  5
3A9
330
459
100
AcDbEntity
  8
DATA
  6
Continuous
 62
     7
100
AcDbLine
 10
606.394036174635
 20
85.00000000000294
 30
0.0
 11
606.394036174635
 21
-584.999999999998
 31
0.0
  0
LINE
  5
3AA
330
459
100
AcDbEntity
  8
DATA
  6
Continuous
 62
     7
100
AcDbLine
 10
492.000199999979
 20
85.00000000000294
 30
0.0
 11
492.000199999979
 21
-584.999999999998
 31
0.0
  0
LINE
  5
3AB
330
459
100
AcDbEntity
  8
DATA
  6
Continuous
 62
     7
100
AcDbLine
 10
754.9734200176104
 20
-584.9999999999992
 30
0.0
 11
606.394036174635
 21
-584.999999999998
 31
0.0
  0
LINE
  5
3AC
330
459
100
AcDbEntity
  8
DATA
  6
Continuous
 62
     7
100
AcDbLine
 10
606.394036174635
 20
-599.999999999998
 30
0.0
 11
754.9734200173438
 21
-599.9999999999992
 31
0.0
  0
LINE
  5
3AD
330
459
100
AcDbEntity
  8
DATA
  6
Continuous
 62
     7
100
AcDbLine
 10
606.394036174635
 20
-584.999999999998
 30
0.0
 11
754.9734200175747
 21
-584.999999999998
 31
0.0
  0
LINE
  5
3AE
330
459
100
AcDbEntity
  8
DATA
  6
Continuous
 62
     7
100
AcDbLine
 10
450.7471574969009
 20
-599.999999999998
 30
0.0
 11
606.394036174635
 21
-599.999999999998
 31
0.0
  0
LINE
  5
3AF
330
459
100
AcDbEntity
  8
DATA
  6
Continuous
 62
     7
100
AcDbLine
 10
606.394036174635
 20
-584.999999999998
 30
0.0
 11
450.7471574969009
 21
-584.999999999998
 31
0.0
  0
LINE
  5
3B0
330
459
100
AcDbEntity
  8
DATA
  6
Continuous
 62
     7
100
AcDbLine
 10
492.000199999979
 20
-584.999999999998
 30
0.0
 11
606.394036174635
 21
-584.999999999998
 31
0.0
  0
CIRCLE
  5
3B1
330
459
100
AcDbEntity
  8
DATA
  6
Continuous
 62
     7
100
AcDbCircle
 10
479.00019999998
 20
-563.9999999999981
 30
0.0
 40
4.0
  0
LINE
  5
3B2
330
459
100
AcDbEntity
  8
DATA
  6
Continuous
 62
     7
100
AcDbLine
 10
450.747157496898
 20
-572.999999999998
 30
0.0
 11
450.7471574969009
 21
-584.999999999998
 31
0.0
  0
LINE
  5
3B3
330
459
100
AcDbEntity
  8
DATA
  6
Continuous
 62
     7
100
AcDbLine
 10
451.00019999998
 20
-572.999999999998
 30
0.0
 11
451.00019999998
 21
-584.999999999998
 31
0.0
  0
LINE
  5
3B4
330
459
100
AcDbEntity
  8
DATA
  6
Continuous
 62
     7
100
AcDbLine
 10
451.00019999998
 20
-572.999999999998
 30
0.0
 11
450.747157496898
 21
-572.999999999998
 31
0.0
  0
LINE
  5
3B5
330
459
100
AcDbEntity
  8
DATA
  6
Continuous
 62
     7
100
AcDbLine
 10
450.7471574969009
 20
-584.999999999998
 30
0.0
 11
450.7471574969009
 21
-599.999999999998
 31
0.0
  0
LINE
  5
3B6
330
459
100
AcDbEntity
  8
DATA
  6
Continuous
 62
     7
100
AcDbLine
 10
606.394036174635
 20
-584.999999999998
 30
0.0
 11
606.394036174635
 21
-599.999999999998
 31
0.0
  0
LINE
  5
3B7
330
459
100
AcDbEntity
  8
DATA
  6
Continuous
 62
     7
100
AcDbLine
 10
754.9734200173438
 20
-599.9999999999992
 30
0.0
 11
770.0001999999789
 21
-600.0
 31
0.0
  0
LINE
  5
3B8
330
459
100
AcDbEntity
  8
DATA
  6
Continuous
 62
     7
100
AcDbLine
 10
770.0001999999798
 20
-572.9999999999992
 30
0.0
 11
754.9734200176096
 21
-572.9999999999992
 31
0.0
  0
LINE
  5
3B9
330
459
100
AcDbEntity
  8
DATA
  6
Continuous
 62
     7
100
AcDbLine
 10
754.9734200176096
 20
-572.9999999999992
 30
0.0
 11
754.9734200176104
 21
-584.9999999999992
 31
0.0
  0
LINE
  5
3BA
330
459
100
AcDbEntity
  8
DATA
  6
Continuous
 62
     7
100
AcDbLine
 10
754.9734200176096
 20
-584.9999999999992
 30
0.0
 11
754.9734200173438
 21
-599.9999999999992
 31
0.0
  0
LINE
  5
3BB
330
459
100
AcDbEntity
  8
DATA
  6
Continuous
 62
     7
100
AcDbLine
 10
770.0001999999789
 20
-600.0
 30
0.0
 11
770.0001999999798
 21
-572.9999999999992
 31
0.0
  0
CIRCLE
  5
3BC
330
459
100
AcDbEntity
  8
DATA
  6
Continuous
 62
     7
100
AcDbCircle
 10
479.00019999998
 20
-249.9999999999977
 30
0.0
 40
4.0
  0
LINE
  5
3BD
330
459
100
AcDbEntity
  8
DATA
  6
Continuous
 62
     7
100
AcDbLine
 10
449.0001999999808
 20
-207.4999999999986
 30
0.0
 11
449.0001999999808
 21
-197.4999999999987
 31
0.0
  0
LINE
  5
3BE
330
459
100
AcDbEntity
  8
DATA
  6
Continuous
 62
     7
100
AcDbLine
 10
449.0001999999808
 20
-205.4999999999986
 30
0.0
 11
451.00019999998
 21
-205.4999999999986
 31
0.0
  0
LINE
  5
3BF
330
459
100
AcDbEntity
  8
DATA
  6
Continuous
 62
     7
100
AcDbLine
 10
451.00019999998
 20
-199.4999999999987
 30
0.0
 11
449.0001999999808
 21
-199.4999999999987
 31
0.0
  0
CIRCLE
  5
3C0
330
459
100
AcDbEntity
  8
DATA
  6
Continuous
 62
     7
100
AcDbCircle
 10
581.0008055437105
 20
-250.0000000000009
 30
0.0
 40
4.0
  0
CIRCLE
  5
3C1
330
459
100
AcDbEntity
  8
DATA
  6
Continuous
 62
     7
100
AcDbCircle
 10
581.000199999979
 20
-249.9999999999977
 30
0.0
 40
4.0
  0
CIRCLE
  5
3C2
330
459
100
AcDbEntity
  8
DATA
  6
Continuous
 62
     7
100
AcDbCircle
 10
581.000199999979
 20
-249.9999999999977
 30
0.0
 40
7.000000000041836
  0
LINE
  5
3C3
330
459
100
AcDbEntity
  8
DATA
  6
Continuous
 62
     7
100
AcDbLine
 10
754.9734200175747
 20
85.00000000000115
 30
0.0
 11
606.394036174635
 21
85.00000000000294
 31
0.0
  0
LINE
  5
3C4
330
459
100
AcDbEntity
  8
DATA
  6
Continuous
 62
     7
100
AcDbLine
 10
492.000199999979
 20
85.00000000000294
 30
0.0
 11
606.394036174635
 21
85.00000000000294
 31
0.0
  0
LINE
  5
3C5
330
459
100
AcDbEntity
  8
DATA
  6
Continuous
 62
     7
100
AcDbLine
 10
451.00019999998
 20
85.00000000000294
 30
0.0
 11
492.000199999979
 21
85.00000000000294
 31
0.0
  0
CIRCLE
  5
3C6
330
459
100
AcDbEntity
  8
DATA
  6
Continuous
 62
     7
100
AcDbCircle
 10
479.00019999998
 20
64.00000000000206
 30
0.0
 40
4.0
  0
LINE
  5
3C7
330
459
100
AcDbEntity
  8
DATA
  6
Continuous
 62
     7
100
AcDbLine
 10
423.0908544878033
 20
84.99999999999795
 30
0.0
 11
400.0001999999835
 21
85.00000000000021
 31
0.0
  0
LINE
  5
3C8
330
459
100
AcDbEntity
  8
DATA
  6
Continuous
 62
     7
100
AcDbLine
 10
400.0001999999835
 20
100.0000000000002
 30
0.0
 11
423.0908544878033
 21
99.99999999999795
 31
0.0
  0
LINE
  5
3C9
330
459
100
AcDbEntity
  8
DATA
  6
Continuous
 62
     7
100
AcDbLine
 10
404.0317901369794
 20
72.99999999999885
 30
0.0
 11
426.972440875043
 21
72.99999999999795
 31
0.0
  0
LINE
  5
3CA
330
459
100
AcDbEntity
  8
DATA
  6
Continuous
 62
     7
100
AcDbLine
 10
400.0001999999835
 20
85.00000000000021
 30
0.0
 11
400.0001999999835
 21
100.0000000000002
 31
0.0
  0
LINE
  5
3CB
330
459
100
AcDbEntity
  8
DATA
  6
Continuous
 62
     7
100
AcDbLine
 10
404.0001999999836
 20
83.50000000000024
 30
0.0
 11
404.0001999999836
 21
85.00000000000021
 31
0.0
  0
LINE
  5
3CC
330
459
100
AcDbEntity
  8
DATA
  6
Continuous
 62
     7
100
AcDbLine
 10
404.0317901369794
 20
72.99999999999885
 30
0.0
 11
404.0317901369794
 21
83.50000000000024
 31
0.0
  0
LINE
  5
3CD
330
459
100
AcDbEntity
  8
DATA
  6
Continuous
 62
     7
100
AcDbLine
 10
404.0001999999836
 20
83.50000000000024
 30
0.0
 11
404.0317901369794
 21
83.50000000000024
 31
0.0
  0
LINE
  5
3CE
330
459
100
AcDbEntity
  8
DATA
  6
Continuous
 62
     7
100
AcDbLine
 10
404.0317901369794
 20
83.50000000000024
 30
0.0
 11
404.0317901369794
 21
72.99999999999885
 31
0.0
  0
LINE
  5
3CF
330
459
100
AcDbEntity
  8
DATA
  6
Continuous
 62
     7
100
AcDbLine
 10
606.394036174635
 20
84.99999999999795
 30
0.0
 11
754.9734200175747
 21
85.00000000000021
 31
0.0
  0
LINE
  5
3D0
330
459
100
AcDbEntity
  8
DATA
  6
Continuous
 62
     7
100
AcDbLine
 10
606.394036174635
 20
99.99999999999795
 30
0.0
 11
754.9734200173438
 21
100.0000000000011
 31
0.0
  0
LINE
  5
3D1
330
459
100
AcDbEntity
  8
DATA
  6
Continuous
 62
     7
100
AcDbLine
 10
754.9734200176104
 20
85.00000000000021
 30
0.0
 11
606.394036174635
 21
84.99999999999795
 31
0.0
  0
LINE
  5
3D2
330
459
100
AcDbEntity
  8
DATA
  6
Continuous
 62
     7
100
AcDbLine
 10
606.394036174635
 20
84.99999999999795
 30
0.0
 11
606.394036174635
 21
99.99999999999795
 31
0.0
  0
LINE
  5
3D3
330
459
100
AcDbEntity
  8
DATA
  6
Continuous
 62
     7
100
AcDbLine
 10
450.7471574969009
 20
84.99999999999795
 30
0.0
 11
450.7471574969009
 21
99.99999999999795
 31
0.0
  0
LINE
  5
3D4
330
459
100
AcDbEntity
  8
DATA
  6
Continuous
 62
     7
100
AcDbLine
 10
423.0908544878033
 20
84.99999999999795
 30
0.0
 11
423.0908544878033
 21
99.99999999999795
 31
0.0
  0
LINE
  5
3D5
330
459
100
AcDbEntity
  8
DATA
  6
Continuous
 62
     7
100
AcDbLine
 10
450.7471574969009
 20
99.99999999999795
 30
0.0
 11
606.394036174635
 21
99.99999999999795
 31
0.0
  0
LINE
  5
3D6
330
459
100
AcDbEntity
  8
DATA
  6
Continuous
 62
     7
100
AcDbLine
 10
423.0908544878033
 20
99.99999999999795
 30
0.0
 11
450.7471574969009
 21
99.99999999999795
 31
0.0
  0
LINE
  5
3D7
330
459
100
AcDbEntity
  8
DATA
  6
Continuous
 62
     7
100
AcDbLine
 10
492.000199999979
 20
84.99999999999795
 30
0.0
 11
606.394036174635
 21
84.99999999999795
 31
0.0
  0
LINE
  5
3D8
330
459
100
AcDbEntity
  8
DATA
  6
Continuous
 62
     7
100
AcDbLine
 10
606.394036174635
 20
84.99999999999795
 30
0.0
 11
450.7471574969009
 21
84.99999999999795
 31
0.0
  0
LINE
  5
3D9
330
459
100
AcDbEntity
  8
DATA
  6
Continuous
 62
     7
100
AcDbLine
 10
450.7471574969009
 20
84.99999999999795
 30
0.0
 11
423.0908544878033
 21
84.99999999999795
 31
0.0
  0
LINE
  5
3DA
330
459
100
AcDbEntity
  8
DATA
  6
Continuous
 62
     7
100
AcDbLine
 10
426.972440875043
 20
72.99999999999795
 30
0.0
 11
450.747157496898
 21
72.99999999999795
 31
0.0
  0
LINE
  5
3DB
330
459
100
AcDbEntity
  8
DATA
  6
Continuous
 62
     7
100
AcDbLine
 10
426.972440875043
 20
72.99999999999795
 30
0.0
 11
426.972440875043
 21
84.99999999999795
 31
0.0
  0
LINE
  5
3DC
330
459
100
AcDbEntity
  8
DATA
  6
Continuous
 62
     7
100
AcDbLine
 10
451.00019999998
 20
72.99999999999795
 30
0.0
 11
450.747157496898
 21
72.99999999999795
 31
0.0
  0
LINE
  5
3DD
330
459
100
AcDbEntity
  8
DATA
  6
Continuous
 62
     7
100
AcDbLine
 10
451.00019999998
 20
72.99999999999795
 30
0.0
 11
451.00019999998
 21
84.99999999999795
 31
0.0
  0
LINE
  5
3DE
330
459
100
AcDbEntity
  8
DATA
  6
Continuous
 62
     7
100
AcDbLine
 10
450.747157496898
 20
72.99999999999795
 30
0.0
 11
450.7471574969009
 21
84.99999999999795
 31
0.0
  0
LINE
  5
3DF
330
459
100
AcDbEntity
  8
DATA
  6
Continuous
 62
     7
100
AcDbLine
 10
770.0001999999789
 20
100.0000000000011
 30
0.0
 11
770.0001999999798
 21
73.00000000000024
 31
0.0
  0
LINE
  5
3E0
330
459
100
AcDbEntity
  8
DATA
  6
Continuous
 62
     7
100
AcDbLine
 10
754.9734200176096
 20
85.00000000000021
 30
0.0
 11
754.9734200173438
 21
100.0000000000011
 31
0.0
  0
LINE
  5
3E1
330
459
100
AcDbEntity
  8
DATA
  6
Continuous
 62
     7
100
AcDbLine
 10
754.9734200173438
 20
100.0000000000011
 30
0.0
 11
770.0001999999789
 21
100.0000000000011
 31
0.0
  0
LINE
  5
3E2
330
459
100
AcDbEntity
  8
DATA
  6
Continuous
 62
     7
100
AcDbLine
 10
754.9734200176096
 20
73.00000000000024
 30
0.0
 11
754.9734200176104
 21
85.00000000000021
 31
0.0
  0
LINE
  5
3E3
330
459
100
AcDbEntity
  8
DATA
  6
Continuous
 62
     7
100
AcDbLine
 10
770.0001999999798
 20
73.00000000000024
 30
0.0
 11
754.9734200176096
 21
73.00000000000024
 31
0.0
  0
CIRCLE
  5
3E4
330
459
100
AcDbEntity
  8
DATA
  6
Continuous
 62
     7
100
AcDbCircle
 10
-22.89445857746709
 20
-55.76491245239985
 30
0.0
 40
132.9278931916174
  0
CIRCLE
  5
3E5
330
459
100
AcDbEntity
  8
DATA
  6
Continuous
 62
     7
100
AcDbCircle
 10
-22.89445857746707
 20
-55.76491245239985
 30
0.0
 40
137.7892145991066
  0
LINE
  5
3E6
330
459
100
AcDbEntity
  8
DATA
  6
Continuous
 62
     7
100
AcDbLine
 10
400.0001999999835
 20
85.00000000000021
 30
0.0
 11
400.0001999999835
 21
-584.9999999999992
 31
0.0
  0
LINE
  5
3E7
330
459
100
AcDbEntity
  8
DATA
  6
Continuous
 62
     7
100
AcDbLine
 10
-530.0000000000054
 20
84.99997138976981
 30
0.0
 11
-530.0000000000054
 21
-584.9999999999992
 31
0.0
  0
ENDSEC
  0
SECTION
  2
OBJECTS
  0
DICTIONARY
  5
3F5
330
0
100
AcDbDictionary
281
     1
  3
ACAD_CIP_PREVIOUS_PRODUCT_INFO
350
471
  3
ACAD_COLOR
350
44B
  3
ACAD_DETAILVIEWSTYLE
350
453
  3
ACAD_GROUP
350
3F6
  3
ACAD_LAYOUT
350
44A
  3
ACAD_MATERIAL
350
3F9
  3
ACAD_MLEADERSTYLE
350
44E
  3
ACAD_MLINESTYLE
350
447
  3
ACAD_PLOTSETTINGS
350
449
  3
ACAD_PLOTSTYLENAME
350
3F7
  3
ACAD_SCALELIST
350
42B
  3
ACAD_SECTIONVIEWSTYLE
350
450
  3
ACAD_TABLESTYLE
350
44C
  3
ACAD_VISUALSTYLE
350
412
  3
ACDB_RECOMPOSE_DATA
350
489
  3
AcDbVariableDictionary
350
47C
  3
DWGPROPS
350
48A
  0
DICTIONARY
  5
472
330
43D
100
AcDbDictionary
280
     1
281
     1
  3
ADSK_XREC_LAYER_RECONCILED
360
473
  0
DICTIONARY
  5
474
330
45D
100
AcDbDictionary
280
     1
281
     1
  3
ADSK_XREC_LAYER_RECONCILED
360
475
  0
DICTIONARY
  5
476
330
469
100
AcDbDictionary
280
     1
281
     1
  3
ADSK_XREC_LAYER_RECONCILED
360
477
  0
DICTIONARY
  5
478
330
46A
100
AcDbDictionary
280
     1
281
     1
  3
ADSK_XREC_LAYER_RECONCILED
360
479
  0
DICTIONARY
  5
47A
330
46B
100
AcDbDictionary
280
     1
281
     1
  3
ADSK_XREC_LAYER_RECONCILED
360
47B
  0
XRECORD
  5
471
102
{ACAD_REACTORS
330
3F5
102
}
330
3F5
100
AcDbXrecord
280
     1
300
ACDLT
300
2013
300
ACDLT_F_S
  0
DICTIONARY
  5
44B
102
{ACAD_REACTORS
330
3F5
102
}
330
3F5
100
AcDbDictionary
281
     1
  0
DICTIONARY
  5
453
102
{ACAD_REACTORS
330
3F5
102
}
330
3F5
100
AcDbDictionary
281
     1
  3
Imperial24
350
454
  0
DICTIONARY
  5
3F6
102
{ACAD_REACTORS
330
3F5
102
}
330
3F5
100
AcDbDictionary
281
     1
  0
DICTIONARY
  5
44A
102
{ACAD_REACTORS
330
3F5
102
}
330
3F5
100
AcDbDictionary
281
     1
  3
Model
350
45C
  3
レイアウト1
350
458
  0
DICTIONARY
  5
3F9
102
{ACAD_REACTORS
330
3F5
102
}
330
3F5
100
AcDbDictionary
281
     1
  3
ByBlock
350
402
  3
ByLayer
350
3FA
  3
Global
350
40A
  0
DICTIONARY
  5
44E
102
{ACAD_REACTORS
330
3F5
102
}
330
3F5
100
AcDbDictionary
281
     1
  3
Standard
350
44F
  0
DICTIONARY
  5
447
102
{ACAD_REACTORS
330
3F5
102
}
330
3F5
100
AcDbDictionary
281
     1
  3
Standard
350
448
  0
DICTIONARY
  5
449
102
{ACAD_REACTORS
330
3F5
102
}
330
3F5
100
AcDbDictionary
281
     1
  0
ACDBDICTIONARYWDFLT
  5
3F7
102
{ACAD_REACTORS
330
3F5
102
}
330
3F5
100
AcDbDictionary
281
     1
  3
Normal
350
3F8
100
AcDbDictionaryWithDefault
340
3F8
  0
DICTIONARY
  5
42B
102
{ACAD_REACTORS
330
3F5
102
}
330
3F5
100
AcDbDictionary
281
     1
  3
A0
350
42C
  3
A1
350
42D
  3
A2
350
42E
  3
A3
350
42F
  3
A4
350
430
  3
A5
350
431
  3
A6
350
432
  3
A7
350
433
  3
A8
350
434
  3
A9
350
435
  3
B0
350
436
  3
B1
350
437
  3
B2
350
438
  3
B3
350
439
  3
B4
350
43A
  3
B5
350
43B
  3
B6
350
43C
  0
DICTIONARY
  5
450
102
{ACAD_REACTORS
330
3F5
102
}
330
3F5
100
AcDbDictionary
281
     1
  3
Imperial24
350
452
  0
DICTIONARY
  5
44C
102
{ACAD_REACTORS
330
3F5
102
}
330
3F5
100
AcDbDictionary
281
     1
  3
Standard
350
44D
  0
DICTIONARY
  5
412
102
{ACAD_REACTORS
330
3F5
102
}
330
3F5
100
AcDbDictionary
281
     1
  3
2dWireframe
350
418
  3
Basic
350
417
  3
Brighten
350
41E
  3
ColorChange
350
422
  3
Conceptual
350
41B
  3
Dim
350
41D
  3
EdgeColorOff
350
42A
  3
Facepattern
350
421
  3
Flat
350
413
  3
FlatWithEdges
350
414
  3
Gouraud
350
415
  3
GouraudWithEdges
350
416
  3
Hidden
350
41A
  3
JitterOff
350
428
  3
Linepattern
350
420
  3
OverhangOff
350
429
  3
Realistic
350
41C
  3
Shaded
350
427
  3
Shaded with edges
350
426
  3
Shades of Gray
350
423
  3
Sketchy
350
424
  3
Thicken
350
41F
  3
Wireframe
350
419
  3
X-Ray
350
425
  0
XRECORD
  5
489
102
{ACAD_REACTORS
330
3F5
102
}
330
3F5
100
AcDbXrecord
280
     1
 90
        1
330
44D
  0
DICTIONARY
  5
47C
102
{ACAD_REACTORS
330
3F5
102
}
330
3F5
100
AcDbDictionary
281
     1
  3
CANNOSCALE
350
481
  3
CMLEADERSTYLE
350
47E
  3
CTABLESTYLE
350
47D
  3
CVIEWDETAILSTYLE
350
47F
  3
CVIEWSECTIONSTYLE
350
480
  3
DIMASSOC
350
484
  3
INDEXCTL
350
483
  3
SORTENTS
350
482
  3
XCLIPFRAME
350
485
  0
XRECORD
  5
48A
102
{ACAD_REACTORS
330
3F5
102
}
330
3F5
100
AcDbXrecord
280
     1
  1
DWGPROPS COOKIE
  2

  3

  4

  6

  7

  8
sasaki_n
  9

300
=
301
=
302
=
303
=
304
=
305
=
306
=
307
=
308
=
309
=
 40
0.0003544675925926
 41
2456114.637094907
 42
2456114.638415475
  1

 90
        0
  0
XRECORD
  5
473
102
{ACAD_REACTORS
330
472
102
}
330
472
100
AcDbXrecord
280
     1
290
     1
  0
XRECORD
  5
475
102
{ACAD_REACTORS
330
474
102
}
330
474
100
AcDbXrecord
280
     1
290
     1
  0
XRECORD
  5
477
102
{ACAD_REACTORS
330
476
102
}
330
476
100
AcDbXrecord
280
     1
290
     1
  0
XRECORD
  5
479
102
{ACAD_REACTORS
330
478
102
}
330
478
100
AcDbXrecord
280
     1
290
     1
  0
XRECORD
  5
47B
102
{ACAD_REACTORS
330
47A
102
}
330
47A
100
AcDbXrecord
280
     1
290
     1
  0
ACDBDETAILVIEWSTYLE
  5
454
102
{ACAD_REACTORS
330
453
102
}
330
453
100
AcDbModelDocViewStyle
 70
     0
  3
Imperial24
290
     0
100
AcDbDetailViewStyle
 70
     0
 71
     0
 90
        3
 71
     1
340
43E
 40
0.24
340
0
 40
0.24
300

 40
0.36
280
     3
 71
     2
340
445
 90
       25
 71
     3
340
43E
 40
0.24
 90
        1
 40
0.75
 90
        1
300
%<\AcVar ViewType \f "%tc1">% %<\AcVar ViewDetailId>%\PSCALE %<\AcVar ViewScale \f "%sn">%
 71
     4
340
445
 90
       25
340
445
 90
       25
280
     0
  0
LAYOUT
  5
45C
102
{ACAD_XDICTIONARY
360
4C2
102
}
102
{ACAD_REACTORS
330
44A
102
}
330
44A
100
AcDbPlotSettings
  1

  2
Microsoft XPS Document Writer
  4

  6

 40
0.0
 41
0.0
 42
0.0
 43
0.0
 44
0.0
 45
0.0
 46
0.0
 47
0.0
 48
0.0
 49
0.0
140
0.0
141
0.0
142
1.0
143
1.0
 70
  1712
 72
     0
 73
     0
 74
     0
  7

 75
     0
147
1.0
148
0.0
149
0.0
100
AcDbLayout
  1
Model
 70
     1
 71
     0
 10
0.0
 20
0.0
 11
12.0
 21
9.0
 12
0.0
 22
0.0
 32
0.0
 14
0.0
 24
0.0
 34
0.0
 15
0.0
 25
0.0
 35
0.0
146
0.0
 13
0.0
 23
0.0
 33
0.0
 16
1.0
 26
0.0
 36
0.0
 17
0.0
 27
1.0
 37
0.0
 76
     0
330
459
331
45E
  0
LAYOUT
  5
458
102
{ACAD_XDICTIONARY
360
4C0
102
}
102
{ACAD_REACTORS
330
44A
102
}
330
44A
100
AcDbPlotSettings
  1

  2
Microsoft XPS Document Writer
  4

  6

 40
0.0
 41
0.0
 42
0.0
 43
0.0
 44
0.0
 45
0.0
 46
0.0
 47
0.0
 48
0.0
 49
0.0
140
0.0
141
0.0
142
1.0
143
1.0
 70
   688
 72
     0
 73
     0
 74
     5
  7

 75
    16
147
1.0
148
0.0
149
0.0
100
AcDbLayout
  1
レイアウト1
 70
     0
 71
     1
 10
0.0
 20
0.0
 11
12.0
 21
9.0
 12
0.0
 22
0.0
 32
0.0
 14
1.000000000000000E+20
 24
1.000000000000000E+20
 34
1.000000000000000E+20
 15
-1.000000000000000E+20
 25
-1.000000000000000E+20
 35
-1.000000000000000E+20
146
0.0
 13
0.0
 23
0.0
 33
0.0
 16
1.0
 26
0.0
 36
0.0
 17
0.0
 27
1.0
 37
0.0
 76
     0
330
455
  0
MATERIAL
  5
402
102
{ACAD_XDICTIONARY
360
403
102
}
102
{ACAD_REACTORS
330
3F9
102
}
330
3F9
100
AcDbMaterial
  1
ByBlock
 72
     0
 43
0.0208333333333333
 43
0.0
 43
0.0
 43
0.0
 43
0.0
 43
0.0208333333333333
 43
0.0
 43
0.0
 43
0.0
 43
0.0
 43
1.0
 43
0.0
 43
0.0
 43
0.0
 43
0.0
 43
1.0
 77
     0
 47
0.0208333333333333
 47
0.0
 47
0.0
 47
0.0
 47
0.0
 47
0.0208333333333333
 47
0.0
 47
0.0
 47
0.0
 47
0.0
 47
1.0
 47
0.0
 47
0.0
 47
0.0
 47
0.0
 47
1.0
171
     0
 49
0.0208333333333333
 49
0.0
 49
0.0
 49
0.0
 49
0.0
 49
0.0208333333333333
 49
0.0
 49
0.0
 49
0.0
 49
0.0
 49
1.0
 49
0.0
 49
0.0
 49
0.0
 49
0.0
 49
1.0
175
     0
142
0.0208333333333333
142
0.0
142
0.0
142
0.0
142
0.0
142
0.0208333333333333
142
0.0
142
0.0
142
0.0
142
0.0
142
1.0
142
0.0
142
0.0
142
0.0
142
0.0
142
1.0
179
     0
144
0.0208333333333333
144
0.0
144
0.0
144
0.0
144
0.0
144
0.0208333333333333
144
0.0
144
0.0
144
0.0
144
0.0
144
1.0
144
0.0
144
0.0
144
0.0
144
0.0
144
1.0
147
0.0208333333333333
147
0.0
147
0.0
147
0.0
147
0.0
147
0.0208333333333333
147
0.0
147
0.0
147
0.0
147
0.0
147
1.0
147
0.0
147
0.0
147
0.0
147
0.0
147
1.0
  0
MATERIAL
  5
3FA
102
{ACAD_XDICTIONARY
360
3FB
102
}
102
{ACAD_REACTORS
330
3F9
102
}
330
3F9
100
AcDbMaterial
  1
ByLayer
 72
     0
 43
0.0208333333333333
 43
0.0
 43
0.0
 43
0.0
 43
0.0
 43
0.0208333333333333
 43
0.0
 43
0.0
 43
0.0
 43
0.0
 43
1.0
 43
0.0
 43
0.0
 43
0.0
 43
0.0
 43
1.0
 77
     0
 47
0.0208333333333333
 47
0.0
 47
0.0
 47
0.0
 47
0.0
 47
0.0208333333333333
 47
0.0
 47
0.0
 47
0.0
 47
0.0
 47
1.0
 47
0.0
 47
0.0
 47
0.0
 47
0.0
 47
1.0
171
     0
 49
0.0208333333333333
 49
0.0
 49
0.0
 49
0.0
 49
0.0
 49
0.0208333333333333
 49
0.0
 49
0.0
 49
0.0
 49
0.0
 49
1.0
 49
0.0
 49
0.0
 49
0.0
 49
0.0
 49
1.0
175
     0
142
0.0208333333333333
142
0.0
142
0.0
142
0.0
142
0.0
142
0.0208333333333333
142
0.0
142
0.0
142
0.0
142
0.0
142
1.0
142
0.0
142
0.0
142
0.0
142
0.0
142
1.0
179
     0
144
0.0208333333333333
144
0.0
144
0.0
144
0.0
144
0.0
144
0.0208333333333333
144
0.0
144
0.0
144
0.0
144
0.0
144
1.0
144
0.0
144
0.0
144
0.0
144
0.0
144
1.0
147
0.0208333333333333
147
0.0
147
0.0
147
0.0
147
0.0
147
0.0208333333333333
147
0.0
147
0.0
147
0.0
147
0.0
147
1.0
147
0.0
147
0.0
147
0.0
147
0.0
147
1.0
  0
MATERIAL
  5
40A
102
{ACAD_XDICTIONARY
360
40B
102
}
102
{ACAD_REACTORS
330
3F9
102
}
330
3F9
100
AcDbMaterial
  1
Global
 72
     0
 43
0.0208333333333333
 43
0.0
 43
0.0
 43
0.0
 43
0.0
 43
0.0208333333333333
 43
0.0
 43
0.0
 43
0.0
 43
0.0
 43
1.0
 43
0.0
 43
0.0
 43
0.0
 43
0.0
 43
1.0
 77
     0
 47
0.0208333333333333
 47
0.0
 47
0.0
 47
0.0
 47
0.0
 47
0.0208333333333333
 47
0.0
 47
0.0
 47
0.0
 47
0.0
 47
1.0
 47
0.0
 47
0.0
 47
0.0
 47
0.0
 47
1.0
171
     0
 49
0.0208333333333333
 49
0.0
 49
0.0
 49
0.0
 49
0.0
 49
0.0208333333333333
 49
0.0
 49
0.0
 49
0.0
 49
0.0
 49
1.0
 49
0.0
 49
0.0
 49
0.0
 49
0.0
 49
1.0
175
     0
142
0.0208333333333333
142
0.0
142
0.0
142
0.0
142
0.0
142
0.0208333333333333
142
0.0
142
0.0
142
0.0
142
0.0
142
1.0
142
0.0
142
0.0
142
0.0
142
0.0
142
1.0
179
     0
144
0.0208333333333333
144
0.0
144
0.0
144
0.0
144
0.0
144
0.0208333333333333
144
0.0
144
0.0
144
0.0
144
0.0
144
1.0
144
0.0
144
0.0
144
0.0
144
0.0
144
1.0
147
0.0208333333333333
147
0.0
147
0.0
147
0.0
147
0.0
147
0.0208333333333333
147
0.0
147
0.0
147
0.0
147
0.0
147
1.0
147
0.0
147
0.0
147
0.0
147
0.0
147
1.0
  0
MLEADERSTYLE
  5
44F
102
{ACAD_REACTORS
330
44E
102
}
330
44E
100
AcDbMLeaderStyle
170
     2
171
     1
172
     0
 90
        2
 40
0.0
 41
0.0
173
     1
 91
-1056964608
340
443
 92
       -2
290
     1
 42
0.09
291
     1
 43
0.36
  3
Standard
 44
0.18
300

342
43E
174
     1
178
     6
175
     1
176
     0
 93
-1056964608
 45
0.18
292
     0
297
     0
 46
0.18
 94
-1056964608
 47
1.0
 49
1.0
140
1.0
293
     1
141
0.0
294
     1
177
     0
142
1.0
295
     0
296
     0
143
0.125
1001
ACAD_MLEADERVER
1070
     2
  0
MLINESTYLE
  5
448
102
{ACAD_REACTORS
330
447
102
}
330
447
100
AcDbMlineStyle
  2
STANDARD
 70
     0
  3

 62
   256
 51
90.0
 52
90.0
 71
     2
 49
0.5
 62
   256
  6
BYLAYER
 49
-0.5
 62
   256
  6
BYLAYER
  0
ACDBPLACEHOLDER
  5
3F8
102
{ACAD_REACTORS
330
3F7
102
}
330
3F7
  0
SCALE
  5
42C
102
{ACAD_REACTORS
330
42B
102
}
330
42B
100
AcDbScale
 70
     0
300
1:1
140
1.0
141
1.0
290
     1
  0
SCALE
  5
42D
102
{ACAD_REACTORS
330
42B
102
}
330
42B
100
AcDbScale
 70
     0
300
1/128" = 1'-0"
140
0.0078125
141
12.0
290
     0
  0
SCALE
  5
42E
102
{ACAD_REACTORS
330
42B
102
}
330
42B
100
AcDbScale
 70
     0
300
1/64" = 1'-0"
140
0.015625
141
12.0
290
     0
  0
SCALE
  5
42F
102
{ACAD_REACTORS
330
42B
102
}
330
42B
100
AcDbScale
 70
     0
300
1/32" = 1'-0"
140
0.03125
141
12.0
290
     0
  0
SCALE
  5
430
102
{ACAD_REACTORS
330
42B
102
}
330
42B
100
AcDbScale
 70
     0
300
1/16" = 1'-0"
140
0.0625
141
12.0
290
     0
  0
SCALE
  5
431
102
{ACAD_REACTORS
330
42B
102
}
330
42B
100
AcDbScale
 70
     0
300
3/32" = 1'-0"
140
0.09375
141
12.0
290
     0
  0
SCALE
  5
432
102
{ACAD_REACTORS
330
42B
102
}
330
42B
100
AcDbScale
 70
     0
300
1/8" = 1'-0"
140
0.125
141
12.0
290
     0
  0
SCALE
  5
433
102
{ACAD_REACTORS
330
42B
102
}
330
42B
100
AcDbScale
 70
     0
300
3/16" = 1'-0"
140
0.1875
141
12.0
290
     0
  0
SCALE
  5
434
102
{ACAD_REACTORS
330
42B
102
}
330
42B
100
AcDbScale
 70
     0
300
1/4" = 1'-0"
140
0.25
141
12.0
290
     0
  0
SCALE
  5
435
102
{ACAD_REACTORS
330
42B
102
}
330
42B
100
AcDbScale
 70
     0
300
3/8" = 1'-0"
140
0.375
141
12.0
290
     0
  0
SCALE
  5
436
102
{ACAD_REACTORS
330
42B
102
}
330
42B
100
AcDbScale
 70
     0
300
1/2" = 1'-0"
140
0.5
141
12.0
290
     0
  0
SCALE
  5
437
102
{ACAD_REACTORS
330
42B
102
}
330
42B
100
AcDbScale
 70
     0
300
3/4" = 1'-0"
140
0.75
141
12.0
290
     0
  0
SCALE
  5
438
102
{ACAD_REACTORS
330
42B
102
}
330
42B
100
AcDbScale
 70
     0
300
1" = 1'-0"
140
1.0
141
12.0
290
     0
  0
SCALE
  5
439
102
{ACAD_REACTORS
330
42B
102
}
330
42B
100
AcDbScale
 70
     0
300
1-1/2" = 1'-0"
140
1.5
141
12.0
290
     0
  0
SCALE
  5
43A
102
{ACAD_REACTORS
330
42B
102
}
330
42B
100
AcDbScale
 70
     0
300
3" = 1'-0"
140
3.0
141
12.0
290
     0
  0
SCALE
  5
43B
102
{ACAD_REACTORS
330
42B
102
}
330
42B
100
AcDbScale
 70
     0
300
6" = 1'-0"
140
6.0
141
12.0
290
     0
  0
SCALE
  5
43C
102
{ACAD_REACTORS
330
42B
102
}
330
42B
100
AcDbScale
 70
     0
300
1'-0" = 1'-0"
140
12.0
141
12.0
290
     0
  0
ACDBSECTIONVIEWSTYLE
  5
452
102
{ACAD_REACTORS
330
450
102
}
330
450
100
AcDbModelDocViewStyle
 70
     0
  3
Imperial24
290
     0
100
AcDbSectionViewStyle
 70
     0
 71
     0
 90
       78
 71
     1
340
43E
 40
0.24
340
0
340
0
 40
0.24
300
I, O, Q, S, X, Z
 40
0.48
 90
        3
 40
0.18
 90
        1
 71
     2
340
451
 90
       25
340
445
 90
       50
 40
0.24
 40
0.0
 40
0.24
 71
     3
340
43E
 40
0.24
 90
        1
 40
0.75
 90
        1
300
%<\AcVar ViewType \f "%tc1">% %<\AcVar ViewSectionStartId>%-%<\AcVar ViewSectionEndId>%\PSCALE %<\AcVar ViewScale \f "%sn">%
 71
     4
300
ANSI31
 40
1.0
 90
        0
290
     0
290
     0
 90
        6
 40
0.0
 40
1.570796326794896
 40
0.2617993877991494
 40
1.308996938995747
 40
-0.2617993877991494
 40
1.832595714594046
  0
TABLESTYLE
  5
44D
102
{ACAD_XDICTIONARY
360
487
102
}
102
{ACAD_REACTORS
330
44C
102
}
330
44C
100
AcDbTableStyle
  3
Standard
 70
     0
 71
     0
 40
0.06
 41
0.06
280
     0
281
     0
  7
STANDARD
140
0.18
170
     2
 62
     0
 63
     7
283
     0
274
    -2
284
     1
 64
     0
275
    -2
285
     1
 65
     0
276
    -2
286
     1
 66
     0
277
    -2
287
     1
 67
     0
278
    -2
288
     1
 68
     0
279
    -2
289
     1
 69
     0
  7
STANDARD
140
0.25
170
     5
 62
     0
 63
     7
283
     0
274
    -2
284
     1
 64
     0
275
    -2
285
     1
 65
     0
276
    -2
286
     1
 66
     0
277
    -2
287
     1
 67
     0
278
    -2
288
     1
 68
     0
279
    -2
289
     1
 69
     0
  7
STANDARD
140
0.18
170
     5
 62
     0
 63
     7
283
     0
274
    -2
284
     1
 64
     0
275
    -2
285
     1
 65
     0
276
    -2
286
     1
 66
     0
277
    -2
287
     1
 67
     0
278
    -2
288
     1
 68
     0
279
    -2
289
     1
 69
     0
  0
VISUALSTYLE
  5
418
102
{ACAD_XDICTIONARY
360
498
102
}
102
{ACAD_REACTORS
330
412
102
}
330
412
100
AcDbVisualStyle
  2
2dWireframe
 70
     4
 71
     0
 72
     2
 73
     0
 90
        0
 40
-0.6
 41
-30.0
 62
     5
 63
     7
 74
     1
 91
        4
 64
     7
 65
   257
 75
     1
175
     1
 42
1.0
 92
        0
 66
   257
 43
1.0
 76
     1
 77
     6
 78
     2
 67
     7
 79
     5
170
     0
171
     0
290
     0
174
     0
 93
        1
 44
0.0
173
     0
291
     0
 45
0.0
1001
ACAD
1000
AcDbSavedByObjectVersion
1070
     0
  0
VISUALSTYLE
  5
417
102
{ACAD_XDICTIONARY
360
496
102
}
102
{ACAD_REACTORS
330
412
102
}
330
412
100
AcDbVisualStyle
  2
Basic
 70
     7
 71
     1
 72
     0
 73
     1
 90
        0
 40
-0.6
 41
-30.0
 62
     5
 63
     7
 74
     0
 91
        4
 64
     7
 65
   257
 75
     1
175
     1
 42
1.0
 92
        8
 66
     7
 43
1.0
 76
     1
 77
     6
 78
     2
 67
     7
 79
     5
170
     0
171
     0
290
     0
174
     0
 93
        1
 44
0.0
173
     0
291
     1
 45
0.0
1001
ACAD
1000
AcDbSavedByObjectVersion
1070
     0
  0
VISUALSTYLE
  5
41E
102
{ACAD_XDICTIONARY
360
4A4
102
}
102
{ACAD_REACTORS
330
412
102
}
330
412
100
AcDbVisualStyle
  2
Brighten
 70
    12
 71
     2
 72
     2
 73
     0
 90
        0
 40
-0.6
 41
-30.0
 62
     5
 63
     7
 74
     1
 91
        4
 64
     7
 65
   257
 75
     1
175
     1
 42
1.0
 92
        8
 66
     7
 43
1.0
 76
     1
 77
     6
 78
     2
 67
     7
 79
     5
170
     0
171
     0
290
     0
174
     0
 93
        1
 44
50.0
173
     0
291
     1
 45
0.0
1001
ACAD
1000
AcDbSavedByObjectVersion
1070
     0
  0
VISUALSTYLE
  5
422
102
{ACAD_XDICTIONARY
360
4AC
102
}
102
{ACAD_REACTORS
330
412
102
}
330
412
100
AcDbVisualStyle
  2
ColorChange
 70
    16
 71
     2
 72
     2
 73
     3
 90
        0
 40
-0.6
 41
-30.0
 62
     5
 63
     8
 74
     1
 91
        4
 64
     7
 65
   257
 75
     1
175
     1
 42
1.0
 92
        8
 66
     8
 43
1.0
 76
     1
 77
     6
 78
     2
 67
     7
 79
     5
170
     0
171
     0
290
     0
174
     0
 93
        1
 44
0.0
173
     0
291
     1
 45
0.0
1001
ACAD
1000
AcDbSavedByObjectVersion
1070
     0
  0
VISUALSTYLE
  5
41B
102
{ACAD_XDICTIONARY
360
49E
102
}
102
{ACAD_REACTORS
330
412
102
}
330
412
100
AcDbVisualStyle
  2
Conceptual
 70
     9
 71
     3
 72
     2
 73
     0
 90
        0
 40
-0.6
 41
-30.0
 62
     5
 63
     7
 74
     2
 91
        2
 64
     7
 65
   257
 75
     1
175
     1
 42
179.0
 92
        8
 66
     7
 43
1.0
 76
     1
 77
     6
 78
     2
 67
     7
 79
     3
170
     0
171
     0
290
     0
174
     0
 93
        1
 44
0.0
173
     0
291
     0
 45
0.0
1001
ACAD
1000
AcDbSavedByObjectVersion
1070
     0
  0
VISUALSTYLE
  5
41D
102
{ACAD_XDICTIONARY
360
4A2
102
}
102
{ACAD_REACTORS
330
412
102
}
330
412
100
AcDbVisualStyle
  2
Dim
 70
    11
 71
     2
 72
     2
 73
     0
 90
        0
 40
-0.6
 41
-30.0
 62
     5
 63
     7
 74
     1
 91
        4
 64
     7
 65
   257
 75
     1
175
     1
 42
1.0
 92
        8
 66
     7
 43
1.0
 76
     1
 77
     6
 78
     2
 67
     7
 79
     5
170
     0
171
     0
290
     0
174
     0
 93
        1
 44
-50.0
173
     0
291
     1
 45
0.0
1001
ACAD
1000
AcDbSavedByObjectVersion
1070
     0
  0
VISUALSTYLE
  5
42A
102
{ACAD_XDICTIONARY
360
4BC
102
}
102
{ACAD_REACTORS
330
412
102
}
330
412
100
AcDbVisualStyle
  2
EdgeColorOff
 70
    22
 71
     2
 72
     2
 73
     0
 90
        0
 40
-0.6
 41
-30.0
 62
     5
 63
     7
 74
     1
 91
        4
 64
     7
 65
   257
 75
     1
175
     1
 42
1.0
 92
        8
 66
     7
 43
1.0
 76
     1
 77
     6
 78
     2
 67
     7
 79
     5
170
     0
171
     0
290
     0
174
     0
 93
        1
 44
0.0
173
     0
291
     1
 45
0.0
1001
ACAD
1000
AcDbSavedByObjectVersion
1070
     0
  0
VISUALSTYLE
  5
421
102
{ACAD_XDICTIONARY
360
4AA
102
}
102
{ACAD_REACTORS
330
412
102
}
330
412
100
AcDbVisualStyle
  2
Facepattern
 70
    15
 71
     2
 72
     2
 73
     0
 90
        0
 40
-0.6
 41
-30.0
 62
     5
 63
     7
 74
     1
 91
        4
 64
     7
 65
   257
 75
     1
175
     1
 42
1.0
 92
        8
 66
     7
 43
1.0
 76
     1
 77
     6
 78
     2
 67
     7
 79
     5
170
     0
171
     0
290
     0
174
     0
 93
        1
 44
0.0
173
     0
291
     1
 45
0.0
1001
ACAD
1000
AcDbSavedByObjectVersion
1070
     0
  0
VISUALSTYLE
  5
413
102
{ACAD_XDICTIONARY
360
48E
102
}
102
{ACAD_REACTORS
330
412
102
}
330
412
100
AcDbVisualStyle
  2
Flat
 70
     0
 71
     2
 72
     1
 73
     1
 90
        2
 40
-0.6
 41
30.0
 62
     5
 63
     7
 74
     0
 91
        0
 64
     7
 65
   257
 75
     1
175
     1
 42
1.0
 92
        8
 66
     7
 43
1.0
 76
     1
 77
     6
 78
     2
 67
     7
 79
     5
170
     0
171
     0
290
     0
174
     0
 93
       13
 44
0.0
173
     0
291
     1
 45
0.0
1001
ACAD
1000
AcDbSavedByObjectVersion
1070
     0
  0
VISUALSTYLE
  5
414
102
{ACAD_XDICTIONARY
360
490
102
}
102
{ACAD_REACTORS
330
412
102
}
330
412
100
AcDbVisualStyle
  2
FlatWithEdges
 70
     1
 71
     2
 72
     1
 73
     1
 90
        2
 40
-0.6
 41
30.0
 62
     5
 63
     7
 74
     1
 91
        0
 64
     7
 65
   257
 75
     1
175
     1
 42
1.0
 92
        0
 66
   257
 43
1.0
 76
     1
 77
     6
 78
     2
 67
     7
 79
     5
170
     0
171
     0
290
     0
174
     0
 93
       13
 44
0.0
173
     0
291
     1
 45
0.0
1001
ACAD
1000
AcDbSavedByObjectVersion
1070
     0
  0
VISUALSTYLE
  5
415
102
{ACAD_XDICTIONARY
360
492
102
}
102
{ACAD_REACTORS
330
412
102
}
330
412
100
AcDbVisualStyle
  2
Gouraud
 70
     2
 71
     2
 72
     2
 73
     1
 90
        2
 40
-0.6
 41
30.0
 62
     5
 63
     7
 74
     0
 91
        0
 64
     7
 65
   257
 75
     1
175
     1
 42
1.0
 92
        0
 66
     7
 43
1.0
 76
     1
 77
     6
 78
     2
 67
     7
 79
     5
170
     0
171
     0
290
     0
174
     0
 93
       13
 44
0.0
173
     0
291
     1
 45
0.0
1001
ACAD
1000
AcDbSavedByObjectVersion
1070
     0
  0
VISUALSTYLE
  5
416
102
{ACAD_XDICTIONARY
360
494
102
}
102
{ACAD_REACTORS
330
412
102
}
330
412
100
AcDbVisualStyle
  2
GouraudWithEdges
 70
     3
 71
     2
 72
     2
 73
     1
 90
        2
 40
-0.6
 41
30.0
 62
     5
 63
     7
 74
     1
 91
        0
 64
     7
 65
   257
 75
     1
175
     1
 42
1.0
 92
        0
 66
   257
 43
1.0
 76
     1
 77
     6
 78
     2
 67
     7
 79
     5
170
     0
171
     0
290
     0
174
     0
 93
       13
 44
0.0
173
     0
291
     1
 45
0.0
1001
ACAD
1000
AcDbSavedByObjectVersion
1070
     0
  0
VISUALSTYLE
  5
41A
102
{ACAD_XDICTIONARY
360
49C
102
}
102
{ACAD_REACTORS
330
412
102
}
330
412
100
AcDbVisualStyle
  2
Hidden
 70
     6
 71
     1
 72
     2
 73
     2
 90
        0
 40
-0.6
 41
-30.0
 62
     5
 63
     7
 74
     2
 91
        2
 64
     7
 65
   257
 75
     2
175
     1
 42
40.0
 92
        0
 66
   257
 43
1.0
 76
     1
 77
     6
 78
     2
 67
     7
 79
     3
170
     0
171
     0
290
     0
174
     0
 93
        1
 44
0.0
173
     0
291
     0
 45
0.0
1001
ACAD
1000
AcDbSavedByObjectVersion
1070
     0
  0
VISUALSTYLE
  5
428
102
{ACAD_XDICTIONARY
360
4B8
102
}
102
{ACAD_REACTORS
330
412
102
}
330
412
100
AcDbVisualStyle
  2
JitterOff
 70
    20
 71
     2
 72
     2
 73
     0
 90
        0
 40
-0.6
 41
-30.0
 62
     5
 63
     7
 74
     1
 91
        4
 64
     7
 65
   257
 75
     1
175
     1
 42
1.0
 92
       10
 66
     7
 43
1.0
 76
     1
 77
     6
 78
     2
 67
     7
 79
     5
170
     0
171
     0
290
     0
174
     0
 93
        1
 44
0.0
173
     0
291
     1
 45
0.0
1001
ACAD
1000
AcDbSavedByObjectVersion
1070
     0
  0
VISUALSTYLE
  5
420
102
{ACAD_XDICTIONARY
360
4A8
102
}
102
{ACAD_REACTORS
330
412
102
}
330
412
100
AcDbVisualStyle
  2
Linepattern
 70
    14
 71
     2
 72
     2
 73
     0
 90
        0
 40
-0.6
 41
-30.0
 62
     5
 63
     7
 74
     1
 91
        4
 64
     7
 65
   257
 75
     7
175
     7
 42
1.0
 92
        8
 66
     7
 43
1.0
 76
     1
 77
     6
 78
     2
 67
     7
 79
     5
170
     0
171
     0
290
     0
174
     0
 93
        1
 44
0.0
173
     0
291
     1
 45
0.0
1001
ACAD
1000
AcDbSavedByObjectVersion
1070
     0
  0
VISUALSTYLE
  5
429
102
{ACAD_XDICTIONARY
360
4BA
102
}
102
{ACAD_REACTORS
330
412
102
}
330
412
100
AcDbVisualStyle
  2
OverhangOff
 70
    21
 71
     2
 72
     2
 73
     0
 90
        0
 40
-0.6
 41
-30.0
 62
     5
 63
     7
 74
     1
 91
        4
 64
     7
 65
   257
 75
     1
175
     1
 42
1.0
 92
        9
 66
     7
 43
1.0
 76
     1
 77
     6
 78
     2
 67
     7
 79
     5
170
     0
171
     0
290
     0
174
     0
 93
        1
 44
0.0
173
     0
291
     1
 45
0.0
1001
ACAD
1000
AcDbSavedByObjectVersion
1070
     0
  0
VISUALSTYLE
  5
41C
102
{ACAD_XDICTIONARY
360
4A0
102
}
102
{ACAD_REACTORS
330
412
102
}
330
412
100
AcDbVisualStyle
  2
Realistic
 70
     8
 71
     2
 72
     3
 73
     0
 90
        2
 40
-0.6
 41
30.0
 62
     5
 63
     7
 74
     0
 91
        0
 64
     7
 65
   257
 75
     1
175
     1
 42
1.0
 92
        8
 66
   257
 43
1.0
 76
     1
 77
     6
 78
     2
 67
     7
 79
     3
170
     0
171
     0
290
     0
174
     0
 93
       13
 44
0.0
173
     0
291
     0
 45
0.0
1001
ACAD
1000
AcDbSavedByObjectVersion
1070
     0
  0
VISUALSTYLE
  5
427
102
{ACAD_XDICTIONARY
360
4B6
102
}
102
{ACAD_REACTORS
330
412
102
}
330
412
100
AcDbVisualStyle
  2
Shaded
 70
    27
 71
     2
 72
     2
 73
     1
 90
        2
 40
-0.6
 41
30.0
 62
     5
 63
     7
 74
     0
 91
        4
 64
     7
 65
   257
 75
     1
175
     1
 42
1.0
 92
        8
 66
   257
 43
1.0
 76
     1
 77
     6
 78
     2
 67
     8
 79
     3
170
     0
171
     0
290
     0
174
     0
 93
        5
 44
0.0
173
     0
291
     0
 45
0.0
1001
ACAD
1000
AcDbSavedByObjectVersion
1070
     0
  0
VISUALSTYLE
  5
426
102
{ACAD_XDICTIONARY
360
4B4
102
}
102
{ACAD_REACTORS
330
412
102
}
330
412
100
AcDbVisualStyle
  2
Shaded with edges
 70
    26
 71
     2
 72
     2
 73
     1
 90
        2
 40
-0.6
 41
30.0
 62
     5
 63
     7
 74
     1
 91
       10
 64
     7
 65
   257
 75
     2
175
     1
 42
1.0
 92
        8
 66
   257
 43
1.0
 76
     1
 77
     6
 78
     2
 67
     7
 79
     3
170
     0
171
     0
290
     0
174
     0
 93
        5
 44
0.0
173
     0
291
     0
 45
0.0
1001
ACAD
1000
AcDbSavedByObjectVersion
1070
     0
  0
VISUALSTYLE
  5
423
102
{ACAD_XDICTIONARY
360
4AE
102
}
102
{ACAD_REACTORS
330
412
102
}
330
412
100
AcDbVisualStyle
  2
Shades of Gray
 70
    23
 71
     2
 72
     2
 73
     3
 90
        0
 40
-0.6
 41
-30.0
 62
     5
 63
     7
 74
     2
 91
        2
 64
     7
 65
     7
 75
     1
175
     1
 42
40.0
 92
        8
 66
     7
 43
1.0
 76
     1
 77
     6
 78
     2
 67
     7
 79
     3
170
     0
171
     0
290
     0
174
     0
 93
        1
 44
0.0
173
     0
291
     0
 45
0.0
1001
ACAD
1000
AcDbSavedByObjectVersion
1070
     0
  0
VISUALSTYLE
  5
424
102
{ACAD_XDICTIONARY
360
4B0
102
}
102
{ACAD_REACTORS
330
412
102
}
330
412
100
AcDbVisualStyle
  2
Sketchy
 70
    24
 71
     1
 72
     2
 73
     2
 90
        0
 40
-0.6
 41
-30.0
 62
     5
 63
     7
 74
     2
 91
        2
 64
     7
 65
     7
 75
     1
175
     1
 42
40.0
 92
       11
 66
     7
 43
1.0
 76
     1
 77
     6
 78
     2
 67
     7
 79
     6
170
     0
171
     0
290
     0
174
     0
 93
        1
 44
0.0
173
     0
291
     0
 45
0.0
1001
ACAD
1000
AcDbSavedByObjectVersion
1070
     0
  0
VISUALSTYLE
  5
41F
102
{ACAD_XDICTIONARY
360
4A6
102
}
102
{ACAD_REACTORS
330
412
102
}
330
412
100
AcDbVisualStyle
  2
Thicken
 70
    13
 71
     2
 72
     2
 73
     0
 90
        0
 40
-0.6
 41
-30.0
 62
     5
 63
     7
 74
     1
 91
        4
 64
     7
 65
   257
 75
     1
175
     1
 42
1.0
 92
       12
 66
     7
 43
1.0
 76
     1
 77
     6
 78
     2
 67
     7
 79
     5
170
     0
171
     0
290
     0
174
     0
 93
        1
 44
0.0
173
     0
291
     1
 45
0.0
1001
ACAD
1000
AcDbSavedByObjectVersion
1070
     0
  0
VISUALSTYLE
  5
419
102
{ACAD_XDICTIONARY
360
49A
102
}
102
{ACAD_REACTORS
330
412
102
}
330
412
100
AcDbVisualStyle
  2
Wireframe
 70
     5
 71
     0
 72
     2
 73
     0
 90
        0
 40
-0.6
 41
-30.0
 62
     5
 63
     7
 74
     1
 91
        4
 64
     7
 65
   257
 75
     1
175
     1
 42
1.0
 92
        0
 66
   257
 43
1.0
 76
     1
 77
     6
 78
     2
 67
     7
 79
     3
170
     0
171
     0
290
     0
174
     0
 93
        1
 44
0.0
173
     0
291
     0
 45
0.0
1001
ACAD
1000
AcDbSavedByObjectVersion
1070
     0
  0
VISUALSTYLE
  5
425
102
{ACAD_XDICTIONARY
360
4B2
102
}
102
{ACAD_REACTORS
330
412
102
}
330
412
100
AcDbVisualStyle
  2
X-Ray
 70
    25
 71
     2
 72
     2
 73
     1
 90
        1
 40
0.5
 41
-30.0
 62
     5
 63
     7
 74
     1
 91
        0
 64
     7
 65
   257
 75
     1
175
     1
 42
1.0
 92
        8
 66
     7
 43
1.0
 76
     1
 77
     6
 78
     2
 67
     7
 79
     3
170
     0
171
     0
290
     0
174
     0
 93
       13
 44
0.0
173
     0
291
     0
 45
0.0
1001
ACAD
1000
AcDbSavedByObjectVersion
1070
     0
  0
DICTIONARYVAR
  5
481
102
{ACAD_REACTORS
330
47C
102
}
330
47C
100
DictionaryVariables
280
     0
  1
1:1
  0
DICTIONARYVAR
  5
47E
102
{ACAD_REACTORS
330
47C
102
}
330
47C
100
DictionaryVariables
280
     0
  1
STANDARD
  0
DICTIONARYVAR
  5
47D
102
{ACAD_REACTORS
330
47C
102
}
330
47C
100
DictionaryVariables
280
     0
  1
STANDARD
  0
DICTIONARYVAR
  5
47F
102
{ACAD_REACTORS
330
47C
102
}
330
47C
100
DictionaryVariables
280
     0
  1
Imperial24
  0
DICTIONARYVAR
  5
480
102
{ACAD_REACTORS
330
47C
102
}
330
47C
100
DictionaryVariables
280
     0
  1
Imperial24
  0
DICTIONARYVAR
  5
484
102
{ACAD_REACTORS
330
47C
102
}
330
47C
100
DictionaryVariables
280
     0
  1
1
  0
DICTIONARYVAR
  5
483
102
{ACAD_REACTORS
330
47C
102
}
330
47C
100
DictionaryVariables
280
     0
  1
0
  0
DICTIONARYVAR
  5
482
102
{ACAD_REACTORS
330
47C
102
}
330
47C
100
DictionaryVariables
280
     0
  1
127
  0
DICTIONARYVAR
  5
485
102
{ACAD_REACTORS
330
47C
102
}
330
47C
100
DictionaryVariables
280
     0
  1
2
  0
DICTIONARY
  5
4C2
330
45C
100
AcDbDictionary
280
     1
281
     1
  3
ACAD_XREC_ROUNDTRIP
360
4C3
  0
DICTIONARY
  5
4C0
330
458
100
AcDbDictionary
280
     1
281
     1
  3
ACAD_XREC_ROUNDTRIP
360
4C1
  0
DICTIONARY
  5
403
330
402
100
AcDbDictionary
280
     1
281
     1
  3
ACAD_XREC_ROUNDTRIP
360
48C
  3
BUMPTILE
360
405
  3
DIFFUSETILE
360
404
  3
OPACITYTILE
360
408
  3
REFLECTIONTILE
360
407
  3
REFRACTIONTILE
360
409
  3
SPECULARTILE
360
406
  0
DICTIONARY
  5
3FB
330
3FA
100
AcDbDictionary
280
     1
281
     1
  3
ACAD_XREC_ROUNDTRIP
360
48B
  3
BUMPTILE
360
3FD
  3
DIFFUSETILE
360
3FC
  3
OPACITYTILE
360
400
  3
REFLECTIONTILE
360
3FF
  3
REFRACTIONTILE
360
401
  3
SPECULARTILE
360
3FE
  0
DICTIONARY
  5
40B
330
40A
100
AcDbDictionary
280
     1
281
     1
  3
ACAD_XREC_ROUNDTRIP
360
48D
  3
BUMPTILE
360
40D
  3
DIFFUSETILE
360
40C
  3
OPACITYTILE
360
410
  3
REFLECTIONTILE
360
40F
  3
REFRACTIONTILE
360
411
  3
SPECULARTILE
360
40E
  0
DICTIONARY
  5
487
330
44D
100
AcDbDictionary
280
     1
281
     1
  3
ACAD_ROUNDTRIP_2008_TABLESTYLE_CELLSTYLEMAP
360
488
  3
ACAD_XREC_ROUNDTRIP
360
4BE
  0
DICTIONARY
  5
498
330
418
100
AcDbDictionary
280
     1
281
     1
  3
ACAD_XREC_ROUNDTRIP
360
499
  0
DICTIONARY
  5
496
330
417
100
AcDbDictionary
280
     1
281
     1
  3
ACAD_XREC_ROUNDTRIP
360
497
  0
DICTIONARY
  5
4A4
330
41E
100
AcDbDictionary
280
     1
281
     1
  3
ACAD_XREC_ROUNDTRIP
360
4A5
  0
DICTIONARY
  5
4AC
330
422
100
AcDbDictionary
280
     1
281
     1
  3
ACAD_XREC_ROUNDTRIP
360
4AD
  0
DICTIONARY
  5
49E
330
41B
100
AcDbDictionary
280
     1
281
     1
  3
ACAD_XREC_ROUNDTRIP
360
49F
  0
DICTIONARY
  5
4A2
330
41D
100
AcDbDictionary
280
     1
281
     1
  3
ACAD_XREC_ROUNDTRIP
360
4A3
  0
DICTIONARY
  5
4BC
330
42A
100
AcDbDictionary
280
     1
281
     1
  3
ACAD_XREC_ROUNDTRIP
360
4BD
  0
DICTIONARY
  5
4AA
330
421
100
AcDbDictionary
280
     1
281
     1
  3
ACAD_XREC_ROUNDTRIP
360
4AB
  0
DICTIONARY
  5
48E
330
413
100
AcDbDictionary
280
     1
281
     1
  3
ACAD_XREC_ROUNDTRIP
360
48F
  0
DICTIONARY
  5
490
330
414
100
AcDbDictionary
280
     1
281
     1
  3
ACAD_XREC_ROUNDTRIP
360
491
  0
DICTIONARY
  5
492
330
415
100
AcDbDictionary
280
     1
281
     1
  3
ACAD_XREC_ROUNDTRIP
360
493
  0
DICTIONARY
  5
494
330
416
100
AcDbDictionary
280
     1
281
     1
  3
ACAD_XREC_ROUNDTRIP
360
495
  0
DICTIONARY
  5
49C
330
41A
100
AcDbDictionary
280
     1
281
     1
  3
ACAD_XREC_ROUNDTRIP
360
49D
  0
DICTIONARY
  5
4B8
330
428
100
AcDbDictionary
280
     1
281
     1
  3
ACAD_XREC_ROUNDTRIP
360
4B9
  0
DICTIONARY
  5
4A8
330
420
100
AcDbDictionary
280
     1
281
     1
  3
ACAD_XREC_ROUNDTRIP
360
4A9
  0
DICTIONARY
  5
4BA
330
429
100
AcDbDictionary
280
     1
281
     1
  3
ACAD_XREC_ROUNDTRIP
360
4BB
  0
DICTIONARY
  5
4A0
330
41C
100
AcDbDictionary
280
     1
281
     1
  3
ACAD_XREC_ROUNDTRIP
360
4A1
  0
DICTIONARY
  5
4B6
330
427
100
AcDbDictionary
280
     1
281
     1
  3
ACAD_XREC_ROUNDTRIP
360
4B7
  0
DICTIONARY
  5
4B4
330
426
100
AcDbDictionary
280
     1
281
     1
  3
ACAD_XREC_ROUNDTRIP
360
4B5
  0
DICTIONARY
  5
4AE
330
423
100
AcDbDictionary
280
     1
281
     1
  3
ACAD_XREC_ROUNDTRIP
360
4AF
  0
DICTIONARY
  5
4B0
330
424
100
AcDbDictionary
280
     1
281
     1
  3
ACAD_XREC_ROUNDTRIP
360
4B1
  0
DICTIONARY
  5
4A6
330
41F
100
AcDbDictionary
280
     1
281
     1
  3
ACAD_XREC_ROUNDTRIP
360
4A7
  0
DICTIONARY
  5
49A
330
419
100
AcDbDictionary
280
     1
281
     1
  3
ACAD_XREC_ROUNDTRIP
360
49B
  0
DICTIONARY
  5
4B2
330
425
100
AcDbDictionary
280
     1
281
     1
  3
ACAD_XREC_ROUNDTRIP
360
4B3
  0
XRECORD
  5
4C3
102
{ACAD_REACTORS
330
4C2
102
}
330
4C2
100
AcDbXrecord
280
     1
102
SHADEPLOT
 70
     0
102
SHADEPLOTRESLEVEL
 70
     2
102
SHADEPLOTCUSTOMDPI
 70
   300
  0
XRECORD
  5
4C1
102
{ACAD_REACTORS
330
4C0
102
}
330
4C0
100
AcDbXrecord
280
     1
102
SHADEPLOT
 70
     0
102
SHADEPLOTRESLEVEL
 70
     2
102
SHADEPLOTCUSTOMDPI
 70
   300
  0
XRECORD
  5
48C
102
{ACAD_REACTORS
330
403
102
}
330
403
100
AcDbXrecord
280
     1
102
MATERIAL
148
0.0
149
0.0
149
0.0
 93
        0
 94
      127
282
     0
 72
     0
 77
     0
171
     0
175
     0
179
     0
273
     0
  0
XRECORD
  5
405
102
{ACAD_REACTORS
330
403
102
}
330
403
100
AcDbXrecord
280
     1
270
     1
271
     1
  0
XRECORD
  5
404
102
{ACAD_REACTORS
330
403
102
}
330
403
100
AcDbXrecord
280
     1
270
     1
271
     1
  0
XRECORD
  5
408
102
{ACAD_REACTORS
330
403
102
}
330
403
100
AcDbXrecord
280
     1
270
     1
271
     1
  0
XRECORD
  5
407
102
{ACAD_REACTORS
330
403
102
}
330
403
100
AcDbXrecord
280
     1
270
     1
271
     1
  0
XRECORD
  5
409
102
{ACAD_REACTORS
330
403
102
}
330
403
100
AcDbXrecord
280
     1
270
     1
271
     1
  0
XRECORD
  5
406
102
{ACAD_REACTORS
330
403
102
}
330
403
100
AcDbXrecord
280
     1
270
     1
271
     1
  0
XRECORD
  5
48B
102
{ACAD_REACTORS
330
3FB
102
}
330
3FB
100
AcDbXrecord
280
     1
102
MATERIAL
148
0.0
149
0.0
149
0.0
 93
        0
 94
      127
282
     0
 72
     0
 77
     0
171
     0
175
     0
179
     0
273
     0
  0
XRECORD
  5
3FD
102
{ACAD_REACTORS
330
3FB
102
}
330
3FB
100
AcDbXrecord
280
     1
270
     1
271
     1
  0
XRECORD
  5
3FC
102
{ACAD_REACTORS
330
3FB
102
}
330
3FB
100
AcDbXrecord
280
     1
270
     1
271
     1
  0
XRECORD
  5
400
102
{ACAD_REACTORS
330
3FB
102
}
330
3FB
100
AcDbXrecord
280
     1
270
     1
271
     1
  0
XRECORD
  5
3FF
102
{ACAD_REACTORS
330
3FB
102
}
330
3FB
100
AcDbXrecord
280
     1
270
     1
271
     1
  0
XRECORD
  5
401
102
{ACAD_REACTORS
330
3FB
102
}
330
3FB
100
AcDbXrecord
280
     1
270
     1
271
     1
  0
XRECORD
  5
3FE
102
{ACAD_REACTORS
330
3FB
102
}
330
3FB
100
AcDbXrecord
280
     1
270
     1
271
     1
  0
XRECORD
  5
48D
102
{ACAD_REACTORS
330
40B
102
}
330
40B
100
AcDbXrecord
280
     1
102
MATERIAL
148
0.0
149
0.0
149
0.0
 93
        0
 94
      127
282
     0
 72
     0
 77
     0
171
     0
175
     0
179
     0
273
     0
  0
XRECORD
  5
40D
102
{ACAD_REACTORS
330
40B
102
}
330
40B
100
AcDbXrecord
280
     1
270
     1
271
     1
  0
XRECORD
  5
40C
102
{ACAD_REACTORS
330
40B
102
}
330
40B
100
AcDbXrecord
280
     1
270
     1
271
     1
  0
XRECORD
  5
410
102
{ACAD_REACTORS
330
40B
102
}
330
40B
100
AcDbXrecord
280
     1
270
     1
271
     1
  0
XRECORD
  5
40F
102
{ACAD_REACTORS
330
40B
102
}
330
40B
100
AcDbXrecord
280
     1
270
     1
271
     1
  0
XRECORD
  5
411
102
{ACAD_REACTORS
330
40B
102
}
330
40B
100
AcDbXrecord
280
     1
270
     1
271
     1
  0
XRECORD
  5
40E
102
{ACAD_REACTORS
330
40B
102
}
330
40B
100
AcDbXrecord
280
     1
270
     1
271
     1
  0
CELLSTYLEMAP
  5
488
102
{ACAD_REACTORS
330
487
102
}
330
487
100
AcDbCellStyleMap
 90
        3
300
CELLSTYLE
  1
TABLEFORMAT_BEGIN
 90
        5
170
     1
 91
        0
 92
    32768
 62
   257
 93
        1
300
CONTENTFORMAT
  1
CONTENTFORMAT_BEGIN
 90
        0
 91
        0
 92
      512
 93
        0
300

 40
0.0
140
1.0
 94
        5
 62
     0
340
43E
144
0.25
309
CONTENTFORMAT_END
171
     0
 94
        0
309
TABLEFORMAT_END
  1
CELLSTYLE_BEGIN
 90
        1
 91
        1
300
_TITLE
309
CELLSTYLE_END
300
CELLSTYLE
  1
TABLEFORMAT_BEGIN
 90
        5
170
     1
 91
        0
 92
        0
 62
   257
 93
        1
300
CONTENTFORMAT
  1
CONTENTFORMAT_BEGIN
 90
        0
 91
        0
 92
      512
 93
        0
300

 40
0.0
140
1.0
 94
        5
 62
     0
340
43E
144
0.18
309
CONTENTFORMAT_END
171
     0
 94
        0
309
TABLEFORMAT_END
  1
CELLSTYLE_BEGIN
 90
        2
 91
        1
300
_HEADER
309
CELLSTYLE_END
300
CELLSTYLE
  1
TABLEFORMAT_BEGIN
 90
        5
170
     1
 91
        0
 92
        0
 62
   257
 93
        1
300
CONTENTFORMAT
  1
CONTENTFORMAT_BEGIN
 90
        0
 91
        0
 92
      512
 93
        0
300

 40
0.0
140
1.0
 94
        2
 62
     0
340
43E
144
0.18
309
CONTENTFORMAT_END
171
     0
 94
        0
309
TABLEFORMAT_END
  1
CELLSTYLE_BEGIN
 90
        3
 91
        2
300
_DATA
309
CELLSTYLE_END
  0
XRECORD
  5
4BE
102
{ACAD_REACTORS
330
487
102
}
330
487
100
AcDbXrecord
280
     1
102
ACAD_ROUNDTRIP_PRE2007_TABLESTYLE
 90
      512
 91
        0
  1

 92
      512
 93
        0
  2

 94
      512
 95
        0
  3

  0
XRECORD
  5
499
102
{ACAD_REACTORS
330
498
102
}
330
498
100
AcDbXrecord
280
     1
102
RTVSPost2010Prop28
280
     1
102
RTVSPost2010PropOp28
 70
     1
102
RTVSPost2010Prop29
280
     1
102
RTVSPost2010PropOp29
 70
     1
102
RTVSPost2010Prop30
280
     0
102
RTVSPost2010PropOp30
 70
     1
102
RTVSPost2010Prop31
280
     0
102
RTVSPost2010PropOp31
 70
     1
102
RTVSPost2010Prop32
280
     0
102
RTVSPost2010PropOp32
 70
     1
102
RTVSPost2010Prop33
280
     0
102
RTVSPost2010PropOp33
 70
     1
102
RTVSPost2010Prop34
280
     0
102
RTVSPost2010PropOp34
 70
     1
102
RTVSPost2010Prop35
280
     0
102
RTVSPost2010PropOp35
 70
     1
102
RTVSPost2010Prop36
280
     0
102
RTVSPost2010PropOp36
 70
     1
102
RTVSPost2010Prop37
 90
       50
102
RTVSPost2010PropOp37
 70
     1
102
RTVSPost2010Prop38
140
0.0
102
RTVSPost2010PropOp38
 70
     1
102
RTVSPost2010Prop39
140
1.0
102
RTVSPost2010PropOp39
 70
     1
102
RTVSPost2010Prop40
 90
        0
102
RTVSPost2010PropOp40
 70
     1
102
RTVSPost2010Prop41ColorIndex
 90
       18
102
RTVSPost2010Prop41ColorRGB
 90
        0
102
RTVSPost2010PropOp41
 70
     1
102
RTVSPost2010Prop42
 90
       50
102
RTVSPost2010PropOp42
 70
     1
102
RTVSPost2010Prop43
 90
        3
102
RTVSPost2010PropOp43
 70
     1
102
RTVSPost2010Prop44ColorIndex
 90
        5
102
RTVSPost2010Prop44ColorRGB
 90
      255
102
RTVSPost2010PropOp44
 70
     1
102
RTVSPost2010Prop45
280
     0
102
RTVSPost2010PropOp45
 70
     1
102
RTVSPost2010Prop46
 90
       50
102
RTVSPost2010PropOp46
 70
     1
102
RTVSPost2010Prop47
 90
       50
102
RTVSPost2010PropOp47
 70
     1
102
RTVSPost2010Prop48
 90
       50
102
RTVSPost2010PropOp48
 70
     1
102
RTVSPost2010Prop49
280
     0
102
RTVSPost2010PropOp49
 70
     1
102
RTVSPost2010Prop50
 90
       50
102
RTVSPost2010PropOp50
 70
     1
102
RTVSPost2010Prop51ColorIndex
 90
      256
102
RTVSPost2010Prop51ColorRGB
 90
-16777216
102
RTVSPost2010PropOp51
 70
     0
102
RTVSPost2010Prop52
140
1.0
102
RTVSPost2010PropOp52
 70
     0
102
RTVSPost2010Prop53
 90
        2
102
RTVSPost2010PropOp53
 70
     1
102
RTVSPost2010Prop54
  1
strokes_ogs.tif
102
RTVSPost2010PropOp54
 70
     1
102
RTVSPost2010Prop55
280
     0
102
RTVSPost2010PropOp55
 70
     1
102
RTVSPost2010Prop56
140
1.0
102
RTVSPost2010PropOp56
 70
     1
102
RTVSPost2010Prop57
140
1.0
102
RTVSPost2010PropOp57
 70
     1
102
RTVSPropertyOp0
 70
     1
102
RTVSPropertyOp1
 70
     1
102
RTVSPropertyOp2
 70
     1
102
RTVSPropertyOp3
 70
     1
102
RTVSPropertyOp4
 70
     1
102
RTVSPropertyOp5
 70
     1
102
RTVSPropertyOp6
 70
     1
102
RTVSPropertyOp7
 70
     1
102
RTVSPropertyOp8
 70
     1
102
RTVSPropertyOp9
 70
     1
102
RTVSPropertyOp10
 70
     1
102
RTVSPropertyOp11
 70
     1
102
RTVSPropertyOp12
 70
     1
102
RTVSPropertyOp13
 70
     1
102
RTVSPropertyOp14
 70
     1
102
RTVSPropertyOp15
 70
     1
102
RTVSPropertyOp16
 70
     1
102
RTVSPropertyOp17
 70
     1
102
RTVSPropertyOp18
 70
     1
102
RTVSPropertyOp19
 70
     1
102
RTVSPropertyOp20
 70
     1
102
RTVSPropertyOp21
 70
     1
102
RTVSPropertyOp22
 70
     1
102
RTVSPropertyOp23
 70
     1
102
RTVSPropertyOp24
 70
     1
102
RTVSPropertyOp25
 70
     1
102
RTVSPropertyOp26
 70
     1
102
RTVSPropertyOp27
 70
     1
102
RTVSPropertyOp28
 70
     1
102
RTVSPropertyOp29
 70
     1
102
RTVSPropertyOp30
 70
     1
102
RTVSPropertyOp31
 70
     1
102
RTVSPropertyOp32
 70
     1
102
RTVSPropertyOp33
 70
     1
102
RTVSPropertyOp34
 70
     1
102
RTVSPropertyOp35
 70
     1
102
RTVSPropertyOp36
 70
     1
102
RTVSPropertyOp37
 70
     1
102
RTVSPropertyOp38
 70
     1
102
RTVSPropertyOp39
 70
     1
102
RTVSPropertyOp40
 70
     1
102
RTVSPropertyOp41
 70
     1
102
RTVSPropertyOp42
 70
     1
102
RTVSPropertyOp43
 70
     1
102
RTVSPropertyOp44
 70
     1
102
RTVSPropertyOp45
 70
     1
102
RTVSPropertyOp46
 70
     1
102
RTVSPropertyOp47
 70
     1
102
RTVSPropertyOp48
 70
     1
102
RTVSPropertyOp49
 70
     1
102
RTVSPropertyOp50
 70
     1
102
RTVSPropertyOp51
 70
     0
102
RTVSPropertyOp52
 70
     0
102
RTVSPropertyOp53
 70
     1
102
RTVSPropertyOp54
 70
     1
102
RTVSPropertyOp55
 70
     1
102
RTVSPropertyOp56
 70
     1
102
RTVSPropertyOp57
 70
     1
102
RTVSPropertyOp58
 70
     1
102
RTVSPropertyOp59
 70
     1
102
RTVSPropertyOp60
 70
     1
102
RTVSPropertyOp61
 70
     1
102
RTVSPropertyOp62
 70
     1
  0
XRECORD
  5
497
102
{ACAD_REACTORS
330
496
102
}
330
496
100
AcDbXrecord
280
     1
102
RTVSPost2010Prop28
280
     0
102
RTVSPost2010PropOp28
 70
     1
102
RTVSPost2010Prop29
280
     1
102
RTVSPost2010PropOp29
 70
     1
102
RTVSPost2010Prop30
280
     1
102
RTVSPost2010PropOp30
 70
     1
102
RTVSPost2010Prop31
280
     0
102
RTVSPost2010PropOp31
 70
     1
102
RTVSPost2010Prop32
280
     0
102
RTVSPost2010PropOp32
 70
     1
102
RTVSPost2010Prop33
280
     0
102
RTVSPost2010PropOp33
 70
     1
102
RTVSPost2010Prop34
280
     0
102
RTVSPost2010PropOp34
 70
     1
102
RTVSPost2010Prop35
280
     0
102
RTVSPost2010PropOp35
 70
     1
102
RTVSPost2010Prop36
280
     0
102
RTVSPost2010PropOp36
 70
     1
102
RTVSPost2010Prop37
 90
       50
102
RTVSPost2010PropOp37
 70
     1
102
RTVSPost2010Prop38
140
0.0
102
RTVSPost2010PropOp38
 70
     1
102
RTVSPost2010Prop39
140
1.0
102
RTVSPost2010PropOp39
 70
     1
102
RTVSPost2010Prop40
 90
        0
102
RTVSPost2010PropOp40
 70
     1
102
RTVSPost2010Prop41ColorIndex
 90
       18
102
RTVSPost2010Prop41ColorRGB
 90
        0
102
RTVSPost2010PropOp41
 70
     1
102
RTVSPost2010Prop42
 90
       50
102
RTVSPost2010PropOp42
 70
     1
102
RTVSPost2010Prop43
 90
        3
102
RTVSPost2010PropOp43
 70
     1
102
RTVSPost2010Prop44ColorIndex
 90
        5
102
RTVSPost2010Prop44ColorRGB
 90
      255
102
RTVSPost2010PropOp44
 70
     1
102
RTVSPost2010Prop45
280
     0
102
RTVSPost2010PropOp45
 70
     1
102
RTVSPost2010Prop46
 90
       50
102
RTVSPost2010PropOp46
 70
     1
102
RTVSPost2010Prop47
 90
       50
102
RTVSPost2010PropOp47
 70
     1
102
RTVSPost2010Prop48
 90
       50
102
RTVSPost2010PropOp48
 70
     1
102
RTVSPost2010Prop49
280
     0
102
RTVSPost2010PropOp49
 70
     1
102
RTVSPost2010Prop50
 90
       50
102
RTVSPost2010PropOp50
 70
     1
102
RTVSPost2010Prop51ColorIndex
 90
      256
102
RTVSPost2010Prop51ColorRGB
 90
-16777216
102
RTVSPost2010PropOp51
 70
     0
102
RTVSPost2010Prop52
140
1.0
102
RTVSPost2010PropOp52
 70
     0
102
RTVSPost2010Prop53
 90
        2
102
RTVSPost2010PropOp53
 70
     1
102
RTVSPost2010Prop54
  1
strokes_ogs.tif
102
RTVSPost2010PropOp54
 70
     1
102
RTVSPost2010Prop55
280
     0
102
RTVSPost2010PropOp55
 70
     1
102
RTVSPost2010Prop56
140
1.0
102
RTVSPost2010PropOp56
 70
     1
102
RTVSPost2010Prop57
140
1.0
102
RTVSPost2010PropOp57
 70
     1
102
RTVSPropertyOp0
 70
     1
102
RTVSPropertyOp1
 70
     1
102
RTVSPropertyOp2
 70
     1
102
RTVSPropertyOp3
 70
     1
102
RTVSPropertyOp4
 70
     1
102
RTVSPropertyOp5
 70
     1
102
RTVSPropertyOp6
 70
     1
102
RTVSPropertyOp7
 70
     1
102
RTVSPropertyOp8
 70
     1
102
RTVSPropertyOp9
 70
     1
102
RTVSPropertyOp10
 70
     1
102
RTVSPropertyOp11
 70
     1
102
RTVSPropertyOp12
 70
     1
102
RTVSPropertyOp13
 70
     1
102
RTVSPropertyOp14
 70
     1
102
RTVSPropertyOp15
 70
     1
102
RTVSPropertyOp16
 70
     1
102
RTVSPropertyOp17
 70
     1
102
RTVSPropertyOp18
 70
     1
102
RTVSPropertyOp19
 70
     1
102
RTVSPropertyOp20
 70
     1
102
RTVSPropertyOp21
 70
     1
102
RTVSPropertyOp22
 70
     1
102
RTVSPropertyOp23
 70
     1
102
RTVSPropertyOp24
 70
     1
102
RTVSPropertyOp25
 70
     1
102
RTVSPropertyOp26
 70
     1
102
RTVSPropertyOp27
 70
     1
102
RTVSPropertyOp28
 70
     1
102
RTVSPropertyOp29
 70
     1
102
RTVSPropertyOp30
 70
     1
102
RTVSPropertyOp31
 70
     1
102
RTVSPropertyOp32
 70
     1
102
RTVSPropertyOp33
 70
     1
102
RTVSPropertyOp34
 70
     1
102
RTVSPropertyOp35
 70
     1
102
RTVSPropertyOp36
 70
     1
102
RTVSPropertyOp37
 70
     1
102
RTVSPropertyOp38
 70
     1
102
RTVSPropertyOp39
 70
     1
102
RTVSPropertyOp40
 70
     1
102
RTVSPropertyOp41
 70
     1
102
RTVSPropertyOp42
 70
     1
102
RTVSPropertyOp43
 70
     1
102
RTVSPropertyOp44
 70
     1
102
RTVSPropertyOp45
 70
     1
102
RTVSPropertyOp46
 70
     1
102
RTVSPropertyOp47
 70
     1
102
RTVSPropertyOp48
 70
     1
102
RTVSPropertyOp49
 70
     1
102
RTVSPropertyOp50
 70
     1
102
RTVSPropertyOp51
 70
     0
102
RTVSPropertyOp52
 70
     0
102
RTVSPropertyOp53
 70
     1
102
RTVSPropertyOp54
 70
     1
102
RTVSPropertyOp55
 70
     1
102
RTVSPropertyOp56
 70
     1
102
RTVSPropertyOp57
 70
     1
102
RTVSPropertyOp58
 70
     1
102
RTVSPropertyOp59
 70
     1
102
RTVSPropertyOp60
 70
     1
102
RTVSPropertyOp61
 70
     1
102
RTVSPropertyOp62
 70
     1
  0
XRECORD
  5
4A5
102
{ACAD_REACTORS
330
4A4
102
}
330
4A4
100
AcDbXrecord
280
     1
102
RTVSPost2010Prop28
280
     0
102
RTVSPost2010PropOp28
 70
     1
102
RTVSPost2010Prop29
280
     1
102
RTVSPost2010PropOp29
 70
     1
102
RTVSPost2010Prop30
280
     1
102
RTVSPost2010PropOp30
 70
     1
102
RTVSPost2010Prop31
280
     0
102
RTVSPost2010PropOp31
 70
     1
102
RTVSPost2010Prop32
280
     0
102
RTVSPost2010PropOp32
 70
     1
102
RTVSPost2010Prop33
280
     0
102
RTVSPost2010PropOp33
 70
     1
102
RTVSPost2010Prop34
280
     0
102
RTVSPost2010PropOp34
 70
     1
102
RTVSPost2010Prop35
280
     0
102
RTVSPost2010PropOp35
 70
     1
102
RTVSPost2010Prop36
280
     0
102
RTVSPost2010PropOp36
 70
     1
102
RTVSPost2010Prop37
 90
       50
102
RTVSPost2010PropOp37
 70
     1
102
RTVSPost2010Prop38
140
0.0
102
RTVSPost2010PropOp38
 70
     1
102
RTVSPost2010Prop39
140
1.0
102
RTVSPost2010PropOp39
 70
     1
102
RTVSPost2010Prop40
 90
        0
102
RTVSPost2010PropOp40
 70
     1
102
RTVSPost2010Prop41ColorIndex
 90
       18
102
RTVSPost2010Prop41ColorRGB
 90
        0
102
RTVSPost2010PropOp41
 70
     1
102
RTVSPost2010Prop42
 90
       50
102
RTVSPost2010PropOp42
 70
     1
102
RTVSPost2010Prop43
 90
        3
102
RTVSPost2010PropOp43
 70
     1
102
RTVSPost2010Prop44ColorIndex
 90
        5
102
RTVSPost2010Prop44ColorRGB
 90
      255
102
RTVSPost2010PropOp44
 70
     1
102
RTVSPost2010Prop45
280
     0
102
RTVSPost2010PropOp45
 70
     1
102
RTVSPost2010Prop46
 90
       50
102
RTVSPost2010PropOp46
 70
     1
102
RTVSPost2010Prop47
 90
       50
102
RTVSPost2010PropOp47
 70
     1
102
RTVSPost2010Prop48
 90
       50
102
RTVSPost2010PropOp48
 70
     1
102
RTVSPost2010Prop49
280
     0
102
RTVSPost2010PropOp49
 70
     1
102
RTVSPost2010Prop50
 90
       50
102
RTVSPost2010PropOp50
 70
     1
102
RTVSPost2010Prop51ColorIndex
 90
      256
102
RTVSPost2010Prop51ColorRGB
 90
-16777216
102
RTVSPost2010PropOp51
 70
     0
102
RTVSPost2010Prop52
140
1.0
102
RTVSPost2010PropOp52
 70
     0
102
RTVSPost2010Prop53
 90
        2
102
RTVSPost2010PropOp53
 70
     1
102
RTVSPost2010Prop54
  1
strokes_ogs.tif
102
RTVSPost2010PropOp54
 70
     1
102
RTVSPost2010Prop55
280
     0
102
RTVSPost2010PropOp55
 70
     1
102
RTVSPost2010Prop56
140
1.0
102
RTVSPost2010PropOp56
 70
     1
102
RTVSPost2010Prop57
140
1.0
102
RTVSPost2010PropOp57
 70
     1
102
RTVSPropertyOp0
 70
     1
102
RTVSPropertyOp1
 70
     1
102
RTVSPropertyOp2
 70
     1
102
RTVSPropertyOp3
 70
     1
102
RTVSPropertyOp4
 70
     1
102
RTVSPropertyOp5
 70
     1
102
RTVSPropertyOp6
 70
     1
102
RTVSPropertyOp7
 70
     1
102
RTVSPropertyOp8
 70
     1
102
RTVSPropertyOp9
 70
     1
102
RTVSPropertyOp10
 70
     1
102
RTVSPropertyOp11
 70
     1
102
RTVSPropertyOp12
 70
     1
102
RTVSPropertyOp13
 70
     1
102
RTVSPropertyOp14
 70
     1
102
RTVSPropertyOp15
 70
     1
102
RTVSPropertyOp16
 70
     1
102
RTVSPropertyOp17
 70
     1
102
RTVSPropertyOp18
 70
     1
102
RTVSPropertyOp19
 70
     1
102
RTVSPropertyOp20
 70
     1
102
RTVSPropertyOp21
 70
     1
102
RTVSPropertyOp22
 70
     1
102
RTVSPropertyOp23
 70
     1
102
RTVSPropertyOp24
 70
     1
102
RTVSPropertyOp25
 70
     1
102
RTVSPropertyOp26
 70
     1
102
RTVSPropertyOp27
 70
     1
102
RTVSPropertyOp28
 70
     1
102
RTVSPropertyOp29
 70
     1
102
RTVSPropertyOp30
 70
     1
102
RTVSPropertyOp31
 70
     1
102
RTVSPropertyOp32
 70
     1
102
RTVSPropertyOp33
 70
     1
102
RTVSPropertyOp34
 70
     1
102
RTVSPropertyOp35
 70
     1
102
RTVSPropertyOp36
 70
     1
102
RTVSPropertyOp37
 70
     1
102
RTVSPropertyOp38
 70
     1
102
RTVSPropertyOp39
 70
     1
102
RTVSPropertyOp40
 70
     1
102
RTVSPropertyOp41
 70
     1
102
RTVSPropertyOp42
 70
     1
102
RTVSPropertyOp43
 70
     1
102
RTVSPropertyOp44
 70
     1
102
RTVSPropertyOp45
 70
     1
102
RTVSPropertyOp46
 70
     1
102
RTVSPropertyOp47
 70
     1
102
RTVSPropertyOp48
 70
     1
102
RTVSPropertyOp49
 70
     1
102
RTVSPropertyOp50
 70
     1
102
RTVSPropertyOp51
 70
     0
102
RTVSPropertyOp52
 70
     0
102
RTVSPropertyOp53
 70
     1
102
RTVSPropertyOp54
 70
     1
102
RTVSPropertyOp55
 70
     1
102
RTVSPropertyOp56
 70
     1
102
RTVSPropertyOp57
 70
     1
102
RTVSPropertyOp58
 70
     1
102
RTVSPropertyOp59
 70
     1
102
RTVSPropertyOp60
 70
     1
102
RTVSPropertyOp61
 70
     1
102
RTVSPropertyOp62
 70
     1
  0
XRECORD
  5
4AD
102
{ACAD_REACTORS
330
4AC
102
}
330
4AC
100
AcDbXrecord
280
     1
102
RTVSPost2010Prop28
280
     0
102
RTVSPost2010PropOp28
 70
     1
102
RTVSPost2010Prop29
280
     1
102
RTVSPost2010PropOp29
 70
     1
102
RTVSPost2010Prop30
280
     1
102
RTVSPost2010PropOp30
 70
     1
102
RTVSPost2010Prop31
280
     0
102
RTVSPost2010PropOp31
 70
     1
102
RTVSPost2010Prop32
280
     0
102
RTVSPost2010PropOp32
 70
     1
102
RTVSPost2010Prop33
280
     0
102
RTVSPost2010PropOp33
 70
     1
102
RTVSPost2010Prop34
280
     0
102
RTVSPost2010PropOp34
 70
     1
102
RTVSPost2010Prop35
280
     0
102
RTVSPost2010PropOp35
 70
     1
102
RTVSPost2010Prop36
280
     0
102
RTVSPost2010PropOp36
 70
     1
102
RTVSPost2010Prop37
 90
       50
102
RTVSPost2010PropOp37
 70
     1
102
RTVSPost2010Prop38
140
0.0
102
RTVSPost2010PropOp38
 70
     1
102
RTVSPost2010Prop39
140
1.0
102
RTVSPost2010PropOp39
 70
     1
102
RTVSPost2010Prop40
 90
        0
102
RTVSPost2010PropOp40
 70
     1
102
RTVSPost2010Prop41ColorIndex
 90
       18
102
RTVSPost2010Prop41ColorRGB
 90
        0
102
RTVSPost2010PropOp41
 70
     1
102
RTVSPost2010Prop42
 90
       50
102
RTVSPost2010PropOp42
 70
     1
102
RTVSPost2010Prop43
 90
        3
102
RTVSPost2010PropOp43
 70
     1
102
RTVSPost2010Prop44ColorIndex
 90
        5
102
RTVSPost2010Prop44ColorRGB
 90
      255
102
RTVSPost2010PropOp44
 70
     1
102
RTVSPost2010Prop45
280
     0
102
RTVSPost2010PropOp45
 70
     1
102
RTVSPost2010Prop46
 90
       50
102
RTVSPost2010PropOp46
 70
     1
102
RTVSPost2010Prop47
 90
       50
102
RTVSPost2010PropOp47
 70
     1
102
RTVSPost2010Prop48
 90
       50
102
RTVSPost2010PropOp48
 70
     1
102
RTVSPost2010Prop49
280
     0
102
RTVSPost2010PropOp49
 70
     1
102
RTVSPost2010Prop50
 90
       50
102
RTVSPost2010PropOp50
 70
     1
102
RTVSPost2010Prop51ColorIndex
 90
      256
102
RTVSPost2010Prop51ColorRGB
 90
-16777216
102
RTVSPost2010PropOp51
 70
     0
102
RTVSPost2010Prop52
140
1.0
102
RTVSPost2010PropOp52
 70
     0
102
RTVSPost2010Prop53
 90
        2
102
RTVSPost2010PropOp53
 70
     1
102
RTVSPost2010Prop54
  1
strokes_ogs.tif
102
RTVSPost2010PropOp54
 70
     1
102
RTVSPost2010Prop55
280
     0
102
RTVSPost2010PropOp55
 70
     1
102
RTVSPost2010Prop56
140
1.0
102
RTVSPost2010PropOp56
 70
     1
102
RTVSPost2010Prop57
140
1.0
102
RTVSPost2010PropOp57
 70
     1
102
RTVSPropertyOp0
 70
     1
102
RTVSPropertyOp1
 70
     1
102
RTVSPropertyOp2
 70
     1
102
RTVSPropertyOp3
 70
     1
102
RTVSPropertyOp4
 70
     1
102
RTVSPropertyOp5
 70
     1
102
RTVSPropertyOp6
 70
     1
102
RTVSPropertyOp7
 70
     1
102
RTVSPropertyOp8
 70
     1
102
RTVSPropertyOp9
 70
     1
102
RTVSPropertyOp10
 70
     1
102
RTVSPropertyOp11
 70
     1
102
RTVSPropertyOp12
 70
     1
102
RTVSPropertyOp13
 70
     1
102
RTVSPropertyOp14
 70
     1
102
RTVSPropertyOp15
 70
     1
102
RTVSPropertyOp16
 70
     1
102
RTVSPropertyOp17
 70
     1
102
RTVSPropertyOp18
 70
     1
102
RTVSPropertyOp19
 70
     1
102
RTVSPropertyOp20
 70
     1
102
RTVSPropertyOp21
 70
     1
102
RTVSPropertyOp22
 70
     1
102
RTVSPropertyOp23
 70
     1
102
RTVSPropertyOp24
 70
     1
102
RTVSPropertyOp25
 70
     1
102
RTVSPropertyOp26
 70
     1
102
RTVSPropertyOp27
 70
     1
102
RTVSPropertyOp28
 70
     1
102
RTVSPropertyOp29
 70
     1
102
RTVSPropertyOp30
 70
     1
102
RTVSPropertyOp31
 70
     1
102
RTVSPropertyOp32
 70
     1
102
RTVSPropertyOp33
 70
     1
102
RTVSPropertyOp34
 70
     1
102
RTVSPropertyOp35
 70
     1
102
RTVSPropertyOp36
 70
     1
102
RTVSPropertyOp37
 70
     1
102
RTVSPropertyOp38
 70
     1
102
RTVSPropertyOp39
 70
     1
102
RTVSPropertyOp40
 70
     1
102
RTVSPropertyOp41
 70
     1
102
RTVSPropertyOp42
 70
     1
102
RTVSPropertyOp43
 70
     1
102
RTVSPropertyOp44
 70
     1
102
RTVSPropertyOp45
 70
     1
102
RTVSPropertyOp46
 70
     1
102
RTVSPropertyOp47
 70
     1
102
RTVSPropertyOp48
 70
     1
102
RTVSPropertyOp49
 70
     1
102
RTVSPropertyOp50
 70
     1
102
RTVSPropertyOp51
 70
     0
102
RTVSPropertyOp52
 70
     0
102
RTVSPropertyOp53
 70
     1
102
RTVSPropertyOp54
 70
     1
102
RTVSPropertyOp55
 70
     1
102
RTVSPropertyOp56
 70
     1
102
RTVSPropertyOp57
 70
     1
102
RTVSPropertyOp58
 70
     1
102
RTVSPropertyOp59
 70
     1
102
RTVSPropertyOp60
 70
     1
102
RTVSPropertyOp61
 70
     1
102
RTVSPropertyOp62
 70
     1
  0
XRECORD
  5
49F
102
{ACAD_REACTORS
330
49E
102
}
330
49E
100
AcDbXrecord
280
     1
102
RTVSPost2010Prop28
280
     0
102
RTVSPost2010PropOp28
 70
     1
102
RTVSPost2010Prop29
280
     1
102
RTVSPost2010PropOp29
 70
     1
102
RTVSPost2010Prop30
280
     1
102
RTVSPost2010PropOp30
 70
     1
102
RTVSPost2010Prop31
280
     0
102
RTVSPost2010PropOp31
 70
     1
102
RTVSPost2010Prop32
280
     0
102
RTVSPost2010PropOp32
 70
     1
102
RTVSPost2010Prop33
280
     0
102
RTVSPost2010PropOp33
 70
     1
102
RTVSPost2010Prop34
280
     0
102
RTVSPost2010PropOp34
 70
     1
102
RTVSPost2010Prop35
280
     0
102
RTVSPost2010PropOp35
 70
     1
102
RTVSPost2010Prop36
280
     0
102
RTVSPost2010PropOp36
 70
     1
102
RTVSPost2010Prop37
 90
       50
102
RTVSPost2010PropOp37
 70
     1
102
RTVSPost2010Prop38
140
0.0
102
RTVSPost2010PropOp38
 70
     1
102
RTVSPost2010Prop39
140
1.0
102
RTVSPost2010PropOp39
 70
     1
102
RTVSPost2010Prop40
 90
        0
102
RTVSPost2010PropOp40
 70
     1
102
RTVSPost2010Prop41ColorIndex
 90
       18
102
RTVSPost2010Prop41ColorRGB
 90
        0
102
RTVSPost2010PropOp41
 70
     1
102
RTVSPost2010Prop42
 90
       50
102
RTVSPost2010PropOp42
 70
     1
102
RTVSPost2010Prop43
 90
        3
102
RTVSPost2010PropOp43
 70
     1
102
RTVSPost2010Prop44ColorIndex
 90
        5
102
RTVSPost2010Prop44ColorRGB
 90
      255
102
RTVSPost2010PropOp44
 70
     1
102
RTVSPost2010Prop45
280
     0
102
RTVSPost2010PropOp45
 70
     1
102
RTVSPost2010Prop46
 90
       50
102
RTVSPost2010PropOp46
 70
     1
102
RTVSPost2010Prop47
 90
       50
102
RTVSPost2010PropOp47
 70
     1
102
RTVSPost2010Prop48
 90
       50
102
RTVSPost2010PropOp48
 70
     1
102
RTVSPost2010Prop49
280
     0
102
RTVSPost2010PropOp49
 70
     1
102
RTVSPost2010Prop50
 90
       50
102
RTVSPost2010PropOp50
 70
     1
102
RTVSPost2010Prop51ColorIndex
 90
      256
102
RTVSPost2010Prop51ColorRGB
 90
-16777216
102
RTVSPost2010PropOp51
 70
     0
102
RTVSPost2010Prop52
140
1.0
102
RTVSPost2010PropOp52
 70
     0
102
RTVSPost2010Prop53
 90
        2
102
RTVSPost2010PropOp53
 70
     1
102
RTVSPost2010Prop54
  1
strokes_ogs.tif
102
RTVSPost2010PropOp54
 70
     1
102
RTVSPost2010Prop55
280
     0
102
RTVSPost2010PropOp55
 70
     1
102
RTVSPost2010Prop56
140
1.0
102
RTVSPost2010PropOp56
 70
     1
102
RTVSPost2010Prop57
140
1.0
102
RTVSPost2010PropOp57
 70
     1
102
RTVSPropertyOp0
 70
     1
102
RTVSPropertyOp1
 70
     1
102
RTVSPropertyOp2
 70
     1
102
RTVSPropertyOp3
 70
     1
102
RTVSPropertyOp4
 70
     1
102
RTVSPropertyOp5
 70
     1
102
RTVSPropertyOp6
 70
     1
102
RTVSPropertyOp7
 70
     1
102
RTVSPropertyOp8
 70
     1
102
RTVSPropertyOp9
 70
     1
102
RTVSPropertyOp10
 70
     1
102
RTVSPropertyOp11
 70
     1
102
RTVSPropertyOp12
 70
     1
102
RTVSPropertyOp13
 70
     1
102
RTVSPropertyOp14
 70
     1
102
RTVSPropertyOp15
 70
     1
102
RTVSPropertyOp16
 70
     1
102
RTVSPropertyOp17
 70
     1
102
RTVSPropertyOp18
 70
     1
102
RTVSPropertyOp19
 70
     1
102
RTVSPropertyOp20
 70
     1
102
RTVSPropertyOp21
 70
     1
102
RTVSPropertyOp22
 70
     1
102
RTVSPropertyOp23
 70
     1
102
RTVSPropertyOp24
 70
     1
102
RTVSPropertyOp25
 70
     1
102
RTVSPropertyOp26
 70
     1
102
RTVSPropertyOp27
 70
     1
102
RTVSPropertyOp28
 70
     1
102
RTVSPropertyOp29
 70
     1
102
RTVSPropertyOp30
 70
     1
102
RTVSPropertyOp31
 70
     1
102
RTVSPropertyOp32
 70
     1
102
RTVSPropertyOp33
 70
     1
102
RTVSPropertyOp34
 70
     1
102
RTVSPropertyOp35
 70
     1
102
RTVSPropertyOp36
 70
     1
102
RTVSPropertyOp37
 70
     1
102
RTVSPropertyOp38
 70
     1
102
RTVSPropertyOp39
 70
     1
102
RTVSPropertyOp40
 70
     1
102
RTVSPropertyOp41
 70
     1
102
RTVSPropertyOp42
 70
     1
102
RTVSPropertyOp43
 70
     1
102
RTVSPropertyOp44
 70
     1
102
RTVSPropertyOp45
 70
     1
102
RTVSPropertyOp46
 70
     1
102
RTVSPropertyOp47
 70
     1
102
RTVSPropertyOp48
 70
     1
102
RTVSPropertyOp49
 70
     1
102
RTVSPropertyOp50
 70
     1
102
RTVSPropertyOp51
 70
     0
102
RTVSPropertyOp52
 70
     0
102
RTVSPropertyOp53
 70
     1
102
RTVSPropertyOp54
 70
     1
102
RTVSPropertyOp55
 70
     1
102
RTVSPropertyOp56
 70
     1
102
RTVSPropertyOp57
 70
     1
102
RTVSPropertyOp58
 70
     1
102
RTVSPropertyOp59
 70
     1
102
RTVSPropertyOp60
 70
     1
102
RTVSPropertyOp61
 70
     1
102
RTVSPropertyOp62
 70
     1
  0
XRECORD
  5
4A3
102
{ACAD_REACTORS
330
4A2
102
}
330
4A2
100
AcDbXrecord
280
     1
102
RTVSPost2010Prop28
280
     0
102
RTVSPost2010PropOp28
 70
     1
102
RTVSPost2010Prop29
280
     1
102
RTVSPost2010PropOp29
 70
     1
102
RTVSPost2010Prop30
280
     1
102
RTVSPost2010PropOp30
 70
     1
102
RTVSPost2010Prop31
280
     0
102
RTVSPost2010PropOp31
 70
     1
102
RTVSPost2010Prop32
280
     0
102
RTVSPost2010PropOp32
 70
     1
102
RTVSPost2010Prop33
280
     0
102
RTVSPost2010PropOp33
 70
     1
102
RTVSPost2010Prop34
280
     0
102
RTVSPost2010PropOp34
 70
     1
102
RTVSPost2010Prop35
280
     0
102
RTVSPost2010PropOp35
 70
     1
102
RTVSPost2010Prop36
280
     0
102
RTVSPost2010PropOp36
 70
     1
102
RTVSPost2010Prop37
 90
       50
102
RTVSPost2010PropOp37
 70
     1
102
RTVSPost2010Prop38
140
0.0
102
RTVSPost2010PropOp38
 70
     1
102
RTVSPost2010Prop39
140
1.0
102
RTVSPost2010PropOp39
 70
     1
102
RTVSPost2010Prop40
 90
        0
102
RTVSPost2010PropOp40
 70
     1
102
RTVSPost2010Prop41ColorIndex
 90
       18
102
RTVSPost2010Prop41ColorRGB
 90
        0
102
RTVSPost2010PropOp41
 70
     1
102
RTVSPost2010Prop42
 90
       50
102
RTVSPost2010PropOp42
 70
     1
102
RTVSPost2010Prop43
 90
        3
102
RTVSPost2010PropOp43
 70
     1
102
RTVSPost2010Prop44ColorIndex
 90
        5
102
RTVSPost2010Prop44ColorRGB
 90
      255
102
RTVSPost2010PropOp44
 70
     1
102
RTVSPost2010Prop45
280
     0
102
RTVSPost2010PropOp45
 70
     1
102
RTVSPost2010Prop46
 90
       50
102
RTVSPost2010PropOp46
 70
     1
102
RTVSPost2010Prop47
 90
       50
102
RTVSPost2010PropOp47
 70
     1
102
RTVSPost2010Prop48
 90
       50
102
RTVSPost2010PropOp48
 70
     1
102
RTVSPost2010Prop49
280
     0
102
RTVSPost2010PropOp49
 70
     1
102
RTVSPost2010Prop50
 90
       50
102
RTVSPost2010PropOp50
 70
     1
102
RTVSPost2010Prop51ColorIndex
 90
      256
102
RTVSPost2010Prop51ColorRGB
 90
-16777216
102
RTVSPost2010PropOp51
 70
     0
102
RTVSPost2010Prop52
140
1.0
102
RTVSPost2010PropOp52
 70
     0
102
RTVSPost2010Prop53
 90
        2
102
RTVSPost2010PropOp53
 70
     1
102
RTVSPost2010Prop54
  1
strokes_ogs.tif
102
RTVSPost2010PropOp54
 70
     1
102
RTVSPost2010Prop55
280
     0
102
RTVSPost2010PropOp55
 70
     1
102
RTVSPost2010Prop56
140
1.0
102
RTVSPost2010PropOp56
 70
     1
102
RTVSPost2010Prop57
140
1.0
102
RTVSPost2010PropOp57
 70
     1
102
RTVSPropertyOp0
 70
     1
102
RTVSPropertyOp1
 70
     1
102
RTVSPropertyOp2
 70
     1
102
RTVSPropertyOp3
 70
     1
102
RTVSPropertyOp4
 70
     1
102
RTVSPropertyOp5
 70
     1
102
RTVSPropertyOp6
 70
     1
102
RTVSPropertyOp7
 70
     1
102
RTVSPropertyOp8
 70
     1
102
RTVSPropertyOp9
 70
     1
102
RTVSPropertyOp10
 70
     1
102
RTVSPropertyOp11
 70
     1
102
RTVSPropertyOp12
 70
     1
102
RTVSPropertyOp13
 70
     1
102
RTVSPropertyOp14
 70
     1
102
RTVSPropertyOp15
 70
     1
102
RTVSPropertyOp16
 70
     1
102
RTVSPropertyOp17
 70
     1
102
RTVSPropertyOp18
 70
     1
102
RTVSPropertyOp19
 70
     1
102
RTVSPropertyOp20
 70
     1
102
RTVSPropertyOp21
 70
     1
102
RTVSPropertyOp22
 70
     1
102
RTVSPropertyOp23
 70
     1
102
RTVSPropertyOp24
 70
     1
102
RTVSPropertyOp25
 70
     1
102
RTVSPropertyOp26
 70
     1
102
RTVSPropertyOp27
 70
     1
102
RTVSPropertyOp28
 70
     1
102
RTVSPropertyOp29
 70
     1
102
RTVSPropertyOp30
 70
     1
102
RTVSPropertyOp31
 70
     1
102
RTVSPropertyOp32
 70
     1
102
RTVSPropertyOp33
 70
     1
102
RTVSPropertyOp34
 70
     1
102
RTVSPropertyOp35
 70
     1
102
RTVSPropertyOp36
 70
     1
102
RTVSPropertyOp37
 70
     1
102
RTVSPropertyOp38
 70
     1
102
RTVSPropertyOp39
 70
     1
102
RTVSPropertyOp40
 70
     1
102
RTVSPropertyOp41
 70
     1
102
RTVSPropertyOp42
 70
     1
102
RTVSPropertyOp43
 70
     1
102
RTVSPropertyOp44
 70
     1
102
RTVSPropertyOp45
 70
     1
102
RTVSPropertyOp46
 70
     1
102
RTVSPropertyOp47
 70
     1
102
RTVSPropertyOp48
 70
     1
102
RTVSPropertyOp49
 70
     1
102
RTVSPropertyOp50
 70
     1
102
RTVSPropertyOp51
 70
     0
102
RTVSPropertyOp52
 70
     0
102
RTVSPropertyOp53
 70
     1
102
RTVSPropertyOp54
 70
     1
102
RTVSPropertyOp55
 70
     1
102
RTVSPropertyOp56
 70
     1
102
RTVSPropertyOp57
 70
     1
102
RTVSPropertyOp58
 70
     1
102
RTVSPropertyOp59
 70
     1
102
RTVSPropertyOp60
 70
     1
102
RTVSPropertyOp61
 70
     1
102
RTVSPropertyOp62
 70
     1
  0
XRECORD
  5
4BD
102
{ACAD_REACTORS
330
4BC
102
}
330
4BC
100
AcDbXrecord
280
     1
102
RTVSPost2010Prop28
280
     0
102
RTVSPost2010PropOp28
 70
     1
102
RTVSPost2010Prop29
280
     1
102
RTVSPost2010PropOp29
 70
     1
102
RTVSPost2010Prop30
280
     1
102
RTVSPost2010PropOp30
 70
     1
102
RTVSPost2010Prop31
280
     0
102
RTVSPost2010PropOp31
 70
     1
102
RTVSPost2010Prop32
280
     0
102
RTVSPost2010PropOp32
 70
     1
102
RTVSPost2010Prop33
280
     0
102
RTVSPost2010PropOp33
 70
     1
102
RTVSPost2010Prop34
280
     0
102
RTVSPost2010PropOp34
 70
     1
102
RTVSPost2010Prop35
280
     0
102
RTVSPost2010PropOp35
 70
     1
102
RTVSPost2010Prop36
280
     0
102
RTVSPost2010PropOp36
 70
     1
102
RTVSPost2010Prop37
 90
       50
102
RTVSPost2010PropOp37
 70
     0
102
RTVSPost2010Prop38
140
0.0
102
RTVSPost2010PropOp38
 70
     0
102
RTVSPost2010Prop39
140
1.0
102
RTVSPost2010PropOp39
 70
     0
102
RTVSPost2010Prop40
 90
        0
102
RTVSPost2010PropOp40
 70
     0
102
RTVSPost2010Prop41ColorIndex
 90
       18
102
RTVSPost2010Prop41ColorRGB
 90
        0
102
RTVSPost2010PropOp41
 70
     0
102
RTVSPost2010Prop42
 90
       50
102
RTVSPost2010PropOp42
 70
     0
102
RTVSPost2010Prop43
 90
        3
102
RTVSPost2010PropOp43
 70
     0
102
RTVSPost2010Prop44ColorIndex
 90
        5
102
RTVSPost2010Prop44ColorRGB
 90
      255
102
RTVSPost2010PropOp44
 70
     0
102
RTVSPost2010Prop45
280
     0
102
RTVSPost2010PropOp45
 70
     1
102
RTVSPost2010Prop46
 90
       50
102
RTVSPost2010PropOp46
 70
     0
102
RTVSPost2010Prop47
 90
       50
102
RTVSPost2010PropOp47
 70
     0
102
RTVSPost2010Prop48
 90
       50
102
RTVSPost2010PropOp48
 70
     0
102
RTVSPost2010Prop49
280
     0
102
RTVSPost2010PropOp49
 70
     1
102
RTVSPost2010Prop50
 90
       50
102
RTVSPost2010PropOp50
 70
     0
102
RTVSPost2010Prop51ColorIndex
 90
      256
102
RTVSPost2010Prop51ColorRGB
 90
-16777216
102
RTVSPost2010PropOp51
 70
     0
102
RTVSPost2010Prop52
140
1.0
102
RTVSPost2010PropOp52
 70
     0
102
RTVSPost2010Prop53
 90
        2
102
RTVSPost2010PropOp53
 70
     0
102
RTVSPost2010Prop54
  1
strokes_ogs.tif
102
RTVSPost2010PropOp54
 70
     0
102
RTVSPost2010Prop55
280
     0
102
RTVSPost2010PropOp55
 70
     1
102
RTVSPost2010Prop56
140
1.0
102
RTVSPost2010PropOp56
 70
     0
102
RTVSPost2010Prop57
140
1.0
102
RTVSPost2010PropOp57
 70
     0
102
RTVSPropertyOp0
 70
     0
102
RTVSPropertyOp1
 70
     0
102
RTVSPropertyOp2
 70
     0
102
RTVSPropertyOp3
 70
     0
102
RTVSPropertyOp4
 70
     0
102
RTVSPropertyOp5
 70
     0
102
RTVSPropertyOp6
 70
     0
102
RTVSPropertyOp7
 70
     0
102
RTVSPropertyOp8
 70
     0
102
RTVSPropertyOp9
 70
     0
102
RTVSPropertyOp10
 70
     0
102
RTVSPropertyOp11
 70
     0
102
RTVSPropertyOp12
 70
     0
102
RTVSPropertyOp13
 70
     0
102
RTVSPropertyOp14
 70
     2
102
RTVSPropertyOp15
 70
     0
102
RTVSPropertyOp16
 70
     0
102
RTVSPropertyOp17
 70
     0
102
RTVSPropertyOp18
 70
     0
102
RTVSPropertyOp19
 70
     0
102
RTVSPropertyOp20
 70
     0
102
RTVSPropertyOp21
 70
     0
102
RTVSPropertyOp22
 70
     0
102
RTVSPropertyOp23
 70
     0
102
RTVSPropertyOp24
 70
     0
102
RTVSPropertyOp25
 70
     0
102
RTVSPropertyOp26
 70
     0
102
RTVSPropertyOp27
 70
     0
102
RTVSPropertyOp28
 70
     1
102
RTVSPropertyOp29
 70
     1
102
RTVSPropertyOp30
 70
     1
102
RTVSPropertyOp31
 70
     1
102
RTVSPropertyOp32
 70
     1
102
RTVSPropertyOp33
 70
     1
102
RTVSPropertyOp34
 70
     1
102
RTVSPropertyOp35
 70
     1
102
RTVSPropertyOp36
 70
     1
102
RTVSPropertyOp37
 70
     0
102
RTVSPropertyOp38
 70
     0
102
RTVSPropertyOp39
 70
     0
102
RTVSPropertyOp40
 70
     0
102
RTVSPropertyOp41
 70
     0
102
RTVSPropertyOp42
 70
     0
102
RTVSPropertyOp43
 70
     0
102
RTVSPropertyOp44
 70
     0
102
RTVSPropertyOp45
 70
     1
102
RTVSPropertyOp46
 70
     0
102
RTVSPropertyOp47
 70
     0
102
RTVSPropertyOp48
 70
     0
102
RTVSPropertyOp49
 70
     1
102
RTVSPropertyOp50
 70
     0
102
RTVSPropertyOp51
 70
     0
102
RTVSPropertyOp52
 70
     0
102
RTVSPropertyOp53
 70
     0
102
RTVSPropertyOp54
 70
     0
102
RTVSPropertyOp55
 70
     1
102
RTVSPropertyOp56
 70
     0
102
RTVSPropertyOp57
 70
     0
102
RTVSPropertyOp58
 70
     0
102
RTVSPropertyOp59
 70
     0
102
RTVSPropertyOp60
 70
     0
102
RTVSPropertyOp61
 70
     0
102
RTVSPropertyOp62
 70
     0
  0
XRECORD
  5
4AB
102
{ACAD_REACTORS
330
4AA
102
}
330
4AA
100
AcDbXrecord
280
     1
102
RTVSPost2010Prop28
280
     0
102
RTVSPost2010PropOp28
 70
     1
102
RTVSPost2010Prop29
280
     1
102
RTVSPost2010PropOp29
 70
     1
102
RTVSPost2010Prop30
280
     1
102
RTVSPost2010PropOp30
 70
     1
102
RTVSPost2010Prop31
280
     0
102
RTVSPost2010PropOp31
 70
     1
102
RTVSPost2010Prop32
280
     0
102
RTVSPost2010PropOp32
 70
     1
102
RTVSPost2010Prop33
280
     0
102
RTVSPost2010PropOp33
 70
     1
102
RTVSPost2010Prop34
280
     0
102
RTVSPost2010PropOp34
 70
     1
102
RTVSPost2010Prop35
280
     0
102
RTVSPost2010PropOp35
 70
     1
102
RTVSPost2010Prop36
280
     0
102
RTVSPost2010PropOp36
 70
     1
102
RTVSPost2010Prop37
 90
       50
102
RTVSPost2010PropOp37
 70
     1
102
RTVSPost2010Prop38
140
0.0
102
RTVSPost2010PropOp38
 70
     1
102
RTVSPost2010Prop39
140
1.0
102
RTVSPost2010PropOp39
 70
     1
102
RTVSPost2010Prop40
 90
        0
102
RTVSPost2010PropOp40
 70
     1
102
RTVSPost2010Prop41ColorIndex
 90
       18
102
RTVSPost2010Prop41ColorRGB
 90
        0
102
RTVSPost2010PropOp41
 70
     1
102
RTVSPost2010Prop42
 90
       50
102
RTVSPost2010PropOp42
 70
     1
102
RTVSPost2010Prop43
 90
        3
102
RTVSPost2010PropOp43
 70
     1
102
RTVSPost2010Prop44ColorIndex
 90
        5
102
RTVSPost2010Prop44ColorRGB
 90
      255
102
RTVSPost2010PropOp44
 70
     1
102
RTVSPost2010Prop45
280
     0
102
RTVSPost2010PropOp45
 70
     1
102
RTVSPost2010Prop46
 90
       50
102
RTVSPost2010PropOp46
 70
     1
102
RTVSPost2010Prop47
 90
       50
102
RTVSPost2010PropOp47
 70
     1
102
RTVSPost2010Prop48
 90
       50
102
RTVSPost2010PropOp48
 70
     1
102
RTVSPost2010Prop49
280
     0
102
RTVSPost2010PropOp49
 70
     1
102
RTVSPost2010Prop50
 90
       50
102
RTVSPost2010PropOp50
 70
     1
102
RTVSPost2010Prop51ColorIndex
 90
      256
102
RTVSPost2010Prop51ColorRGB
 90
-16777216
102
RTVSPost2010PropOp51
 70
     0
102
RTVSPost2010Prop52
140
1.0
102
RTVSPost2010PropOp52
 70
     0
102
RTVSPost2010Prop53
 90
        2
102
RTVSPost2010PropOp53
 70
     1
102
RTVSPost2010Prop54
  1
strokes_ogs.tif
102
RTVSPost2010PropOp54
 70
     1
102
RTVSPost2010Prop55
280
     0
102
RTVSPost2010PropOp55
 70
     1
102
RTVSPost2010Prop56
140
1.0
102
RTVSPost2010PropOp56
 70
     1
102
RTVSPost2010Prop57
140
1.0
102
RTVSPost2010PropOp57
 70
     1
102
RTVSPropertyOp0
 70
     1
102
RTVSPropertyOp1
 70
     1
102
RTVSPropertyOp2
 70
     1
102
RTVSPropertyOp3
 70
     1
102
RTVSPropertyOp4
 70
     1
102
RTVSPropertyOp5
 70
     1
102
RTVSPropertyOp6
 70
     1
102
RTVSPropertyOp7
 70
     1
102
RTVSPropertyOp8
 70
     1
102
RTVSPropertyOp9
 70
     1
102
RTVSPropertyOp10
 70
     1
102
RTVSPropertyOp11
 70
     1
102
RTVSPropertyOp12
 70
     1
102
RTVSPropertyOp13
 70
     1
102
RTVSPropertyOp14
 70
     1
102
RTVSPropertyOp15
 70
     1
102
RTVSPropertyOp16
 70
     1
102
RTVSPropertyOp17
 70
     1
102
RTVSPropertyOp18
 70
     1
102
RTVSPropertyOp19
 70
     1
102
RTVSPropertyOp20
 70
     1
102
RTVSPropertyOp21
 70
     1
102
RTVSPropertyOp22
 70
     1
102
RTVSPropertyOp23
 70
     1
102
RTVSPropertyOp24
 70
     1
102
RTVSPropertyOp25
 70
     1
102
RTVSPropertyOp26
 70
     1
102
RTVSPropertyOp27
 70
     1
102
RTVSPropertyOp28
 70
     1
102
RTVSPropertyOp29
 70
     1
102
RTVSPropertyOp30
 70
     1
102
RTVSPropertyOp31
 70
     1
102
RTVSPropertyOp32
 70
     1
102
RTVSPropertyOp33
 70
     1
102
RTVSPropertyOp34
 70
     1
102
RTVSPropertyOp35
 70
     1
102
RTVSPropertyOp36
 70
     1
102
RTVSPropertyOp37
 70
     1
102
RTVSPropertyOp38
 70
     1
102
RTVSPropertyOp39
 70
     1
102
RTVSPropertyOp40
 70
     1
102
RTVSPropertyOp41
 70
     1
102
RTVSPropertyOp42
 70
     1
102
RTVSPropertyOp43
 70
     1
102
RTVSPropertyOp44
 70
     1
102
RTVSPropertyOp45
 70
     1
102
RTVSPropertyOp46
 70
     1
102
RTVSPropertyOp47
 70
     1
102
RTVSPropertyOp48
 70
     1
102
RTVSPropertyOp49
 70
     1
102
RTVSPropertyOp50
 70
     1
102
RTVSPropertyOp51
 70
     0
102
RTVSPropertyOp52
 70
     0
102
RTVSPropertyOp53
 70
     1
102
RTVSPropertyOp54
 70
     1
102
RTVSPropertyOp55
 70
     1
102
RTVSPropertyOp56
 70
     1
102
RTVSPropertyOp57
 70
     1
102
RTVSPropertyOp58
 70
     1
102
RTVSPropertyOp59
 70
     1
102
RTVSPropertyOp60
 70
     1
102
RTVSPropertyOp61
 70
     1
102
RTVSPropertyOp62
 70
     1
  0
XRECORD
  5
48F
102
{ACAD_REACTORS
330
48E
102
}
330
48E
100
AcDbXrecord
280
     1
102
RTVSPost2010Prop28
280
     0
102
RTVSPost2010PropOp28
 70
     1
102
RTVSPost2010Prop29
280
     1
102
RTVSPost2010PropOp29
 70
     1
102
RTVSPost2010Prop30
280
     1
102
RTVSPost2010PropOp30
 70
     1
102
RTVSPost2010Prop31
280
     0
102
RTVSPost2010PropOp31
 70
     1
102
RTVSPost2010Prop32
280
     0
102
RTVSPost2010PropOp32
 70
     1
102
RTVSPost2010Prop33
280
     0
102
RTVSPost2010PropOp33
 70
     1
102
RTVSPost2010Prop34
280
     0
102
RTVSPost2010PropOp34
 70
     1
102
RTVSPost2010Prop35
280
     0
102
RTVSPost2010PropOp35
 70
     1
102
RTVSPost2010Prop36
280
     0
102
RTVSPost2010PropOp36
 70
     1
102
RTVSPost2010Prop37
 90
       50
102
RTVSPost2010PropOp37
 70
     1
102
RTVSPost2010Prop38
140
0.0
102
RTVSPost2010PropOp38
 70
     1
102
RTVSPost2010Prop39
140
1.0
102
RTVSPost2010PropOp39
 70
     1
102
RTVSPost2010Prop40
 90
        0
102
RTVSPost2010PropOp40
 70
     1
102
RTVSPost2010Prop41ColorIndex
 90
       18
102
RTVSPost2010Prop41ColorRGB
 90
        0
102
RTVSPost2010PropOp41
 70
     1
102
RTVSPost2010Prop42
 90
       50
102
RTVSPost2010PropOp42
 70
     1
102
RTVSPost2010Prop43
 90
        3
102
RTVSPost2010PropOp43
 70
     1
102
RTVSPost2010Prop44ColorIndex
 90
        5
102
RTVSPost2010Prop44ColorRGB
 90
      255
102
RTVSPost2010PropOp44
 70
     1
102
RTVSPost2010Prop45
280
     0
102
RTVSPost2010PropOp45
 70
     1
102
RTVSPost2010Prop46
 90
       50
102
RTVSPost2010PropOp46
 70
     1
102
RTVSPost2010Prop47
 90
       50
102
RTVSPost2010PropOp47
 70
     1
102
RTVSPost2010Prop48
 90
       50
102
RTVSPost2010PropOp48
 70
     1
102
RTVSPost2010Prop49
280
     0
102
RTVSPost2010PropOp49
 70
     1
102
RTVSPost2010Prop50
 90
       50
102
RTVSPost2010PropOp50
 70
     1
102
RTVSPost2010Prop51ColorIndex
 90
      256
102
RTVSPost2010Prop51ColorRGB
 90
-16777216
102
RTVSPost2010PropOp51
 70
     0
102
RTVSPost2010Prop52
140
1.0
102
RTVSPost2010PropOp52
 70
     0
102
RTVSPost2010Prop53
 90
        2
102
RTVSPost2010PropOp53
 70
     1
102
RTVSPost2010Prop54
  1
strokes_ogs.tif
102
RTVSPost2010PropOp54
 70
     1
102
RTVSPost2010Prop55
280
     0
102
RTVSPost2010PropOp55
 70
     1
102
RTVSPost2010Prop56
140
1.0
102
RTVSPost2010PropOp56
 70
     1
102
RTVSPost2010Prop57
140
1.0
102
RTVSPost2010PropOp57
 70
     1
102
RTVSPropertyOp0
 70
     1
102
RTVSPropertyOp1
 70
     1
102
RTVSPropertyOp2
 70
     1
102
RTVSPropertyOp3
 70
     1
102
RTVSPropertyOp4
 70
     1
102
RTVSPropertyOp5
 70
     1
102
RTVSPropertyOp6
 70
     1
102
RTVSPropertyOp7
 70
     1
102
RTVSPropertyOp8
 70
     1
102
RTVSPropertyOp9
 70
     1
102
RTVSPropertyOp10
 70
     1
102
RTVSPropertyOp11
 70
     1
102
RTVSPropertyOp12
 70
     1
102
RTVSPropertyOp13
 70
     1
102
RTVSPropertyOp14
 70
     1
102
RTVSPropertyOp15
 70
     1
102
RTVSPropertyOp16
 70
     1
102
RTVSPropertyOp17
 70
     1
102
RTVSPropertyOp18
 70
     1
102
RTVSPropertyOp19
 70
     1
102
RTVSPropertyOp20
 70
     1
102
RTVSPropertyOp21
 70
     1
102
RTVSPropertyOp22
 70
     1
102
RTVSPropertyOp23
 70
     1
102
RTVSPropertyOp24
 70
     1
102
RTVSPropertyOp25
 70
     1
102
RTVSPropertyOp26
 70
     1
102
RTVSPropertyOp27
 70
     1
102
RTVSPropertyOp28
 70
     1
102
RTVSPropertyOp29
 70
     1
102
RTVSPropertyOp30
 70
     1
102
RTVSPropertyOp31
 70
     1
102
RTVSPropertyOp32
 70
     1
102
RTVSPropertyOp33
 70
     1
102
RTVSPropertyOp34
 70
     1
102
RTVSPropertyOp35
 70
     1
102
RTVSPropertyOp36
 70
     1
102
RTVSPropertyOp37
 70
     1
102
RTVSPropertyOp38
 70
     1
102
RTVSPropertyOp39
 70
     1
102
RTVSPropertyOp40
 70
     1
102
RTVSPropertyOp41
 70
     1
102
RTVSPropertyOp42
 70
     1
102
RTVSPropertyOp43
 70
     1
102
RTVSPropertyOp44
 70
     1
102
RTVSPropertyOp45
 70
     1
102
RTVSPropertyOp46
 70
     1
102
RTVSPropertyOp47
 70
     1
102
RTVSPropertyOp48
 70
     1
102
RTVSPropertyOp49
 70
     1
102
RTVSPropertyOp50
 70
     1
102
RTVSPropertyOp51
 70
     0
102
RTVSPropertyOp52
 70
     0
102
RTVSPropertyOp53
 70
     1
102
RTVSPropertyOp54
 70
     1
102
RTVSPropertyOp55
 70
     1
102
RTVSPropertyOp56
 70
     1
102
RTVSPropertyOp57
 70
     1
102
RTVSPropertyOp58
 70
     1
102
RTVSPropertyOp59
 70
     1
102
RTVSPropertyOp60
 70
     1
102
RTVSPropertyOp61
 70
     1
102
RTVSPropertyOp62
 70
     1
  0
XRECORD
  5
491
102
{ACAD_REACTORS
330
490
102
}
330
490
100
AcDbXrecord
280
     1
102
RTVSPost2010Prop28
280
     0
102
RTVSPost2010PropOp28
 70
     1
102
RTVSPost2010Prop29
280
     1
102
RTVSPost2010PropOp29
 70
     1
102
RTVSPost2010Prop30
280
     1
102
RTVSPost2010PropOp30
 70
     1
102
RTVSPost2010Prop31
280
     0
102
RTVSPost2010PropOp31
 70
     1
102
RTVSPost2010Prop32
280
     0
102
RTVSPost2010PropOp32
 70
     1
102
RTVSPost2010Prop33
280
     0
102
RTVSPost2010PropOp33
 70
     1
102
RTVSPost2010Prop34
280
     0
102
RTVSPost2010PropOp34
 70
     1
102
RTVSPost2010Prop35
280
     0
102
RTVSPost2010PropOp35
 70
     1
102
RTVSPost2010Prop36
280
     0
102
RTVSPost2010PropOp36
 70
     1
102
RTVSPost2010Prop37
 90
       50
102
RTVSPost2010PropOp37
 70
     1
102
RTVSPost2010Prop38
140
0.0
102
RTVSPost2010PropOp38
 70
     1
102
RTVSPost2010Prop39
140
1.0
102
RTVSPost2010PropOp39
 70
     1
102
RTVSPost2010Prop40
 90
        0
102
RTVSPost2010PropOp40
 70
     1
102
RTVSPost2010Prop41ColorIndex
 90
       18
102
RTVSPost2010Prop41ColorRGB
 90
        0
102
RTVSPost2010PropOp41
 70
     1
102
RTVSPost2010Prop42
 90
       50
102
RTVSPost2010PropOp42
 70
     1
102
RTVSPost2010Prop43
 90
        3
102
RTVSPost2010PropOp43
 70
     1
102
RTVSPost2010Prop44ColorIndex
 90
        5
102
RTVSPost2010Prop44ColorRGB
 90
      255
102
RTVSPost2010PropOp44
 70
     1
102
RTVSPost2010Prop45
280
     0
102
RTVSPost2010PropOp45
 70
     1
102
RTVSPost2010Prop46
 90
       50
102
RTVSPost2010PropOp46
 70
     1
102
RTVSPost2010Prop47
 90
       50
102
RTVSPost2010PropOp47
 70
     1
102
RTVSPost2010Prop48
 90
       50
102
RTVSPost2010PropOp48
 70
     1
102
RTVSPost2010Prop49
280
     0
102
RTVSPost2010PropOp49
 70
     1
102
RTVSPost2010Prop50
 90
       50
102
RTVSPost2010PropOp50
 70
     1
102
RTVSPost2010Prop51ColorIndex
 90
      256
102
RTVSPost2010Prop51ColorRGB
 90
-16777216
102
RTVSPost2010PropOp51
 70
     0
102
RTVSPost2010Prop52
140
1.0
102
RTVSPost2010PropOp52
 70
     0
102
RTVSPost2010Prop53
 90
        2
102
RTVSPost2010PropOp53
 70
     1
102
RTVSPost2010Prop54
  1
strokes_ogs.tif
102
RTVSPost2010PropOp54
 70
     1
102
RTVSPost2010Prop55
280
     0
102
RTVSPost2010PropOp55
 70
     1
102
RTVSPost2010Prop56
140
1.0
102
RTVSPost2010PropOp56
 70
     1
102
RTVSPost2010Prop57
140
1.0
102
RTVSPost2010PropOp57
 70
     1
102
RTVSPropertyOp0
 70
     1
102
RTVSPropertyOp1
 70
     1
102
RTVSPropertyOp2
 70
     1
102
RTVSPropertyOp3
 70
     1
102
RTVSPropertyOp4
 70
     1
102
RTVSPropertyOp5
 70
     1
102
RTVSPropertyOp6
 70
     1
102
RTVSPropertyOp7
 70
     1
102
RTVSPropertyOp8
 70
     1
102
RTVSPropertyOp9
 70
     1
102
RTVSPropertyOp10
 70
     1
102
RTVSPropertyOp11
 70
     1
102
RTVSPropertyOp12
 70
     1
102
RTVSPropertyOp13
 70
     1
102
RTVSPropertyOp14
 70
     1
102
RTVSPropertyOp15
 70
     1
102
RTVSPropertyOp16
 70
     1
102
RTVSPropertyOp17
 70
     1
102
RTVSPropertyOp18
 70
     1
102
RTVSPropertyOp19
 70
     1
102
RTVSPropertyOp20
 70
     1
102
RTVSPropertyOp21
 70
     1
102
RTVSPropertyOp22
 70
     1
102
RTVSPropertyOp23
 70
     1
102
RTVSPropertyOp24
 70
     1
102
RTVSPropertyOp25
 70
     1
102
RTVSPropertyOp26
 70
     1
102
RTVSPropertyOp27
 70
     1
102
RTVSPropertyOp28
 70
     1
102
RTVSPropertyOp29
 70
     1
102
RTVSPropertyOp30
 70
     1
102
RTVSPropertyOp31
 70
     1
102
RTVSPropertyOp32
 70
     1
102
RTVSPropertyOp33
 70
     1
102
RTVSPropertyOp34
 70
     1
102
RTVSPropertyOp35
 70
     1
102
RTVSPropertyOp36
 70
     1
102
RTVSPropertyOp37
 70
     1
102
RTVSPropertyOp38
 70
     1
102
RTVSPropertyOp39
 70
     1
102
RTVSPropertyOp40
 70
     1
102
RTVSPropertyOp41
 70
     1
102
RTVSPropertyOp42
 70
     1
102
RTVSPropertyOp43
 70
     1
102
RTVSPropertyOp44
 70
     1
102
RTVSPropertyOp45
 70
     1
102
RTVSPropertyOp46
 70
     1
102
RTVSPropertyOp47
 70
     1
102
RTVSPropertyOp48
 70
     1
102
RTVSPropertyOp49
 70
     1
102
RTVSPropertyOp50
 70
     1
102
RTVSPropertyOp51
 70
     0
102
RTVSPropertyOp52
 70
     0
102
RTVSPropertyOp53
 70
     1
102
RTVSPropertyOp54
 70
     1
102
RTVSPropertyOp55
 70
     1
102
RTVSPropertyOp56
 70
     1
102
RTVSPropertyOp57
 70
     1
102
RTVSPropertyOp58
 70
     1
102
RTVSPropertyOp59
 70
     1
102
RTVSPropertyOp60
 70
     1
102
RTVSPropertyOp61
 70
     1
102
RTVSPropertyOp62
 70
     1
  0
XRECORD
  5
493
102
{ACAD_REACTORS
330
492
102
}
330
492
100
AcDbXrecord
280
     1
102
RTVSPost2010Prop28
280
     0
102
RTVSPost2010PropOp28
 70
     1
102
RTVSPost2010Prop29
280
     1
102
RTVSPost2010PropOp29
 70
     1
102
RTVSPost2010Prop30
280
     1
102
RTVSPost2010PropOp30
 70
     1
102
RTVSPost2010Prop31
280
     0
102
RTVSPost2010PropOp31
 70
     1
102
RTVSPost2010Prop32
280
     0
102
RTVSPost2010PropOp32
 70
     1
102
RTVSPost2010Prop33
280
     0
102
RTVSPost2010PropOp33
 70
     1
102
RTVSPost2010Prop34
280
     0
102
RTVSPost2010PropOp34
 70
     1
102
RTVSPost2010Prop35
280
     0
102
RTVSPost2010PropOp35
 70
     1
102
RTVSPost2010Prop36
280
     0
102
RTVSPost2010PropOp36
 70
     1
102
RTVSPost2010Prop37
 90
       50
102
RTVSPost2010PropOp37
 70
     1
102
RTVSPost2010Prop38
140
0.0
102
RTVSPost2010PropOp38
 70
     1
102
RTVSPost2010Prop39
140
1.0
102
RTVSPost2010PropOp39
 70
     1
102
RTVSPost2010Prop40
 90
        0
102
RTVSPost2010PropOp40
 70
     1
102
RTVSPost2010Prop41ColorIndex
 90
       18
102
RTVSPost2010Prop41ColorRGB
 90
        0
102
RTVSPost2010PropOp41
 70
     1
102
RTVSPost2010Prop42
 90
       50
102
RTVSPost2010PropOp42
 70
     1
102
RTVSPost2010Prop43
 90
        3
102
RTVSPost2010PropOp43
 70
     1
102
RTVSPost2010Prop44ColorIndex
 90
        5
102
RTVSPost2010Prop44ColorRGB
 90
      255
102
RTVSPost2010PropOp44
 70
     1
102
RTVSPost2010Prop45
280
     0
102
RTVSPost2010PropOp45
 70
     1
102
RTVSPost2010Prop46
 90
       50
102
RTVSPost2010PropOp46
 70
     1
102
RTVSPost2010Prop47
 90
       50
102
RTVSPost2010PropOp47
 70
     1
102
RTVSPost2010Prop48
 90
       50
102
RTVSPost2010PropOp48
 70
     1
102
RTVSPost2010Prop49
280
     0
102
RTVSPost2010PropOp49
 70
     1
102
RTVSPost2010Prop50
 90
       50
102
RTVSPost2010PropOp50
 70
     1
102
RTVSPost2010Prop51ColorIndex
 90
      256
102
RTVSPost2010Prop51ColorRGB
 90
-16777216
102
RTVSPost2010PropOp51
 70
     0
102
RTVSPost2010Prop52
140
1.0
102
RTVSPost2010PropOp52
 70
     0
102
RTVSPost2010Prop53
 90
        2
102
RTVSPost2010PropOp53
 70
     1
102
RTVSPost2010Prop54
  1
strokes_ogs.tif
102
RTVSPost2010PropOp54
 70
     1
102
RTVSPost2010Prop55
280
     0
102
RTVSPost2010PropOp55
 70
     1
102
RTVSPost2010Prop56
140
1.0
102
RTVSPost2010PropOp56
 70
     1
102
RTVSPost2010Prop57
140
1.0
102
RTVSPost2010PropOp57
 70
     1
102
RTVSPropertyOp0
 70
     1
102
RTVSPropertyOp1
 70
     1
102
RTVSPropertyOp2
 70
     1
102
RTVSPropertyOp3
 70
     1
102
RTVSPropertyOp4
 70
     1
102
RTVSPropertyOp5
 70
     1
102
RTVSPropertyOp6
 70
     1
102
RTVSPropertyOp7
 70
     1
102
RTVSPropertyOp8
 70
     1
102
RTVSPropertyOp9
 70
     1
102
RTVSPropertyOp10
 70
     1
102
RTVSPropertyOp11
 70
     1
102
RTVSPropertyOp12
 70
     1
102
RTVSPropertyOp13
 70
     1
102
RTVSPropertyOp14
 70
     1
102
RTVSPropertyOp15
 70
     1
102
RTVSPropertyOp16
 70
     1
102
RTVSPropertyOp17
 70
     1
102
RTVSPropertyOp18
 70
     1
102
RTVSPropertyOp19
 70
     1
102
RTVSPropertyOp20
 70
     1
102
RTVSPropertyOp21
 70
     1
102
RTVSPropertyOp22
 70
     1
102
RTVSPropertyOp23
 70
     1
102
RTVSPropertyOp24
 70
     1
102
RTVSPropertyOp25
 70
     1
102
RTVSPropertyOp26
 70
     1
102
RTVSPropertyOp27
 70
     1
102
RTVSPropertyOp28
 70
     1
102
RTVSPropertyOp29
 70
     1
102
RTVSPropertyOp30
 70
     1
102
RTVSPropertyOp31
 70
     1
102
RTVSPropertyOp32
 70
     1
102
RTVSPropertyOp33
 70
     1
102
RTVSPropertyOp34
 70
     1
102
RTVSPropertyOp35
 70
     1
102
RTVSPropertyOp36
 70
     1
102
RTVSPropertyOp37
 70
     1
102
RTVSPropertyOp38
 70
     1
102
RTVSPropertyOp39
 70
     1
102
RTVSPropertyOp40
 70
     1
102
RTVSPropertyOp41
 70
     1
102
RTVSPropertyOp42
 70
     1
102
RTVSPropertyOp43
 70
     1
102
RTVSPropertyOp44
 70
     1
102
RTVSPropertyOp45
 70
     1
102
RTVSPropertyOp46
 70
     1
102
RTVSPropertyOp47
 70
     1
102
RTVSPropertyOp48
 70
     1
102
RTVSPropertyOp49
 70
     1
102
RTVSPropertyOp50
 70
     1
102
RTVSPropertyOp51
 70
     0
102
RTVSPropertyOp52
 70
     0
102
RTVSPropertyOp53
 70
     1
102
RTVSPropertyOp54
 70
     1
102
RTVSPropertyOp55
 70
     1
102
RTVSPropertyOp56
 70
     1
102
RTVSPropertyOp57
 70
     1
102
RTVSPropertyOp58
 70
     1
102
RTVSPropertyOp59
 70
     1
102
RTVSPropertyOp60
 70
     1
102
RTVSPropertyOp61
 70
     1
102
RTVSPropertyOp62
 70
     1
  0
XRECORD
  5
495
102
{ACAD_REACTORS
330
494
102
}
330
494
100
AcDbXrecord
280
     1
102
RTVSPost2010Prop28
280
     0
102
RTVSPost2010PropOp28
 70
     1
102
RTVSPost2010Prop29
280
     1
102
RTVSPost2010PropOp29
 70
     1
102
RTVSPost2010Prop30
280
     1
102
RTVSPost2010PropOp30
 70
     1
102
RTVSPost2010Prop31
280
     0
102
RTVSPost2010PropOp31
 70
     1
102
RTVSPost2010Prop32
280
     0
102
RTVSPost2010PropOp32
 70
     1
102
RTVSPost2010Prop33
280
     0
102
RTVSPost2010PropOp33
 70
     1
102
RTVSPost2010Prop34
280
     0
102
RTVSPost2010PropOp34
 70
     1
102
RTVSPost2010Prop35
280
     0
102
RTVSPost2010PropOp35
 70
     1
102
RTVSPost2010Prop36
280
     0
102
RTVSPost2010PropOp36
 70
     1
102
RTVSPost2010Prop37
 90
       50
102
RTVSPost2010PropOp37
 70
     1
102
RTVSPost2010Prop38
140
0.0
102
RTVSPost2010PropOp38
 70
     1
102
RTVSPost2010Prop39
140
1.0
102
RTVSPost2010PropOp39
 70
     1
102
RTVSPost2010Prop40
 90
        0
102
RTVSPost2010PropOp40
 70
     1
102
RTVSPost2010Prop41ColorIndex
 90
       18
102
RTVSPost2010Prop41ColorRGB
 90
        0
102
RTVSPost2010PropOp41
 70
     1
102
RTVSPost2010Prop42
 90
       50
102
RTVSPost2010PropOp42
 70
     1
102
RTVSPost2010Prop43
 90
        3
102
RTVSPost2010PropOp43
 70
     1
102
RTVSPost2010Prop44ColorIndex
 90
        5
102
RTVSPost2010Prop44ColorRGB
 90
      255
102
RTVSPost2010PropOp44
 70
     1
102
RTVSPost2010Prop45
280
     0
102
RTVSPost2010PropOp45
 70
     1
102
RTVSPost2010Prop46
 90
       50
102
RTVSPost2010PropOp46
 70
     1
102
RTVSPost2010Prop47
 90
       50
102
RTVSPost2010PropOp47
 70
     1
102
RTVSPost2010Prop48
 90
       50
102
RTVSPost2010PropOp48
 70
     1
102
RTVSPost2010Prop49
280
     0
102
RTVSPost2010PropOp49
 70
     1
102
RTVSPost2010Prop50
 90
       50
102
RTVSPost2010PropOp50
 70
     1
102
RTVSPost2010Prop51ColorIndex
 90
      256
102
RTVSPost2010Prop51ColorRGB
 90
-16777216
102
RTVSPost2010PropOp51
 70
     0
102
RTVSPost2010Prop52
140
1.0
102
RTVSPost2010PropOp52
 70
     0
102
RTVSPost2010Prop53
 90
        2
102
RTVSPost2010PropOp53
 70
     1
102
RTVSPost2010Prop54
  1
strokes_ogs.tif
102
RTVSPost2010PropOp54
 70
     1
102
RTVSPost2010Prop55
280
     0
102
RTVSPost2010PropOp55
 70
     1
102
RTVSPost2010Prop56
140
1.0
102
RTVSPost2010PropOp56
 70
     1
102
RTVSPost2010Prop57
140
1.0
102
RTVSPost2010PropOp57
 70
     1
102
RTVSPropertyOp0
 70
     1
102
RTVSPropertyOp1
 70
     1
102
RTVSPropertyOp2
 70
     1
102
RTVSPropertyOp3
 70
     1
102
RTVSPropertyOp4
 70
     1
102
RTVSPropertyOp5
 70
     1
102
RTVSPropertyOp6
 70
     1
102
RTVSPropertyOp7
 70
     1
102
RTVSPropertyOp8
 70
     1
102
RTVSPropertyOp9
 70
     1
102
RTVSPropertyOp10
 70
     1
102
RTVSPropertyOp11
 70
     1
102
RTVSPropertyOp12
 70
     1
102
RTVSPropertyOp13
 70
     1
102
RTVSPropertyOp14
 70
     1
102
RTVSPropertyOp15
 70
     1
102
RTVSPropertyOp16
 70
     1
102
RTVSPropertyOp17
 70
     1
102
RTVSPropertyOp18
 70
     1
102
RTVSPropertyOp19
 70
     1
102
RTVSPropertyOp20
 70
     1
102
RTVSPropertyOp21
 70
     1
102
RTVSPropertyOp22
 70
     1
102
RTVSPropertyOp23
 70
     1
102
RTVSPropertyOp24
 70
     1
102
RTVSPropertyOp25
 70
     1
102
RTVSPropertyOp26
 70
     1
102
RTVSPropertyOp27
 70
     1
102
RTVSPropertyOp28
 70
     1
102
RTVSPropertyOp29
 70
     1
102
RTVSPropertyOp30
 70
     1
102
RTVSPropertyOp31
 70
     1
102
RTVSPropertyOp32
 70
     1
102
RTVSPropertyOp33
 70
     1
102
RTVSPropertyOp34
 70
     1
102
RTVSPropertyOp35
 70
     1
102
RTVSPropertyOp36
 70
     1
102
RTVSPropertyOp37
 70
     1
102
RTVSPropertyOp38
 70
     1
102
RTVSPropertyOp39
 70
     1
102
RTVSPropertyOp40
 70
     1
102
RTVSPropertyOp41
 70
     1
102
RTVSPropertyOp42
 70
     1
102
RTVSPropertyOp43
 70
     1
102
RTVSPropertyOp44
 70
     1
102
RTVSPropertyOp45
 70
     1
102
RTVSPropertyOp46
 70
     1
102
RTVSPropertyOp47
 70
     1
102
RTVSPropertyOp48
 70
     1
102
RTVSPropertyOp49
 70
     1
102
RTVSPropertyOp50
 70
     1
102
RTVSPropertyOp51
 70
     0
102
RTVSPropertyOp52
 70
     0
102
RTVSPropertyOp53
 70
     1
102
RTVSPropertyOp54
 70
     1
102
RTVSPropertyOp55
 70
     1
102
RTVSPropertyOp56
 70
     1
102
RTVSPropertyOp57
 70
     1
102
RTVSPropertyOp58
 70
     1
102
RTVSPropertyOp59
 70
     1
102
RTVSPropertyOp60
 70
     1
102
RTVSPropertyOp61
 70
     1
102
RTVSPropertyOp62
 70
     1
  0
XRECORD
  5
49D
102
{ACAD_REACTORS
330
49C
102
}
330
49C
100
AcDbXrecord
280
     1
102
RTVSPost2010Prop28
280
     0
102
RTVSPost2010PropOp28
 70
     1
102
RTVSPost2010Prop29
280
     1
102
RTVSPost2010PropOp29
 70
     1
102
RTVSPost2010Prop30
280
     1
102
RTVSPost2010PropOp30
 70
     1
102
RTVSPost2010Prop31
280
     0
102
RTVSPost2010PropOp31
 70
     1
102
RTVSPost2010Prop32
280
     0
102
RTVSPost2010PropOp32
 70
     1
102
RTVSPost2010Prop33
280
     0
102
RTVSPost2010PropOp33
 70
     1
102
RTVSPost2010Prop34
280
     0
102
RTVSPost2010PropOp34
 70
     1
102
RTVSPost2010Prop35
280
     0
102
RTVSPost2010PropOp35
 70
     1
102
RTVSPost2010Prop36
280
     0
102
RTVSPost2010PropOp36
 70
     1
102
RTVSPost2010Prop37
 90
       50
102
RTVSPost2010PropOp37
 70
     1
102
RTVSPost2010Prop38
140
0.0
102
RTVSPost2010PropOp38
 70
     1
102
RTVSPost2010Prop39
140
1.0
102
RTVSPost2010PropOp39
 70
     1
102
RTVSPost2010Prop40
 90
        0
102
RTVSPost2010PropOp40
 70
     1
102
RTVSPost2010Prop41ColorIndex
 90
       18
102
RTVSPost2010Prop41ColorRGB
 90
        0
102
RTVSPost2010PropOp41
 70
     1
102
RTVSPost2010Prop42
 90
       50
102
RTVSPost2010PropOp42
 70
     1
102
RTVSPost2010Prop43
 90
        3
102
RTVSPost2010PropOp43
 70
     1
102
RTVSPost2010Prop44ColorIndex
 90
        5
102
RTVSPost2010Prop44ColorRGB
 90
      255
102
RTVSPost2010PropOp44
 70
     1
102
RTVSPost2010Prop45
280
     0
102
RTVSPost2010PropOp45
 70
     1
102
RTVSPost2010Prop46
 90
       50
102
RTVSPost2010PropOp46
 70
     1
102
RTVSPost2010Prop47
 90
       50
102
RTVSPost2010PropOp47
 70
     1
102
RTVSPost2010Prop48
 90
       50
102
RTVSPost2010PropOp48
 70
     1
102
RTVSPost2010Prop49
280
     0
102
RTVSPost2010PropOp49
 70
     1
102
RTVSPost2010Prop50
 90
       50
102
RTVSPost2010PropOp50
 70
     1
102
RTVSPost2010Prop51ColorIndex
 90
      256
102
RTVSPost2010Prop51ColorRGB
 90
-16777216
102
RTVSPost2010PropOp51
 70
     0
102
RTVSPost2010Prop52
140
1.0
102
RTVSPost2010PropOp52
 70
     0
102
RTVSPost2010Prop53
 90
        2
102
RTVSPost2010PropOp53
 70
     1
102
RTVSPost2010Prop54
  1
strokes_ogs.tif
102
RTVSPost2010PropOp54
 70
     1
102
RTVSPost2010Prop55
280
     0
102
RTVSPost2010PropOp55
 70
     1
102
RTVSPost2010Prop56
140
1.0
102
RTVSPost2010PropOp56
 70
     1
102
RTVSPost2010Prop57
140
1.0
102
RTVSPost2010PropOp57
 70
     1
102
RTVSPropertyOp0
 70
     1
102
RTVSPropertyOp1
 70
     1
102
RTVSPropertyOp2
 70
     1
102
RTVSPropertyOp3
 70
     1
102
RTVSPropertyOp4
 70
     1
102
RTVSPropertyOp5
 70
     1
102
RTVSPropertyOp6
 70
     1
102
RTVSPropertyOp7
 70
     1
102
RTVSPropertyOp8
 70
     1
102
RTVSPropertyOp9
 70
     1
102
RTVSPropertyOp10
 70
     1
102
RTVSPropertyOp11
 70
     1
102
RTVSPropertyOp12
 70
     1
102
RTVSPropertyOp13
 70
     1
102
RTVSPropertyOp14
 70
     1
102
RTVSPropertyOp15
 70
     1
102
RTVSPropertyOp16
 70
     1
102
RTVSPropertyOp17
 70
     1
102
RTVSPropertyOp18
 70
     1
102
RTVSPropertyOp19
 70
     1
102
RTVSPropertyOp20
 70
     1
102
RTVSPropertyOp21
 70
     1
102
RTVSPropertyOp22
 70
     1
102
RTVSPropertyOp23
 70
     1
102
RTVSPropertyOp24
 70
     1
102
RTVSPropertyOp25
 70
     1
102
RTVSPropertyOp26
 70
     1
102
RTVSPropertyOp27
 70
     1
102
RTVSPropertyOp28
 70
     1
102
RTVSPropertyOp29
 70
     1
102
RTVSPropertyOp30
 70
     1
102
RTVSPropertyOp31
 70
     1
102
RTVSPropertyOp32
 70
     1
102
RTVSPropertyOp33
 70
     1
102
RTVSPropertyOp34
 70
     1
102
RTVSPropertyOp35
 70
     1
102
RTVSPropertyOp36
 70
     1
102
RTVSPropertyOp37
 70
     1
102
RTVSPropertyOp38
 70
     1
102
RTVSPropertyOp39
 70
     1
102
RTVSPropertyOp40
 70
     1
102
RTVSPropertyOp41
 70
     1
102
RTVSPropertyOp42
 70
     1
102
RTVSPropertyOp43
 70
     1
102
RTVSPropertyOp44
 70
     1
102
RTVSPropertyOp45
 70
     1
102
RTVSPropertyOp46
 70
     1
102
RTVSPropertyOp47
 70
     1
102
RTVSPropertyOp48
 70
     1
102
RTVSPropertyOp49
 70
     1
102
RTVSPropertyOp50
 70
     1
102
RTVSPropertyOp51
 70
     0
102
RTVSPropertyOp52
 70
     0
102
RTVSPropertyOp53
 70
     1
102
RTVSPropertyOp54
 70
     1
102
RTVSPropertyOp55
 70
     1
102
RTVSPropertyOp56
 70
     1
102
RTVSPropertyOp57
 70
     1
102
RTVSPropertyOp58
 70
     1
102
RTVSPropertyOp59
 70
     1
102
RTVSPropertyOp60
 70
     1
102
RTVSPropertyOp61
 70
     1
102
RTVSPropertyOp62
 70
     1
  0
XRECORD
  5
4B9
102
{ACAD_REACTORS
330
4B8
102
}
330
4B8
100
AcDbXrecord
280
     1
102
RTVSPost2010Prop28
280
     0
102
RTVSPost2010PropOp28
 70
     1
102
RTVSPost2010Prop29
280
     1
102
RTVSPost2010PropOp29
 70
     1
102
RTVSPost2010Prop30
280
     1
102
RTVSPost2010PropOp30
 70
     1
102
RTVSPost2010Prop31
280
     0
102
RTVSPost2010PropOp31
 70
     1
102
RTVSPost2010Prop32
280
     0
102
RTVSPost2010PropOp32
 70
     1
102
RTVSPost2010Prop33
280
     0
102
RTVSPost2010PropOp33
 70
     1
102
RTVSPost2010Prop34
280
     0
102
RTVSPost2010PropOp34
 70
     1
102
RTVSPost2010Prop35
280
     0
102
RTVSPost2010PropOp35
 70
     1
102
RTVSPost2010Prop36
280
     0
102
RTVSPost2010PropOp36
 70
     1
102
RTVSPost2010Prop37
 90
       50
102
RTVSPost2010PropOp37
 70
     0
102
RTVSPost2010Prop38
140
0.0
102
RTVSPost2010PropOp38
 70
     0
102
RTVSPost2010Prop39
140
1.0
102
RTVSPost2010PropOp39
 70
     0
102
RTVSPost2010Prop40
 90
        0
102
RTVSPost2010PropOp40
 70
     0
102
RTVSPost2010Prop41ColorIndex
 90
       18
102
RTVSPost2010Prop41ColorRGB
 90
        0
102
RTVSPost2010PropOp41
 70
     0
102
RTVSPost2010Prop42
 90
       50
102
RTVSPost2010PropOp42
 70
     0
102
RTVSPost2010Prop43
 90
        3
102
RTVSPost2010PropOp43
 70
     0
102
RTVSPost2010Prop44ColorIndex
 90
        5
102
RTVSPost2010Prop44ColorRGB
 90
      255
102
RTVSPost2010PropOp44
 70
     0
102
RTVSPost2010Prop45
280
     0
102
RTVSPost2010PropOp45
 70
     1
102
RTVSPost2010Prop46
 90
       50
102
RTVSPost2010PropOp46
 70
     0
102
RTVSPost2010Prop47
 90
       50
102
RTVSPost2010PropOp47
 70
     0
102
RTVSPost2010Prop48
 90
       50
102
RTVSPost2010PropOp48
 70
     0
102
RTVSPost2010Prop49
280
     0
102
RTVSPost2010PropOp49
 70
     1
102
RTVSPost2010Prop50
 90
       50
102
RTVSPost2010PropOp50
 70
     0
102
RTVSPost2010Prop51ColorIndex
 90
      256
102
RTVSPost2010Prop51ColorRGB
 90
-16777216
102
RTVSPost2010PropOp51
 70
     0
102
RTVSPost2010Prop52
140
1.0
102
RTVSPost2010PropOp52
 70
     0
102
RTVSPost2010Prop53
 90
        2
102
RTVSPost2010PropOp53
 70
     0
102
RTVSPost2010Prop54
  1
strokes_ogs.tif
102
RTVSPost2010PropOp54
 70
     0
102
RTVSPost2010Prop55
280
     0
102
RTVSPost2010PropOp55
 70
     1
102
RTVSPost2010Prop56
140
1.0
102
RTVSPost2010PropOp56
 70
     0
102
RTVSPost2010Prop57
140
1.0
102
RTVSPost2010PropOp57
 70
     0
102
RTVSPropertyOp0
 70
     0
102
RTVSPropertyOp1
 70
     0
102
RTVSPropertyOp2
 70
     0
102
RTVSPropertyOp3
 70
     0
102
RTVSPropertyOp4
 70
     0
102
RTVSPropertyOp5
 70
     0
102
RTVSPropertyOp6
 70
     0
102
RTVSPropertyOp7
 70
     0
102
RTVSPropertyOp8
 70
     0
102
RTVSPropertyOp9
 70
     0
102
RTVSPropertyOp10
 70
     0
102
RTVSPropertyOp11
 70
     0
102
RTVSPropertyOp12
 70
     0
102
RTVSPropertyOp13
 70
     0
102
RTVSPropertyOp14
 70
     2
102
RTVSPropertyOp15
 70
     0
102
RTVSPropertyOp16
 70
     0
102
RTVSPropertyOp17
 70
     0
102
RTVSPropertyOp18
 70
     0
102
RTVSPropertyOp19
 70
     0
102
RTVSPropertyOp20
 70
     0
102
RTVSPropertyOp21
 70
     0
102
RTVSPropertyOp22
 70
     0
102
RTVSPropertyOp23
 70
     0
102
RTVSPropertyOp24
 70
     0
102
RTVSPropertyOp25
 70
     0
102
RTVSPropertyOp26
 70
     0
102
RTVSPropertyOp27
 70
     0
102
RTVSPropertyOp28
 70
     1
102
RTVSPropertyOp29
 70
     1
102
RTVSPropertyOp30
 70
     1
102
RTVSPropertyOp31
 70
     1
102
RTVSPropertyOp32
 70
     1
102
RTVSPropertyOp33
 70
     1
102
RTVSPropertyOp34
 70
     1
102
RTVSPropertyOp35
 70
     1
102
RTVSPropertyOp36
 70
     1
102
RTVSPropertyOp37
 70
     0
102
RTVSPropertyOp38
 70
     0
102
RTVSPropertyOp39
 70
     0
102
RTVSPropertyOp40
 70
     0
102
RTVSPropertyOp41
 70
     0
102
RTVSPropertyOp42
 70
     0
102
RTVSPropertyOp43
 70
     0
102
RTVSPropertyOp44
 70
     0
102
RTVSPropertyOp45
 70
     1
102
RTVSPropertyOp46
 70
     0
102
RTVSPropertyOp47
 70
     0
102
RTVSPropertyOp48
 70
     0
102
RTVSPropertyOp49
 70
     1
102
RTVSPropertyOp50
 70
     0
102
RTVSPropertyOp51
 70
     0
102
RTVSPropertyOp52
 70
     0
102
RTVSPropertyOp53
 70
     0
102
RTVSPropertyOp54
 70
     0
102
RTVSPropertyOp55
 70
     1
102
RTVSPropertyOp56
 70
     0
102
RTVSPropertyOp57
 70
     0
102
RTVSPropertyOp58
 70
     0
102
RTVSPropertyOp59
 70
     0
102
RTVSPropertyOp60
 70
     0
102
RTVSPropertyOp61
 70
     0
102
RTVSPropertyOp62
 70
     0
  0
XRECORD
  5
4A9
102
{ACAD_REACTORS
330
4A8
102
}
330
4A8
100
AcDbXrecord
280
     1
102
RTVSPost2010Prop28
280
     0
102
RTVSPost2010PropOp28
 70
     1
102
RTVSPost2010Prop29
280
     1
102
RTVSPost2010PropOp29
 70
     1
102
RTVSPost2010Prop30
280
     1
102
RTVSPost2010PropOp30
 70
     1
102
RTVSPost2010Prop31
280
     0
102
RTVSPost2010PropOp31
 70
     1
102
RTVSPost2010Prop32
280
     0
102
RTVSPost2010PropOp32
 70
     1
102
RTVSPost2010Prop33
280
     0
102
RTVSPost2010PropOp33
 70
     1
102
RTVSPost2010Prop34
280
     0
102
RTVSPost2010PropOp34
 70
     1
102
RTVSPost2010Prop35
280
     0
102
RTVSPost2010PropOp35
 70
     1
102
RTVSPost2010Prop36
280
     0
102
RTVSPost2010PropOp36
 70
     1
102
RTVSPost2010Prop37
 90
       50
102
RTVSPost2010PropOp37
 70
     1
102
RTVSPost2010Prop38
140
0.0
102
RTVSPost2010PropOp38
 70
     1
102
RTVSPost2010Prop39
140
1.0
102
RTVSPost2010PropOp39
 70
     1
102
RTVSPost2010Prop40
 90
        0
102
RTVSPost2010PropOp40
 70
     1
102
RTVSPost2010Prop41ColorIndex
 90
       18
102
RTVSPost2010Prop41ColorRGB
 90
        0
102
RTVSPost2010PropOp41
 70
     1
102
RTVSPost2010Prop42
 90
       50
102
RTVSPost2010PropOp42
 70
     1
102
RTVSPost2010Prop43
 90
        3
102
RTVSPost2010PropOp43
 70
     1
102
RTVSPost2010Prop44ColorIndex
 90
        5
102
RTVSPost2010Prop44ColorRGB
 90
      255
102
RTVSPost2010PropOp44
 70
     1
102
RTVSPost2010Prop45
280
     0
102
RTVSPost2010PropOp45
 70
     1
102
RTVSPost2010Prop46
 90
       50
102
RTVSPost2010PropOp46
 70
     1
102
RTVSPost2010Prop47
 90
       50
102
RTVSPost2010PropOp47
 70
     1
102
RTVSPost2010Prop48
 90
       50
102
RTVSPost2010PropOp48
 70
     1
102
RTVSPost2010Prop49
280
     0
102
RTVSPost2010PropOp49
 70
     1
102
RTVSPost2010Prop50
 90
       50
102
RTVSPost2010PropOp50
 70
     1
102
RTVSPost2010Prop51ColorIndex
 90
      256
102
RTVSPost2010Prop51ColorRGB
 90
-16777216
102
RTVSPost2010PropOp51
 70
     0
102
RTVSPost2010Prop52
140
1.0
102
RTVSPost2010PropOp52
 70
     0
102
RTVSPost2010Prop53
 90
        2
102
RTVSPost2010PropOp53
 70
     1
102
RTVSPost2010Prop54
  1
strokes_ogs.tif
102
RTVSPost2010PropOp54
 70
     1
102
RTVSPost2010Prop55
280
     0
102
RTVSPost2010PropOp55
 70
     1
102
RTVSPost2010Prop56
140
1.0
102
RTVSPost2010PropOp56
 70
     1
102
RTVSPost2010Prop57
140
1.0
102
RTVSPost2010PropOp57
 70
     1
102
RTVSPropertyOp0
 70
     1
102
RTVSPropertyOp1
 70
     1
102
RTVSPropertyOp2
 70
     1
102
RTVSPropertyOp3
 70
     1
102
RTVSPropertyOp4
 70
     1
102
RTVSPropertyOp5
 70
     1
102
RTVSPropertyOp6
 70
     1
102
RTVSPropertyOp7
 70
     1
102
RTVSPropertyOp8
 70
     1
102
RTVSPropertyOp9
 70
     1
102
RTVSPropertyOp10
 70
     1
102
RTVSPropertyOp11
 70
     1
102
RTVSPropertyOp12
 70
     1
102
RTVSPropertyOp13
 70
     1
102
RTVSPropertyOp14
 70
     1
102
RTVSPropertyOp15
 70
     1
102
RTVSPropertyOp16
 70
     1
102
RTVSPropertyOp17
 70
     1
102
RTVSPropertyOp18
 70
     1
102
RTVSPropertyOp19
 70
     1
102
RTVSPropertyOp20
 70
     1
102
RTVSPropertyOp21
 70
     1
102
RTVSPropertyOp22
 70
     1
102
RTVSPropertyOp23
 70
     1
102
RTVSPropertyOp24
 70
     1
102
RTVSPropertyOp25
 70
     1
102
RTVSPropertyOp26
 70
     1
102
RTVSPropertyOp27
 70
     1
102
RTVSPropertyOp28
 70
     1
102
RTVSPropertyOp29
 70
     1
102
RTVSPropertyOp30
 70
     1
102
RTVSPropertyOp31
 70
     1
102
RTVSPropertyOp32
 70
     1
102
RTVSPropertyOp33
 70
     1
102
RTVSPropertyOp34
 70
     1
102
RTVSPropertyOp35
 70
     1
102
RTVSPropertyOp36
 70
     1
102
RTVSPropertyOp37
 70
     1
102
RTVSPropertyOp38
 70
     1
102
RTVSPropertyOp39
 70
     1
102
RTVSPropertyOp40
 70
     1
102
RTVSPropertyOp41
 70
     1
102
RTVSPropertyOp42
 70
     1
102
RTVSPropertyOp43
 70
     1
102
RTVSPropertyOp44
 70
     1
102
RTVSPropertyOp45
 70
     1
102
RTVSPropertyOp46
 70
     1
102
RTVSPropertyOp47
 70
     1
102
RTVSPropertyOp48
 70
     1
102
RTVSPropertyOp49
 70
     1
102
RTVSPropertyOp50
 70
     1
102
RTVSPropertyOp51
 70
     0
102
RTVSPropertyOp52
 70
     0
102
RTVSPropertyOp53
 70
     1
102
RTVSPropertyOp54
 70
     1
102
RTVSPropertyOp55
 70
     1
102
RTVSPropertyOp56
 70
     1
102
RTVSPropertyOp57
 70
     1
102
RTVSPropertyOp58
 70
     1
102
RTVSPropertyOp59
 70
     1
102
RTVSPropertyOp60
 70
     1
102
RTVSPropertyOp61
 70
     1
102
RTVSPropertyOp62
 70
     1
  0
XRECORD
  5
4BB
102
{ACAD_REACTORS
330
4BA
102
}
330
4BA
100
AcDbXrecord
280
     1
102
RTVSPost2010Prop28
280
     0
102
RTVSPost2010PropOp28
 70
     1
102
RTVSPost2010Prop29
280
     1
102
RTVSPost2010PropOp29
 70
     1
102
RTVSPost2010Prop30
280
     1
102
RTVSPost2010PropOp30
 70
     1
102
RTVSPost2010Prop31
280
     0
102
RTVSPost2010PropOp31
 70
     1
102
RTVSPost2010Prop32
280
     0
102
RTVSPost2010PropOp32
 70
     1
102
RTVSPost2010Prop33
280
     0
102
RTVSPost2010PropOp33
 70
     1
102
RTVSPost2010Prop34
280
     0
102
RTVSPost2010PropOp34
 70
     1
102
RTVSPost2010Prop35
280
     0
102
RTVSPost2010PropOp35
 70
     1
102
RTVSPost2010Prop36
280
     0
102
RTVSPost2010PropOp36
 70
     1
102
RTVSPost2010Prop37
 90
       50
102
RTVSPost2010PropOp37
 70
     0
102
RTVSPost2010Prop38
140
0.0
102
RTVSPost2010PropOp38
 70
     0
102
RTVSPost2010Prop39
140
1.0
102
RTVSPost2010PropOp39
 70
     0
102
RTVSPost2010Prop40
 90
        0
102
RTVSPost2010PropOp40
 70
     0
102
RTVSPost2010Prop41ColorIndex
 90
       18
102
RTVSPost2010Prop41ColorRGB
 90
        0
102
RTVSPost2010PropOp41
 70
     0
102
RTVSPost2010Prop42
 90
       50
102
RTVSPost2010PropOp42
 70
     0
102
RTVSPost2010Prop43
 90
        3
102
RTVSPost2010PropOp43
 70
     0
102
RTVSPost2010Prop44ColorIndex
 90
        5
102
RTVSPost2010Prop44ColorRGB
 90
      255
102
RTVSPost2010PropOp44
 70
     0
102
RTVSPost2010Prop45
280
     0
102
RTVSPost2010PropOp45
 70
     1
102
RTVSPost2010Prop46
 90
       50
102
RTVSPost2010PropOp46
 70
     0
102
RTVSPost2010Prop47
 90
       50
102
RTVSPost2010PropOp47
 70
     0
102
RTVSPost2010Prop48
 90
       50
102
RTVSPost2010PropOp48
 70
     0
102
RTVSPost2010Prop49
280
     0
102
RTVSPost2010PropOp49
 70
     1
102
RTVSPost2010Prop50
 90
       50
102
RTVSPost2010PropOp50
 70
     0
102
RTVSPost2010Prop51ColorIndex
 90
      256
102
RTVSPost2010Prop51ColorRGB
 90
-16777216
102
RTVSPost2010PropOp51
 70
     0
102
RTVSPost2010Prop52
140
1.0
102
RTVSPost2010PropOp52
 70
     0
102
RTVSPost2010Prop53
 90
        2
102
RTVSPost2010PropOp53
 70
     0
102
RTVSPost2010Prop54
  1
strokes_ogs.tif
102
RTVSPost2010PropOp54
 70
     0
102
RTVSPost2010Prop55
280
     0
102
RTVSPost2010PropOp55
 70
     1
102
RTVSPost2010Prop56
140
1.0
102
RTVSPost2010PropOp56
 70
     0
102
RTVSPost2010Prop57
140
1.0
102
RTVSPost2010PropOp57
 70
     0
102
RTVSPropertyOp0
 70
     0
102
RTVSPropertyOp1
 70
     0
102
RTVSPropertyOp2
 70
     0
102
RTVSPropertyOp3
 70
     0
102
RTVSPropertyOp4
 70
     0
102
RTVSPropertyOp5
 70
     0
102
RTVSPropertyOp6
 70
     0
102
RTVSPropertyOp7
 70
     0
102
RTVSPropertyOp8
 70
     0
102
RTVSPropertyOp9
 70
     0
102
RTVSPropertyOp10
 70
     0
102
RTVSPropertyOp11
 70
     0
102
RTVSPropertyOp12
 70
     0
102
RTVSPropertyOp13
 70
     0
102
RTVSPropertyOp14
 70
     2
102
RTVSPropertyOp15
 70
     0
102
RTVSPropertyOp16
 70
     0
102
RTVSPropertyOp17
 70
     0
102
RTVSPropertyOp18
 70
     0
102
RTVSPropertyOp19
 70
     0
102
RTVSPropertyOp20
 70
     0
102
RTVSPropertyOp21
 70
     0
102
RTVSPropertyOp22
 70
     0
102
RTVSPropertyOp23
 70
     0
102
RTVSPropertyOp24
 70
     0
102
RTVSPropertyOp25
 70
     0
102
RTVSPropertyOp26
 70
     0
102
RTVSPropertyOp27
 70
     0
102
RTVSPropertyOp28
 70
     1
102
RTVSPropertyOp29
 70
     1
102
RTVSPropertyOp30
 70
     1
102
RTVSPropertyOp31
 70
     1
102
RTVSPropertyOp32
 70
     1
102
RTVSPropertyOp33
 70
     1
102
RTVSPropertyOp34
 70
     1
102
RTVSPropertyOp35
 70
     1
102
RTVSPropertyOp36
 70
     1
102
RTVSPropertyOp37
 70
     0
102
RTVSPropertyOp38
 70
     0
102
RTVSPropertyOp39
 70
     0
102
RTVSPropertyOp40
 70
     0
102
RTVSPropertyOp41
 70
     0
102
RTVSPropertyOp42
 70
     0
102
RTVSPropertyOp43
 70
     0
102
RTVSPropertyOp44
 70
     0
102
RTVSPropertyOp45
 70
     1
102
RTVSPropertyOp46
 70
     0
102
RTVSPropertyOp47
 70
     0
102
RTVSPropertyOp48
 70
     0
102
RTVSPropertyOp49
 70
     1
102
RTVSPropertyOp50
 70
     0
102
RTVSPropertyOp51
 70
     0
102
RTVSPropertyOp52
 70
     0
102
RTVSPropertyOp53
 70
     0
102
RTVSPropertyOp54
 70
     0
102
RTVSPropertyOp55
 70
     1
102
RTVSPropertyOp56
 70
     0
102
RTVSPropertyOp57
 70
     0
102
RTVSPropertyOp58
 70
     0
102
RTVSPropertyOp59
 70
     0
102
RTVSPropertyOp60
 70
     0
102
RTVSPropertyOp61
 70
     0
102
RTVSPropertyOp62
 70
     0
  0
XRECORD
  5
4A1
102
{ACAD_REACTORS
330
4A0
102
}
330
4A0
100
AcDbXrecord
280
     1
102
RTVSPost2010Prop28
280
     0
102
RTVSPost2010PropOp28
 70
     1
102
RTVSPost2010Prop29
280
     1
102
RTVSPost2010PropOp29
 70
     1
102
RTVSPost2010Prop30
280
     1
102
RTVSPost2010PropOp30
 70
     1
102
RTVSPost2010Prop31
280
     0
102
RTVSPost2010PropOp31
 70
     1
102
RTVSPost2010Prop32
280
     0
102
RTVSPost2010PropOp32
 70
     1
102
RTVSPost2010Prop33
280
     0
102
RTVSPost2010PropOp33
 70
     1
102
RTVSPost2010Prop34
280
     0
102
RTVSPost2010PropOp34
 70
     1
102
RTVSPost2010Prop35
280
     0
102
RTVSPost2010PropOp35
 70
     1
102
RTVSPost2010Prop36
280
     0
102
RTVSPost2010PropOp36
 70
     1
102
RTVSPost2010Prop37
 90
       50
102
RTVSPost2010PropOp37
 70
     1
102
RTVSPost2010Prop38
140
0.0
102
RTVSPost2010PropOp38
 70
     1
102
RTVSPost2010Prop39
140
1.0
102
RTVSPost2010PropOp39
 70
     1
102
RTVSPost2010Prop40
 90
        0
102
RTVSPost2010PropOp40
 70
     1
102
RTVSPost2010Prop41ColorIndex
 90
       18
102
RTVSPost2010Prop41ColorRGB
 90
        0
102
RTVSPost2010PropOp41
 70
     1
102
RTVSPost2010Prop42
 90
       50
102
RTVSPost2010PropOp42
 70
     1
102
RTVSPost2010Prop43
 90
        3
102
RTVSPost2010PropOp43
 70
     1
102
RTVSPost2010Prop44ColorIndex
 90
        5
102
RTVSPost2010Prop44ColorRGB
 90
      255
102
RTVSPost2010PropOp44
 70
     1
102
RTVSPost2010Prop45
280
     0
102
RTVSPost2010PropOp45
 70
     1
102
RTVSPost2010Prop46
 90
       50
102
RTVSPost2010PropOp46
 70
     1
102
RTVSPost2010Prop47
 90
       50
102
RTVSPost2010PropOp47
 70
     1
102
RTVSPost2010Prop48
 90
       50
102
RTVSPost2010PropOp48
 70
     1
102
RTVSPost2010Prop49
280
     0
102
RTVSPost2010PropOp49
 70
     1
102
RTVSPost2010Prop50
 90
       50
102
RTVSPost2010PropOp50
 70
     1
102
RTVSPost2010Prop51ColorIndex
 90
      256
102
RTVSPost2010Prop51ColorRGB
 90
-16777216
102
RTVSPost2010PropOp51
 70
     0
102
RTVSPost2010Prop52
140
1.0
102
RTVSPost2010PropOp52
 70
     0
102
RTVSPost2010Prop53
 90
        2
102
RTVSPost2010PropOp53
 70
     1
102
RTVSPost2010Prop54
  1
strokes_ogs.tif
102
RTVSPost2010PropOp54
 70
     1
102
RTVSPost2010Prop55
280
     0
102
RTVSPost2010PropOp55
 70
     1
102
RTVSPost2010Prop56
140
1.0
102
RTVSPost2010PropOp56
 70
     1
102
RTVSPost2010Prop57
140
1.0
102
RTVSPost2010PropOp57
 70
     1
102
RTVSPropertyOp0
 70
     1
102
RTVSPropertyOp1
 70
     1
102
RTVSPropertyOp2
 70
     1
102
RTVSPropertyOp3
 70
     1
102
RTVSPropertyOp4
 70
     1
102
RTVSPropertyOp5
 70
     1
102
RTVSPropertyOp6
 70
     1
102
RTVSPropertyOp7
 70
     1
102
RTVSPropertyOp8
 70
     1
102
RTVSPropertyOp9
 70
     1
102
RTVSPropertyOp10
 70
     1
102
RTVSPropertyOp11
 70
     1
102
RTVSPropertyOp12
 70
     1
102
RTVSPropertyOp13
 70
     1
102
RTVSPropertyOp14
 70
     1
102
RTVSPropertyOp15
 70
     1
102
RTVSPropertyOp16
 70
     1
102
RTVSPropertyOp17
 70
     1
102
RTVSPropertyOp18
 70
     1
102
RTVSPropertyOp19
 70
     1
102
RTVSPropertyOp20
 70
     1
102
RTVSPropertyOp21
 70
     1
102
RTVSPropertyOp22
 70
     1
102
RTVSPropertyOp23
 70
     1
102
RTVSPropertyOp24
 70
     1
102
RTVSPropertyOp25
 70
     1
102
RTVSPropertyOp26
 70
     1
102
RTVSPropertyOp27
 70
     1
102
RTVSPropertyOp28
 70
     1
102
RTVSPropertyOp29
 70
     1
102
RTVSPropertyOp30
 70
     1
102
RTVSPropertyOp31
 70
     1
102
RTVSPropertyOp32
 70
     1
102
RTVSPropertyOp33
 70
     1
102
RTVSPropertyOp34
 70
     1
102
RTVSPropertyOp35
 70
     1
102
RTVSPropertyOp36
 70
     1
102
RTVSPropertyOp37
 70
     1
102
RTVSPropertyOp38
 70
     1
102
RTVSPropertyOp39
 70
     1
102
RTVSPropertyOp40
 70
     1
102
RTVSPropertyOp41
 70
     1
102
RTVSPropertyOp42
 70
     1
102
RTVSPropertyOp43
 70
     1
102
RTVSPropertyOp44
 70
     1
102
RTVSPropertyOp45
 70
     1
102
RTVSPropertyOp46
 70
     1
102
RTVSPropertyOp47
 70
     1
102
RTVSPropertyOp48
 70
     1
102
RTVSPropertyOp49
 70
     1
102
RTVSPropertyOp50
 70
     1
102
RTVSPropertyOp51
 70
     0
102
RTVSPropertyOp52
 70
     0
102
RTVSPropertyOp53
 70
     1
102
RTVSPropertyOp54
 70
     1
102
RTVSPropertyOp55
 70
     1
102
RTVSPropertyOp56
 70
     1
102
RTVSPropertyOp57
 70
     1
102
RTVSPropertyOp58
 70
     1
102
RTVSPropertyOp59
 70
     1
102
RTVSPropertyOp60
 70
     1
102
RTVSPropertyOp61
 70
     1
102
RTVSPropertyOp62
 70
     1
  0
XRECORD
  5
4B7
102
{ACAD_REACTORS
330
4B6
102
}
330
4B6
100
AcDbXrecord
280
     1
102
RTVSPost2010Prop28
280
     0
102
RTVSPost2010PropOp28
 70
     1
102
RTVSPost2010Prop29
280
     1
102
RTVSPost2010PropOp29
 70
     1
102
RTVSPost2010Prop30
280
     1
102
RTVSPost2010PropOp30
 70
     1
102
RTVSPost2010Prop31
280
     0
102
RTVSPost2010PropOp31
 70
     1
102
RTVSPost2010Prop32
280
     0
102
RTVSPost2010PropOp32
 70
     1
102
RTVSPost2010Prop33
280
     0
102
RTVSPost2010PropOp33
 70
     1
102
RTVSPost2010Prop34
280
     0
102
RTVSPost2010PropOp34
 70
     1
102
RTVSPost2010Prop35
280
     0
102
RTVSPost2010PropOp35
 70
     1
102
RTVSPost2010Prop36
280
     0
102
RTVSPost2010PropOp36
 70
     1
102
RTVSPost2010Prop37
 90
       50
102
RTVSPost2010PropOp37
 70
     1
102
RTVSPost2010Prop38
140
0.0
102
RTVSPost2010PropOp38
 70
     1
102
RTVSPost2010Prop39
140
1.0
102
RTVSPost2010PropOp39
 70
     1
102
RTVSPost2010Prop40
 90
        0
102
RTVSPost2010PropOp40
 70
     1
102
RTVSPost2010Prop41ColorIndex
 90
       18
102
RTVSPost2010Prop41ColorRGB
 90
        0
102
RTVSPost2010PropOp41
 70
     1
102
RTVSPost2010Prop42
 90
       50
102
RTVSPost2010PropOp42
 70
     1
102
RTVSPost2010Prop43
 90
        3
102
RTVSPost2010PropOp43
 70
     1
102
RTVSPost2010Prop44ColorIndex
 90
        5
102
RTVSPost2010Prop44ColorRGB
 90
      255
102
RTVSPost2010PropOp44
 70
     1
102
RTVSPost2010Prop45
280
     0
102
RTVSPost2010PropOp45
 70
     1
102
RTVSPost2010Prop46
 90
       50
102
RTVSPost2010PropOp46
 70
     1
102
RTVSPost2010Prop47
 90
       50
102
RTVSPost2010PropOp47
 70
     1
102
RTVSPost2010Prop48
 90
       50
102
RTVSPost2010PropOp48
 70
     1
102
RTVSPost2010Prop49
280
     0
102
RTVSPost2010PropOp49
 70
     1
102
RTVSPost2010Prop50
 90
       50
102
RTVSPost2010PropOp50
 70
     1
102
RTVSPost2010Prop51ColorIndex
 90
      256
102
RTVSPost2010Prop51ColorRGB
 90
-16777216
102
RTVSPost2010PropOp51
 70
     0
102
RTVSPost2010Prop52
140
1.0
102
RTVSPost2010PropOp52
 70
     0
102
RTVSPost2010Prop53
 90
        2
102
RTVSPost2010PropOp53
 70
     1
102
RTVSPost2010Prop54
  1
strokes_ogs.tif
102
RTVSPost2010PropOp54
 70
     1
102
RTVSPost2010Prop55
280
     0
102
RTVSPost2010PropOp55
 70
     1
102
RTVSPost2010Prop56
140
1.0
102
RTVSPost2010PropOp56
 70
     1
102
RTVSPost2010Prop57
140
1.0
102
RTVSPost2010PropOp57
 70
     1
102
RTVSPropertyOp0
 70
     1
102
RTVSPropertyOp1
 70
     1
102
RTVSPropertyOp2
 70
     1
102
RTVSPropertyOp3
 70
     1
102
RTVSPropertyOp4
 70
     1
102
RTVSPropertyOp5
 70
     1
102
RTVSPropertyOp6
 70
     1
102
RTVSPropertyOp7
 70
     1
102
RTVSPropertyOp8
 70
     1
102
RTVSPropertyOp9
 70
     1
102
RTVSPropertyOp10
 70
     1
102
RTVSPropertyOp11
 70
     1
102
RTVSPropertyOp12
 70
     1
102
RTVSPropertyOp13
 70
     1
102
RTVSPropertyOp14
 70
     1
102
RTVSPropertyOp15
 70
     1
102
RTVSPropertyOp16
 70
     1
102
RTVSPropertyOp17
 70
     1
102
RTVSPropertyOp18
 70
     1
102
RTVSPropertyOp19
 70
     1
102
RTVSPropertyOp20
 70
     1
102
RTVSPropertyOp21
 70
     1
102
RTVSPropertyOp22
 70
     1
102
RTVSPropertyOp23
 70
     1
102
RTVSPropertyOp24
 70
     1
102
RTVSPropertyOp25
 70
     1
102
RTVSPropertyOp26
 70
     1
102
RTVSPropertyOp27
 70
     1
102
RTVSPropertyOp28
 70
     1
102
RTVSPropertyOp29
 70
     1
102
RTVSPropertyOp30
 70
     1
102
RTVSPropertyOp31
 70
     1
102
RTVSPropertyOp32
 70
     1
102
RTVSPropertyOp33
 70
     1
102
RTVSPropertyOp34
 70
     1
102
RTVSPropertyOp35
 70
     1
102
RTVSPropertyOp36
 70
     1
102
RTVSPropertyOp37
 70
     1
102
RTVSPropertyOp38
 70
     1
102
RTVSPropertyOp39
 70
     1
102
RTVSPropertyOp40
 70
     1
102
RTVSPropertyOp41
 70
     1
102
RTVSPropertyOp42
 70
     1
102
RTVSPropertyOp43
 70
     1
102
RTVSPropertyOp44
 70
     1
102
RTVSPropertyOp45
 70
     1
102
RTVSPropertyOp46
 70
     1
102
RTVSPropertyOp47
 70
     1
102
RTVSPropertyOp48
 70
     1
102
RTVSPropertyOp49
 70
     1
102
RTVSPropertyOp50
 70
     1
102
RTVSPropertyOp51
 70
     0
102
RTVSPropertyOp52
 70
     0
102
RTVSPropertyOp53
 70
     1
102
RTVSPropertyOp54
 70
     1
102
RTVSPropertyOp55
 70
     1
102
RTVSPropertyOp56
 70
     1
102
RTVSPropertyOp57
 70
     1
102
RTVSPropertyOp58
 70
     1
102
RTVSPropertyOp59
 70
     1
102
RTVSPropertyOp60
 70
     1
102
RTVSPropertyOp61
 70
     1
102
RTVSPropertyOp62
 70
     1
  0
XRECORD
  5
4B5
102
{ACAD_REACTORS
330
4B4
102
}
330
4B4
100
AcDbXrecord
280
     1
102
RTVSPost2010Prop28
280
     0
102
RTVSPost2010PropOp28
 70
     1
102
RTVSPost2010Prop29
280
     1
102
RTVSPost2010PropOp29
 70
     1
102
RTVSPost2010Prop30
280
     1
102
RTVSPost2010PropOp30
 70
     1
102
RTVSPost2010Prop31
280
     0
102
RTVSPost2010PropOp31
 70
     1
102
RTVSPost2010Prop32
280
     0
102
RTVSPost2010PropOp32
 70
     1
102
RTVSPost2010Prop33
280
     0
102
RTVSPost2010PropOp33
 70
     1
102
RTVSPost2010Prop34
280
     0
102
RTVSPost2010PropOp34
 70
     1
102
RTVSPost2010Prop35
280
     0
102
RTVSPost2010PropOp35
 70
     1
102
RTVSPost2010Prop36
280
     0
102
RTVSPost2010PropOp36
 70
     1
102
RTVSPost2010Prop37
 90
       50
102
RTVSPost2010PropOp37
 70
     1
102
RTVSPost2010Prop38
140
0.0
102
RTVSPost2010PropOp38
 70
     1
102
RTVSPost2010Prop39
140
1.0
102
RTVSPost2010PropOp39
 70
     1
102
RTVSPost2010Prop40
 90
        0
102
RTVSPost2010PropOp40
 70
     1
102
RTVSPost2010Prop41ColorIndex
 90
       18
102
RTVSPost2010Prop41ColorRGB
 90
        0
102
RTVSPost2010PropOp41
 70
     1
102
RTVSPost2010Prop42
 90
       50
102
RTVSPost2010PropOp42
 70
     1
102
RTVSPost2010Prop43
 90
        3
102
RTVSPost2010PropOp43
 70
     1
102
RTVSPost2010Prop44ColorIndex
 90
        5
102
RTVSPost2010Prop44ColorRGB
 90
      255
102
RTVSPost2010PropOp44
 70
     1
102
RTVSPost2010Prop45
280
     0
102
RTVSPost2010PropOp45
 70
     1
102
RTVSPost2010Prop46
 90
       50
102
RTVSPost2010PropOp46
 70
     1
102
RTVSPost2010Prop47
 90
       50
102
RTVSPost2010PropOp47
 70
     1
102
RTVSPost2010Prop48
 90
       50
102
RTVSPost2010PropOp48
 70
     1
102
RTVSPost2010Prop49
280
     0
102
RTVSPost2010PropOp49
 70
     1
102
RTVSPost2010Prop50
 90
       50
102
RTVSPost2010PropOp50
 70
     1
102
RTVSPost2010Prop51ColorIndex
 90
      256
102
RTVSPost2010Prop51ColorRGB
 90
-16777216
102
RTVSPost2010PropOp51
 70
     0
102
RTVSPost2010Prop52
140
1.0
102
RTVSPost2010PropOp52
 70
     0
102
RTVSPost2010Prop53
 90
        2
102
RTVSPost2010PropOp53
 70
     1
102
RTVSPost2010Prop54
  1
strokes_ogs.tif
102
RTVSPost2010PropOp54
 70
     1
102
RTVSPost2010Prop55
280
     0
102
RTVSPost2010PropOp55
 70
     1
102
RTVSPost2010Prop56
140
1.0
102
RTVSPost2010PropOp56
 70
     1
102
RTVSPost2010Prop57
140
1.0
102
RTVSPost2010PropOp57
 70
     1
102
RTVSPropertyOp0
 70
     1
102
RTVSPropertyOp1
 70
     1
102
RTVSPropertyOp2
 70
     1
102
RTVSPropertyOp3
 70
     1
102
RTVSPropertyOp4
 70
     1
102
RTVSPropertyOp5
 70
     1
102
RTVSPropertyOp6
 70
     1
102
RTVSPropertyOp7
 70
     1
102
RTVSPropertyOp8
 70
     1
102
RTVSPropertyOp9
 70
     1
102
RTVSPropertyOp10
 70
     1
102
RTVSPropertyOp11
 70
     1
102
RTVSPropertyOp12
 70
     1
102
RTVSPropertyOp13
 70
     1
102
RTVSPropertyOp14
 70
     1
102
RTVSPropertyOp15
 70
     1
102
RTVSPropertyOp16
 70
     1
102
RTVSPropertyOp17
 70
     1
102
RTVSPropertyOp18
 70
     1
102
RTVSPropertyOp19
 70
     1
102
RTVSPropertyOp20
 70
     1
102
RTVSPropertyOp21
 70
     1
102
RTVSPropertyOp22
 70
     1
102
RTVSPropertyOp23
 70
     1
102
RTVSPropertyOp24
 70
     1
102
RTVSPropertyOp25
 70
     1
102
RTVSPropertyOp26
 70
     1
102
RTVSPropertyOp27
 70
     1
102
RTVSPropertyOp28
 70
     1
102
RTVSPropertyOp29
 70
     1
102
RTVSPropertyOp30
 70
     1
102
RTVSPropertyOp31
 70
     1
102
RTVSPropertyOp32
 70
     1
102
RTVSPropertyOp33
 70
     1
102
RTVSPropertyOp34
 70
     1
102
RTVSPropertyOp35
 70
     1
102
RTVSPropertyOp36
 70
     1
102
RTVSPropertyOp37
 70
     1
102
RTVSPropertyOp38
 70
     1
102
RTVSPropertyOp39
 70
     1
102
RTVSPropertyOp40
 70
     1
102
RTVSPropertyOp41
 70
     1
102
RTVSPropertyOp42
 70
     1
102
RTVSPropertyOp43
 70
     1
102
RTVSPropertyOp44
 70
     1
102
RTVSPropertyOp45
 70
     1
102
RTVSPropertyOp46
 70
     1
102
RTVSPropertyOp47
 70
     1
102
RTVSPropertyOp48
 70
     1
102
RTVSPropertyOp49
 70
     1
102
RTVSPropertyOp50
 70
     1
102
RTVSPropertyOp51
 70
     0
102
RTVSPropertyOp52
 70
     0
102
RTVSPropertyOp53
 70
     1
102
RTVSPropertyOp54
 70
     1
102
RTVSPropertyOp55
 70
     1
102
RTVSPropertyOp56
 70
     1
102
RTVSPropertyOp57
 70
     1
102
RTVSPropertyOp58
 70
     1
102
RTVSPropertyOp59
 70
     1
102
RTVSPropertyOp60
 70
     1
102
RTVSPropertyOp61
 70
     1
102
RTVSPropertyOp62
 70
     1
  0
XRECORD
  5
4AF
102
{ACAD_REACTORS
330
4AE
102
}
330
4AE
100
AcDbXrecord
280
     1
102
RTVSPost2010Prop28
280
     0
102
RTVSPost2010PropOp28
 70
     1
102
RTVSPost2010Prop29
280
     1
102
RTVSPost2010PropOp29
 70
     1
102
RTVSPost2010Prop30
280
     1
102
RTVSPost2010PropOp30
 70
     1
102
RTVSPost2010Prop31
280
     0
102
RTVSPost2010PropOp31
 70
     1
102
RTVSPost2010Prop32
280
     0
102
RTVSPost2010PropOp32
 70
     1
102
RTVSPost2010Prop33
280
     0
102
RTVSPost2010PropOp33
 70
     1
102
RTVSPost2010Prop34
280
     0
102
RTVSPost2010PropOp34
 70
     1
102
RTVSPost2010Prop35
280
     0
102
RTVSPost2010PropOp35
 70
     1
102
RTVSPost2010Prop36
280
     0
102
RTVSPost2010PropOp36
 70
     1
102
RTVSPost2010Prop37
 90
       50
102
RTVSPost2010PropOp37
 70
     1
102
RTVSPost2010Prop38
140
0.0
102
RTVSPost2010PropOp38
 70
     1
102
RTVSPost2010Prop39
140
1.0
102
RTVSPost2010PropOp39
 70
     1
102
RTVSPost2010Prop40
 90
        0
102
RTVSPost2010PropOp40
 70
     1
102
RTVSPost2010Prop41ColorIndex
 90
       18
102
RTVSPost2010Prop41ColorRGB
 90
        0
102
RTVSPost2010PropOp41
 70
     1
102
RTVSPost2010Prop42
 90
       50
102
RTVSPost2010PropOp42
 70
     1
102
RTVSPost2010Prop43
 90
        3
102
RTVSPost2010PropOp43
 70
     1
102
RTVSPost2010Prop44ColorIndex
 90
        5
102
RTVSPost2010Prop44ColorRGB
 90
      255
102
RTVSPost2010PropOp44
 70
     1
102
RTVSPost2010Prop45
280
     0
102
RTVSPost2010PropOp45
 70
     1
102
RTVSPost2010Prop46
 90
       50
102
RTVSPost2010PropOp46
 70
     1
102
RTVSPost2010Prop47
 90
       50
102
RTVSPost2010PropOp47
 70
     1
102
RTVSPost2010Prop48
 90
       50
102
RTVSPost2010PropOp48
 70
     1
102
RTVSPost2010Prop49
280
     0
102
RTVSPost2010PropOp49
 70
     1
102
RTVSPost2010Prop50
 90
       50
102
RTVSPost2010PropOp50
 70
     1
102
RTVSPost2010Prop51ColorIndex
 90
      256
102
RTVSPost2010Prop51ColorRGB
 90
-16777216
102
RTVSPost2010PropOp51
 70
     0
102
RTVSPost2010Prop52
140
1.0
102
RTVSPost2010PropOp52
 70
     0
102
RTVSPost2010Prop53
 90
        2
102
RTVSPost2010PropOp53
 70
     1
102
RTVSPost2010Prop54
  1
strokes_ogs.tif
102
RTVSPost2010PropOp54
 70
     1
102
RTVSPost2010Prop55
280
     0
102
RTVSPost2010PropOp55
 70
     1
102
RTVSPost2010Prop56
140
1.0
102
RTVSPost2010PropOp56
 70
     1
102
RTVSPost2010Prop57
140
1.0
102
RTVSPost2010PropOp57
 70
     1
102
RTVSPropertyOp0
 70
     1
102
RTVSPropertyOp1
 70
     1
102
RTVSPropertyOp2
 70
     1
102
RTVSPropertyOp3
 70
     1
102
RTVSPropertyOp4
 70
     1
102
RTVSPropertyOp5
 70
     1
102
RTVSPropertyOp6
 70
     1
102
RTVSPropertyOp7
 70
     1
102
RTVSPropertyOp8
 70
     1
102
RTVSPropertyOp9
 70
     1
102
RTVSPropertyOp10
 70
     1
102
RTVSPropertyOp11
 70
     1
102
RTVSPropertyOp12
 70
     1
102
RTVSPropertyOp13
 70
     1
102
RTVSPropertyOp14
 70
     1
102
RTVSPropertyOp15
 70
     1
102
RTVSPropertyOp16
 70
     1
102
RTVSPropertyOp17
 70
     1
102
RTVSPropertyOp18
 70
     1
102
RTVSPropertyOp19
 70
     1
102
RTVSPropertyOp20
 70
     1
102
RTVSPropertyOp21
 70
     1
102
RTVSPropertyOp22
 70
     1
102
RTVSPropertyOp23
 70
     1
102
RTVSPropertyOp24
 70
     1
102
RTVSPropertyOp25
 70
     1
102
RTVSPropertyOp26
 70
     1
102
RTVSPropertyOp27
 70
     1
102
RTVSPropertyOp28
 70
     1
102
RTVSPropertyOp29
 70
     1
102
RTVSPropertyOp30
 70
     1
102
RTVSPropertyOp31
 70
     1
102
RTVSPropertyOp32
 70
     1
102
RTVSPropertyOp33
 70
     1
102
RTVSPropertyOp34
 70
     1
102
RTVSPropertyOp35
 70
     1
102
RTVSPropertyOp36
 70
     1
102
RTVSPropertyOp37
 70
     1
102
RTVSPropertyOp38
 70
     1
102
RTVSPropertyOp39
 70
     1
102
RTVSPropertyOp40
 70
     1
102
RTVSPropertyOp41
 70
     1
102
RTVSPropertyOp42
 70
     1
102
RTVSPropertyOp43
 70
     1
102
RTVSPropertyOp44
 70
     1
102
RTVSPropertyOp45
 70
     1
102
RTVSPropertyOp46
 70
     1
102
RTVSPropertyOp47
 70
     1
102
RTVSPropertyOp48
 70
     1
102
RTVSPropertyOp49
 70
     1
102
RTVSPropertyOp50
 70
     1
102
RTVSPropertyOp51
 70
     0
102
RTVSPropertyOp52
 70
     0
102
RTVSPropertyOp53
 70
     1
102
RTVSPropertyOp54
 70
     1
102
RTVSPropertyOp55
 70
     1
102
RTVSPropertyOp56
 70
     1
102
RTVSPropertyOp57
 70
     1
102
RTVSPropertyOp58
 70
     1
102
RTVSPropertyOp59
 70
     1
102
RTVSPropertyOp60
 70
     1
102
RTVSPropertyOp61
 70
     1
102
RTVSPropertyOp62
 70
     1
  0
XRECORD
  5
4B1
102
{ACAD_REACTORS
330
4B0
102
}
330
4B0
100
AcDbXrecord
280
     1
102
RTVSPost2010Prop28
280
     0
102
RTVSPost2010PropOp28
 70
     1
102
RTVSPost2010Prop29
280
     1
102
RTVSPost2010PropOp29
 70
     1
102
RTVSPost2010Prop30
280
     1
102
RTVSPost2010PropOp30
 70
     1
102
RTVSPost2010Prop31
280
     0
102
RTVSPost2010PropOp31
 70
     1
102
RTVSPost2010Prop32
280
     0
102
RTVSPost2010PropOp32
 70
     1
102
RTVSPost2010Prop33
280
     0
102
RTVSPost2010PropOp33
 70
     1
102
RTVSPost2010Prop34
280
     0
102
RTVSPost2010PropOp34
 70
     1
102
RTVSPost2010Prop35
280
     0
102
RTVSPost2010PropOp35
 70
     1
102
RTVSPost2010Prop36
280
     0
102
RTVSPost2010PropOp36
 70
     1
102
RTVSPost2010Prop37
 90
       50
102
RTVSPost2010PropOp37
 70
     1
102
RTVSPost2010Prop38
140
0.0
102
RTVSPost2010PropOp38
 70
     1
102
RTVSPost2010Prop39
140
1.0
102
RTVSPost2010PropOp39
 70
     1
102
RTVSPost2010Prop40
 90
        0
102
RTVSPost2010PropOp40
 70
     1
102
RTVSPost2010Prop41ColorIndex
 90
       18
102
RTVSPost2010Prop41ColorRGB
 90
        0
102
RTVSPost2010PropOp41
 70
     1
102
RTVSPost2010Prop42
 90
       50
102
RTVSPost2010PropOp42
 70
     1
102
RTVSPost2010Prop43
 90
        3
102
RTVSPost2010PropOp43
 70
     1
102
RTVSPost2010Prop44ColorIndex
 90
        5
102
RTVSPost2010Prop44ColorRGB
 90
      255
102
RTVSPost2010PropOp44
 70
     1
102
RTVSPost2010Prop45
280
     0
102
RTVSPost2010PropOp45
 70
     1
102
RTVSPost2010Prop46
 90
       50
102
RTVSPost2010PropOp46
 70
     1
102
RTVSPost2010Prop47
 90
       50
102
RTVSPost2010PropOp47
 70
     1
102
RTVSPost2010Prop48
 90
       50
102
RTVSPost2010PropOp48
 70
     1
102
RTVSPost2010Prop49
280
     0
102
RTVSPost2010PropOp49
 70
     1
102
RTVSPost2010Prop50
 90
       50
102
RTVSPost2010PropOp50
 70
     1
102
RTVSPost2010Prop51ColorIndex
 90
      256
102
RTVSPost2010Prop51ColorRGB
 90
-16777216
102
RTVSPost2010PropOp51
 70
     0
102
RTVSPost2010Prop52
140
1.0
102
RTVSPost2010PropOp52
 70
     0
102
RTVSPost2010Prop53
 90
        2
102
RTVSPost2010PropOp53
 70
     1
102
RTVSPost2010Prop54
  1
strokes_ogs.tif
102
RTVSPost2010PropOp54
 70
     1
102
RTVSPost2010Prop55
280
     0
102
RTVSPost2010PropOp55
 70
     1
102
RTVSPost2010Prop56
140
1.0
102
RTVSPost2010PropOp56
 70
     1
102
RTVSPost2010Prop57
140
1.0
102
RTVSPost2010PropOp57
 70
     1
102
RTVSPropertyOp0
 70
     1
102
RTVSPropertyOp1
 70
     1
102
RTVSPropertyOp2
 70
     1
102
RTVSPropertyOp3
 70
     1
102
RTVSPropertyOp4
 70
     1
102
RTVSPropertyOp5
 70
     1
102
RTVSPropertyOp6
 70
     1
102
RTVSPropertyOp7
 70
     1
102
RTVSPropertyOp8
 70
     1
102
RTVSPropertyOp9
 70
     1
102
RTVSPropertyOp10
 70
     1
102
RTVSPropertyOp11
 70
     1
102
RTVSPropertyOp12
 70
     1
102
RTVSPropertyOp13
 70
     1
102
RTVSPropertyOp14
 70
     1
102
RTVSPropertyOp15
 70
     1
102
RTVSPropertyOp16
 70
     1
102
RTVSPropertyOp17
 70
     1
102
RTVSPropertyOp18
 70
     1
102
RTVSPropertyOp19
 70
     1
102
RTVSPropertyOp20
 70
     1
102
RTVSPropertyOp21
 70
     1
102
RTVSPropertyOp22
 70
     1
102
RTVSPropertyOp23
 70
     1
102
RTVSPropertyOp24
 70
     1
102
RTVSPropertyOp25
 70
     1
102
RTVSPropertyOp26
 70
     1
102
RTVSPropertyOp27
 70
     1
102
RTVSPropertyOp28
 70
     1
102
RTVSPropertyOp29
 70
     1
102
RTVSPropertyOp30
 70
     1
102
RTVSPropertyOp31
 70
     1
102
RTVSPropertyOp32
 70
     1
102
RTVSPropertyOp33
 70
     1
102
RTVSPropertyOp34
 70
     1
102
RTVSPropertyOp35
 70
     1
102
RTVSPropertyOp36
 70
     1
102
RTVSPropertyOp37
 70
     1
102
RTVSPropertyOp38
 70
     1
102
RTVSPropertyOp39
 70
     1
102
RTVSPropertyOp40
 70
     1
102
RTVSPropertyOp41
 70
     1
102
RTVSPropertyOp42
 70
     1
102
RTVSPropertyOp43
 70
     1
102
RTVSPropertyOp44
 70
     1
102
RTVSPropertyOp45
 70
     1
102
RTVSPropertyOp46
 70
     1
102
RTVSPropertyOp47
 70
     1
102
RTVSPropertyOp48
 70
     1
102
RTVSPropertyOp49
 70
     1
102
RTVSPropertyOp50
 70
     1
102
RTVSPropertyOp51
 70
     0
102
RTVSPropertyOp52
 70
     0
102
RTVSPropertyOp53
 70
     1
102
RTVSPropertyOp54
 70
     1
102
RTVSPropertyOp55
 70
     1
102
RTVSPropertyOp56
 70
     1
102
RTVSPropertyOp57
 70
     1
102
RTVSPropertyOp58
 70
     1
102
RTVSPropertyOp59
 70
     1
102
RTVSPropertyOp60
 70
     1
102
RTVSPropertyOp61
 70
     1
102
RTVSPropertyOp62
 70
     1
  0
XRECORD
  5
4A7
102
{ACAD_REACTORS
330
4A6
102
}
330
4A6
100
AcDbXrecord
280
     1
102
RTVSPost2010Prop28
280
     0
102
RTVSPost2010PropOp28
 70
     1
102
RTVSPost2010Prop29
280
     1
102
RTVSPost2010PropOp29
 70
     1
102
RTVSPost2010Prop30
280
     1
102
RTVSPost2010PropOp30
 70
     1
102
RTVSPost2010Prop31
280
     0
102
RTVSPost2010PropOp31
 70
     1
102
RTVSPost2010Prop32
280
     0
102
RTVSPost2010PropOp32
 70
     1
102
RTVSPost2010Prop33
280
     0
102
RTVSPost2010PropOp33
 70
     1
102
RTVSPost2010Prop34
280
     0
102
RTVSPost2010PropOp34
 70
     1
102
RTVSPost2010Prop35
280
     0
102
RTVSPost2010PropOp35
 70
     1
102
RTVSPost2010Prop36
280
     0
102
RTVSPost2010PropOp36
 70
     1
102
RTVSPost2010Prop37
 90
       50
102
RTVSPost2010PropOp37
 70
     1
102
RTVSPost2010Prop38
140
0.0
102
RTVSPost2010PropOp38
 70
     1
102
RTVSPost2010Prop39
140
1.0
102
RTVSPost2010PropOp39
 70
     1
102
RTVSPost2010Prop40
 90
        0
102
RTVSPost2010PropOp40
 70
     1
102
RTVSPost2010Prop41ColorIndex
 90
       18
102
RTVSPost2010Prop41ColorRGB
 90
        0
102
RTVSPost2010PropOp41
 70
     1
102
RTVSPost2010Prop42
 90
       50
102
RTVSPost2010PropOp42
 70
     1
102
RTVSPost2010Prop43
 90
        3
102
RTVSPost2010PropOp43
 70
     1
102
RTVSPost2010Prop44ColorIndex
 90
        5
102
RTVSPost2010Prop44ColorRGB
 90
      255
102
RTVSPost2010PropOp44
 70
     1
102
RTVSPost2010Prop45
280
     0
102
RTVSPost2010PropOp45
 70
     1
102
RTVSPost2010Prop46
 90
       50
102
RTVSPost2010PropOp46
 70
     1
102
RTVSPost2010Prop47
 90
       50
102
RTVSPost2010PropOp47
 70
     1
102
RTVSPost2010Prop48
 90
       50
102
RTVSPost2010PropOp48
 70
     1
102
RTVSPost2010Prop49
280
     0
102
RTVSPost2010PropOp49
 70
     1
102
RTVSPost2010Prop50
 90
       50
102
RTVSPost2010PropOp50
 70
     1
102
RTVSPost2010Prop51ColorIndex
 90
      256
102
RTVSPost2010Prop51ColorRGB
 90
-16777216
102
RTVSPost2010PropOp51
 70
     0
102
RTVSPost2010Prop52
140
1.0
102
RTVSPost2010PropOp52
 70
     0
102
RTVSPost2010Prop53
 90
        2
102
RTVSPost2010PropOp53
 70
     1
102
RTVSPost2010Prop54
  1
strokes_ogs.tif
102
RTVSPost2010PropOp54
 70
     1
102
RTVSPost2010Prop55
280
     0
102
RTVSPost2010PropOp55
 70
     1
102
RTVSPost2010Prop56
140
1.0
102
RTVSPost2010PropOp56
 70
     1
102
RTVSPost2010Prop57
140
1.0
102
RTVSPost2010PropOp57
 70
     1
102
RTVSPropertyOp0
 70
     1
102
RTVSPropertyOp1
 70
     1
102
RTVSPropertyOp2
 70
     1
102
RTVSPropertyOp3
 70
     1
102
RTVSPropertyOp4
 70
     1
102
RTVSPropertyOp5
 70
     1
102
RTVSPropertyOp6
 70
     1
102
RTVSPropertyOp7
 70
     1
102
RTVSPropertyOp8
 70
     1
102
RTVSPropertyOp9
 70
     1
102
RTVSPropertyOp10
 70
     1
102
RTVSPropertyOp11
 70
     1
102
RTVSPropertyOp12
 70
     1
102
RTVSPropertyOp13
 70
     1
102
RTVSPropertyOp14
 70
     1
102
RTVSPropertyOp15
 70
     1
102
RTVSPropertyOp16
 70
     1
102
RTVSPropertyOp17
 70
     1
102
RTVSPropertyOp18
 70
     1
102
RTVSPropertyOp19
 70
     1
102
RTVSPropertyOp20
 70
     1
102
RTVSPropertyOp21
 70
     1
102
RTVSPropertyOp22
 70
     1
102
RTVSPropertyOp23
 70
     1
102
RTVSPropertyOp24
 70
     1
102
RTVSPropertyOp25
 70
     1
102
RTVSPropertyOp26
 70
     1
102
RTVSPropertyOp27
 70
     1
102
RTVSPropertyOp28
 70
     1
102
RTVSPropertyOp29
 70
     1
102
RTVSPropertyOp30
 70
     1
102
RTVSPropertyOp31
 70
     1
102
RTVSPropertyOp32
 70
     1
102
RTVSPropertyOp33
 70
     1
102
RTVSPropertyOp34
 70
     1
102
RTVSPropertyOp35
 70
     1
102
RTVSPropertyOp36
 70
     1
102
RTVSPropertyOp37
 70
     1
102
RTVSPropertyOp38
 70
     1
102
RTVSPropertyOp39
 70
     1
102
RTVSPropertyOp40
 70
     1
102
RTVSPropertyOp41
 70
     1
102
RTVSPropertyOp42
 70
     1
102
RTVSPropertyOp43
 70
     1
102
RTVSPropertyOp44
 70
     1
102
RTVSPropertyOp45
 70
     1
102
RTVSPropertyOp46
 70
     1
102
RTVSPropertyOp47
 70
     1
102
RTVSPropertyOp48
 70
     1
102
RTVSPropertyOp49
 70
     1
102
RTVSPropertyOp50
 70
     1
102
RTVSPropertyOp51
 70
     0
102
RTVSPropertyOp52
 70
     0
102
RTVSPropertyOp53
 70
     1
102
RTVSPropertyOp54
 70
     1
102
RTVSPropertyOp55
 70
     1
102
RTVSPropertyOp56
 70
     1
102
RTVSPropertyOp57
 70
     1
102
RTVSPropertyOp58
 70
     1
102
RTVSPropertyOp59
 70
     1
102
RTVSPropertyOp60
 70
     1
102
RTVSPropertyOp61
 70
     1
102
RTVSPropertyOp62
 70
     1
  0
XRECORD
  5
49B
102
{ACAD_REACTORS
330
49A
102
}
330
49A
100
AcDbXrecord
280
     1
102
RTVSPost2010Prop28
280
     0
102
RTVSPost2010PropOp28
 70
     1
102
RTVSPost2010Prop29
280
     1
102
RTVSPost2010PropOp29
 70
     1
102
RTVSPost2010Prop30
280
     1
102
RTVSPost2010PropOp30
 70
     1
102
RTVSPost2010Prop31
280
     0
102
RTVSPost2010PropOp31
 70
     1
102
RTVSPost2010Prop32
280
     0
102
RTVSPost2010PropOp32
 70
     1
102
RTVSPost2010Prop33
280
     0
102
RTVSPost2010PropOp33
 70
     1
102
RTVSPost2010Prop34
280
     0
102
RTVSPost2010PropOp34
 70
     1
102
RTVSPost2010Prop35
280
     0
102
RTVSPost2010PropOp35
 70
     1
102
RTVSPost2010Prop36
280
     0
102
RTVSPost2010PropOp36
 70
     1
102
RTVSPost2010Prop37
 90
       50
102
RTVSPost2010PropOp37
 70
     1
102
RTVSPost2010Prop38
140
0.0
102
RTVSPost2010PropOp38
 70
     1
102
RTVSPost2010Prop39
140
1.0
102
RTVSPost2010PropOp39
 70
     1
102
RTVSPost2010Prop40
 90
        0
102
RTVSPost2010PropOp40
 70
     1
102
RTVSPost2010Prop41ColorIndex
 90
       18
102
RTVSPost2010Prop41ColorRGB
 90
        0
102
RTVSPost2010PropOp41
 70
     1
102
RTVSPost2010Prop42
 90
       50
102
RTVSPost2010PropOp42
 70
     1
102
RTVSPost2010Prop43
 90
        3
102
RTVSPost2010PropOp43
 70
     1
102
RTVSPost2010Prop44ColorIndex
 90
        5
102
RTVSPost2010Prop44ColorRGB
 90
      255
102
RTVSPost2010PropOp44
 70
     1
102
RTVSPost2010Prop45
280
     0
102
RTVSPost2010PropOp45
 70
     1
102
RTVSPost2010Prop46
 90
       50
102
RTVSPost2010PropOp46
 70
     1
102
RTVSPost2010Prop47
 90
       50
102
RTVSPost2010PropOp47
 70
     1
102
RTVSPost2010Prop48
 90
       50
102
RTVSPost2010PropOp48
 70
     1
102
RTVSPost2010Prop49
280
     0
102
RTVSPost2010PropOp49
 70
     1
102
RTVSPost2010Prop50
 90
       50
102
RTVSPost2010PropOp50
 70
     1
102
RTVSPost2010Prop51ColorIndex
 90
      256
102
RTVSPost2010Prop51ColorRGB
 90
-16777216
102
RTVSPost2010PropOp51
 70
     0
102
RTVSPost2010Prop52
140
1.0
102
RTVSPost2010PropOp52
 70
     0
102
RTVSPost2010Prop53
 90
        2
102
RTVSPost2010PropOp53
 70
     1
102
RTVSPost2010Prop54
  1
strokes_ogs.tif
102
RTVSPost2010PropOp54
 70
     1
102
RTVSPost2010Prop55
280
     0
102
RTVSPost2010PropOp55
 70
     1
102
RTVSPost2010Prop56
140
1.0
102
RTVSPost2010PropOp56
 70
     1
102
RTVSPost2010Prop57
140
1.0
102
RTVSPost2010PropOp57
 70
     1
102
RTVSPropertyOp0
 70
     1
102
RTVSPropertyOp1
 70
     1
102
RTVSPropertyOp2
 70
     1
102
RTVSPropertyOp3
 70
     1
102
RTVSPropertyOp4
 70
     1
102
RTVSPropertyOp5
 70
     1
102
RTVSPropertyOp6
 70
     1
102
RTVSPropertyOp7
 70
     1
102
RTVSPropertyOp8
 70
     1
102
RTVSPropertyOp9
 70
     1
102
RTVSPropertyOp10
 70
     1
102
RTVSPropertyOp11
 70
     1
102
RTVSPropertyOp12
 70
     1
102
RTVSPropertyOp13
 70
     1
102
RTVSPropertyOp14
 70
     1
102
RTVSPropertyOp15
 70
     1
102
RTVSPropertyOp16
 70
     1
102
RTVSPropertyOp17
 70
     1
102
RTVSPropertyOp18
 70
     1
102
RTVSPropertyOp19
 70
     1
102
RTVSPropertyOp20
 70
     1
102
RTVSPropertyOp21
 70
     1
102
RTVSPropertyOp22
 70
     1
102
RTVSPropertyOp23
 70
     1
102
RTVSPropertyOp24
 70
     1
102
RTVSPropertyOp25
 70
     1
102
RTVSPropertyOp26
 70
     1
102
RTVSPropertyOp27
 70
     1
102
RTVSPropertyOp28
 70
     1
102
RTVSPropertyOp29
 70
     1
102
RTVSPropertyOp30
 70
     1
102
RTVSPropertyOp31
 70
     1
102
RTVSPropertyOp32
 70
     1
102
RTVSPropertyOp33
 70
     1
102
RTVSPropertyOp34
 70
     1
102
RTVSPropertyOp35
 70
     1
102
RTVSPropertyOp36
 70
     1
102
RTVSPropertyOp37
 70
     1
102
RTVSPropertyOp38
 70
     1
102
RTVSPropertyOp39
 70
     1
102
RTVSPropertyOp40
 70
     1
102
RTVSPropertyOp41
 70
     1
102
RTVSPropertyOp42
 70
     1
102
RTVSPropertyOp43
 70
     1
102
RTVSPropertyOp44
 70
     1
102
RTVSPropertyOp45
 70
     1
102
RTVSPropertyOp46
 70
     1
102
RTVSPropertyOp47
 70
     1
102
RTVSPropertyOp48
 70
     1
102
RTVSPropertyOp49
 70
     1
102
RTVSPropertyOp50
 70
     1
102
RTVSPropertyOp51
 70
     0
102
RTVSPropertyOp52
 70
     0
102
RTVSPropertyOp53
 70
     1
102
RTVSPropertyOp54
 70
     1
102
RTVSPropertyOp55
 70
     1
102
RTVSPropertyOp56
 70
     1
102
RTVSPropertyOp57
 70
     1
102
RTVSPropertyOp58
 70
     1
102
RTVSPropertyOp59
 70
     1
102
RTVSPropertyOp60
 70
     1
102
RTVSPropertyOp61
 70
     1
102
RTVSPropertyOp62
 70
     1
  0
XRECORD
  5
4B3
102
{ACAD_REACTORS
330
4B2
102
}
330
4B2
100
AcDbXrecord
280
     1
102
RTVSPost2010Prop28
280
     0
102
RTVSPost2010PropOp28
 70
     1
102
RTVSPost2010Prop29
280
     1
102
RTVSPost2010PropOp29
 70
     1
102
RTVSPost2010Prop30
280
     1
102
RTVSPost2010PropOp30
 70
     1
102
RTVSPost2010Prop31
280
     0
102
RTVSPost2010PropOp31
 70
     1
102
RTVSPost2010Prop32
280
     0
102
RTVSPost2010PropOp32
 70
     1
102
RTVSPost2010Prop33
280
     0
102
RTVSPost2010PropOp33
 70
     1
102
RTVSPost2010Prop34
280
     0
102
RTVSPost2010PropOp34
 70
     1
102
RTVSPost2010Prop35
280
     0
102
RTVSPost2010PropOp35
 70
     1
102
RTVSPost2010Prop36
280
     0
102
RTVSPost2010PropOp36
 70
     1
102
RTVSPost2010Prop37
 90
       50
102
RTVSPost2010PropOp37
 70
     1
102
RTVSPost2010Prop38
140
0.0
102
RTVSPost2010PropOp38
 70
     1
102
RTVSPost2010Prop39
140
1.0
102
RTVSPost2010PropOp39
 70
     1
102
RTVSPost2010Prop40
 90
        0
102
RTVSPost2010PropOp40
 70
     1
102
RTVSPost2010Prop41ColorIndex
 90
       18
102
RTVSPost2010Prop41ColorRGB
 90
        0
102
RTVSPost2010PropOp41
 70
     1
102
RTVSPost2010Prop42
 90
       50
102
RTVSPost2010PropOp42
 70
     1
102
RTVSPost2010Prop43
 90
        3
102
RTVSPost2010PropOp43
 70
     1
102
RTVSPost2010Prop44ColorIndex
 90
        5
102
RTVSPost2010Prop44ColorRGB
 90
      255
102
RTVSPost2010PropOp44
 70
     1
102
RTVSPost2010Prop45
280
     0
102
RTVSPost2010PropOp45
 70
     1
102
RTVSPost2010Prop46
 90
       50
102
RTVSPost2010PropOp46
 70
     1
102
RTVSPost2010Prop47
 90
       50
102
RTVSPost2010PropOp47
 70
     1
102
RTVSPost2010Prop48
 90
       50
102
RTVSPost2010PropOp48
 70
     1
102
RTVSPost2010Prop49
280
     0
102
RTVSPost2010PropOp49
 70
     1
102
RTVSPost2010Prop50
 90
       50
102
RTVSPost2010PropOp50
 70
     1
102
RTVSPost2010Prop51ColorIndex
 90
      256
102
RTVSPost2010Prop51ColorRGB
 90
-16777216
102
RTVSPost2010PropOp51
 70
     0
102
RTVSPost2010Prop52
140
1.0
102
RTVSPost2010PropOp52
 70
     0
102
RTVSPost2010Prop53
 90
        2
102
RTVSPost2010PropOp53
 70
     1
102
RTVSPost2010Prop54
  1
strokes_ogs.tif
102
RTVSPost2010PropOp54
 70
     1
102
RTVSPost2010Prop55
280
     0
102
RTVSPost2010PropOp55
 70
     1
102
RTVSPost2010Prop56
140
1.0
102
RTVSPost2010PropOp56
 70
     1
102
RTVSPost2010Prop57
140
1.0
102
RTVSPost2010PropOp57
 70
     1
102
RTVSPropertyOp0
 70
     1
102
RTVSPropertyOp1
 70
     1
102
RTVSPropertyOp2
 70
     1
102
RTVSPropertyOp3
 70
     1
102
RTVSPropertyOp4
 70
     1
102
RTVSPropertyOp5
 70
     1
102
RTVSPropertyOp6
 70
     1
102
RTVSPropertyOp7
 70
     1
102
RTVSPropertyOp8
 70
     1
102
RTVSPropertyOp9
 70
     1
102
RTVSPropertyOp10
 70
     1
102
RTVSPropertyOp11
 70
     1
102
RTVSPropertyOp12
 70
     1
102
RTVSPropertyOp13
 70
     1
102
RTVSPropertyOp14
 70
     1
102
RTVSPropertyOp15
 70
     1
102
RTVSPropertyOp16
 70
     1
102
RTVSPropertyOp17
 70
     1
102
RTVSPropertyOp18
 70
     1
102
RTVSPropertyOp19
 70
     1
102
RTVSPropertyOp20
 70
     1
102
RTVSPropertyOp21
 70
     1
102
RTVSPropertyOp22
 70
     1
102
RTVSPropertyOp23
 70
     1
102
RTVSPropertyOp24
 70
     1
102
RTVSPropertyOp25
 70
     1
102
RTVSPropertyOp26
 70
     1
102
RTVSPropertyOp27
 70
     1
102
RTVSPropertyOp28
 70
     1
102
RTVSPropertyOp29
 70
     1
102
RTVSPropertyOp30
 70
     1
102
RTVSPropertyOp31
 70
     1
102
RTVSPropertyOp32
 70
     1
102
RTVSPropertyOp33
 70
     1
102
RTVSPropertyOp34
 70
     1
102
RTVSPropertyOp35
 70
     1
102
RTVSPropertyOp36
 70
     1
102
RTVSPropertyOp37
 70
     1
102
RTVSPropertyOp38
 70
     1
102
RTVSPropertyOp39
 70
     1
102
RTVSPropertyOp40
 70
     1
102
RTVSPropertyOp41
 70
     1
102
RTVSPropertyOp42
 70
     1
102
RTVSPropertyOp43
 70
     1
102
RTVSPropertyOp44
 70
     1
102
RTVSPropertyOp45
 70
     1
102
RTVSPropertyOp46
 70
     1
102
RTVSPropertyOp47
 70
     1
102
RTVSPropertyOp48
 70
     1
102
RTVSPropertyOp49
 70
     1
102
RTVSPropertyOp50
 70
     1
102
RTVSPropertyOp51
 70
     0
102
RTVSPropertyOp52
 70
     0
102
RTVSPropertyOp53
 70
     1
102
RTVSPropertyOp54
 70
     1
102
RTVSPropertyOp55
 70
     1
102
RTVSPropertyOp56
 70
     1
102
RTVSPropertyOp57
 70
     1
102
RTVSPropertyOp58
 70
     1
102
RTVSPropertyOp59
 70
     1
102
RTVSPropertyOp60
 70
     1
102
RTVSPropertyOp61
 70
     1
102
RTVSPropertyOp62
 70
     1
  0
ENDSEC
  0
EOF
