  0
SECTION
  2
HEADER
  9
$ACADVER
  1
AC1009
  9
$INSBASE
 10
0.0
 20
0.0
 30
0.0
  9
$EXTMIN
 10
-530.03844921481641
 20
-802.03459295412847
 30
-0.0015258207003583
  9
$EXTMAX
 10
730.03845508214806
 20
1071.2589434514109
 30
0.0000000349246037
  9
$LIMMIN
 10
0.0
 20
0.0
  9
$LIMMAX
 10
0.0
 20
0.0
  9
$ORTHOMODE
 70
     0
  9
$REGENMODE
 70
     1
  9
$FILLMODE
 70
     1
  9
$QTEXTMODE
 70
     0
  9
$MIRRTEXT
 70
     1
  9
$DRAGMODE
 70
     2
  9
$LTSCALE
 40
35.559999999999988
  9
$OSMODE
 70
   231
  9
$ATTMODE
 70
     1
  9
$TEXTSIZE
 40
0.0
  9
$TRACEWID
 40
1.0
  9
$TEXTSTYLE
  7
STANDARD
  9
$CLAYER
  8
DATA
  9
$CELTYPE
  6
BYLAYER
  9
$CECOLOR
 62
   256
  9
$DIMSCALE
 40
1.0
  9
$DIMASZ
 40
0.18
  9
$DIMEXO
 40
0.0625
  9
$DIMDLI
 40
0.38
  9
$DIMRND
 40
0.0
  9
$DIMDLE
 40
0.0
  9
$DIMEXE
 40
0.18
  9
$DIMTP
 40
0.0
  9
$DIMTM
 40
0.0
  9
$DIMTXT
 40
0.18
  9
$DIMCEN
 40
0.09
  9
$DIMTSZ
 40
0.0
  9
$DIMTOL
 70
     0
  9
$DIMLIM
 70
     0
  9
$DIMTIH
 70
     1
  9
$DIMTOH
 70
     1
  9
$DIMSE1
 70
     0
  9
$DIMSE2
 70
     0
  9
$DIMTAD
 70
     0
  9
$DIMZIN
 70
     0
  9
$DIMBLK
  1

  9
$DIMASO
 70
     1
  9
$DIMSHO
 70
     1
  9
$DIMPOST
  1

  9
$DIMAPOST
  1

  9
$DIMALT
 70
     0
  9
$DIMALTD
 70
     2
  9
$DIMALTF
 40
25.399999999999999
  9
$DIMLFAC
 40
1.0
  9
$DIMTOFL
 70
     0
  9
$DIMTVP
 40
0.0
  9
$DIMTIX
 70
     0
  9
$DIMSOXD
 70
     0
  9
$DIMSAH
 70
     0
  9
$DIMBLK1
  1

  9
$DIMBLK2
  1

  9
$DIMSTYLE
  2
STANDARD
  9
$DIMCLRD
 70
     0
  9
$DIMCLRE
 70
     0
  9
$DIMCLRT
 70
     0
  9
$DIMTFAC
 40
1.0
  9
$DIMGAP
 40
0.09
  9
$LUNITS
 70
     2
  9
$LUPREC
 70
     4
  9
$SKETCHINC
 40
0.1
  9
$FILLETRAD
 40
0.0
  9
$AUNITS
 70
     0
  9
$AUPREC
 70
     0
  9
$MENU
  1
acad
  9
$ELEVATION
 40
0.0
  9
$PELEVATION
 40
0.0
  9
$THICKNESS
 40
0.0
  9
$LIMCHECK
 70
     0
  9
$BLIPMODE
 70
     0
  9
$CHAMFERA
 40
0.0
  9
$CHAMFERB
 40
0.0
  9
$SKPOLY
 70
     0
  9
$TDCREATE
 40
2455834.5514351851
  9
$TDUPDATE
 40
2455834.5665254048
  9
$TDINDWG
 40
0.0045951042
  9
$TDUSRTIMER
 40
0.0045949306
  9
$USRTIMER
 70
     1
  9
$ANGBASE
 50
0.0
  9
$ANGDIR
 70
     0
  9
$PDMODE
 70
     1
  9
$PDSIZE
 40
-2.0
  9
$PLINEWID
 40
0.0
  9
$COORDS
 70
     1
  9
$SPLFRAME
 70
     0
  9
$SPLINETYPE
 70
     6
  9
$SPLINESEGS
 70
     8
  9
$ATTDIA
 70
     0
  9
$ATTREQ
 70
     1
  9
$HANDLING
 70
     1
  9
$HANDSEED
  5
878
  9
$SURFTAB1
 70
     6
  9
$SURFTAB2
 70
     6
  9
$SURFTYPE
 70
     6
  9
$SURFU
 70
     6
  9
$SURFV
 70
     6
  9
$UCSNAME
  2

  9
$UCSORG
 10
0.0
 20
0.0
 30
0.0
  9
$UCSXDIR
 10
1.0
 20
0.0
 30
0.0
  9
$UCSYDIR
 10
0.0
 20
1.0
 30
0.0
  9
$PUCSNAME
  2

  9
$PUCSORG
 10
0.0
 20
0.0
 30
0.0
  9
$PUCSXDIR
 10
1.0
 20
0.0
 30
0.0
  9
$PUCSYDIR
 10
0.0
 20
1.0
 30
0.0
  9
$USERI1
 70
     0
  9
$USERI2
 70
     0
  9
$USERI3
 70
     0
  9
$USERI4
 70
     0
  9
$USERI5
 70
     0
  9
$USERR1
 40
0.0
  9
$USERR2
 40
0.0
  9
$USERR3
 40
0.0
  9
$USERR4
 40
0.0
  9
$USERR5
 40
0.0
  9
$WORLDVIEW
 70
     1
  9
$SHADEDGE
 70
     3
  9
$SHADEDIF
 70
    70
  9
$TILEMODE
 70
     1
  9
$MAXACTVP
 70
    64
  9
$PLIMCHECK
 70
     0
  9
$PEXTMIN
 10
1.0000000000000000E+020
 20
1.0000000000000000E+020
 30
1.0000000000000000E+020
  9
$PEXTMAX
 10
-1.0000000000000000E+020
 20
-1.0000000000000000E+020
 30
-1.0000000000000000E+020
  9
$PLIMMIN
 10
0.0
 20
0.0
  9
$PLIMMAX
 10
12.0
 20
9.0
  9
$UNITMODE
 70
     0
  9
$VISRETAIN
 70
     0
  9
$PLINEGEN
 70
     1
  9
$PSLTSCALE
 70
     0
  0
ENDSEC
  0
SECTION
  2
TABLES
  0
TABLE
  2
VPORT
 70
     1
  0
VPORT
  2
*ACTIVE
 70
     0
 10
0.0
 20
0.0
 11
1.0
 21
1.0
 12
100.0000029336656
 22
134.61217524864131
 13
0.0
 23
0.0
 14
1.0
 24
1.0
 15
0.0
 25
0.0
 16
0.0
 26
0.0
 36
1.0
 17
0.0
 27
0.0
 37
0.0
 40
1887.0846544649669
 41
1.9619164619164611
 42
50.0
 43
0.0
 44
0.0
 50
0.0
 51
0.0
 71
     0
 72
  2000
 73
     1
 74
     1
 75
     0
 76
     0
 77
     0
 78
     0
  0
ENDTAB
  0
TABLE
  2
LTYPE
 70
    11
  0
LTYPE
  2
CONTINUOUS
 70
     0
  3
Solid line
 72
    65
 73
     0
 40
0.0
  0
ENDTAB
  0
TABLE
  2
LAYER
 70
     6
  0
LAYER
  2
0
 70
     0
 62
     7
  6
CONTINUOUS
  0
LAYER
  2
DATA
 70
     0
 62
     7
  6
CONTINUOUS
  0
LAYER
  2
HIBINO-BASE
 70
     0
 62
     7
  6
CONTINUOUS
  0
LAYER
  2
SPEC
 70
     0
 62
     7
  6
CONTINUOUS
  0
LAYER
  2
DIMNSIONS
 70
     0
 62
     7
  6
CONTINUOUS
  0
ENDTAB
  0
TABLE
  2
STYLE
 70
     3
  0
STYLE
  2
STANDARD
 70
     0
 40
0.0
 41
1.0
 50
0.0
 71
     0
 42
0.0
  3
txt
  4
BIGFONT.SHX
  0
ENDTAB
  0
TABLE
  2
VIEW
 70
     0
  0
ENDTAB
  0
TABLE
  2
UCS
 70
     0
  0
ENDTAB
  0
TABLE
  2
APPID
 70
     4
  0
APPID
  2
ACAD
 70
     0
  0
APPID
  2
ACADANNOTATIVE
 70
     0
  0
APPID
  2
ACAD_NAV_VCDISPLAY
 70
     0
  0
APPID
  2
ACAD_MLEADERVER
 70
     0
  0
ENDTAB
  0
TABLE
  2
DIMSTYLE
 70
     2
  0
DIMSTYLE
  2
STANDARD
 70
     0
  3

  4

  5

  6

  7

 40
1.0
 41
0.18
 42
0.0625
 43
0.38
 44
0.18
 45
0.0
 46
0.0
 47
0.0
 48
0.0
140
0.18
141
0.09
142
0.0
143
25.399999999999999
144
1.0
145
0.0
146
1.0
147
0.09
 71
     0
 72
     0
 73
     1
 74
     1
 75
     0
 76
     0
 77
     0
 78
     0
170
     0
171
     2
172
     0
173
     0
174
     0
175
     0
176
     0
177
     0
178
     0
  0
ENDTAB
  0
ENDSEC
  0
SECTION
  2
BLOCKS
  0
BLOCK
  8
0
  2
$MODEL_SPACE
 70
     0
 10
0.0
 20
0.0
 30
0.0
  3
$MODEL_SPACE
  1

  0
ENDBLK
  5
63B
  8
0
  0
BLOCK
 67
     1
  8
0
  2
$PAPER_SPACE
 70
     0
 10
0.0
 20
0.0
 30
0.0
  3
$PAPER_SPACE
  1

  0
ENDBLK
  5
637
 67
     1
  8
0
  0
ENDSEC
  0
SECTION
  2
ENTITIES
  0
LINE
  5
2D
  8
HIBINO-BASE
  6
CONTINUOUS
 62
     7
 10
-529.99999999999977
 20
1071.201887369195
 30
0.0
 11
730.0
 21
1071.201887369195
 31
0.0
  0
LINE
  5
2E
  8
HIBINO-BASE
  6
CONTINUOUS
 62
     7
 10
730.0
 20
-748.79811263080444
 30
0.0
 11
-529.99999999999977
 21
-748.79811263080444
 31
0.0
  0
LINE
  5
2F
  8
HIBINO-BASE
  6
CONTINUOUS
 62
     7
 10
-529.99999999999977
 20
-748.79811263080444
 30
0.0
 11
-529.99999999999977
 21
1071.201887369195
 31
0.0
  0
LINE
  5
30
  8
HIBINO-BASE
  6
CONTINUOUS
 62
     7
 10
730.0
 20
1071.201887369195
 30
0.0
 11
730.0
 21
-748.79811263080444
 31
0.0
  0
LINE
  5
31
  8
HIBINO-BASE
  6
CONTINUOUS
 62
     7
 10
100.0
 20
-591.29811263080455
 30
0.0
 11
730.0
 21
-591.29811263080455
 31
0.0
  0
LINE
  5
32
  8
HIBINO-BASE
  6
CONTINUOUS
 62
     7
 10
100.0
 20
-748.79811263080444
 30
0.0
 11
100.0
 21
-591.29811263080455
 31
0.0
  0
TEXT
  5
33
  8
HIBINO-BASE
 62
     7
 10
106.3
 20
-608.85896596413784
 30
0.0
 40
11.401888020833329
  1
NOTE
 41
0.7
 11
106.3
 21
-597.45707794330451
 31
0.0
 73
     3
  0
LINE
  5
34
  8
HIBINO-BASE
  6
CONTINUOUS
 62
     7
 10
345.0
 20
-748.79811263080444
 30
0.0
 11
345.0
 21
-591.29811263080455
 31
0.0
  0
TEXT
  5
35
  8
HIBINO-BASE
 62
     7
 10
351.2999999999999
 20
-608.85896596413784
 30
0.0
 40
11.401888020833329
  1
TITLE
 41
0.7
 11
351.2999999999999
 21
-597.45707794330451
 31
0.0
 73
     3
  0
LINE
  5
36
  8
HIBINO-BASE
  6
CONTINUOUS
 62
     7
 10
100.0
 20
-678.79811263080455
 30
0.0
 11
730.0
 21
-678.79811263080455
 31
0.0
  0
TEXT
  5
37
  8
HIBINO-BASE
 62
     7
 10
438.7999999999999
 20
-695.96472596413776
 30
0.0
 40
11.401888020833329
  1
DRAWN
 41
0.7
 11
438.7999999999999
 21
-684.56283794330454
 31
0.0
 73
     3
  0
TEXT
  5
38
  8
HIBINO-BASE
 62
     7
 10
263.7999999999999
 20
-695.96472596413776
 30
0.0
 40
11.401888020833329
  1
DATE
 41
0.7
 11
263.7999999999999
 21
-684.56283794330454
 31
0.0
 73
     3
  0
TEXT
  5
39
  8
HIBINO-BASE
 62
     7
 10
193.7999999999999
 20
-695.96472596413776
 30
0.0
 40
11.401888020833329
  1
SCALE
 41
0.7
 11
193.7999999999999
 21
-684.56283794330454
 31
0.0
 73
     3
  0
TEXT
  5
3A
  8
HIBINO-BASE
 62
     7
 10
351.2999999999999
 20
-695.96472596413776
 30
0.0
 40
11.401888020833329
  1
DESIGN
 41
0.7
 11
351.2999999999999
 21
-684.56283794330454
 31
0.0
 73
     3
  0
TEXT
  5
3B
  8
HIBINO-BASE
 62
     7
 10
613.79999999999995
 20
-695.96472596413776
 30
0.0
 40
11.401888020833329
  1
DRAWING NO.
 41
0.7
 11
613.79999999999995
 21
-684.56283794330454
 31
0.0
 73
     3
  0
TEXT
  5
3C
  8
HIBINO-BASE
 62
     7
 10
526.29999999999995
 20
-695.96472596413776
 30
0.0
 40
11.401888020833329
  1
CHECK
 41
0.7
 11
526.29999999999995
 21
-684.56283794330454
 31
0.0
 73
     3
  0
LINE
  5
3D
  8
HIBINO-BASE
  6
CONTINUOUS
 62
     7
 10
200.625
 20
-740.04811263080444
 30
0.0
 11
226.875
 21
-713.79811263080444
 31
0.0
  0
TEXT
  5
3E
  8
HIBINO-BASE
 62
     7
 10
196.25
 20
-721.56071596413767
 30
0.0
 40
11.401888020833329
  1
1
 41
0.7
 11
196.25
 21
-710.15882794330446
 31
0.0
 73
     3
  0
LINE
  5
3F
  8
HIBINO-BASE
  6
CONTINUOUS
 62
     7
 10
187.5
 20
-748.79811263080444
 30
0.0
 11
187.5
 21
-678.79811263080455
 31
0.0
  0
LINE
  5
40
  8
HIBINO-BASE
  6
CONTINUOUS
 62
     7
 10
257.49999999999989
 20
-748.79811263080444
 30
0.0
 11
257.49999999999989
 21
-678.79811263080455
 31
0.0
  0
LINE
  5
41
  8
HIBINO-BASE
  6
CONTINUOUS
 62
     7
 10
432.5
 20
-678.79811263080455
 30
0.0
 11
432.5
 21
-748.79811263080444
 31
0.0
  0
LINE
  5
42
  8
HIBINO-BASE
  6
CONTINUOUS
 62
     7
 10
607.5
 20
-678.79811263080455
 30
0.0
 11
607.5
 21
-748.79811263080444
 31
0.0
  0
LINE
  5
43
  8
HIBINO-BASE
  6
CONTINUOUS
 62
     7
 10
519.99999999999989
 20
-748.79811263080444
 30
0.0
 11
519.99999999999989
 21
-678.79811263080455
 31
0.0
  0
TEXT
  5
44
  8
HIBINO-BASE
 62
     7
 10
263.49578000000002
 20
-728.75258596413778
 30
0.0
 40
11.401888020833329
  1
'11.09.
 41
0.7
 11
263.49578000000002
 21
-717.35069794330445
 31
0.0
 73
     3
  0
TEXT
  5
45
  8
HIBINO-BASE
 62
     7
 10
222.5
 20
-734.68571596413778
 30
0.0
 40
11.401888020833329
  1
7
 41
0.7
 11
222.5
 21
-723.28382794330435
 31
0.0
 73
     3
  0
TEXT
  5
46
  8
HIBINO-BASE
 62
     7
 10
443.04067007724228
 20
-728.75258596413778
 30
0.0
 40
11.401888020833329
  1
T.Ootake
 41
0.7
 11
443.04067007724228
 21
-717.35069794330445
 31
0.0
 73
     3
  0
TEXT
  5
47
  8
HIBINO-BASE
 62
     7
 10
127.18333333333339
 20
-734.96611263080433
 30
0.0
 40
22.803776041666669
  1
A4
 41
0.7
 11
127.18333333333339
 21
-712.16233658913768
 31
0.0
 73
     3
  0
TEXT
  5
48
  8
HIBINO-BASE
 62
     7
 10
106.7083333333333
 20
-697.13429763080444
 30
0.0
 40
11.401888020833329
  1
PAPER SIZE
 41
0.7
 11
106.7083333333333
 21
-685.73240960997111
 31
0.0
 73
     3
  0
TEXT
  5
49
  8
HIBINO-BASE
 62
     7
 10
-510.68255320176871
 20
-793.77479427003823
 30
0.0
 40
24.704090711805559
  1
Hibino-Intersound Corporation
 41
0.7
 11
-510.68255320176871
 21
-769.07070355823271
 31
0.0
 73
     3
  0
TEXT
  5
4A
  8
HIBINO-BASE
 62
     7
 10
241.26426776149731
 20
-791.31717649701216
 30
0.0
 40
24.704090711805559
  1
ヒビノインターサウンド株式会社
 41
0.7
 11
241.26426776149731
 21
-766.61308578520675
 31
0.0
 73
     3
  0
LINE
  5
4B
  8
SPEC
  6
CONTINUOUS
 62
     7
 10
-477.49999999999989
 20
1001.201887369195
 30
0.0
 11
555.0
 21
1001.201887369195
 31
0.0
  0
LINE
  5
4C
  8
SPEC
  6
CONTINUOUS
 62
     7
 10
-477.49999999999989
 20
974.95188736919522
 30
0.0
 11
555.0
 21
974.95188736919522
 31
0.0
  0
LINE
  5
4D
  8
SPEC
  6
CONTINUOUS
 62
     7
 10
-477.49999999999989
 20
922.45188736919522
 30
0.0
 11
555.0
 21
922.45188736919522
 31
0.0
  0
LINE
  5
4E
  8
SPEC
  6
CONTINUOUS
 62
     7
 10
-477.49999999999989
 20
948.70188736919511
 30
0.0
 11
555.0
 21
948.70188736919511
 31
0.0
  0
LINE
  5
4F
  8
SPEC
  6
CONTINUOUS
 62
     7
 10
-477.49999999999989
 20
1001.201887369195
 30
0.0
 11
-477.49999999999989
 21
581.20188736919522
 31
0.0
  0
TEXT
  5
50
  8
SPEC
 62
     7
 10
-468.74999999999989
 20
1010.954777369195
 30
0.0
 40
17.102832031249999
  1
仕様
 41
0.7
 11
-468.74999999999989
 21
1028.057609400445
 31
0.0
 73
     3
  0
LINE
  5
51
  8
SPEC
  6
CONTINUOUS
 62
     7
 10
-250.0
 20
1001.201887369195
 30
0.0
 11
-250.0
 21
581.20188736919522
 31
0.0
  0
LINE
  5
52
  8
SPEC
  6
CONTINUOUS
 62
     7
 10
555.0
 20
1001.201887369195
 30
0.0
 11
554.99999999999977
 21
581.20188736919522
 31
0.0
  0
LINE
  5
53
  8
SPEC
  6
CONTINUOUS
 62
     7
 10
-477.49999999999989
 20
896.20188736919545
 30
0.0
 11
555.0
 21
896.20188736919545
 31
0.0
  0
LINE
  5
54
  8
SPEC
  6
CONTINUOUS
 62
     7
 10
-477.49999999999989
 20
869.95188736919545
 30
0.0
 11
555.0
 21
869.95188736919545
 31
0.0
  0
LINE
  5
55
  8
SPEC
  6
CONTINUOUS
 62
     7
 10
-477.49999999999989
 20
843.70188736919545
 30
0.0
 11
555.0
 21
843.70188736919545
 31
0.0
  0
LINE
  5
56
  8
SPEC
  6
CONTINUOUS
 62
     7
 10
-477.49999999999989
 20
817.45188736919545
 30
0.0
 11
555.0
 21
817.45188736919545
 31
0.0
  0
LINE
  5
57
  8
SPEC
  6
CONTINUOUS
 62
     7
 10
-477.49999999999989
 20
791.20188736919545
 30
0.0
 11
555.0
 21
791.20188736919545
 31
0.0
  0
LINE
  5
58
  8
SPEC
  6
CONTINUOUS
 62
     7
 10
-477.49999999999989
 20
764.95188736919545
 30
0.0
 11
555.0
 21
764.95188736919545
 31
0.0
  0
LINE
  5
59
  8
SPEC
  6
CONTINUOUS
 62
     7
 10
-477.49999999999989
 20
738.70188736919545
 30
0.0
 11
555.0
 21
738.70188736919545
 31
0.0
  0
LINE
  5
5A
  8
SPEC
  6
CONTINUOUS
 62
     7
 10
-477.49999999999989
 20
712.45188736919522
 30
0.0
 11
555.0
 21
712.45188736919522
 31
0.0
  0
LINE
  5
5B
  8
SPEC
  6
CONTINUOUS
 62
     7
 10
-477.49999999999989
 20
686.20188736919522
 30
0.0
 11
555.0
 21
686.20188736919522
 31
0.0
  0
LINE
  5
5C
  8
SPEC
  6
CONTINUOUS
 62
     7
 10
-477.49999999999989
 20
659.95188736919522
 30
0.0
 11
555.0
 21
659.95188736919522
 31
0.0
  0
TEXT
  5
5D
  8
SPEC
 62
     7
 10
-471.8288635167952
 20
614.914206108587
 30
0.0
 40
13.302202690972219
  1
寸法
 41
0.7
 11
-471.8288635167952
 21
628.21640879955919
 31
0.0
 73
     3
  0
TEXT
  5
5E
  8
SPEC
 62
     7
 10
-243.16538919241239
 20
614.14978639688934
 30
0.0
 40
13.302202690972219
  1
435(W)\U+00D744(H)\U+00D7131(D)mm(突起部含まず）、(センダー、レシーバー共)
 41
0.7
 11
-243.16538919241239
 21
627.45198908786153
 31
0.0
 73
     3
  0
TEXT
  5
5F
  8
SPEC
 62
     7
 10
-243.7066263126913
 20
588.05363945519468
 30
0.0
 40
13.302202690972219
  1
約800g、(センダー、レシーバー共）
 41
0.7
 11
-243.7066263126913
 21
601.35584214616688
 31
0.0
 73
     3
  0
TEXT
  5
60
  8
SPEC
 62
     7
 10
-471.65060439663768
 20
588.25407788243615
 30
0.0
 40
13.302202690972219
  1
重量
 41
0.7
 11
-471.65060439663768
 21
601.55628057340834
 31
0.0
 73
     3
  0
TEXT
  5
61
  8
SPEC
 62
     7
 10
-471.22964115759402
 20
772.07060035038126
 30
0.0
 40
13.302202690972219
  1
USB端子(送信機)
 41
0.7
 11
-471.22964115759402
 21
785.37280304135345
 31
0.0
 73
     3
  0
TEXT
  5
62
  8
SPEC
 62
     7
 10
-243.701088062845
 20
771.56336388163572
 30
0.0
 40
13.302202690972219
  1
USB typeB
 41
0.7
 11
-243.701088062845
 21
784.86556657260792
 31
0.0
 73
     3
  0
TEXT
  5
63
  8
SPEC
 62
     7
 10
-471.4425224421538
 20
640.3156900292413
 30
0.0
 40
13.302202690972219
  1
消費電力
 41
0.7
 11
-471.4425224421538
 21
653.61789272021349
 31
0.0
 73
     3
  0
TEXT
  5
64
  8
SPEC
 62
     7
 10
-243.38242559275039
 20
640.38194291334958
 30
0.0
 40
13.302202690972219
  1
30W(最大)
 41
0.7
 11
-243.38242559275039
 21
653.68414560432177
 31
0.0
 73
     3
  0
TEXT
  5
65
  8
SPEC
 62
     7
 10
-470.80351693084862
 20
798.31490257300231
 30
0.0
 40
13.302202690972219
  1
VGA端子(受信機)
 41
0.7
 11
-470.80351693084862
 21
811.61710526397439
 31
0.0
 73
     3
  0
TEXT
  5
66
  8
SPEC
 62
     7
 10
-243.701482783286
 20
797.71261926335626
 30
0.0
 40
13.302202690972219
  1
HD-メス
 41
0.7
 11
-243.701482783286
 21
811.01482195432845
 31
0.0
 73
     3
  0
TEXT
  5
67
  8
SPEC
 62
     7
 10
-470.70097335038588
 20
824.11881066192495
 30
0.0
 40
13.302202690972219
  1
VGA端子(送信機)
 41
0.7
 11
-470.70097335038588
 21
837.42101335289715
 31
0.0
 73
     3
  0
TEXT
  5
68
  8
SPEC
 62
     7
 10
-243.60152760588929
 20
824.11183841914908
 30
0.0
 40
13.302202690972219
  1
HD-15オス、HD-15メス
 41
0.7
 11
-243.60152760588929
 21
837.41404111012116
 31
0.0
 73
     3
  0
TEXT
  5
69
  8
SPEC
 62
     7
 10
-471.55625996529972
 20
851.13669714780792
 30
0.0
 40
13.302202690972219
  1
垂直周波数
 41
0.7
 11
-471.55625996529972
 21
864.43889983878012
 31
0.0
 73
     3
  0
TEXT
  5
6A
  8
SPEC
 62
     7
 10
-243.44968434709929
 20
850.36064153675625
 30
0.0
 40
13.302202690972219
  1
30Hz～170Hz
 41
0.7
 11
-243.44968434709929
 21
863.66284422772844
 31
0.0
 73
     3
  0
TEXT
  5
6B
  8
SPEC
 62
     7
 10
-471.2901565696576
 20
877.2710109376635
 30
0.0
 40
13.302202690972219
  1
水平周波数
 41
0.7
 11
-471.2901565696576
 21
890.57321362863581
 31
0.0
 73
     3
  0
TEXT
  5
6C
  8
SPEC
 62
     7
 10
-244.66864443450461
 20
876.45759427308496
 30
0.0
 40
13.302202690972219
  1
15kHz～70kHz
 41
0.7
 11
-244.66864443450461
 21
889.75979696405727
 31
0.0
 73
     3
  0
TEXT
  5
6D
  8
SPEC
 62
     7
 10
-474.38762922917027
 20
902.90919429896735
 30
0.0
 40
13.302202690972219
  1
ビデオ最大対応解像度
 41
0.7
 11
-474.38762922917027
 21
916.21139698993954
 31
0.0
 73
     3
  0
TEXT
  5
6E
  8
SPEC
 62
     7
 10
-244.519825508222
 20
902.70638549476894
 30
0.0
 40
13.302202690972219
  1
1080p、1920\U+00D71200@60Hz with 12bit Deep Color
 41
0.7
 11
-244.519825508222
 21
916.00858818574102
 31
0.0
 73
     3
  0
TEXT
  5
6F
  8
SPEC
 62
     7
 10
-471.55167931007662
 20
929.52745881169335
 30
0.0
 40
13.302202690972219
  1
入力ビデオ信号
 41
0.7
 11
-471.55167931007662
 21
942.82966150266543
 31
0.0
 73
     3
  0
TEXT
  5
70
  8
SPEC
 62
     7
 10
-244.52346622024891
 20
928.95517192409341
 30
0.0
 40
13.302202690972219
  1
1.2Vp-p
 41
0.7
 11
-244.52346622024891
 21
942.25737461506549
 31
0.0
 73
     3
  0
TEXT
  5
71
  8
SPEC
 62
     7
 10
-471.37797061456519
 20
955.77745881169335
 30
0.0
 40
13.302202690972219
  1
入力DDC信号
 41
0.7
 11
-471.37797061456519
 21
969.07966150266554
 31
0.0
 73
     3
  0
TEXT
  5
72
  8
SPEC
 62
     7
 10
-243.75579323263361
 20
955.04968791531417
 30
0.0
 40
13.302202690972219
  1
5Vp-p(TTL)
 41
0.7
 11
-243.75579323263361
 21
968.35189060628625
 31
0.0
 73
     3
  0
TEXT
  5
73
  8
SPEC
 62
     7
 10
-474.25762185361168
 20
980.96237622979186
 30
0.0
 40
13.302202690972219
  1
ビデオアンプ帯域
 41
0.7
 11
-474.25762185361168
 21
994.26457892076417
 31
0.0
 73
     3
  0
TEXT
  5
74
  8
SPEC
 62
     7
 10
-243.60152760588929
 20
980.84166116927577
 30
0.0
 40
13.302202690972219
  1
350MHz
 41
0.7
 11
-243.60152760588929
 21
994.14386386024785
 31
0.0
 73
     3
  0
TEXT
  5
75
  8
SPEC
 62
     7
 10
-471.39271994356909
 20
719.51254470791412
 30
0.0
 40
13.302202690972219
  1
音声入力端子
 41
0.7
 11
-471.39271994356909
 21
732.81474739888631
 31
0.0
 73
     3
  0
TEXT
  5
76
  8
SPEC
 62
     7
 10
-243.45324676588689
 20
719.24171051550445
 30
0.0
 40
13.302202690972219
  1
3.5mm MiNi-Stereo
 41
0.7
 11
-243.45324676588689
 21
732.54391320647665
 31
0.0
 73
     3
  0
TEXT
  5
77
  8
SPEC
 62
     7
 10
-470.8711876352076
 20
745.59021601417851
 30
0.0
 40
13.302202690972219
  1
USB端子(受信機)
 41
0.7
 11
-470.8711876352076
 21
758.8924187051507
 31
0.0
 73
     3
  0
TEXT
  5
78
  8
SPEC
 62
     7
 10
-243.60152760588929
 20
745.5124847955467
 30
0.0
 40
13.302202690972219
  1
USB typeA
 41
0.7
 11
-243.60152760588929
 21
758.81468748651889
 31
0.0
 73
     3
  0
TEXT
  5
79
  8
SPEC
 62
     7
 10
-471.49714488516742
 20
693.21594919058771
 30
0.0
 40
13.302202690972219
  1
動作温度
 41
0.7
 11
-471.49714488516742
 21
706.5181518815599
 31
0.0
 73
     3
  0
TEXT
  5
7A
  8
SPEC
 62
     7
 10
-243.50353050472151
 20
693.09575605806265
 30
0.0
 40
13.302202690972219
  1
0～40℃
 41
0.7
 11
-243.50353050472151
 21
706.39795874903484
 31
0.0
 73
     3
  0
LINE
  5
7B
  8
SPEC
  6
CONTINUOUS
 62
     7
 10
-477.49999999999989
 20
633.70188736919522
 30
0.0
 11
555.0
 21
633.70188736919522
 31
0.0
  0
LINE
  5
7C
  8
SPEC
  6
CONTINUOUS
 62
     7
 10
-477.49999999999989
 20
607.45188736919511
 30
0.0
 11
555.0
 21
607.45188736919511
 31
0.0
  0
LINE
  5
7D
  8
SPEC
  6
CONTINUOUS
 62
     7
 10
-477.49999999999989
 20
581.20188736919522
 30
0.0
 11
555.0
 21
581.20188736919522
 31
0.0
  0
TEXT
  5
7E
  8
SPEC
 62
     7
 10
-471.73764576862283
 20
667.05120728911777
 30
0.0
 40
13.302202690972219
  1
電源
 41
0.7
 11
-471.73764576862283
 21
680.35340998008996
 31
0.0
 73
     3
  0
TEXT
  5
7F
  8
SPEC
 62
     7
 10
-243.45499650970959
 20
665.90623374375866
 30
0.0
 40
13.302202690972219
  1
5V DC
 41
0.7
 11
-243.45499650970959
 21
679.20843643473086
 31
0.0
 73
     3
  0
TEXT
  5
80
  8
DIMNSIONS
 62
     7
 10
-40.000000000000007
 20
-662.91168263080453
 30
0.0
 40
17.102832031249999
  1
(単位：mm)
 41
0.7
 11
-40.000000000000007
 21
-645.80885059955449
 31
0.0
 73
     3
  0
LINE
  5
81
  8
DIMNSIONS
  6
CONTINUOUS
 62
     7
 10
-314.0
 20
150.0
 30
0.0
 11
-364.0
 21
150.0
 31
0.0
  0
LINE
  5
82
  8
DIMNSIONS
  6
CONTINUOUS
 62
     7
 10
-314.0
 20
281.0
 30
0.0
 11
-364.0
 21
281.0
 31
0.0
  0
LINE
  5
83
  8
DIMNSIONS
  6
CONTINUOUS
 62
     7
 10
-350.0
 20
150.0
 30
0.0
 11
-350.0
 21
281.0
 31
0.0
  0
LINE
  5
84
  8
DIMNSIONS
  6
CONTINUOUS
 62
     7
 10
-350.0
 20
150.0
 30
0.0
 11
-354.69027856605169
 21
167.50435791015619
 31
0.0
  0
LINE
  5
85
  8
DIMNSIONS
  6
CONTINUOUS
 62
     7
 10
-350.0
 20
150.0
 30
0.0
 11
-345.30972143394831
 21
167.50435791015619
 31
0.0
  0
LINE
  5
86
  8
DIMNSIONS
  6
CONTINUOUS
 62
     7
 10
-350.0
 20
281.0
 30
0.0
 11
-345.30972143394831
 21
263.49564208984373
 31
0.0
  0
LINE
  5
87
  8
DIMNSIONS
  6
CONTINUOUS
 62
     7
 10
-350.0
 20
281.0
 30
0.0
 11
-354.69027856605169
 21
263.49564208984373
 31
0.0
  0
TEXT
  5
88
  8
DIMNSIONS
 62
     7
 10
-356.9572222222223
 20
196.97916666666671
 30
0.0
 40
19.003146701388879
  1
131
 50
90.0
 41
0.7
 11
-375.9603689236111
 21
196.97916666666671
 31
0.0
 73
     3
  0
LINE
  5
89
  8
DIMNSIONS
  6
CONTINUOUS
 62
     7
 10
-300.0
 20
61.0
 30
0.0
 11
-300.0
 21
11.0
 31
0.0
  0
LINE
  5
8A
  8
DIMNSIONS
  6
CONTINUOUS
 62
     7
 10
135.0
 20
61.0
 30
0.0
 11
135.0
 21
11.0
 31
0.0
  0
LINE
  5
8B
  8
DIMNSIONS
  6
CONTINUOUS
 62
     7
 10
-300.0
 20
25.0
 30
0.0
 11
135.0
 21
25.0
 31
0.0
  0
LINE
  5
8C
  8
DIMNSIONS
  6
CONTINUOUS
 62
     7
 10
-300.0
 20
25.0
 30
0.0
 11
-282.49564208984373
 21
29.690278566051699
 31
0.0
  0
LINE
  5
8D
  8
DIMNSIONS
  6
CONTINUOUS
 62
     7
 10
-300.0
 20
25.0
 30
0.0
 11
-282.49564208984373
 21
20.309721433948301
 31
0.0
  0
LINE
  5
8E
  8
DIMNSIONS
  6
CONTINUOUS
 62
     7
 10
135.0
 20
25.0
 30
0.0
 11
117.4956420898437
 21
20.309721433948301
 31
0.0
  0
LINE
  5
8F
  8
DIMNSIONS
  6
CONTINUOUS
 62
     7
 10
135.0
 20
25.0
 30
0.0
 11
117.4956420898437
 21
29.690278566051699
 31
0.0
  0
TEXT
  5
90
  8
DIMNSIONS
 62
     7
 10
-101.0208333333333
 20
31.957222222222232
 30
0.0
 40
19.003146701388879
  1
435
 41
0.7
 11
-101.0208333333333
 21
50.960368923611107
 31
0.0
 73
     3
  0
LINE
  5
91
  8
DIMNSIONS
  6
CONTINUOUS
 62
     7
 10
-314.0
 20
75.0
 30
0.0
 11
-364.0
 21
75.0
 31
0.0
  0
LINE
  5
92
  8
DIMNSIONS
  6
CONTINUOUS
 62
     7
 10
-314.0
 20
119.0
 30
0.0
 11
-364.0
 21
119.0
 31
0.0
  0
LINE
  5
93
  8
DIMNSIONS
  6
CONTINUOUS
 62
     7
 10
-350.0
 20
75.0
 30
0.0
 11
-350.0
 21
119.0
 31
0.0
  0
LINE
  5
94
  8
DIMNSIONS
  6
CONTINUOUS
 62
     7
 10
-350.0
 20
75.0
 30
0.0
 11
-354.69027856605169
 21
92.504357910156244
 31
0.0
  0
LINE
  5
95
  8
DIMNSIONS
  6
CONTINUOUS
 62
     7
 10
-350.0
 20
75.0
 30
0.0
 11
-345.30972143394831
 21
92.504357910156244
 31
0.0
  0
LINE
  5
96
  8
DIMNSIONS
  6
CONTINUOUS
 62
     7
 10
-350.0
 20
119.0
 30
0.0
 11
-345.30972143394831
 21
101.4956420898437
 31
0.0
  0
LINE
  5
97
  8
DIMNSIONS
  6
CONTINUOUS
 62
     7
 10
-350.0
 20
119.0
 30
0.0
 11
-354.69027856605169
 21
101.4956420898437
 31
0.0
  0
TEXT
  5
98
  8
DIMNSIONS
 62
     7
 10
-356.9572222222223
 20
84.652777777777757
 30
0.0
 40
19.003146701388879
  1
44
 50
90.0
 41
0.7
 11
-375.9603689236111
 21
84.652777777777757
 31
0.0
 73
     3
  0
LINE
  5
99
  8
DIMNSIONS
  6
CONTINUOUS
 62
     7
 10
-306.0
 20
71.0
 30
0.0
 11
-364.0
 21
71.0
 31
0.0
  0
LINE
  5
9A
  8
DIMNSIONS
  6
CONTINUOUS
 62
     7
 10
-314.0
 20
75.0
 30
0.0
 11
-364.0
 21
75.0
 31
0.0
  0
LINE
  5
9B
  8
DIMNSIONS
  6
CONTINUOUS
 62
     7
 10
-350.0
 20
75.0
 30
0.0
 11
-350.0
 21
71.0
 31
0.0
  0
LINE
  5
9C
  8
DIMNSIONS
  6
CONTINUOUS
 62
     7
 10
-350.0
 20
71.0
 30
0.0
 11
-350.0
 21
50.152777777777779
 31
0.0
  0
LINE
  5
9D
  8
DIMNSIONS
  6
CONTINUOUS
 62
     7
 10
-350.0
 20
71.0
 30
0.0
 11
-345.30972143394831
 21
53.495642089843763
 31
0.0
  0
LINE
  5
9E
  8
DIMNSIONS
  6
CONTINUOUS
 62
     7
 10
-350.0
 20
71.0
 30
0.0
 11
-354.69027856605169
 21
53.495642089843763
 31
0.0
  0
LINE
  5
9F
  8
DIMNSIONS
  6
CONTINUOUS
 62
     7
 10
-350.0
 20
75.0
 30
0.0
 11
-350.0
 21
110.0
 31
0.0
  0
LINE
  5
A0
  8
DIMNSIONS
  6
CONTINUOUS
 62
     7
 10
-350.0
 20
75.0
 30
0.0
 11
-354.69027856605169
 21
92.504357910156244
 31
0.0
  0
LINE
  5
A1
  8
DIMNSIONS
  6
CONTINUOUS
 62
     7
 10
-350.0
 20
75.0
 30
0.0
 11
-345.30972143394831
 21
92.504357910156244
 31
0.0
  0
TEXT
  5
A2
  8
DIMNSIONS
 62
     7
 10
-356.9572222222223
 20
50.152777777777779
 30
0.0
 40
19.003146701388879
  1
4
 50
90.0
 41
0.7
 11
-375.9603689236111
 21
50.152777777777779
 31
0.0
 73
     3
  0
LINE
  5
A3
  8
DIMNSIONS
  6
CONTINUOUS
 62
     7
 10
-314.0
 20
281.0
 30
0.0
 11
-364.0
 21
281.0
 31
0.0
  0
LINE
  5
A4
  8
DIMNSIONS
  6
CONTINUOUS
 62
     7
 10
97.027160410671556
 20
287.0
 30
0.0
 11
-364.0
 21
287.0
 31
0.0
  0
LINE
  5
A5
  8
DIMNSIONS
  6
CONTINUOUS
 62
     7
 10
-350.0
 20
287.0
 30
0.0
 11
-350.0
 21
281.0
 31
0.0
  0
LINE
  5
A6
  8
DIMNSIONS
  6
CONTINUOUS
 62
     7
 10
-350.0
 20
281.0
 30
0.0
 11
-350.0
 21
246.0
 31
0.0
  0
LINE
  5
A7
  8
DIMNSIONS
  6
CONTINUOUS
 62
     7
 10
-350.0
 20
281.0
 30
0.0
 11
-345.30972143394831
 21
263.49564208984373
 31
0.0
  0
LINE
  5
A8
  8
DIMNSIONS
  6
CONTINUOUS
 62
     7
 10
-350.0
 20
281.0
 30
0.0
 11
-354.69027856605169
 21
263.49564208984373
 31
0.0
  0
LINE
  5
A9
  8
DIMNSIONS
  6
CONTINUOUS
 62
     7
 10
-350.0
 20
287.0
 30
0.0
 11
-350.0
 21
312.34722222222217
 31
0.0
  0
LINE
  5
AA
  8
DIMNSIONS
  6
CONTINUOUS
 62
     7
 10
-350.0
 20
287.0
 30
0.0
 11
-354.69027856605169
 21
304.50435791015627
 31
0.0
  0
LINE
  5
AB
  8
DIMNSIONS
  6
CONTINUOUS
 62
     7
 10
-350.0
 20
287.0
 30
0.0
 11
-345.30972143394831
 21
304.50435791015627
 31
0.0
  0
TEXT
  5
AC
  8
DIMNSIONS
 62
     7
 10
-356.9572222222223
 20
300.0
 30
0.0
 40
19.003146701388879
  1
6
 50
90.0
 41
0.7
 11
-375.9603689236111
 21
300.0
 31
0.0
 73
     3
  0
LINE
  5
AD
  8
DIMNSIONS
  6
CONTINUOUS
 62
     7
 10
-314.0
 20
-425.0
 30
0.0
 11
-364.0
 21
-425.0
 31
0.0
  0
LINE
  5
AE
  8
DIMNSIONS
  6
CONTINUOUS
 62
     7
 10
-314.0
 20
-294.0
 30
0.0
 11
-364.0
 21
-294.0
 31
0.0
  0
LINE
  5
AF
  8
DIMNSIONS
  6
CONTINUOUS
 62
     7
 10
-350.0
 20
-425.0
 30
0.0
 11
-350.0
 21
-294.0
 31
0.0
  0
LINE
  5
B0
  8
DIMNSIONS
  6
CONTINUOUS
 62
     7
 10
-350.0
 20
-425.0
 30
0.0
 11
-354.69027856605169
 21
-407.49564208984361
 31
0.0
  0
LINE
  5
B1
  8
DIMNSIONS
  6
CONTINUOUS
 62
     7
 10
-350.0
 20
-425.0
 30
0.0
 11
-345.30972143394831
 21
-407.49564208984361
 31
0.0
  0
LINE
  5
B2
  8
DIMNSIONS
  6
CONTINUOUS
 62
     7
 10
-350.0
 20
-294.0
 30
0.0
 11
-345.30972143394831
 21
-311.50435791015627
 31
0.0
  0
LINE
  5
B3
  8
DIMNSIONS
  6
CONTINUOUS
 62
     7
 10
-350.0
 20
-294.0
 30
0.0
 11
-354.69027856605169
 21
-311.50435791015627
 31
0.0
  0
TEXT
  5
B4
  8
DIMNSIONS
 62
     7
 10
-356.9572222222223
 20
-378.02083333333343
 30
0.0
 40
19.003146701388879
  1
131
 50
90.0
 41
0.7
 11
-375.9603689236111
 21
-378.02083333333343
 31
0.0
 73
     3
  0
LINE
  5
B5
  8
DIMNSIONS
  6
CONTINUOUS
 62
     7
 10
-300.0
 20
-514.0
 30
0.0
 11
-300.0
 21
-564.0
 31
0.0
  0
LINE
  5
B6
  8
DIMNSIONS
  6
CONTINUOUS
 62
     7
 10
135.0
 20
-514.0
 30
0.0
 11
135.0
 21
-564.0
 31
0.0
  0
LINE
  5
B7
  8
DIMNSIONS
  6
CONTINUOUS
 62
     7
 10
-300.0
 20
-550.0
 30
0.0
 11
135.0
 21
-550.0
 31
0.0
  0
LINE
  5
B8
  8
DIMNSIONS
  6
CONTINUOUS
 62
     7
 10
-300.0
 20
-550.0
 30
0.0
 11
-282.49564208984373
 21
-545.30972143394831
 31
0.0
  0
LINE
  5
B9
  8
DIMNSIONS
  6
CONTINUOUS
 62
     7
 10
-300.0
 20
-550.0
 30
0.0
 11
-282.49564208984373
 21
-554.69027856605169
 31
0.0
  0
LINE
  5
BA
  8
DIMNSIONS
  6
CONTINUOUS
 62
     7
 10
135.0
 20
-550.0
 30
0.0
 11
117.4956420898437
 21
-554.69027856605169
 31
0.0
  0
LINE
  5
BB
  8
DIMNSIONS
  6
CONTINUOUS
 62
     7
 10
135.0
 20
-550.0
 30
0.0
 11
117.4956420898437
 21
-545.30972143394831
 31
0.0
  0
TEXT
  5
BC
  8
DIMNSIONS
 62
     7
 10
-101.0208333333333
 20
-543.04277777777781
 30
0.0
 40
19.003146701388879
  1
435
 41
0.7
 11
-101.0208333333333
 21
-524.03963107638879
 31
0.0
 73
     3
  0
LINE
  5
BD
  8
DIMNSIONS
  6
CONTINUOUS
 62
     7
 10
-314.0
 20
-500.0
 30
0.0
 11
-364.0
 21
-500.0
 31
0.0
  0
LINE
  5
BE
  8
DIMNSIONS
  6
CONTINUOUS
 62
     7
 10
-314.0
 20
-456.0
 30
0.0
 11
-364.0
 21
-456.0
 31
0.0
  0
LINE
  5
BF
  8
DIMNSIONS
  6
CONTINUOUS
 62
     7
 10
-350.0
 20
-500.0
 30
0.0
 11
-350.0
 21
-456.0
 31
0.0
  0
LINE
  5
C0
  8
DIMNSIONS
  6
CONTINUOUS
 62
     7
 10
-350.0
 20
-500.0
 30
0.0
 11
-354.69027856605169
 21
-482.49564208984373
 31
0.0
  0
LINE
  5
C1
  8
DIMNSIONS
  6
CONTINUOUS
 62
     7
 10
-350.0
 20
-500.0
 30
0.0
 11
-345.30972143394831
 21
-482.49564208984373
 31
0.0
  0
LINE
  5
C2
  8
DIMNSIONS
  6
CONTINUOUS
 62
     7
 10
-350.0
 20
-456.0
 30
0.0
 11
-345.30972143394831
 21
-473.50435791015627
 31
0.0
  0
LINE
  5
C3
  8
DIMNSIONS
  6
CONTINUOUS
 62
     7
 10
-350.0
 20
-456.0
 30
0.0
 11
-354.69027856605169
 21
-473.50435791015627
 31
0.0
  0
TEXT
  5
C4
  8
DIMNSIONS
 62
     7
 10
-356.9572222222223
 20
-490.34722222222217
 30
0.0
 40
19.003146701388879
  1
44
 50
90.0
 41
0.7
 11
-375.9603689236111
 21
-490.34722222222217
 31
0.0
 73
     3
  0
LINE
  5
C5
  8
DIMNSIONS
  6
CONTINUOUS
 62
     7
 10
-306.0
 20
-504.0
 30
0.0
 11
-364.0
 21
-504.0
 31
0.0
  0
LINE
  5
C6
  8
DIMNSIONS
  6
CONTINUOUS
 62
     7
 10
-314.0
 20
-500.0
 30
0.0
 11
-364.0
 21
-500.0
 31
0.0
  0
LINE
  5
C7
  8
DIMNSIONS
  6
CONTINUOUS
 62
     7
 10
-350.0
 20
-500.0
 30
0.0
 11
-350.0
 21
-504.0
 31
0.0
  0
LINE
  5
C8
  8
DIMNSIONS
  6
CONTINUOUS
 62
     7
 10
-350.0
 20
-504.0
 30
0.0
 11
-350.0
 21
-524.84722222222206
 31
0.0
  0
LINE
  5
C9
  8
DIMNSIONS
  6
CONTINUOUS
 62
     7
 10
-350.0
 20
-504.0
 30
0.0
 11
-345.30972143394831
 21
-521.50435791015616
 31
0.0
  0
LINE
  5
CA
  8
DIMNSIONS
  6
CONTINUOUS
 62
     7
 10
-350.0
 20
-504.0
 30
0.0
 11
-354.69027856605169
 21
-521.50435791015616
 31
0.0
  0
LINE
  5
CB
  8
DIMNSIONS
  6
CONTINUOUS
 62
     7
 10
-350.0
 20
-500.0
 30
0.0
 11
-350.0
 21
-465.0
 31
0.0
  0
LINE
  5
CC
  8
DIMNSIONS
  6
CONTINUOUS
 62
     7
 10
-350.0
 20
-500.0
 30
0.0
 11
-354.69027856605169
 21
-482.49564208984373
 31
0.0
  0
LINE
  5
CD
  8
DIMNSIONS
  6
CONTINUOUS
 62
     7
 10
-350.0
 20
-500.0
 30
0.0
 11
-345.30972143394831
 21
-482.49564208984373
 31
0.0
  0
TEXT
  5
CE
  8
DIMNSIONS
 62
     7
 10
-356.9572222222223
 20
-524.84722222222206
 30
0.0
 40
19.003146701388879
  1
4
 50
90.0
 41
0.7
 11
-375.9603689236111
 21
-524.84722222222206
 31
0.0
 73
     3
  0
LINE
  5
CF
  8
DIMNSIONS
  6
CONTINUOUS
 62
     7
 10
-314.0
 20
-294.0
 30
0.0
 11
-364.0
 21
-294.0
 31
0.0
  0
LINE
  5
D0
  8
DIMNSIONS
  6
CONTINUOUS
 62
     7
 10
97.027160410671556
 20
-288.0
 30
0.0
 11
-364.0
 21
-288.0
 31
0.0
  0
LINE
  5
D1
  8
DIMNSIONS
  6
CONTINUOUS
 62
     7
 10
-350.0
 20
-288.0
 30
0.0
 11
-350.0
 21
-294.0
 31
0.0
  0
LINE
  5
D2
  8
DIMNSIONS
  6
CONTINUOUS
 62
     7
 10
-350.0
 20
-294.0
 30
0.0
 11
-350.0
 21
-329.0
 31
0.0
  0
LINE
  5
D3
  8
DIMNSIONS
  6
CONTINUOUS
 62
     7
 10
-350.0
 20
-294.0
 30
0.0
 11
-345.30972143394831
 21
-311.50435791015627
 31
0.0
  0
LINE
  5
D4
  8
DIMNSIONS
  6
CONTINUOUS
 62
     7
 10
-350.0
 20
-294.0
 30
0.0
 11
-354.69027856605169
 21
-311.50435791015627
 31
0.0
  0
LINE
  5
D5
  8
DIMNSIONS
  6
CONTINUOUS
 62
     7
 10
-350.0
 20
-288.0
 30
0.0
 11
-350.0
 21
-262.65277777777783
 31
0.0
  0
LINE
  5
D6
  8
DIMNSIONS
  6
CONTINUOUS
 62
     7
 10
-350.0
 20
-288.0
 30
0.0
 11
-354.69027856605169
 21
-270.49564208984373
 31
0.0
  0
LINE
  5
D7
  8
DIMNSIONS
  6
CONTINUOUS
 62
     7
 10
-350.0
 20
-288.0
 30
0.0
 11
-345.30972143394831
 21
-270.49564208984373
 31
0.0
  0
TEXT
  5
D8
  8
DIMNSIONS
 62
     7
 10
-356.9572222222223
 20
-275.0
 30
0.0
 40
19.003146701388879
  1
6
 50
90.0
 41
0.7
 11
-375.9603689236111
 21
-275.0
 31
0.0
 73
     3
  0
TEXT
  5
D9
  8
DATA
 62
     7
 10
450.0
 20
-671.55324050238607
 30
0.0
 40
17.102832031249999
  1
EXT-CAT5-1600A
 41
0.7
 11
450.0
 21
-654.45040847113603
 31
0.0
 73
     3
  0
TEXT
  5
DA
  8
DATA
 62
     7
 10
450.0
 20
-614.08305957253435
 30
0.0
 40
17.102832031249999
  1
Gefen
 41
0.7
 11
450.0
 21
-596.98022754128442
 31
0.0
 73
     3
  0
TEXT
  5
DB
  8
DATA
 62
     7
 10
442.80798128973652
 20
-640.81024608729069
 30
0.0
 40
11.401905976562499
  1
KVM延長機
 41
0.7
 11
442.80798128973652
 21
-629.4083401107282
 31
0.0
 73
     3
  0
TEXT
  5
DC
  8
DATA
 62
     7
 10
-459.99999999999989
 20
-719.13211263080461
 30
0.0
 40
11.401888020833329
  1
仕様および外観は予告なく変更されることがありますので、ご了承ください。
 41
0.7
 11
-459.99999999999989
 21
-707.73022460997117
 31
0.0
 73
     3
  0
LINE
  5
DD
  8
DATA
  6
CONTINUOUS
 62
     7
 10
-300.0
 20
150.0
 30
0.0
 11
-300.0
 21
281.0
 31
0.0
  0
LINE
  5
DE
  8
DATA
  6
CONTINUOUS
 62
     7
 10
135.0
 20
150.0
 30
0.0
 11
-300.0
 21
150.0
 31
0.0
  0
LINE
  5
DF
  8
DATA
  6
CONTINUOUS
 62
     7
 10
135.0
 20
281.0
 30
0.0
 11
135.0
 21
150.0
 31
0.0
  0
LINE
  5
E0
  8
DATA
  6
CONTINUOUS
 62
     7
 10
-300.0
 20
281.0
 30
0.0
 11
135.0
 21
281.0
 31
0.0
  0
LINE
  5
E1
  8
DATA
  6
CONTINUOUS
 62
     7
 10
-300.0
 20
75.0
 30
0.0
 11
-300.0
 21
119.0
 31
0.0
  0
LINE
  5
E2
  8
DATA
  6
CONTINUOUS
 62
     7
 10
135.0
 20
75.0
 30
0.0
 11
-300.0
 21
75.0
 31
0.0
  0
LINE
  5
E3
  8
DATA
  6
CONTINUOUS
 62
     7
 10
135.0
 20
119.0
 30
0.0
 11
135.0
 21
75.0
 31
0.0
  0
LINE
  5
E4
  8
DATA
  6
CONTINUOUS
 62
     7
 10
-300.0
 20
119.0
 30
0.0
 11
135.0
 21
119.0
 31
0.0
  0
LINE
  5
E5
  8
DATA
  6
CONTINUOUS
 62
     7
 10
-292.0
 20
71.0
 30
0.0
 11
-294.0
 21
75.0
 31
0.0
  0
LINE
  5
E6
  8
DATA
  6
CONTINUOUS
 62
     7
 10
-277.0
 20
71.0
 30
0.0
 11
-275.0
 21
75.0
 31
0.0
  0
LINE
  5
E7
  8
DATA
  6
CONTINUOUS
 62
     7
 10
-292.0
 20
71.0
 30
0.0
 11
-277.0
 21
71.0
 31
0.0
  0
LINE
  5
E8
  8
DATA
  6
CONTINUOUS
 62
     7
 10
127.0
 20
71.0
 30
0.0
 11
129.0
 21
75.0
 31
0.0
  0
LINE
  5
E9
  8
DATA
  6
CONTINUOUS
 62
     7
 10
112.0
 20
71.0
 30
0.0
 11
110.0
 21
75.0
 31
0.0
  0
LINE
  5
EA
  8
DATA
  6
CONTINUOUS
 62
     7
 10
127.0
 20
71.0
 30
0.0
 11
112.0
 21
71.0
 31
0.0
  0
CIRCLE
  5
EB
  8
DATA
  6
CONTINUOUS
 62
     7
 10
112.0
 20
88.0
 30
0.0
 40
1.5
  0
TEXT
  5
EC
  8
DATA
 62
     7
 10
107.5068049067787
 20
78.474785057548374
 30
0.0
 40
3.0405034722222211
  1
Power
 41
0.7
 11
107.5068049067787
 21
81.515288529770601
 31
0.0
 73
     3
  0
TEXT
  5
ED
  8
DATA
 62
     7
 10
-18.153751069617432
 20
103.6449925067047
 30
0.0
 40
9.5015733506944446
  1
CAT5-1600A Extender S
 41
0.7
 11
-18.153751069617432
 21
113.1465658573992
 31
0.0
 73
     3
  0
TEXT
  5
EE
  8
DATA
 62
     7
 10
81.173940028904951
 20
94.171745072819888
 30
0.0
 40
5.4729062500000003
  1
VGA・USB
 41
0.7
 11
81.173940028904951
 21
99.644651322819882
 31
0.0
 73
     3
  0
LINE
  5
EF
  8
DATA
  6
CONTINUOUS
 62
     7
 10
135.0
 20
159.09999999999999
 30
0.0
 11
-300.0
 21
159.09999999999999
 31
0.0
  0
LINE
  5
F0
  8
DATA
  6
CONTINUOUS
 62
     7
 10
-300.0
 20
356.50000000011789
 30
0.0
 11
-300.0
 21
314.50000000011789
 31
0.0
  0
LINE
  5
F1
  8
DATA
  6
CONTINUOUS
 62
     7
 10
135.0
 20
356.50000000011789
 30
0.0
 11
-300.0
 21
356.50000000011789
 31
0.0
  0
LINE
  5
F2
  8
DATA
  6
CONTINUOUS
 62
     7
 10
135.0
 20
314.50000000011789
 30
0.0
 11
135.0
 21
356.50000000011789
 31
0.0
  0
LINE
  5
F3
  8
DATA
  6
CONTINUOUS
 62
     7
 10
-298.0
 20
312.50000000011789
 30
0.0
 11
133.0
 21
312.50000000011789
 31
0.0
  0
LINE
  5
F4
  8
DATA
  6
CONTINUOUS
 62
     7
 10
-292.0
 20
360.50000000011778
 30
0.0
 11
-294.0
 21
356.50000000011789
 31
0.0
  0
LINE
  5
F5
  8
DATA
  6
CONTINUOUS
 62
     7
 10
-277.0
 20
360.50000000011778
 30
0.0
 11
-275.0
 21
356.50000000011789
 31
0.0
  0
LINE
  5
F6
  8
DATA
  6
CONTINUOUS
 62
     7
 10
-292.0
 20
360.50000000011778
 30
0.0
 11
-277.0
 21
360.50000000011778
 31
0.0
  0
LINE
  5
F7
  8
DATA
  6
CONTINUOUS
 62
     7
 10
127.0
 20
360.50000000011778
 30
0.0
 11
129.0
 21
356.50000000011789
 31
0.0
  0
LINE
  5
F8
  8
DATA
  6
CONTINUOUS
 62
     7
 10
112.0
 20
360.50000000011778
 30
0.0
 11
110.0
 21
356.50000000011789
 31
0.0
  0
LINE
  5
F9
  8
DATA
  6
CONTINUOUS
 62
     7
 10
127.0
 20
360.50000000011778
 30
0.0
 11
112.0
 21
360.50000000011778
 31
0.0
  0
ARC
  5
FA
  8
DATA
  6
CONTINUOUS
 62
     7
 10
112.0
 20
150.6258907511785
 30
0.0
 40
1.499999999999976
 50
204.6617518669203
 51
335.33824813307967
  0
TEXT
  5
FB
  8
DATA
 62
     7
 10
-262.01156984201327
 20
353.60120631202722
 30
0.0
 40
2.5409921875000001
  1
USB Link
 50
180.0
 41
0.7
 11
-262.01156984201327
 21
351.06021412452719
 31
0.0
 73
     3
  0
LINE
  5
FC
  8
DATA
  6
CONTINUOUS
 62
     7
 10
-276.50641309576042
 20
332.12326865811201
 30
0.0
 11
-276.50641309576042
 21
345.4232686581127
 31
0.0
  0
LINE
  5
FD
  8
DATA
  6
CONTINUOUS
 62
     7
 10
-260.80641309576032
 20
332.12326865811201
 30
0.0
 11
-260.80641309576032
 21
345.4232686581127
 31
0.0
  0
LINE
  5
FE
  8
DATA
  6
CONTINUOUS
 62
     7
 10
-260.80641309576032
 20
345.4232686581127
 30
0.0
 11
-276.50641309576042
 21
345.4232686581127
 31
0.0
  0
LINE
  5
FF
  8
DATA
  6
CONTINUOUS
 62
     7
 10
-260.80641309576032
 20
332.12326865811201
 30
0.0
 11
-276.50641309576042
 21
332.12326865811201
 31
0.0
  0
LINE
  5
100
  8
DATA
  6
CONTINUOUS
 62
     7
 10
-262.50641309576042
 20
335.12326865811212
 30
0.0
 11
-274.80641309576032
 21
335.12326865811212
 31
0.0
  0
LINE
  5
101
  8
DATA
  6
CONTINUOUS
 62
     7
 10
-262.50641309576042
 20
335.12326865811212
 30
0.0
 11
-262.50641309576042
 21
342.4232686581127
 31
0.0
  0
LINE
  5
102
  8
DATA
  6
CONTINUOUS
 62
     7
 10
-274.80641309576032
 20
335.12326865811212
 30
0.0
 11
-274.80641309576032
 21
342.4232686581127
 31
0.0
  0
LINE
  5
103
  8
DATA
  6
CONTINUOUS
 62
     7
 10
-266.43141309576032
 20
345.4232686581127
 30
0.0
 11
-266.43141309576032
 21
343.9232686581127
 31
0.0
  0
LINE
  5
104
  8
DATA
  6
CONTINUOUS
 62
     7
 10
-270.88141309576042
 20
343.9232686581127
 30
0.0
 11
-270.88141309576042
 21
345.4232686581127
 31
0.0
  0
LINE
  5
105
  8
DATA
  6
CONTINUOUS
 62
     7
 10
-265.30641309576032
 20
343.9232686581127
 30
0.0
 11
-266.43141309576032
 21
343.9232686581127
 31
0.0
  0
LINE
  5
106
  8
DATA
  6
CONTINUOUS
 62
     7
 10
-270.88141309576042
 20
343.9232686581127
 30
0.0
 11
-272.00641309576042
 21
343.9232686581127
 31
0.0
  0
LINE
  5
107
  8
DATA
  6
CONTINUOUS
 62
     7
 10
-262.50641309576042
 20
342.4232686581127
 30
0.0
 11
-265.30641309576032
 21
342.4232686581127
 31
0.0
  0
LINE
  5
108
  8
DATA
  6
CONTINUOUS
 62
     7
 10
-272.00641309576042
 20
342.4232686581127
 30
0.0
 11
-274.80641309576032
 21
342.4232686581127
 31
0.0
  0
LINE
  5
109
  8
DATA
  6
CONTINUOUS
 62
     7
 10
-265.30641309576032
 20
343.9232686581127
 30
0.0
 11
-265.30641309576032
 21
342.4232686581127
 31
0.0
  0
LINE
  5
10A
  8
DATA
  6
CONTINUOUS
 62
     7
 10
-272.00641309576042
 20
342.4232686581127
 30
0.0
 11
-272.00641309576042
 21
343.9232686581127
 31
0.0
  0
TEXT
  5
10B
  8
DATA
 62
     7
 10
-263.91022307481728
 20
329.91365068336262
 30
0.0
 40
2.7950914062500001
  1
CAT-5
 50
180.0
 41
0.7
 11
-263.91022307481728
 21
327.11855927711258
 31
0.0
 73
     3
  0
CIRCLE
  5
10C
  8
DATA
  6
CONTINUOUS
 62
     7
 10
-288.0
 20
341.50000000011789
 30
0.0
 40
3.6000000000000218
  0
LINE
  5
10D
  8
DATA
  6
CONTINUOUS
 62
     7
 10
-286.17517124102682
 20
341.50000000011789
 30
0.0
 11
-289.82482875897318
 21
341.50000000011789
 31
0.0
  0
LINE
  5
10E
  8
DATA
  6
CONTINUOUS
 62
     7
 10
-288.0
 20
339.67517124114482
 30
0.0
 11
-288.0
 21
343.32482875909108
 31
0.0
  0
LINE
  5
10F
  8
DATA
  6
CONTINUOUS
 62
     7
 10
-222.0
 20
345.48786077326997
 30
0.0
 11
-222.0
 21
334.48786077327088
 31
0.0
  0
LINE
  5
110
  8
DATA
  6
CONTINUOUS
 62
     7
 10
-235.0
 20
345.48786077326997
 30
0.0
 11
-222.0
 21
345.48786077326997
 31
0.0
  0
LINE
  5
111
  8
DATA
  6
CONTINUOUS
 62
     7
 10
-235.0
 20
334.48786077327088
 30
0.0
 11
-235.0
 21
345.48786077326997
 31
0.0
  0
LINE
  5
112
  8
DATA
  6
CONTINUOUS
 62
     7
 10
-222.0
 20
334.48786077327088
 30
0.0
 11
-235.0
 21
334.48786077327088
 31
0.0
  0
POLYLINE
  5
113
  8
DATA
  6
CONTINUOUS
 62
     7
 66
     1
 10
0.0
 20
0.0
 30
0.0
 70
     1
  0
VERTEX
  5
66A
  8
DATA
  6
CONTINUOUS
 62
     7
 10
-231.03572833618489
 20
341.48786077326997
 30
0.0
  0
VERTEX
  5
66B
  8
DATA
  6
CONTINUOUS
 62
     7
 10
-225.53572833618489
 20
341.48786077326997
 30
0.0
  0
VERTEX
  5
66C
  8
DATA
  6
CONTINUOUS
 62
     7
 10
-225.53572833618489
 20
338.48786077327043
 30
0.0
  0
VERTEX
  5
66D
  8
DATA
  6
CONTINUOUS
 62
     7
 10
-231.03572833618489
 20
338.48786077327043
 30
0.0
  0
SEQEND
  5
66E
  8
DATA
  6
CONTINUOUS
 62
     7
  0
LINE
  5
11A
  8
DATA
  6
CONTINUOUS
 62
     7
 10
-223.69999999999999
 20
336.1878607732707
 30
0.0
 11
-233.30000000000001
 21
336.1878607732707
 31
0.0
  0
LINE
  5
11B
  8
DATA
  6
CONTINUOUS
 62
     7
 10
-223.69999999999999
 20
342.48786077326997
 30
0.0
 11
-223.69999999999999
 21
336.1878607732707
 31
0.0
  0
LINE
  5
11C
  8
DATA
  6
CONTINUOUS
 62
     7
 10
-233.30000000000001
 20
336.1878607732707
 30
0.0
 11
-233.30000000000001
 21
342.48786077326997
 31
0.0
  0
LINE
  5
11D
  8
DATA
  6
CONTINUOUS
 62
     7
 10
-231.80000000000001
 20
343.98786077326997
 30
0.0
 11
-225.19999999999999
 21
343.98786077326997
 31
0.0
  0
LINE
  5
11E
  8
DATA
  6
CONTINUOUS
 62
     7
 10
-225.19999999999999
 20
343.98786077326997
 30
0.0
 11
-223.69999999999999
 21
342.48786077326997
 31
0.0
  0
LINE
  5
11F
  8
DATA
  6
CONTINUOUS
 62
     7
 10
-231.80000000000001
 20
343.98786077326997
 30
0.0
 11
-233.30000000000001
 21
342.48786077326997
 31
0.0
  0
TEXT
  5
120
  8
DATA
 62
     7
 10
-223.1644841112074
 20
353.60120631202722
 30
0.0
 40
2.5409921875000001
  1
USB In
 50
180.0
 41
0.7
 11
-223.1644841112074
 21
351.06021412452719
 31
0.0
 73
     3
  0
CIRCLE
  5
121
  8
DATA
  6
CONTINUOUS
 62
     7
 10
-255.0
 20
341.50000000011789
 30
0.0
 40
1.5
  0
TEXT
  5
122
  8
DATA
 62
     7
 10
-250.7127847743607
 20
353.60120631202722
 30
0.0
 40
2.5409921875000001
  1
HOST
 50
180.0
 41
0.7
 11
-250.7127847743607
 21
351.06021412452719
 31
0.0
 73
     3
  0
CIRCLE
  5
123
  8
DATA
  6
CONTINUOUS
 62
     7
 10
-190.0
 20
341.50000000011789
 30
0.0
 40
3.6000000000000218
  0
LINE
  5
124
  8
DATA
  6
CONTINUOUS
 62
     7
 10
-188.17517124102679
 20
341.50000000011789
 30
0.0
 11
-191.82482875897321
 21
341.50000000011789
 31
0.0
  0
LINE
  5
125
  8
DATA
  6
CONTINUOUS
 62
     7
 10
-190.0
 20
339.67517124114482
 30
0.0
 11
-190.0
 21
343.32482875909108
 31
0.0
  0
TEXT
  5
126
  8
DATA
 62
     7
 10
-3.2673886702348498
 20
353.60120631202722
 30
0.0
 40
2.5409921875000001
  1
 LINK
 50
180.0
 41
0.7
 11
-3.2673886702348511
 21
351.06021412452719
 31
0.0
 73
     3
  0
LINE
  5
127
  8
DATA
  6
CONTINUOUS
 62
     7
 10
-16.121979436622539
 20
332.12326865811201
 30
0.0
 11
-16.121979436622539
 21
345.4232686581127
 31
0.0
  0
LINE
  5
128
  8
DATA
  6
CONTINUOUS
 62
     7
 10
-0.4219794366224789
 20
332.12326865811201
 30
0.0
 11
-0.4219794366224789
 21
345.4232686581127
 31
0.0
  0
LINE
  5
129
  8
DATA
  6
CONTINUOUS
 62
     7
 10
-0.4219794366224789
 20
345.4232686581127
 30
0.0
 11
-16.121979436622539
 21
345.4232686581127
 31
0.0
  0
LINE
  5
12A
  8
DATA
  6
CONTINUOUS
 62
     7
 10
-0.4219794366224789
 20
332.12326865811201
 30
0.0
 11
-16.121979436622539
 21
332.12326865811201
 31
0.0
  0
LINE
  5
12B
  8
DATA
  6
CONTINUOUS
 62
     7
 10
-2.121979436622524
 20
335.12326865811212
 30
0.0
 11
-14.42197943662249
 21
335.12326865811212
 31
0.0
  0
LINE
  5
12C
  8
DATA
  6
CONTINUOUS
 62
     7
 10
-2.121979436622524
 20
335.12326865811212
 30
0.0
 11
-2.121979436622524
 21
342.4232686581127
 31
0.0
  0
LINE
  5
12D
  8
DATA
  6
CONTINUOUS
 62
     7
 10
-14.42197943662249
 20
335.12326865811212
 30
0.0
 11
-14.42197943662249
 21
342.4232686581127
 31
0.0
  0
LINE
  5
12E
  8
DATA
  6
CONTINUOUS
 62
     7
 10
-6.0469794366224932
 20
345.4232686581127
 30
0.0
 11
-6.0469794366224932
 21
343.9232686581127
 31
0.0
  0
LINE
  5
12F
  8
DATA
  6
CONTINUOUS
 62
     7
 10
-10.49697943662254
 20
343.9232686581127
 30
0.0
 11
-10.49697943662254
 21
345.4232686581127
 31
0.0
  0
LINE
  5
130
  8
DATA
  6
CONTINUOUS
 62
     7
 10
-4.9219794366224932
 20
343.9232686581127
 30
0.0
 11
-6.0469794366224932
 21
343.9232686581127
 31
0.0
  0
LINE
  5
131
  8
DATA
  6
CONTINUOUS
 62
     7
 10
-10.49697943662254
 20
343.9232686581127
 30
0.0
 11
-11.62197943662254
 21
343.9232686581127
 31
0.0
  0
LINE
  5
132
  8
DATA
  6
CONTINUOUS
 62
     7
 10
-2.121979436622524
 20
342.4232686581127
 30
0.0
 11
-4.9219794366224932
 21
342.4232686581127
 31
0.0
  0
LINE
  5
133
  8
DATA
  6
CONTINUOUS
 62
     7
 10
-11.62197943662254
 20
342.4232686581127
 30
0.0
 11
-14.42197943662249
 21
342.4232686581127
 31
0.0
  0
LINE
  5
134
  8
DATA
  6
CONTINUOUS
 62
     7
 10
-4.9219794366224932
 20
343.9232686581127
 30
0.0
 11
-4.9219794366224932
 21
342.4232686581127
 31
0.0
  0
LINE
  5
135
  8
DATA
  6
CONTINUOUS
 62
     7
 10
-11.62197943662254
 20
342.4232686581127
 30
0.0
 11
-11.62197943662254
 21
343.9232686581127
 31
0.0
  0
TEXT
  5
136
  8
DATA
 62
     7
 10
-3.525789415679454
 20
329.91365068336262
 30
0.0
 40
2.7950914062500001
  1
CAT-5
 50
180.0
 41
0.7
 11
-3.525789415679454
 21
327.11855927711258
 31
0.0
 73
     3
  0
CIRCLE
  5
137
  8
DATA
  6
CONTINUOUS
 62
     7
 10
13.49999999999998
 20
346.50000000011789
 30
0.0
 40
1.75
  0
CIRCLE
  5
138
  8
DATA
  6
CONTINUOUS
 62
     7
 10
13.49999999999998
 20
346.50000000011789
 30
0.0
 40
3.0
  0
CIRCLE
  5
139
  8
DATA
  6
CONTINUOUS
 62
     7
 10
115.0
 20
339.45996962487771
 30
0.0
 40
3.9000000000000048
  0
CIRCLE
  5
13A
  8
DATA
  6
CONTINUOUS
 62
     7
 10
115.0
 20
339.45996962487771
 30
0.0
 40
1.0
  0
POLYLINE
  5
13B
  8
DATA
  6
CONTINUOUS
 62
     7
 66
     1
 10
0.0
 20
0.0
 30
0.0
 70
     1
  0
VERTEX
  5
66F
  8
DATA
  6
CONTINUOUS
 62
     7
 10
112.3008874915385
 20
344.13496962487773
 30
0.0
  0
VERTEX
  5
670
  8
DATA
  6
CONTINUOUS
 62
     7
 10
109.60177498307689
 20
339.45996962487771
 30
0.0
  0
VERTEX
  5
671
  8
DATA
  6
CONTINUOUS
 62
     7
 10
112.3008874915385
 20
334.78496962487759
 30
0.0
  0
VERTEX
  5
672
  8
DATA
  6
CONTINUOUS
 62
     7
 10
117.6991125084615
 20
334.78496962487759
 30
0.0
  0
VERTEX
  5
673
  8
DATA
  6
CONTINUOUS
 62
     7
 10
120.39822501692301
 20
339.45996962487771
 30
0.0
  0
VERTEX
  5
674
  8
DATA
  6
CONTINUOUS
 62
     7
 10
117.6991125084615
 20
344.13496962487773
 30
0.0
  0
SEQEND
  5
675
  8
DATA
  6
CONTINUOUS
 62
     7
  0
POLYLINE
  5
144
  8
DATA
  6
CONTINUOUS
 62
     7
 66
     1
 10
0.0
 20
0.0
 30
0.0
 70
   129
  0
VERTEX
  5
676
  8
DATA
  6
CONTINUOUS
 62
     7
 10
90.559648167433167
 20
341.19232360614723
 30
0.0
 42
-0.4142135623730951
  0
VERTEX
  5
677
  8
DATA
  6
CONTINUOUS
 62
     7
 10
91.059648167433181
 20
341.69232360614723
 30
0.0
 42
-0.4142135623730868
  0
VERTEX
  5
678
  8
DATA
  6
CONTINUOUS
 62
     7
 10
91.559648167433195
 20
341.19232360614723
 30
0.0
 42
-0.4142135623730951
  0
VERTEX
  5
679
  8
DATA
  6
CONTINUOUS
 62
     7
 10
91.059648167433181
 20
340.69232360614723
 30
0.0
 42
-0.4142135623731035
  0
VERTEX
  5
67A
  8
DATA
  6
CONTINUOUS
 62
     7
 10
90.559648167433167
 20
341.19232360614723
 30
0.0
  0
SEQEND
  5
67B
  8
DATA
  6
CONTINUOUS
 62
     7
  0
LINE
  5
14B
  8
DATA
  6
CONTINUOUS
 62
     7
 10
81.129594053491488
 20
337.02232360614721
 30
0.0
 11
94.029594053491564
 21
337.02232360614721
 31
0.0
  0
LINE
  5
14C
  8
DATA
  6
CONTINUOUS
 62
     7
 10
81.506164053491503
 20
345.36232360614707
 30
0.0
 11
93.653034053491552
 21
345.36232360614707
 31
0.0
  0
POLYLINE
  5
14D
  8
DATA
  6
CONTINUOUS
 62
     7
 66
     1
 10
0.0
 20
0.0
 30
0.0
 70
   129
  0
VERTEX
  5
67C
  8
DATA
  6
CONTINUOUS
 62
     7
 10
88.27964816743318
 20
341.19232360614723
 30
0.0
 42
-0.4142135623730951
  0
VERTEX
  5
67D
  8
DATA
  6
CONTINUOUS
 62
     7
 10
88.77964816743318
 20
341.69232360614723
 30
0.0
 42
-0.4142135623731035
  0
VERTEX
  5
67E
  8
DATA
  6
CONTINUOUS
 62
     7
 10
89.279648167433166
 20
341.19232360614723
 30
0.0
 42
-0.4142135623730951
  0
VERTEX
  5
67F
  8
DATA
  6
CONTINUOUS
 62
     7
 10
88.77964816743318
 20
340.69232360614723
 30
0.0
 42
-0.4142135623730868
  0
VERTEX
  5
680
  8
DATA
  6
CONTINUOUS
 62
     7
 10
88.27964816743318
 20
341.19232360614723
 30
0.0
  0
SEQEND
  5
681
  8
DATA
  6
CONTINUOUS
 62
     7
  0
POLYLINE
  5
154
  8
DATA
  6
CONTINUOUS
 62
     7
 66
     1
 10
0.0
 20
0.0
 30
0.0
 70
   129
  0
VERTEX
  5
682
  8
DATA
  6
CONTINUOUS
 62
     7
 10
82.777579623107059
 20
343.17232360614719
 30
0.0
 42
-0.4142135623731284
  0
VERTEX
  5
683
  8
DATA
  6
CONTINUOUS
 62
     7
 10
83.277579623107044
 20
343.67232360614707
 30
0.0
 42
-0.4142135623730617
  0
VERTEX
  5
684
  8
DATA
  6
CONTINUOUS
 62
     7
 10
83.777579623107059
 20
343.17232360614719
 30
0.0
 42
-0.4142135623731284
  0
VERTEX
  5
685
  8
DATA
  6
CONTINUOUS
 62
     7
 10
83.277579623107044
 20
342.67232360614719
 30
0.0
 42
-0.4142135623730617
  0
VERTEX
  5
686
  8
DATA
  6
CONTINUOUS
 62
     7
 10
82.777579623107059
 20
343.17232360614719
 30
0.0
  0
SEQEND
  5
687
  8
DATA
  6
CONTINUOUS
 62
     7
  0
POLYLINE
  5
15B
  8
DATA
  6
CONTINUOUS
 62
     7
 66
     1
 10
0.0
 20
0.0
 30
0.0
 70
   129
  0
VERTEX
  5
688
  8
DATA
  6
CONTINUOUS
 62
     7
 10
85.067579623107093
 20
343.17232360614719
 30
0.0
 42
-0.4142135623731117
  0
VERTEX
  5
689
  8
DATA
  6
CONTINUOUS
 62
     7
 10
85.567579623107093
 20
343.67232360614707
 30
0.0
 42
-0.414213562373068
  0
VERTEX
  5
68A
  8
DATA
  6
CONTINUOUS
 62
     7
 10
86.067579623107093
 20
343.17232360614719
 30
0.0
 42
-0.4142135623731284
  0
VERTEX
  5
68B
  8
DATA
  6
CONTINUOUS
 62
     7
 10
85.567579623107093
 20
342.67232360614719
 30
0.0
 42
-0.4142135623730722
  0
VERTEX
  5
68C
  8
DATA
  6
CONTINUOUS
 62
     7
 10
85.067579623107093
 20
343.17232360614719
 30
0.0
  0
SEQEND
  5
68D
  8
DATA
  6
CONTINUOUS
 62
     7
  0
POLYLINE
  5
162
  8
DATA
  6
CONTINUOUS
 62
     7
 66
     1
 10
0.0
 20
0.0
 30
0.0
 70
   129
  0
VERTEX
  5
68E
  8
DATA
  6
CONTINUOUS
 62
     7
 10
87.357579623107142
 20
343.17232360614719
 30
0.0
 42
-0.4142135623731284
  0
VERTEX
  5
68F
  8
DATA
  6
CONTINUOUS
 62
     7
 10
87.857579623107142
 20
343.67232360614707
 30
0.0
 42
-0.4142135623730733
  0
VERTEX
  5
690
  8
DATA
  6
CONTINUOUS
 62
     7
 10
88.357579623107128
 20
343.17232360614719
 30
0.0
 42
-0.4142135623731117
  0
VERTEX
  5
691
  8
DATA
  6
CONTINUOUS
 62
     7
 10
87.857579623107142
 20
342.67232360614719
 30
0.0
 42
-0.4142135623730671
  0
VERTEX
  5
692
  8
DATA
  6
CONTINUOUS
 62
     7
 10
87.357579623107142
 20
343.17232360614719
 30
0.0
  0
SEQEND
  5
693
  8
DATA
  6
CONTINUOUS
 62
     7
  0
POLYLINE
  5
169
  8
DATA
  6
CONTINUOUS
 62
     7
 66
     1
 10
0.0
 20
0.0
 30
0.0
 70
   129
  0
VERTEX
  5
694
  8
DATA
  6
CONTINUOUS
 62
     7
 10
89.637579623107129
 20
343.17232360614719
 30
0.0
 42
-0.4142135623731117
  0
VERTEX
  5
695
  8
DATA
  6
CONTINUOUS
 62
     7
 10
90.137579623107143
 20
343.67232360614707
 30
0.0
 42
-0.4142135623730659
  0
VERTEX
  5
696
  8
DATA
  6
CONTINUOUS
 62
     7
 10
90.637579623107143
 20
343.17232360614719
 30
0.0
 42
-0.4142135623731284
  0
VERTEX
  5
697
  8
DATA
  6
CONTINUOUS
 62
     7
 10
90.137579623107143
 20
342.67232360614719
 30
0.0
 42
-0.4142135623730743
  0
VERTEX
  5
698
  8
DATA
  6
CONTINUOUS
 62
     7
 10
89.637579623107129
 20
343.17232360614719
 30
0.0
  0
SEQEND
  5
699
  8
DATA
  6
CONTINUOUS
 62
     7
  0
POLYLINE
  5
170
  8
DATA
  6
CONTINUOUS
 62
     7
 66
     1
 10
0.0
 20
0.0
 30
0.0
 70
   129
  0
VERTEX
  5
69A
  8
DATA
  6
CONTINUOUS
 62
     7
 10
82.777579623107059
 20
339.21232360614721
 30
0.0
 42
-0.4142135623730951
  0
VERTEX
  5
69B
  8
DATA
  6
CONTINUOUS
 62
     7
 10
83.277579623107044
 20
339.71232360614721
 30
0.0
 42
-0.4142135623731035
  0
VERTEX
  5
69C
  8
DATA
  6
CONTINUOUS
 62
     7
 10
83.777579623107059
 20
339.21232360614721
 30
0.0
 42
-0.4142135623730951
  0
VERTEX
  5
69D
  8
DATA
  6
CONTINUOUS
 62
     7
 10
83.277579623107044
 20
338.71232360614721
 30
0.0
 42
-0.4142135623730868
  0
VERTEX
  5
69E
  8
DATA
  6
CONTINUOUS
 62
     7
 10
82.777579623107059
 20
339.21232360614721
 30
0.0
  0
SEQEND
  5
69F
  8
DATA
  6
CONTINUOUS
 62
     7
  0
POLYLINE
  5
177
  8
DATA
  6
CONTINUOUS
 62
     7
 66
     1
 10
0.0
 20
0.0
 30
0.0
 70
   129
  0
VERTEX
  5
6A0
  8
DATA
  6
CONTINUOUS
 62
     7
 10
85.067579623107093
 20
339.21232360614721
 30
0.0
 42
-0.4142135623730951
  0
VERTEX
  5
6A1
  8
DATA
  6
CONTINUOUS
 62
     7
 10
85.567579623107093
 20
339.71232360614721
 30
0.0
 42
-0.4142135623730992
  0
VERTEX
  5
6A2
  8
DATA
  6
CONTINUOUS
 62
     7
 10
86.067579623107093
 20
339.21232360614721
 30
0.0
 42
-0.4142135623730951
  0
VERTEX
  5
6A3
  8
DATA
  6
CONTINUOUS
 62
     7
 10
85.567579623107093
 20
338.71232360614721
 30
0.0
 42
-0.414213562373091
  0
VERTEX
  5
6A4
  8
DATA
  6
CONTINUOUS
 62
     7
 10
85.067579623107093
 20
339.21232360614721
 30
0.0
  0
SEQEND
  5
6A5
  8
DATA
  6
CONTINUOUS
 62
     7
  0
POLYLINE
  5
17E
  8
DATA
  6
CONTINUOUS
 62
     7
 66
     1
 10
0.0
 20
0.0
 30
0.0
 70
   129
  0
VERTEX
  5
6A6
  8
DATA
  6
CONTINUOUS
 62
     7
 10
87.357579623107142
 20
339.21232360614721
 30
0.0
 42
-0.4142135623730951
  0
VERTEX
  5
6A7
  8
DATA
  6
CONTINUOUS
 62
     7
 10
87.857579623107142
 20
339.71232360614721
 30
0.0
 42
-0.4142135623730951
  0
VERTEX
  5
6A8
  8
DATA
  6
CONTINUOUS
 62
     7
 10
88.357579623107128
 20
339.21232360614721
 30
0.0
 42
-0.4142135623730951
  0
VERTEX
  5
6A9
  8
DATA
  6
CONTINUOUS
 62
     7
 10
87.857579623107142
 20
338.71232360614721
 30
0.0
 42
-0.4142135623730951
  0
VERTEX
  5
6AA
  8
DATA
  6
CONTINUOUS
 62
     7
 10
87.357579623107142
 20
339.21232360614721
 30
0.0
  0
SEQEND
  5
6AB
  8
DATA
  6
CONTINUOUS
 62
     7
  0
POLYLINE
  5
185
  8
DATA
  6
CONTINUOUS
 62
     7
 66
     1
 10
0.0
 20
0.0
 30
0.0
 70
   129
  0
VERTEX
  5
6AC
  8
DATA
  6
CONTINUOUS
 62
     7
 10
89.637579623107129
 20
339.21232360614721
 30
0.0
 42
-0.4142135623730951
  0
VERTEX
  5
6AD
  8
DATA
  6
CONTINUOUS
 62
     7
 10
90.137579623107143
 20
339.71232360614721
 30
0.0
 42
-0.4142135623730951
  0
VERTEX
  5
6AE
  8
DATA
  6
CONTINUOUS
 62
     7
 10
90.637579623107143
 20
339.21232360614721
 30
0.0
 42
-0.4142135623730951
  0
VERTEX
  5
6AF
  8
DATA
  6
CONTINUOUS
 62
     7
 10
90.137579623107143
 20
338.71232360614721
 30
0.0
 42
-0.4142135623730951
  0
VERTEX
  5
6B0
  8
DATA
  6
CONTINUOUS
 62
     7
 10
89.637579623107129
 20
339.21232360614721
 30
0.0
  0
SEQEND
  5
6B1
  8
DATA
  6
CONTINUOUS
 62
     7
  0
POLYLINE
  5
18C
  8
DATA
  6
CONTINUOUS
 62
     7
 66
     1
 10
0.0
 20
0.0
 30
0.0
 70
   129
  0
VERTEX
  5
6B2
  8
DATA
  6
CONTINUOUS
 62
     7
 10
81.419648167433166
 20
341.19232360614723
 30
0.0
 42
-0.4142135623730951
  0
VERTEX
  5
6B3
  8
DATA
  6
CONTINUOUS
 62
     7
 10
81.919648167433152
 20
341.69232360614723
 30
0.0
 42
-0.4142135623730868
  0
VERTEX
  5
6B4
  8
DATA
  6
CONTINUOUS
 62
     7
 10
82.419648167433152
 20
341.19232360614723
 30
0.0
 42
-0.4142135623730951
  0
VERTEX
  5
6B5
  8
DATA
  6
CONTINUOUS
 62
     7
 10
81.919648167433152
 20
340.69232360614723
 30
0.0
 42
-0.4142135623731035
  0
VERTEX
  5
6B6
  8
DATA
  6
CONTINUOUS
 62
     7
 10
81.419648167433166
 20
341.19232360614723
 30
0.0
  0
SEQEND
  5
6B7
  8
DATA
  6
CONTINUOUS
 62
     7
  0
POLYLINE
  5
193
  8
DATA
  6
CONTINUOUS
 62
     7
 66
     1
 10
0.0
 20
0.0
 30
0.0
 70
   129
  0
VERTEX
  5
6B8
  8
DATA
  6
CONTINUOUS
 62
     7
 10
83.699648167433125
 20
341.19232360614723
 30
0.0
 42
-0.4142135623730951
  0
VERTEX
  5
6B9
  8
DATA
  6
CONTINUOUS
 62
     7
 10
84.199648167433139
 20
341.69232360614723
 30
0.0
 42
-0.414213562373091
  0
VERTEX
  5
6BA
  8
DATA
  6
CONTINUOUS
 62
     7
 10
84.699648167433153
 20
341.19232360614723
 30
0.0
 42
-0.4142135623730951
  0
VERTEX
  5
6BB
  8
DATA
  6
CONTINUOUS
 62
     7
 10
84.199648167433139
 20
340.69232360614723
 30
0.0
 42
-0.4142135623730992
  0
VERTEX
  5
6BC
  8
DATA
  6
CONTINUOUS
 62
     7
 10
83.699648167433125
 20
341.19232360614723
 30
0.0
  0
SEQEND
  5
6BD
  8
DATA
  6
CONTINUOUS
 62
     7
  0
POLYLINE
  5
19A
  8
DATA
  6
CONTINUOUS
 62
     7
 66
     1
 10
0.0
 20
0.0
 30
0.0
 70
   129
  0
VERTEX
  5
6BE
  8
DATA
  6
CONTINUOUS
 62
     7
 10
85.989648167433174
 20
341.19232360614723
 30
0.0
 42
-0.4142135623730951
  0
VERTEX
  5
6BF
  8
DATA
  6
CONTINUOUS
 62
     7
 10
86.489648167433188
 20
341.69232360614723
 30
0.0
 42
-0.414213562373091
  0
VERTEX
  5
6C0
  8
DATA
  6
CONTINUOUS
 62
     7
 10
86.989648167433174
 20
341.19232360614723
 30
0.0
 42
-0.4142135623730951
  0
VERTEX
  5
6C1
  8
DATA
  6
CONTINUOUS
 62
     7
 10
86.489648167433188
 20
340.69232360614723
 30
0.0
 42
-0.4142135623730992
  0
VERTEX
  5
6C2
  8
DATA
  6
CONTINUOUS
 62
     7
 10
85.989648167433174
 20
341.19232360614723
 30
0.0
  0
SEQEND
  5
6C3
  8
DATA
  6
CONTINUOUS
 62
     7
  0
POLYLINE
  5
1A1
  8
DATA
  6
CONTINUOUS
 62
     7
 66
     1
 10
0.0
 20
0.0
 30
0.0
 70
   129
  0
VERTEX
  5
6C4
  8
DATA
  6
CONTINUOUS
 62
     7
 10
91.927579623107135
 20
343.17232360614719
 30
0.0
 42
-0.4142135623731284
  0
VERTEX
  5
6C5
  8
DATA
  6
CONTINUOUS
 62
     7
 10
92.427579623107121
 20
343.67232360614707
 30
0.0
 42
-0.4142135623730737
  0
VERTEX
  5
6C6
  8
DATA
  6
CONTINUOUS
 62
     7
 10
92.927579623107121
 20
343.17232360614719
 30
0.0
 42
-0.4142135623731117
  0
VERTEX
  5
6C7
  8
DATA
  6
CONTINUOUS
 62
     7
 10
92.427579623107121
 20
342.67232360614719
 30
0.0
 42
-0.4142135623730665
  0
VERTEX
  5
6C8
  8
DATA
  6
CONTINUOUS
 62
     7
 10
91.927579623107135
 20
343.17232360614719
 30
0.0
  0
SEQEND
  5
6C9
  8
DATA
  6
CONTINUOUS
 62
     7
  0
POLYLINE
  5
1A8
  8
DATA
  6
CONTINUOUS
 62
     7
 66
     1
 10
0.0
 20
0.0
 30
0.0
 70
   129
  0
VERTEX
  5
6CA
  8
DATA
  6
CONTINUOUS
 62
     7
 10
91.927579623107135
 20
339.21232360614721
 30
0.0
 42
-0.4142135623730951
  0
VERTEX
  5
6CB
  8
DATA
  6
CONTINUOUS
 62
     7
 10
92.427579623107121
 20
339.71232360614721
 30
0.0
 42
-0.414213562373093
  0
VERTEX
  5
6CC
  8
DATA
  6
CONTINUOUS
 62
     7
 10
92.927579623107121
 20
339.21232360614721
 30
0.0
 42
-0.4142135623730951
  0
VERTEX
  5
6CD
  8
DATA
  6
CONTINUOUS
 62
     7
 10
92.427579623107121
 20
338.71232360614721
 30
0.0
 42
-0.4142135623730971
  0
VERTEX
  5
6CE
  8
DATA
  6
CONTINUOUS
 62
     7
 10
91.927579623107135
 20
339.21232360614721
 30
0.0
  0
SEQEND
  5
6CF
  8
DATA
  6
CONTINUOUS
 62
     7
  0
ARC
  5
1AF
  8
DATA
  6
CONTINUOUS
 62
     7
 10
81.506164053491503
 20
343.86232360614707
 30
0.0
 40
1.499998001665289
 50
90.0
 51
170.0000744503985
  0
ARC
  5
1B0
  8
DATA
  6
CONTINUOUS
 62
     7
 10
81.129594053491488
 20
339.02232360614721
 30
0.0
 40
2.0
 50
180.0
 51
270.0
  0
LINE
  5
1B1
  8
DATA
  6
CONTINUOUS
 62
     7
 10
79.129594053491502
 20
339.02232360614721
 30
0.0
 11
80.028944053491514
 21
344.12279360614718
 31
0.0
  0
ARC
  5
1B2
  8
DATA
  6
CONTINUOUS
 62
     7
 10
93.653034053491552
 20
343.86232360614707
 30
0.0
 40
1.4999999999999989
 50
9.999925549599828
 51
90.0
  0
ARC
  5
1B3
  8
DATA
  6
CONTINUOUS
 62
     7
 10
94.029594053491564
 20
339.02232360614721
 30
0.0
 40
2.0
 50
270.0
 51
0.0
  0
LINE
  5
1B4
  8
DATA
  6
CONTINUOUS
 62
     7
 10
96.02959405349155
 20
339.02232360614721
 30
0.0
 11
95.13024405349158
 21
344.12279360614718
 31
0.0
  0
CIRCLE
  5
1B5
  8
DATA
  6
CONTINUOUS
 62
     7
 10
100.110895698866
 20
341.21003329775613
 30
0.0
 40
1.1750000000001211
  0
POLYLINE
  5
1B6
  8
DATA
  6
CONTINUOUS
 62
     7
 66
     1
 10
0.0
 20
0.0
 30
0.0
 70
     1
  0
VERTEX
  5
6D0
  8
DATA
  6
CONTINUOUS
 62
     7
 10
100.110895698866
 20
338.51003329775619
 30
0.0
  0
VERTEX
  5
6D1
  8
DATA
  6
CONTINUOUS
 62
     7
 10
97.772627108647924
 20
339.86003329775622
 30
0.0
  0
VERTEX
  5
6D2
  8
DATA
  6
CONTINUOUS
 62
     7
 10
97.772627108647924
 20
342.56003329775609
 30
0.0
  0
VERTEX
  5
6D3
  8
DATA
  6
CONTINUOUS
 62
     7
 10
100.110895698866
 20
343.910033297756
 30
0.0
  0
VERTEX
  5
6D4
  8
DATA
  6
CONTINUOUS
 62
     7
 10
102.4491642890841
 20
342.56003329775609
 30
0.0
  0
VERTEX
  5
6D5
  8
DATA
  6
CONTINUOUS
 62
     7
 10
102.4491642890841
 20
339.86003329775622
 30
0.0
  0
SEQEND
  5
6D6
  8
DATA
  6
CONTINUOUS
 62
     7
  0
CIRCLE
  5
1BF
  8
DATA
  6
CONTINUOUS
 62
     7
 10
75.11089569886559
 20
341.21003329775613
 30
0.0
 40
1.1750000000001251
  0
POLYLINE
  5
1C0
  8
DATA
  6
CONTINUOUS
 62
     7
 66
     1
 10
0.0
 20
0.0
 30
0.0
 70
     1
  0
VERTEX
  5
6D7
  8
DATA
  6
CONTINUOUS
 62
     7
 10
75.11089569886559
 20
338.51003329775619
 30
0.0
  0
VERTEX
  5
6D8
  8
DATA
  6
CONTINUOUS
 62
     7
 10
72.772627108647626
 20
339.86003329775622
 30
0.0
  0
VERTEX
  5
6D9
  8
DATA
  6
CONTINUOUS
 62
     7
 10
72.772627108647626
 20
342.56003329775609
 30
0.0
  0
VERTEX
  5
6DA
  8
DATA
  6
CONTINUOUS
 62
     7
 10
75.11089569886559
 20
343.910033297756
 30
0.0
  0
VERTEX
  5
6DB
  8
DATA
  6
CONTINUOUS
 62
     7
 10
77.449164289083697
 20
342.56003329775609
 30
0.0
  0
VERTEX
  5
6DC
  8
DATA
  6
CONTINUOUS
 62
     7
 10
77.449164289083697
 20
339.86003329775622
 30
0.0
  0
SEQEND
  5
6DD
  8
DATA
  6
CONTINUOUS
 62
     7
  0
POLYLINE
  5
1C9
  8
DATA
  6
CONTINUOUS
 62
     7
 66
     1
 10
0.0
 20
0.0
 30
0.0
 70
   129
  0
VERTEX
  5
6DE
  8
DATA
  6
CONTINUOUS
 62
     7
 10
50.559648167433167
 20
341.19232360614723
 30
0.0
 42
-0.4142135623730951
  0
VERTEX
  5
6DF
  8
DATA
  6
CONTINUOUS
 62
     7
 10
51.059648167433167
 20
341.69232360614723
 30
0.0
 42
-0.4142135623730868
  0
VERTEX
  5
6E0
  8
DATA
  6
CONTINUOUS
 62
     7
 10
51.559648167433167
 20
341.19232360614723
 30
0.0
 42
-0.4142135623730951
  0
VERTEX
  5
6E1
  8
DATA
  6
CONTINUOUS
 62
     7
 10
51.059648167433167
 20
340.69232360614723
 30
0.0
 42
-0.4142135623731035
  0
VERTEX
  5
6E2
  8
DATA
  6
CONTINUOUS
 62
     7
 10
50.559648167433167
 20
341.19232360614723
 30
0.0
  0
SEQEND
  5
6E3
  8
DATA
  6
CONTINUOUS
 62
     7
  0
LINE
  5
1D0
  8
DATA
  6
CONTINUOUS
 62
     7
 10
41.129594053491502
 20
337.02232360614721
 30
0.0
 11
54.029594053491572
 21
337.02232360614721
 31
0.0
  0
LINE
  5
1D1
  8
DATA
  6
CONTINUOUS
 62
     7
 10
41.506164053491503
 20
345.36232360614707
 30
0.0
 11
53.653034053491567
 21
345.36232360614707
 31
0.0
  0
POLYLINE
  5
1D2
  8
DATA
  6
CONTINUOUS
 62
     7
 66
     1
 10
0.0
 20
0.0
 30
0.0
 70
   129
  0
VERTEX
  5
6E4
  8
DATA
  6
CONTINUOUS
 62
     7
 10
48.27964816743318
 20
341.19232360614723
 30
0.0
 42
-0.4142135623730951
  0
VERTEX
  5
6E5
  8
DATA
  6
CONTINUOUS
 62
     7
 10
48.779648167433173
 20
341.69232360614723
 30
0.0
 42
-0.4142135623731035
  0
VERTEX
  5
6E6
  8
DATA
  6
CONTINUOUS
 62
     7
 10
49.279648167433173
 20
341.19232360614723
 30
0.0
 42
-0.4142135623730951
  0
VERTEX
  5
6E7
  8
DATA
  6
CONTINUOUS
 62
     7
 10
48.779648167433173
 20
340.69232360614723
 30
0.0
 42
-0.4142135623730868
  0
VERTEX
  5
6E8
  8
DATA
  6
CONTINUOUS
 62
     7
 10
48.27964816743318
 20
341.19232360614723
 30
0.0
  0
SEQEND
  5
6E9
  8
DATA
  6
CONTINUOUS
 62
     7
  0
POLYLINE
  5
1D9
  8
DATA
  6
CONTINUOUS
 62
     7
 66
     1
 10
0.0
 20
0.0
 30
0.0
 70
   129
  0
VERTEX
  5
6EA
  8
DATA
  6
CONTINUOUS
 62
     7
 10
42.777579623107073
 20
343.17232360614719
 30
0.0
 42
-0.4142135623731284
  0
VERTEX
  5
6EB
  8
DATA
  6
CONTINUOUS
 62
     7
 10
43.277579623107073
 20
343.67232360614707
 30
0.0
 42
-0.4142135623730617
  0
VERTEX
  5
6EC
  8
DATA
  6
CONTINUOUS
 62
     7
 10
43.777579623107073
 20
343.17232360614719
 30
0.0
 42
-0.4142135623731284
  0
VERTEX
  5
6ED
  8
DATA
  6
CONTINUOUS
 62
     7
 10
43.277579623107073
 20
342.67232360614719
 30
0.0
 42
-0.4142135623730617
  0
VERTEX
  5
6EE
  8
DATA
  6
CONTINUOUS
 62
     7
 10
42.777579623107073
 20
343.17232360614719
 30
0.0
  0
SEQEND
  5
6EF
  8
DATA
  6
CONTINUOUS
 62
     7
  0
POLYLINE
  5
1E0
  8
DATA
  6
CONTINUOUS
 62
     7
 66
     1
 10
0.0
 20
0.0
 30
0.0
 70
   129
  0
VERTEX
  5
6F0
  8
DATA
  6
CONTINUOUS
 62
     7
 10
45.067579623107093
 20
343.17232360614719
 30
0.0
 42
-0.4142135623731117
  0
VERTEX
  5
6F1
  8
DATA
  6
CONTINUOUS
 62
     7
 10
45.5675796231071
 20
343.67232360614707
 30
0.0
 42
-0.4142135623730702
  0
VERTEX
  5
6F2
  8
DATA
  6
CONTINUOUS
 62
     7
 10
46.067579623107108
 20
343.17232360614719
 30
0.0
 42
-0.4142135623731117
  0
VERTEX
  5
6F3
  8
DATA
  6
CONTINUOUS
 62
     7
 10
45.5675796231071
 20
342.67232360614719
 30
0.0
 42
-0.4142135623730868
  0
VERTEX
  5
6F4
  8
DATA
  6
CONTINUOUS
 62
     7
 10
45.067579623107093
 20
343.17232360614719
 30
0.0
  0
SEQEND
  5
6F5
  8
DATA
  6
CONTINUOUS
 62
     7
  0
POLYLINE
  5
1E7
  8
DATA
  6
CONTINUOUS
 62
     7
 66
     1
 10
0.0
 20
0.0
 30
0.0
 70
   129
  0
VERTEX
  5
6F6
  8
DATA
  6
CONTINUOUS
 62
     7
 10
47.357579623107128
 20
343.17232360614719
 30
0.0
 42
-0.4142135623731284
  0
VERTEX
  5
6F7
  8
DATA
  6
CONTINUOUS
 62
     7
 10
47.857579623107128
 20
343.67232360614707
 30
0.0
 42
-0.4142135623730743
  0
VERTEX
  5
6F8
  8
DATA
  6
CONTINUOUS
 62
     7
 10
48.357579623107121
 20
343.17232360614719
 30
0.0
 42
-0.4142135623731117
  0
VERTEX
  5
6F9
  8
DATA
  6
CONTINUOUS
 62
     7
 10
47.857579623107128
 20
342.67232360614719
 30
0.0
 42
-0.4142135623730659
  0
VERTEX
  5
6FA
  8
DATA
  6
CONTINUOUS
 62
     7
 10
47.357579623107128
 20
343.17232360614719
 30
0.0
  0
SEQEND
  5
6FB
  8
DATA
  6
CONTINUOUS
 62
     7
  0
POLYLINE
  5
1EE
  8
DATA
  6
CONTINUOUS
 62
     7
 66
     1
 10
0.0
 20
0.0
 30
0.0
 70
   129
  0
VERTEX
  5
6FC
  8
DATA
  6
CONTINUOUS
 62
     7
 10
49.637579623107129
 20
343.17232360614719
 30
0.0
 42
-0.4142135623731117
  0
VERTEX
  5
6FD
  8
DATA
  6
CONTINUOUS
 62
     7
 10
50.137579623107122
 20
343.67232360614707
 30
0.0
 42
-0.4142135623730659
  0
VERTEX
  5
6FE
  8
DATA
  6
CONTINUOUS
 62
     7
 10
50.637579623107129
 20
343.17232360614719
 30
0.0
 42
-0.4142135623731284
  0
VERTEX
  5
6FF
  8
DATA
  6
CONTINUOUS
 62
     7
 10
50.137579623107122
 20
342.67232360614719
 30
0.0
 42
-0.4142135623730743
  0
VERTEX
  5
700
  8
DATA
  6
CONTINUOUS
 62
     7
 10
49.637579623107129
 20
343.17232360614719
 30
0.0
  0
SEQEND
  5
701
  8
DATA
  6
CONTINUOUS
 62
     7
  0
POLYLINE
  5
1F5
  8
DATA
  6
CONTINUOUS
 62
     7
 66
     1
 10
0.0
 20
0.0
 30
0.0
 70
   129
  0
VERTEX
  5
702
  8
DATA
  6
CONTINUOUS
 62
     7
 10
42.777579623107073
 20
339.21232360614721
 30
0.0
 42
-0.4142135623730951
  0
VERTEX
  5
703
  8
DATA
  6
CONTINUOUS
 62
     7
 10
43.277579623107073
 20
339.71232360614721
 30
0.0
 42
-0.4142135623731035
  0
VERTEX
  5
704
  8
DATA
  6
CONTINUOUS
 62
     7
 10
43.777579623107073
 20
339.21232360614721
 30
0.0
 42
-0.4142135623730951
  0
VERTEX
  5
705
  8
DATA
  6
CONTINUOUS
 62
     7
 10
43.277579623107073
 20
338.71232360614721
 30
0.0
 42
-0.4142135623730868
  0
VERTEX
  5
706
  8
DATA
  6
CONTINUOUS
 62
     7
 10
42.777579623107073
 20
339.21232360614721
 30
0.0
  0
SEQEND
  5
707
  8
DATA
  6
CONTINUOUS
 62
     7
  0
POLYLINE
  5
1FC
  8
DATA
  6
CONTINUOUS
 62
     7
 66
     1
 10
0.0
 20
0.0
 30
0.0
 70
   129
  0
VERTEX
  5
708
  8
DATA
  6
CONTINUOUS
 62
     7
 10
45.067579623107093
 20
339.21232360614721
 30
0.0
 42
-0.4142135623730951
  0
VERTEX
  5
709
  8
DATA
  6
CONTINUOUS
 62
     7
 10
45.5675796231071
 20
339.71232360614721
 30
0.0
 42
-0.4142135623730992
  0
VERTEX
  5
70A
  8
DATA
  6
CONTINUOUS
 62
     7
 10
46.067579623107108
 20
339.21232360614721
 30
0.0
 42
-0.4142135623730951
  0
VERTEX
  5
70B
  8
DATA
  6
CONTINUOUS
 62
     7
 10
45.5675796231071
 20
338.71232360614721
 30
0.0
 42
-0.414213562373091
  0
VERTEX
  5
70C
  8
DATA
  6
CONTINUOUS
 62
     7
 10
45.067579623107093
 20
339.21232360614721
 30
0.0
  0
SEQEND
  5
70D
  8
DATA
  6
CONTINUOUS
 62
     7
  0
POLYLINE
  5
203
  8
DATA
  6
CONTINUOUS
 62
     7
 66
     1
 10
0.0
 20
0.0
 30
0.0
 70
   129
  0
VERTEX
  5
70E
  8
DATA
  6
CONTINUOUS
 62
     7
 10
47.357579623107128
 20
339.21232360614721
 30
0.0
 42
-0.4142135623730951
  0
VERTEX
  5
70F
  8
DATA
  6
CONTINUOUS
 62
     7
 10
47.857579623107128
 20
339.71232360614721
 30
0.0
 42
-0.4142135623730951
  0
VERTEX
  5
710
  8
DATA
  6
CONTINUOUS
 62
     7
 10
48.357579623107121
 20
339.21232360614721
 30
0.0
 42
-0.4142135623730951
  0
VERTEX
  5
711
  8
DATA
  6
CONTINUOUS
 62
     7
 10
47.857579623107128
 20
338.71232360614721
 30
0.0
 42
-0.4142135623730951
  0
VERTEX
  5
712
  8
DATA
  6
CONTINUOUS
 62
     7
 10
47.357579623107128
 20
339.21232360614721
 30
0.0
  0
SEQEND
  5
713
  8
DATA
  6
CONTINUOUS
 62
     7
  0
POLYLINE
  5
20A
  8
DATA
  6
CONTINUOUS
 62
     7
 66
     1
 10
0.0
 20
0.0
 30
0.0
 70
   129
  0
VERTEX
  5
714
  8
DATA
  6
CONTINUOUS
 62
     7
 10
49.637579623107129
 20
339.21232360614721
 30
0.0
 42
-0.4142135623730951
  0
VERTEX
  5
715
  8
DATA
  6
CONTINUOUS
 62
     7
 10
50.137579623107122
 20
339.71232360614721
 30
0.0
 42
-0.4142135623730951
  0
VERTEX
  5
716
  8
DATA
  6
CONTINUOUS
 62
     7
 10
50.637579623107129
 20
339.21232360614721
 30
0.0
 42
-0.4142135623730951
  0
VERTEX
  5
717
  8
DATA
  6
CONTINUOUS
 62
     7
 10
50.137579623107122
 20
338.71232360614721
 30
0.0
 42
-0.4142135623730951
  0
VERTEX
  5
718
  8
DATA
  6
CONTINUOUS
 62
     7
 10
49.637579623107129
 20
339.21232360614721
 30
0.0
  0
SEQEND
  5
719
  8
DATA
  6
CONTINUOUS
 62
     7
  0
POLYLINE
  5
211
  8
DATA
  6
CONTINUOUS
 62
     7
 66
     1
 10
0.0
 20
0.0
 30
0.0
 70
   129
  0
VERTEX
  5
71A
  8
DATA
  6
CONTINUOUS
 62
     7
 10
41.419648167433131
 20
341.19232360614723
 30
0.0
 42
-0.4142135623730951
  0
VERTEX
  5
71B
  8
DATA
  6
CONTINUOUS
 62
     7
 10
41.919648167433131
 20
341.69232360614723
 30
0.0
 42
-0.4142135623730868
  0
VERTEX
  5
71C
  8
DATA
  6
CONTINUOUS
 62
     7
 10
42.419648167433131
 20
341.19232360614723
 30
0.0
 42
-0.4142135623730951
  0
VERTEX
  5
71D
  8
DATA
  6
CONTINUOUS
 62
     7
 10
41.919648167433131
 20
340.69232360614723
 30
0.0
 42
-0.4142135623731035
  0
VERTEX
  5
71E
  8
DATA
  6
CONTINUOUS
 62
     7
 10
41.419648167433131
 20
341.19232360614723
 30
0.0
  0
SEQEND
  5
71F
  8
DATA
  6
CONTINUOUS
 62
     7
  0
POLYLINE
  5
218
  8
DATA
  6
CONTINUOUS
 62
     7
 66
     1
 10
0.0
 20
0.0
 30
0.0
 70
   129
  0
VERTEX
  5
720
  8
DATA
  6
CONTINUOUS
 62
     7
 10
43.699648167433118
 20
341.19232360614723
 30
0.0
 42
-0.4142135623730951
  0
VERTEX
  5
721
  8
DATA
  6
CONTINUOUS
 62
     7
 10
44.199648167433118
 20
341.69232360614723
 30
0.0
 42
-0.4142135623731076
  0
VERTEX
  5
722
  8
DATA
  6
CONTINUOUS
 62
     7
 10
44.699648167433132
 20
341.19232360614723
 30
0.0
 42
-0.4142135623730784
  0
VERTEX
  5
723
  8
DATA
  6
CONTINUOUS
 62
     7
 10
44.199648167433118
 20
340.69232360614723
 30
0.0
 42
-0.4142135623731159
  0
VERTEX
  5
724
  8
DATA
  6
CONTINUOUS
 62
     7
 10
43.699648167433118
 20
341.19232360614723
 30
0.0
  0
SEQEND
  5
725
  8
DATA
  6
CONTINUOUS
 62
     7
  0
POLYLINE
  5
21F
  8
DATA
  6
CONTINUOUS
 62
     7
 66
     1
 10
0.0
 20
0.0
 30
0.0
 70
   129
  0
VERTEX
  5
726
  8
DATA
  6
CONTINUOUS
 62
     7
 10
45.989648167433167
 20
341.19232360614723
 30
0.0
 42
-0.4142135623730951
  0
VERTEX
  5
727
  8
DATA
  6
CONTINUOUS
 62
     7
 10
46.489648167433167
 20
341.69232360614723
 30
0.0
 42
-0.414213562373091
  0
VERTEX
  5
728
  8
DATA
  6
CONTINUOUS
 62
     7
 10
46.989648167433188
 20
341.19232360614723
 30
0.0
 42
-0.4142135623730951
  0
VERTEX
  5
729
  8
DATA
  6
CONTINUOUS
 62
     7
 10
46.489648167433167
 20
340.69232360614723
 30
0.0
 42
-0.4142135623730992
  0
VERTEX
  5
72A
  8
DATA
  6
CONTINUOUS
 62
     7
 10
45.989648167433167
 20
341.19232360614723
 30
0.0
  0
SEQEND
  5
72B
  8
DATA
  6
CONTINUOUS
 62
     7
  0
POLYLINE
  5
226
  8
DATA
  6
CONTINUOUS
 62
     7
 66
     1
 10
0.0
 20
0.0
 30
0.0
 70
   129
  0
VERTEX
  5
72C
  8
DATA
  6
CONTINUOUS
 62
     7
 10
51.927579623107121
 20
343.17232360614719
 30
0.0
 42
-0.4142135623731284
  0
VERTEX
  5
72D
  8
DATA
  6
CONTINUOUS
 62
     7
 10
52.427579623107121
 20
343.67232360614707
 30
0.0
 42
-0.4142135623730951
  0
VERTEX
  5
72E
  8
DATA
  6
CONTINUOUS
 62
     7
 10
52.927579623107121
 20
343.17232360614719
 30
0.0
 42
-0.4142135623730951
  0
VERTEX
  5
72F
  8
DATA
  6
CONTINUOUS
 62
     7
 10
52.427579623107121
 20
342.67232360614719
 30
0.0
 42
-0.4142135623730659
  0
VERTEX
  5
730
  8
DATA
  6
CONTINUOUS
 62
     7
 10
51.927579623107121
 20
343.17232360614719
 30
0.0
  0
SEQEND
  5
731
  8
DATA
  6
CONTINUOUS
 62
     7
  0
POLYLINE
  5
22D
  8
DATA
  6
CONTINUOUS
 62
     7
 66
     1
 10
0.0
 20
0.0
 30
0.0
 70
   129
  0
VERTEX
  5
732
  8
DATA
  6
CONTINUOUS
 62
     7
 10
51.927579623107121
 20
339.21232360614721
 30
0.0
 42
-0.4142135623730951
  0
VERTEX
  5
733
  8
DATA
  6
CONTINUOUS
 62
     7
 10
52.427579623107121
 20
339.71232360614721
 30
0.0
 42
-0.4142135623730951
  0
VERTEX
  5
734
  8
DATA
  6
CONTINUOUS
 62
     7
 10
52.927579623107121
 20
339.21232360614721
 30
0.0
 42
-0.4142135623730951
  0
VERTEX
  5
735
  8
DATA
  6
CONTINUOUS
 62
     7
 10
52.427579623107121
 20
338.71232360614721
 30
0.0
 42
-0.4142135623730951
  0
VERTEX
  5
736
  8
DATA
  6
CONTINUOUS
 62
     7
 10
51.927579623107121
 20
339.21232360614721
 30
0.0
  0
SEQEND
  5
737
  8
DATA
  6
CONTINUOUS
 62
     7
  0
ARC
  5
234
  8
DATA
  6
CONTINUOUS
 62
     7
 10
41.506164053491503
 20
343.86232360614707
 30
0.0
 40
1.499998001665289
 50
90.0
 51
170.0000744503985
  0
ARC
  5
235
  8
DATA
  6
CONTINUOUS
 62
     7
 10
41.129594053491502
 20
339.02232360614721
 30
0.0
 40
2.0
 50
180.0
 51
270.0
  0
LINE
  5
236
  8
DATA
  6
CONTINUOUS
 62
     7
 10
39.129594053491509
 20
339.02232360614721
 30
0.0
 11
40.028944053491522
 21
344.12279360614718
 31
0.0
  0
ARC
  5
237
  8
DATA
  6
CONTINUOUS
 62
     7
 10
53.653034053491567
 20
343.86232360614707
 30
0.0
 40
1.499999999999996
 50
9.9999255495998511
 51
90.0
  0
ARC
  5
238
  8
DATA
  6
CONTINUOUS
 62
     7
 10
54.029594053491572
 20
339.02232360614721
 30
0.0
 40
2.0
 50
270.0
 51
0.0
  0
LINE
  5
239
  8
DATA
  6
CONTINUOUS
 62
     7
 10
56.029594053491579
 20
339.02232360614721
 30
0.0
 11
55.130244053491573
 21
344.12279360614718
 31
0.0
  0
CIRCLE
  5
23A
  8
DATA
  6
CONTINUOUS
 62
     7
 10
60.110895698866017
 20
341.21003329775613
 30
0.0
 40
1.1750000000001171
  0
POLYLINE
  5
23B
  8
DATA
  6
CONTINUOUS
 62
     7
 66
     1
 10
0.0
 20
0.0
 30
0.0
 70
     1
  0
VERTEX
  5
738
  8
DATA
  6
CONTINUOUS
 62
     7
 10
60.110895698866017
 20
338.51003329775619
 30
0.0
  0
VERTEX
  5
739
  8
DATA
  6
CONTINUOUS
 62
     7
 10
57.772627108647917
 20
339.86003329775622
 30
0.0
  0
VERTEX
  5
73A
  8
DATA
  6
CONTINUOUS
 62
     7
 10
57.772627108647917
 20
342.56003329775609
 30
0.0
  0
VERTEX
  5
73B
  8
DATA
  6
CONTINUOUS
 62
     7
 10
60.110895698866017
 20
343.910033297756
 30
0.0
  0
VERTEX
  5
73C
  8
DATA
  6
CONTINUOUS
 62
     7
 10
62.449164289084102
 20
342.56003329775609
 30
0.0
  0
VERTEX
  5
73D
  8
DATA
  6
CONTINUOUS
 62
     7
 10
62.449164289084102
 20
339.86003329775622
 30
0.0
  0
SEQEND
  5
73E
  8
DATA
  6
CONTINUOUS
 62
     7
  0
CIRCLE
  5
244
  8
DATA
  6
CONTINUOUS
 62
     7
 10
35.110895698865583
 20
341.21003329775613
 30
0.0
 40
1.1750000000001319
  0
POLYLINE
  5
245
  8
DATA
  6
CONTINUOUS
 62
     7
 66
     1
 10
0.0
 20
0.0
 30
0.0
 70
     1
  0
VERTEX
  5
73F
  8
DATA
  6
CONTINUOUS
 62
     7
 10
35.110895698865583
 20
338.51003329775619
 30
0.0
  0
VERTEX
  5
740
  8
DATA
  6
CONTINUOUS
 62
     7
 10
32.772627108647598
 20
339.86003329775622
 30
0.0
  0
VERTEX
  5
741
  8
DATA
  6
CONTINUOUS
 62
     7
 10
32.772627108647598
 20
342.56003329775609
 30
0.0
  0
VERTEX
  5
742
  8
DATA
  6
CONTINUOUS
 62
     7
 10
35.110895698865583
 20
343.910033297756
 30
0.0
  0
VERTEX
  5
743
  8
DATA
  6
CONTINUOUS
 62
     7
 10
37.449164289083683
 20
342.56003329775609
 30
0.0
  0
VERTEX
  5
744
  8
DATA
  6
CONTINUOUS
 62
     7
 10
37.449164289083683
 20
339.86003329775622
 30
0.0
  0
SEQEND
  5
745
  8
DATA
  6
CONTINUOUS
 62
     7
  0
TEXT
  5
24E
  8
DATA
 62
     7
 10
20.51327853550427
 20
353.60120631202722
 30
0.0
 40
2.5409921875000001
  1
Audio In
 50
180.0
 41
0.7
 11
20.51327853550427
 21
351.06021412452719
 31
0.0
 73
     3
  0
TEXT
  5
24F
  8
DATA
 62
     7
 10
58.453415211086813
 20
353.60120631202722
 30
0.0
 40
2.5409921875000001
  1
Local Monitor
 50
180.0
 41
0.7
 11
58.453415211086813
 21
351.06021412452719
 31
0.0
 73
     3
  0
TEXT
  5
250
  8
DATA
 62
     7
 10
93.448017313469464
 20
353.60120631202722
 30
0.0
 40
2.5409921875000001
  1
Video In
 50
180.0
 41
0.7
 11
93.448017313469464
 21
351.06021412452719
 31
0.0
 73
     3
  0
TEXT
  5
251
  8
DATA
 62
     7
 10
118.6987528569998
 20
353.60120631202722
 30
0.0
 40
2.5409921875000001
  1
5V DC
 50
180.0
 41
0.7
 11
118.6987528569998
 21
351.06021412452719
 31
0.0
 73
     3
  0
LINE
  5
252
  8
DATA
  6
CONTINUOUS
 62
     7
 10
62.421592538737457
 20
285.0
 30
0.0
 11
62.421592538737457
 21
280.99999999965848
 31
0.0
  0
LINE
  5
253
  8
DATA
  6
CONTINUOUS
 62
     7
 10
57.745055358301407
 20
285.0
 30
0.0
 11
57.745055358301407
 21
280.99999999965848
 31
0.0
  0
LINE
  5
254
  8
DATA
  6
CONTINUOUS
 62
     7
 10
37.42159253873718
 20
285.0
 30
0.0
 11
37.42159253873718
 21
280.99999999965848
 31
0.0
  0
LINE
  5
255
  8
DATA
  6
CONTINUOUS
 62
     7
 10
32.745055358301002
 20
285.0
 30
0.0
 11
32.745055358301002
 21
280.99999999965848
 31
0.0
  0
LINE
  5
256
  8
DATA
  6
CONTINUOUS
 62
     7
 10
56.00202230314504
 20
285.0
 30
0.0
 11
56.00202230314504
 21
280.99999999965848
 31
0.0
  0
LINE
  5
257
  8
DATA
  6
CONTINUOUS
 62
     7
 10
39.102022303144999
 20
285.0
 30
0.0
 11
39.102022303144999
 21
280.99999999965848
 31
0.0
  0
LINE
  5
258
  8
DATA
  6
CONTINUOUS
 62
     7
 10
32.745055358301002
 20
285.0
 30
0.0
 11
37.42159253873718
 21
285.0
 31
0.0
  0
LINE
  5
259
  8
DATA
  6
CONTINUOUS
 62
     7
 10
39.102022303144999
 20
285.0
 30
0.0
 11
56.00202230314504
 21
285.0
 31
0.0
  0
LINE
  5
25A
  8
DATA
  6
CONTINUOUS
 62
     7
 10
57.745055358301407
 20
285.0
 30
0.0
 11
62.421592538737457
 21
285.0
 31
0.0
  0
LINE
  5
25B
  8
DATA
  6
CONTINUOUS
 62
     7
 10
102.4215925387374
 20
285.0
 30
0.0
 11
102.4215925387374
 21
280.99999999965848
 31
0.0
  0
LINE
  5
25C
  8
DATA
  6
CONTINUOUS
 62
     7
 10
97.745055358301414
 20
285.0
 30
0.0
 11
97.745055358301414
 21
280.99999999965848
 31
0.0
  0
LINE
  5
25D
  8
DATA
  6
CONTINUOUS
 62
     7
 10
77.421592538737173
 20
285.0
 30
0.0
 11
77.421592538737173
 21
280.99999999965848
 31
0.0
  0
LINE
  5
25E
  8
DATA
  6
CONTINUOUS
 62
     7
 10
72.745055358300974
 20
285.0
 30
0.0
 11
72.745055358300974
 21
280.99999999965848
 31
0.0
  0
LINE
  5
25F
  8
DATA
  6
CONTINUOUS
 62
     7
 10
96.00202230314504
 20
285.0
 30
0.0
 11
96.00202230314504
 21
280.99999999965848
 31
0.0
  0
LINE
  5
260
  8
DATA
  6
CONTINUOUS
 62
     7
 10
79.102022303144992
 20
285.0
 30
0.0
 11
79.102022303144992
 21
280.99999999965848
 31
0.0
  0
LINE
  5
261
  8
DATA
  6
CONTINUOUS
 62
     7
 10
72.745055358300974
 20
285.0
 30
0.0
 11
77.421592538737173
 21
285.0
 31
0.0
  0
LINE
  5
262
  8
DATA
  6
CONTINUOUS
 62
     7
 10
79.102022303144992
 20
285.0
 30
0.0
 11
96.00202230314504
 21
285.0
 31
0.0
  0
LINE
  5
263
  8
DATA
  6
CONTINUOUS
 62
     7
 10
97.745055358301414
 20
285.0
 30
0.0
 11
102.4215925387374
 21
285.0
 31
0.0
  0
LINE
  5
264
  8
DATA
  6
CONTINUOUS
 62
     7
 10
114.9771604106715
 20
281.0
 30
0.0
 11
114.9771604106715
 21
282.0
 31
0.0
  0
LINE
  5
265
  8
DATA
  6
CONTINUOUS
 62
     7
 10
118.9271604106715
 20
287.0
 30
0.0
 11
111.0271604106715
 21
287.0
 31
0.0
  0
LINE
  5
266
  8
DATA
  6
CONTINUOUS
 62
     7
 10
111.0271604106715
 20
287.0
 30
0.0
 11
111.0271604106715
 21
282.0
 31
0.0
  0
LINE
  5
267
  8
DATA
  6
CONTINUOUS
 62
     7
 10
118.9271604106715
 20
287.0
 30
0.0
 11
118.9271604106715
 21
282.0
 31
0.0
  0
LINE
  5
268
  8
DATA
  6
CONTINUOUS
 62
     7
 10
120.4771604106715
 20
282.0
 30
0.0
 11
120.4771604106715
 21
281.0
 31
0.0
  0
LINE
  5
269
  8
DATA
  6
CONTINUOUS
 62
     7
 10
109.4771604106715
 20
281.0
 30
0.0
 11
109.4771604106715
 21
282.0
 31
0.0
  0
LINE
  5
26A
  8
DATA
  6
CONTINUOUS
 62
     7
 10
109.4771604106715
 20
282.0
 30
0.0
 11
120.4771604106715
 21
282.0
 31
0.0
  0
LINE
  5
26B
  8
DATA
  6
CONTINUOUS
 62
     7
 10
111.0271604106715
 20
282.0
 30
0.0
 11
118.9271604106715
 21
282.88029083705351
 31
0.0
  0
LINE
  5
26C
  8
DATA
  6
CONTINUOUS
 62
     7
 10
111.0271604106715
 20
283.5
 30
0.0
 11
118.9271604106715
 21
284.38029083705351
 31
0.0
  0
LINE
  5
26D
  8
DATA
  6
CONTINUOUS
 62
     7
 10
111.0271604106715
 20
285.0
 30
0.0
 11
118.9271604106715
 21
285.88029083705351
 31
0.0
  0
LINE
  5
26E
  8
DATA
  6
CONTINUOUS
 62
     7
 10
111.0271604106715
 20
286.5
 30
0.0
 11
115.51431378514179
 21
287.0
 31
0.0
  0
ARC
  5
26F
  8
DATA
  6
CONTINUOUS
 62
     7
 10
-288.0
 20
278.90032486382091
 30
0.0
 40
3.6000000000000121
 50
35.678969343418338
 51
144.32103065658171
  0
ARC
  5
270
  8
DATA
  6
CONTINUOUS
 62
     7
 10
-190.0
 20
278.90032486382091
 30
0.0
 40
3.6000000000000121
 50
35.678969343418338
 51
144.32103065658171
  0
ARC
  5
271
  8
DATA
  6
CONTINUOUS
 62
     7
 10
-298.0
 20
314.50000000011789
 30
0.0
 40
2.0
 50
180.0
 51
270.0
  0
ARC
  5
272
  8
DATA
  6
CONTINUOUS
 62
     7
 10
133.0
 20
314.50000000011789
 30
0.0
 40
2.0
 50
270.0
 51
0.0
  0
LINE
  5
273
  8
DATA
  6
CONTINUOUS
 62
     7
 10
225.0
 20
152.0
 30
0.0
 11
225.0
 21
281.0
 31
0.0
  0
LINE
  5
274
  8
DATA
  6
CONTINUOUS
 62
     7
 10
269.0
 20
152.0
 30
0.0
 11
269.0
 21
279.0
 31
0.0
  0
LINE
  5
275
  8
DATA
  6
CONTINUOUS
 62
     7
 10
225.0
 20
281.0
 30
0.0
 11
267.0
 21
281.0
 31
0.0
  0
LINE
  5
276
  8
DATA
  6
CONTINUOUS
 62
     7
 10
227.0
 20
150.0
 30
0.0
 11
267.0
 21
150.0
 31
0.0
  0
LINE
  5
277
  8
DATA
  6
CONTINUOUS
 62
     7
 10
229.0
 20
152.0
 30
0.0
 11
265.0
 21
152.0
 31
0.0
  0
LINE
  5
278
  8
DATA
  6
CONTINUOUS
 62
     7
 10
227.0
 20
279.0
 30
0.0
 11
265.0
 21
279.0
 31
0.0
  0
LINE
  5
279
  8
DATA
  6
CONTINUOUS
 62
     7
 10
225.0
 20
159.09999999999999
 30
0.0
 11
227.0
 21
159.09999999999999
 31
0.0
  0
LINE
  5
27A
  8
DATA
  6
CONTINUOUS
 62
     7
 10
227.0
 20
154.0
 30
0.0
 11
227.0
 21
159.09999999999999
 31
0.0
  0
LINE
  5
27B
  8
DATA
  6
CONTINUOUS
 62
     7
 10
267.0
 20
154.0
 30
0.0
 11
267.0
 21
156.2999999999999
 31
0.0
  0
LINE
  5
27C
  8
DATA
  6
CONTINUOUS
 62
     7
 10
267.0
 20
156.2999999999999
 30
0.0
 11
269.0
 21
156.2999999999999
 31
0.0
  0
LINE
  5
27D
  8
DATA
  6
CONTINUOUS
 62
     7
 10
267.0
 20
269.0
 30
0.0
 11
269.0
 21
269.0
 31
0.0
  0
LINE
  5
27E
  8
DATA
  6
CONTINUOUS
 62
     7
 10
267.0
 20
269.0
 30
0.0
 11
267.0
 21
277.0
 31
0.0
  0
ARC
  5
27F
  8
DATA
  6
CONTINUOUS
 62
     7
 10
229.0
 20
154.0
 30
0.0
 40
2.0
 50
180.0
 51
270.0
  0
ARC
  5
280
  8
DATA
  6
CONTINUOUS
 62
     7
 10
265.0
 20
154.0
 30
0.0
 40
2.0
 50
270.0
 51
0.0
  0
ARC
  5
281
  8
DATA
  6
CONTINUOUS
 62
     7
 10
227.0
 20
152.0
 30
0.0
 40
2.0
 50
180.0
 51
270.0
  0
ARC
  5
282
  8
DATA
  6
CONTINUOUS
 62
     7
 10
267.0
 20
152.0
 30
0.0
 40
2.0
 50
270.0
 51
0.0
  0
ARC
  5
283
  8
DATA
  6
CONTINUOUS
 62
     7
 10
265.0
 20
277.0
 30
0.0
 40
2.0
 50
0.0
 51
90.0
  0
ARC
  5
284
  8
DATA
  6
CONTINUOUS
 62
     7
 10
267.0
 20
279.0
 30
0.0
 40
2.0
 50
0.0
 51
90.0
  0
CIRCLE
  5
285
  8
DATA
  6
CONTINUOUS
 62
     7
 10
262.5
 20
164.0
 30
0.0
 40
2.75
  0
LINE
  5
286
  8
DATA
  6
CONTINUOUS
 62
     7
 10
260.98000000000002
 20
164.0
 30
0.0
 11
264.01999999999998
 21
164.0
 31
0.0
  0
LINE
  5
287
  8
DATA
  6
CONTINUOUS
 62
     7
 10
262.5
 20
162.47999999999999
 30
0.0
 11
262.5
 21
165.5199999999999
 31
0.0
  0
CIRCLE
  5
288
  8
DATA
  6
CONTINUOUS
 62
     7
 10
262.5
 20
212.0
 30
0.0
 40
2.75
  0
LINE
  5
289
  8
DATA
  6
CONTINUOUS
 62
     7
 10
260.98000000000002
 20
212.0
 30
0.0
 11
264.01999999999998
 21
212.0
 31
0.0
  0
LINE
  5
28A
  8
DATA
  6
CONTINUOUS
 62
     7
 10
262.5
 20
210.47999999999999
 30
0.0
 11
262.5
 21
213.52000000000001
 31
0.0
  0
CIRCLE
  5
28B
  8
DATA
  6
CONTINUOUS
 62
     7
 10
262.5
 20
260.0
 30
0.0
 40
2.75
  0
LINE
  5
28C
  8
DATA
  6
CONTINUOUS
 62
     7
 10
260.98000000000002
 20
260.0
 30
0.0
 11
264.01999999999998
 21
260.0
 31
0.0
  0
LINE
  5
28D
  8
DATA
  6
CONTINUOUS
 62
     7
 10
262.5
 20
258.48000000000002
 30
0.0
 11
262.5
 21
261.51999999999998
 31
0.0
  0
CIRCLE
  5
28E
  8
DATA
  6
CONTINUOUS
 62
     7
 10
232.5
 20
164.0
 30
0.0
 40
2.75
  0
LINE
  5
28F
  8
DATA
  6
CONTINUOUS
 62
     7
 10
230.97999999999999
 20
164.0
 30
0.0
 11
234.02000000000001
 21
164.0
 31
0.0
  0
LINE
  5
290
  8
DATA
  6
CONTINUOUS
 62
     7
 10
232.5
 20
162.47999999999999
 30
0.0
 11
232.5
 21
165.5199999999999
 31
0.0
  0
LINE
  5
291
  8
DATA
  6
CONTINUOUS
 62
     7
 10
272.99999999990001
 20
157.9391428011354
 30
0.0
 11
268.99999999990001
 21
155.9391428011354
 31
0.0
  0
LINE
  5
292
  8
DATA
  6
CONTINUOUS
 62
     7
 10
272.99999999990001
 20
172.9391428011354
 30
0.0
 11
268.99999999990001
 21
174.9391428011354
 31
0.0
  0
LINE
  5
293
  8
DATA
  6
CONTINUOUS
 62
     7
 10
272.99999999990001
 20
157.9391428011354
 30
0.0
 11
272.99999999990001
 21
172.9391428011354
 31
0.0
  0
LINE
  5
294
  8
DATA
  6
CONTINUOUS
 62
     7
 10
272.99999999990001
 20
250.73923215917591
 30
0.0
 11
268.99999999990001
 21
248.73923215917591
 31
0.0
  0
LINE
  5
295
  8
DATA
  6
CONTINUOUS
 62
     7
 10
272.99999999990001
 20
265.73923215917591
 30
0.0
 11
268.99999999990001
 21
267.73923215917591
 31
0.0
  0
LINE
  5
296
  8
DATA
  6
CONTINUOUS
 62
     7
 10
272.99999999990001
 20
250.73923215917591
 30
0.0
 11
272.99999999990001
 21
265.73923215917591
 31
0.0
  0
LINE
  5
297
  8
DATA
  6
CONTINUOUS
 62
     7
 10
251.46778967037449
 20
281.0
 30
0.0
 11
251.46778967037449
 21
282.0
 31
0.0
  0
LINE
  5
298
  8
DATA
  6
CONTINUOUS
 62
     7
 10
255.4177896703745
 20
287.0
 30
0.0
 11
247.5177896703745
 21
287.0
 31
0.0
  0
LINE
  5
299
  8
DATA
  6
CONTINUOUS
 62
     7
 10
247.5177896703745
 20
287.0
 30
0.0
 11
247.5177896703745
 21
282.0
 31
0.0
  0
LINE
  5
29A
  8
DATA
  6
CONTINUOUS
 62
     7
 10
255.4177896703745
 20
287.0
 30
0.0
 11
255.4177896703745
 21
282.0
 31
0.0
  0
LINE
  5
29B
  8
DATA
  6
CONTINUOUS
 62
     7
 10
256.96778967037449
 20
282.0
 30
0.0
 11
256.96778967037449
 21
281.0
 31
0.0
  0
LINE
  5
29C
  8
DATA
  6
CONTINUOUS
 62
     7
 10
245.9677896703746
 20
281.0
 30
0.0
 11
245.9677896703746
 21
282.0
 31
0.0
  0
LINE
  5
29D
  8
DATA
  6
CONTINUOUS
 62
     7
 10
245.9677896703746
 20
282.0
 30
0.0
 11
256.96778967037449
 21
282.0
 31
0.0
  0
LINE
  5
29E
  8
DATA
  6
CONTINUOUS
 62
     7
 10
247.5177896703745
 20
282.0
 30
0.0
 11
255.4177896703745
 21
282.88029083705351
 31
0.0
  0
LINE
  5
29F
  8
DATA
  6
CONTINUOUS
 62
     7
 10
247.5177896703745
 20
283.5
 30
0.0
 11
255.4177896703745
 21
284.38029083705351
 31
0.0
  0
LINE
  5
2A0
  8
DATA
  6
CONTINUOUS
 62
     7
 10
247.5177896703745
 20
285.0
 30
0.0
 11
255.4177896703745
 21
285.88029083705351
 31
0.0
  0
LINE
  5
2A1
  8
DATA
  6
CONTINUOUS
 62
     7
 10
247.5177896703745
 20
286.5
 30
0.0
 11
252.00494304484491
 21
287.0
 31
0.0
  0
LINE
  5
2A2
  8
DATA
  6
CONTINUOUS
 62
     7
 10
257.17466159145448
 20
285.0
 30
0.0
 11
257.17466159145448
 21
281.0
 31
0.0
  0
LINE
  5
2A3
  8
DATA
  6
CONTINUOUS
 62
     7
 10
259.3267741883555
 20
285.0
 30
0.0
 11
259.3267741883555
 21
281.0
 31
0.0
  0
LINE
  5
2A4
  8
DATA
  6
CONTINUOUS
 62
     7
 10
259.3267741883555
 20
285.0
 30
0.0
 11
255.4177896703745
 21
285.0
 31
0.0
  0
LINE
  5
2A5
  8
DATA
  6
CONTINUOUS
 62
     7
 10
-300.0
 20
518.5
 30
0.0
 11
-300.0
 21
387.5
 31
0.0
  0
LINE
  5
2A6
  8
DATA
  6
CONTINUOUS
 62
     7
 10
135.0
 20
518.5
 30
0.0
 11
-300.0
 21
518.5
 31
0.0
  0
LINE
  5
2A7
  8
DATA
  6
CONTINUOUS
 62
     7
 10
135.0
 20
387.5
 30
0.0
 11
135.0
 21
518.5
 31
0.0
  0
LINE
  5
2A8
  8
DATA
  6
CONTINUOUS
 62
     7
 10
-300.0
 20
387.5
 30
0.0
 11
135.0
 21
387.5
 31
0.0
  0
ARC
  5
2A9
  8
DATA
  6
CONTINUOUS
 62
     7
 10
112.0
 20
517.87410924882136
 30
0.0
 40
1.5
 50
24.661751866922241
 51
155.33824813307771
  0
LINE
  5
2AA
  8
DATA
  6
CONTINUOUS
 62
     7
 10
62.421592538737457
 20
383.5
 30
0.0
 11
62.421592538737457
 21
387.50000000034152
 31
0.0
  0
LINE
  5
2AB
  8
DATA
  6
CONTINUOUS
 62
     7
 10
57.745055358301407
 20
383.5
 30
0.0
 11
57.745055358301407
 21
387.50000000034152
 31
0.0
  0
LINE
  5
2AC
  8
DATA
  6
CONTINUOUS
 62
     7
 10
37.42159253873718
 20
383.5
 30
0.0
 11
37.42159253873718
 21
387.50000000034152
 31
0.0
  0
LINE
  5
2AD
  8
DATA
  6
CONTINUOUS
 62
     7
 10
32.745055358301002
 20
383.5
 30
0.0
 11
32.745055358301002
 21
387.50000000034152
 31
0.0
  0
LINE
  5
2AE
  8
DATA
  6
CONTINUOUS
 62
     7
 10
56.00202230314504
 20
383.5
 30
0.0
 11
56.00202230314504
 21
387.50000000034152
 31
0.0
  0
LINE
  5
2AF
  8
DATA
  6
CONTINUOUS
 62
     7
 10
39.102022303144999
 20
383.5
 30
0.0
 11
39.102022303144999
 21
387.50000000034152
 31
0.0
  0
LINE
  5
2B0
  8
DATA
  6
CONTINUOUS
 62
     7
 10
32.745055358301002
 20
383.5
 30
0.0
 11
37.42159253873718
 21
383.5
 31
0.0
  0
LINE
  5
2B1
  8
DATA
  6
CONTINUOUS
 62
     7
 10
39.102022303144999
 20
383.5
 30
0.0
 11
56.00202230314504
 21
383.5
 31
0.0
  0
LINE
  5
2B2
  8
DATA
  6
CONTINUOUS
 62
     7
 10
57.745055358301407
 20
383.5
 30
0.0
 11
62.421592538737457
 21
383.5
 31
0.0
  0
LINE
  5
2B3
  8
DATA
  6
CONTINUOUS
 62
     7
 10
102.4215925387374
 20
383.5
 30
0.0
 11
102.4215925387374
 21
387.50000000034152
 31
0.0
  0
LINE
  5
2B4
  8
DATA
  6
CONTINUOUS
 62
     7
 10
97.745055358301414
 20
383.5
 30
0.0
 11
97.745055358301414
 21
387.50000000034152
 31
0.0
  0
LINE
  5
2B5
  8
DATA
  6
CONTINUOUS
 62
     7
 10
77.421592538737173
 20
383.5
 30
0.0
 11
77.421592538737173
 21
387.50000000034152
 31
0.0
  0
LINE
  5
2B6
  8
DATA
  6
CONTINUOUS
 62
     7
 10
72.745055358300974
 20
383.5
 30
0.0
 11
72.745055358300974
 21
387.50000000034152
 31
0.0
  0
LINE
  5
2B7
  8
DATA
  6
CONTINUOUS
 62
     7
 10
96.00202230314504
 20
383.5
 30
0.0
 11
96.00202230314504
 21
387.50000000034152
 31
0.0
  0
LINE
  5
2B8
  8
DATA
  6
CONTINUOUS
 62
     7
 10
79.102022303144992
 20
383.5
 30
0.0
 11
79.102022303144992
 21
387.50000000034152
 31
0.0
  0
LINE
  5
2B9
  8
DATA
  6
CONTINUOUS
 62
     7
 10
72.745055358300974
 20
383.5
 30
0.0
 11
77.421592538737173
 21
383.5
 31
0.0
  0
LINE
  5
2BA
  8
DATA
  6
CONTINUOUS
 62
     7
 10
79.102022303144992
 20
383.5
 30
0.0
 11
96.00202230314504
 21
383.5
 31
0.0
  0
LINE
  5
2BB
  8
DATA
  6
CONTINUOUS
 62
     7
 10
97.745055358301414
 20
383.5
 30
0.0
 11
102.4215925387374
 21
383.5
 31
0.0
  0
LINE
  5
2BC
  8
DATA
  6
CONTINUOUS
 62
     7
 10
114.9771604106715
 20
387.5
 30
0.0
 11
114.9771604106715
 21
386.5
 31
0.0
  0
LINE
  5
2BD
  8
DATA
  6
CONTINUOUS
 62
     7
 10
118.9271604106715
 20
381.5
 30
0.0
 11
111.0271604106715
 21
381.5
 31
0.0
  0
LINE
  5
2BE
  8
DATA
  6
CONTINUOUS
 62
     7
 10
111.0271604106715
 20
381.5
 30
0.0
 11
111.0271604106715
 21
386.5
 31
0.0
  0
LINE
  5
2BF
  8
DATA
  6
CONTINUOUS
 62
     7
 10
118.9271604106715
 20
381.5
 30
0.0
 11
118.9271604106715
 21
386.5
 31
0.0
  0
LINE
  5
2C0
  8
DATA
  6
CONTINUOUS
 62
     7
 10
120.4771604106715
 20
386.5
 30
0.0
 11
120.4771604106715
 21
387.5
 31
0.0
  0
LINE
  5
2C1
  8
DATA
  6
CONTINUOUS
 62
     7
 10
109.4771604106715
 20
387.5
 30
0.0
 11
109.4771604106715
 21
386.5
 31
0.0
  0
LINE
  5
2C2
  8
DATA
  6
CONTINUOUS
 62
     7
 10
109.4771604106715
 20
386.5
 30
0.0
 11
120.4771604106715
 21
386.5
 31
0.0
  0
LINE
  5
2C3
  8
DATA
  6
CONTINUOUS
 62
     7
 10
111.0271604106715
 20
386.5
 30
0.0
 11
118.9271604106715
 21
385.61970916294649
 31
0.0
  0
LINE
  5
2C4
  8
DATA
  6
CONTINUOUS
 62
     7
 10
111.0271604106715
 20
385.0
 30
0.0
 11
118.9271604106715
 21
384.11970916294649
 31
0.0
  0
LINE
  5
2C5
  8
DATA
  6
CONTINUOUS
 62
     7
 10
111.0271604106715
 20
383.5
 30
0.0
 11
118.9271604106715
 21
382.61970916294649
 31
0.0
  0
LINE
  5
2C6
  8
DATA
  6
CONTINUOUS
 62
     7
 10
111.0271604106715
 20
382.0
 30
0.0
 11
115.51431378514179
 21
381.5
 31
0.0
  0
ARC
  5
2C7
  8
DATA
  6
CONTINUOUS
 62
     7
 10
-288.0
 20
389.5996751361792
 30
0.0
 40
3.6000000000000121
 50
215.6789693434184
 51
324.32103065658168
  0
ARC
  5
2C8
  8
DATA
  6
CONTINUOUS
 62
     7
 10
-190.0
 20
389.5996751361792
 30
0.0
 40
3.6000000000000121
 50
215.6789693434184
 51
324.32103065658168
  0
LINE
  5
2C9
  8
DATA
  6
CONTINUOUS
 62
     7
 10
-300.0
 20
396.60000000000002
 30
0.0
 11
135.0
 21
396.60000000000002
 31
0.0
  0
CIRCLE
  5
2CA
  8
DATA
  6
CONTINUOUS
 62
     7
 10
-82.500000000000014
 20
391.60000000000002
 30
0.0
 40
2.75
  0
LINE
  5
2CB
  8
DATA
  6
CONTINUOUS
 62
     7
 10
-84.019999999999996
 20
391.60000000000002
 30
0.0
 11
-80.980000000000047
 21
391.60000000000002
 31
0.0
  0
LINE
  5
2CC
  8
DATA
  6
CONTINUOUS
 62
     7
 10
-82.500000000000014
 20
390.07999999999998
 30
0.0
 11
-82.500000000000014
 21
393.12
 31
0.0
  0
CIRCLE
  5
2CD
  8
DATA
  6
CONTINUOUS
 62
     7
 10
17.499999999999979
 20
391.60000000000002
 30
0.0
 40
2.75
  0
LINE
  5
2CE
  8
DATA
  6
CONTINUOUS
 62
     7
 10
15.98
 20
391.60000000000002
 30
0.0
 11
19.019999999999971
 21
391.60000000000002
 31
0.0
  0
LINE
  5
2CF
  8
DATA
  6
CONTINUOUS
 62
     7
 10
17.499999999999979
 20
390.07999999999998
 30
0.0
 11
17.499999999999979
 21
393.12
 31
0.0
  0
CIRCLE
  5
2D0
  8
DATA
  6
CONTINUOUS
 62
     7
 10
117.5
 20
391.60000000000002
 30
0.0
 40
2.75
  0
LINE
  5
2D1
  8
DATA
  6
CONTINUOUS
 62
     7
 10
115.98
 20
391.60000000000002
 30
0.0
 11
119.0199999999999
 21
391.60000000000002
 31
0.0
  0
LINE
  5
2D2
  8
DATA
  6
CONTINUOUS
 62
     7
 10
117.5
 20
390.07999999999998
 30
0.0
 11
117.5
 21
393.12
 31
0.0
  0
CIRCLE
  5
2D3
  8
DATA
  6
CONTINUOUS
 62
     7
 10
-182.5
 20
391.60000000000002
 30
0.0
 40
2.75
  0
LINE
  5
2D4
  8
DATA
  6
CONTINUOUS
 62
     7
 10
-184.02000000000001
 20
391.60000000000002
 30
0.0
 11
-180.97999999999999
 21
391.60000000000002
 31
0.0
  0
LINE
  5
2D5
  8
DATA
  6
CONTINUOUS
 62
     7
 10
-182.5
 20
390.07999999999998
 30
0.0
 11
-182.5
 21
393.12
 31
0.0
  0
CIRCLE
  5
2D6
  8
DATA
  6
CONTINUOUS
 62
     7
 10
-282.5
 20
391.60000000000002
 30
0.0
 40
2.75
  0
LINE
  5
2D7
  8
DATA
  6
CONTINUOUS
 62
     7
 10
-284.01999999999998
 20
391.60000000000002
 30
0.0
 11
-280.98000000000002
 21
391.60000000000002
 31
0.0
  0
LINE
  5
2D8
  8
DATA
  6
CONTINUOUS
 62
     7
 10
-282.5
 20
390.07999999999998
 30
0.0
 11
-282.5
 21
393.12
 31
0.0
  0
CIRCLE
  5
2D9
  8
DATA
  6
CONTINUOUS
 62
     7
 10
-284.5
 20
408.17726007715078
 30
0.0
 40
9.5
  0
CIRCLE
  5
2DA
  8
DATA
  6
CONTINUOUS
 62
     7
 10
-284.5
 20
408.17726007715078
 30
0.0
 40
7.5
  0
CIRCLE
  5
2DB
  8
DATA
  6
CONTINUOUS
 62
     7
 10
-284.5
 20
503.64080052961651
 30
0.0
 40
9.5
  0
CIRCLE
  5
2DC
  8
DATA
  6
CONTINUOUS
 62
     7
 10
-284.5
 20
503.64080052961651
 30
0.0
 40
7.5
  0
CIRCLE
  5
2DD
  8
DATA
  6
CONTINUOUS
 62
     7
 10
119.5
 20
408.17726007715078
 30
0.0
 40
9.5
  0
CIRCLE
  5
2DE
  8
DATA
  6
CONTINUOUS
 62
     7
 10
119.5
 20
408.17726007715078
 30
0.0
 40
7.5
  0
CIRCLE
  5
2DF
  8
DATA
  6
CONTINUOUS
 62
     7
 10
119.5
 20
503.64080052961651
 30
0.0
 40
9.5
  0
CIRCLE
  5
2E0
  8
DATA
  6
CONTINUOUS
 62
     7
 10
119.5
 20
503.64080052961651
 30
0.0
 40
7.5
  0
LINE
  5
2E1
  8
DATA
  6
CONTINUOUS
 62
     7
 10
-298.0
 20
396.60000000000002
 30
0.0
 11
-298.0
 21
512.5
 31
0.0
  0
LINE
  5
2E2
  8
DATA
  6
CONTINUOUS
 62
     7
 10
133.0
 20
396.60000000000002
 30
0.0
 11
133.0
 21
512.5
 31
0.0
  0
LINE
  5
2E3
  8
DATA
  6
CONTINUOUS
 62
     7
 10
133.0
 20
512.5
 30
0.0
 11
135.0
 21
512.5
 31
0.0
  0
LINE
  5
2E4
  8
DATA
  6
CONTINUOUS
 62
     7
 10
-298.0
 20
512.5
 30
0.0
 11
-300.0
 21
512.5
 31
0.0
  0
POLYLINE
  5
2E5
  8
DATA
  6
CONTINUOUS
 62
     7
 66
     1
 10
0.0
 20
0.0
 30
0.0
 70
     1
  0
VERTEX
  5
746
  8
DATA
  6
CONTINUOUS
 62
     7
 10
73.080309464231135
 20
461.60645686702912
 30
0.0
  0
VERTEX
  5
747
  8
DATA
  6
CONTINUOUS
 62
     7
 10
80.080309464231135
 20
461.60645686702912
 30
0.0
  0
VERTEX
  5
748
  8
DATA
  6
CONTINUOUS
 62
     7
 10
80.080309464231135
 20
454.60645686702912
 30
0.0
  0
VERTEX
  5
749
  8
DATA
  6
CONTINUOUS
 62
     7
 10
73.080309464231135
 20
454.60645686702912
 30
0.0
  0
SEQEND
  5
74A
  8
DATA
  6
CONTINUOUS
 62
     7
  0
LINE
  5
2EC
  8
DATA
  6
CONTINUOUS
 62
     7
 10
76.580309464231135
 20
458.70645686702909
 30
0.0
 11
75.080309464231135
 21
458.70645686702909
 31
0.0
  0
LINE
  5
2ED
  8
DATA
  6
CONTINUOUS
 62
     7
 10
75.080309464231135
 20
460.2064568670292
 30
0.0
 11
76.580309464231135
 21
460.2064568670292
 31
0.0
  0
LINE
  5
2EE
  8
DATA
  6
CONTINUOUS
 62
     7
 10
75.080309464231135
 20
458.70645686702909
 30
0.0
 11
75.080309464231135
 21
460.2064568670292
 31
0.0
  0
LINE
  5
2EF
  8
DATA
  6
CONTINUOUS
 62
     7
 10
76.580309464231135
 20
456.0064568670291
 30
0.0
 11
75.080309464231135
 21
456.0064568670291
 31
0.0
  0
LINE
  5
2F0
  8
DATA
  6
CONTINUOUS
 62
     7
 10
75.080309464231135
 20
457.50645686702921
 30
0.0
 11
76.580309464231135
 21
457.50645686702921
 31
0.0
  0
LINE
  5
2F1
  8
DATA
  6
CONTINUOUS
 62
     7
 10
75.080309464231135
 20
456.0064568670291
 30
0.0
 11
75.080309464231135
 21
457.50645686702921
 31
0.0
  0
LINE
  5
2F2
  8
DATA
  6
CONTINUOUS
 62
     7
 10
78.080309464231135
 20
458.70645686702909
 30
0.0
 11
76.580309464231135
 21
458.70645686702909
 31
0.0
  0
LINE
  5
2F3
  8
DATA
  6
CONTINUOUS
 62
     7
 10
78.080309464231135
 20
460.2064568670292
 30
0.0
 11
78.080309464231135
 21
458.70645686702909
 31
0.0
  0
LINE
  5
2F4
  8
DATA
  6
CONTINUOUS
 62
     7
 10
76.580309464231135
 20
460.2064568670292
 30
0.0
 11
78.080309464231135
 21
460.2064568670292
 31
0.0
  0
LINE
  5
2F5
  8
DATA
  6
CONTINUOUS
 62
     7
 10
78.080309464231135
 20
456.0064568670291
 30
0.0
 11
76.580309464231135
 21
456.0064568670291
 31
0.0
  0
LINE
  5
2F6
  8
DATA
  6
CONTINUOUS
 62
     7
 10
78.080309464231135
 20
457.50645686702921
 30
0.0
 11
78.080309464231135
 21
456.0064568670291
 31
0.0
  0
LINE
  5
2F7
  8
DATA
  6
CONTINUOUS
 62
     7
 10
76.580309464231135
 20
457.50645686702921
 30
0.0
 11
78.080309464231135
 21
457.50645686702921
 31
0.0
  0
LINE
  5
2F8
  8
DATA
  6
CONTINUOUS
 62
     7
 10
76.417901990630909
 20
456.0064568670291
 30
0.0
 11
76.417901990630909
 21
457.50645686702921
 31
0.0
  0
LINE
  5
2F9
  8
DATA
  6
CONTINUOUS
 62
     7
 10
76.417901990630909
 20
458.70645686702909
 30
0.0
 11
76.417901990630909
 21
460.2064568670292
 31
0.0
  0
TEXT
  5
2FA
  8
DATA
 62
     7
 10
73.733262425337102
 20
459.8140333472976
 30
0.0
 40
0.9773046875
  1
1
 50
270.0
 41
0.7
 11
74.710567112837097
 21
459.8140333472976
 31
0.0
 73
     3
  0
TEXT
  5
2FB
  8
DATA
 62
     7
 10
73.733262425337102
 20
457.1604387613063
 30
0.0
 40
0.9773046875
  1
2
 50
270.0
 41
0.7
 11
74.710567112837097
 21
457.1604387613063
 31
0.0
 73
     3
  0
TEXT
  5
2FC
  8
DATA
 62
     7
 10
78.544137213586296
 20
460.12605534384141
 30
0.0
 40
0.9773046875
  1
ON
 50
270.0
 41
0.7
 11
79.521441901086291
 21
460.12605534384141
 31
0.0
 73
     3
  0
LINE
  5
2FD
  8
DATA
  6
CONTINUOUS
 62
     7
 10
-300.0
 20
-425.0
 30
0.0
 11
-300.0
 21
-294.0
 31
0.0
  0
LINE
  5
2FE
  8
DATA
  6
CONTINUOUS
 62
     7
 10
135.0
 20
-425.0
 30
0.0
 11
-300.0
 21
-425.0
 31
0.0
  0
LINE
  5
2FF
  8
DATA
  6
CONTINUOUS
 62
     7
 10
135.0
 20
-294.0
 30
0.0
 11
135.0
 21
-425.0
 31
0.0
  0
LINE
  5
300
  8
DATA
  6
CONTINUOUS
 62
     7
 10
-300.0
 20
-294.0
 30
0.0
 11
135.0
 21
-294.0
 31
0.0
  0
LINE
  5
301
  8
DATA
  6
CONTINUOUS
 62
     7
 10
-300.0
 20
-500.0
 30
0.0
 11
-300.0
 21
-456.0
 31
0.0
  0
LINE
  5
302
  8
DATA
  6
CONTINUOUS
 62
     7
 10
135.0
 20
-500.0
 30
0.0
 11
-300.0
 21
-500.0
 31
0.0
  0
LINE
  5
303
  8
DATA
  6
CONTINUOUS
 62
     7
 10
135.0
 20
-456.0
 30
0.0
 11
135.0
 21
-500.0
 31
0.0
  0
LINE
  5
304
  8
DATA
  6
CONTINUOUS
 62
     7
 10
-300.0
 20
-456.0
 30
0.0
 11
135.0
 21
-456.0
 31
0.0
  0
LINE
  5
305
  8
DATA
  6
CONTINUOUS
 62
     7
 10
-292.0
 20
-504.0
 30
0.0
 11
-294.0
 21
-500.0
 31
0.0
  0
LINE
  5
306
  8
DATA
  6
CONTINUOUS
 62
     7
 10
-277.0
 20
-504.0
 30
0.0
 11
-275.0
 21
-500.0
 31
0.0
  0
LINE
  5
307
  8
DATA
  6
CONTINUOUS
 62
     7
 10
-292.0
 20
-504.0
 30
0.0
 11
-277.0
 21
-504.0
 31
0.0
  0
LINE
  5
308
  8
DATA
  6
CONTINUOUS
 62
     7
 10
127.0
 20
-504.0
 30
0.0
 11
129.0
 21
-500.0
 31
0.0
  0
LINE
  5
309
  8
DATA
  6
CONTINUOUS
 62
     7
 10
112.0
 20
-504.0
 30
0.0
 11
110.0
 21
-500.0
 31
0.0
  0
LINE
  5
30A
  8
DATA
  6
CONTINUOUS
 62
     7
 10
127.0
 20
-504.0
 30
0.0
 11
112.0
 21
-504.0
 31
0.0
  0
CIRCLE
  5
30B
  8
DATA
  6
CONTINUOUS
 62
     7
 10
112.6287419664006
 20
-487.0
 30
0.0
 40
1.5
  0
TEXT
  5
30C
  8
DATA
 62
     7
 10
109.09067727865551
 20
-496.5252149424515
 30
0.0
 40
3.0405034722222211
  1
Power
 41
0.7
 11
109.09067727865551
 21
-493.48471147022929
 31
0.0
 73
     3
  0
TEXT
  5
30D
  8
DATA
 62
     7
 10
-18.153751069617432
 20
-471.3550074932952
 30
0.0
 40
9.5015733506944446
  1
CAT5-1600A Extender R
 41
0.7
 11
-18.153751069617432
 21
-461.85343414260069
 31
0.0
 73
     3
  0
TEXT
  5
30E
  8
DATA
 62
     7
 10
81.173940028904951
 20
-478.91799411622799
 30
0.0
 40
5.4729062500000003
  1
VGA・USB
 41
0.7
 11
81.173940028904951
 21
-473.44508786622799
 31
0.0
 73
     3
  0
LINE
  5
30F
  8
DATA
  6
CONTINUOUS
 62
     7
 10
135.0
 20
-415.89999999999992
 30
0.0
 11
-300.0
 21
-415.89999999999992
 31
0.0
  0
LINE
  5
310
  8
DATA
  6
CONTINUOUS
 62
     7
 10
-300.0
 20
-218.49999999988211
 30
0.0
 11
-300.0
 21
-260.49999999988211
 31
0.0
  0
LINE
  5
311
  8
DATA
  6
CONTINUOUS
 62
     7
 10
135.0
 20
-218.49999999988211
 30
0.0
 11
-300.0
 21
-218.49999999988211
 31
0.0
  0
LINE
  5
312
  8
DATA
  6
CONTINUOUS
 62
     7
 10
135.0
 20
-260.49999999988211
 30
0.0
 11
135.0
 21
-218.49999999988211
 31
0.0
  0
LINE
  5
313
  8
DATA
  6
CONTINUOUS
 62
     7
 10
-298.0
 20
-262.49999999988211
 30
0.0
 11
133.0
 21
-262.49999999988211
 31
0.0
  0
LINE
  5
314
  8
DATA
  6
CONTINUOUS
 62
     7
 10
-292.0
 20
-214.49999999988211
 30
0.0
 11
-294.0
 21
-218.49999999988211
 31
0.0
  0
LINE
  5
315
  8
DATA
  6
CONTINUOUS
 62
     7
 10
-277.0
 20
-214.49999999988211
 30
0.0
 11
-275.0
 21
-218.49999999988211
 31
0.0
  0
LINE
  5
316
  8
DATA
  6
CONTINUOUS
 62
     7
 10
-292.0
 20
-214.49999999988211
 30
0.0
 11
-277.0
 21
-214.49999999988211
 31
0.0
  0
LINE
  5
317
  8
DATA
  6
CONTINUOUS
 62
     7
 10
127.0
 20
-214.49999999988211
 30
0.0
 11
129.0
 21
-218.49999999988211
 31
0.0
  0
LINE
  5
318
  8
DATA
  6
CONTINUOUS
 62
     7
 10
112.0
 20
-214.49999999988211
 30
0.0
 11
110.0
 21
-218.49999999988211
 31
0.0
  0
LINE
  5
319
  8
DATA
  6
CONTINUOUS
 62
     7
 10
127.0
 20
-214.49999999988211
 30
0.0
 11
112.0
 21
-214.49999999988211
 31
0.0
  0
ARC
  5
31A
  8
DATA
  6
CONTINUOUS
 62
     7
 10
112.0
 20
-424.37410924882141
 30
0.0
 40
1.499999999999976
 50
204.6617518669203
 51
335.33824813307967
  0
TEXT
  5
31B
  8
DATA
 62
     7
 10
-262.01156984201327
 20
-221.3987936879729
 30
0.0
 40
2.5409921875000001
  1
USB Link
 50
180.0
 41
0.7
 11
-262.01156984201327
 21
-223.93978587547281
 31
0.0
 73
     3
  0
LINE
  5
31C
  8
DATA
  6
CONTINUOUS
 62
     7
 10
-276.50641309576042
 20
-242.87673134188799
 30
0.0
 11
-276.50641309576042
 21
-229.5767313418873
 31
0.0
  0
LINE
  5
31D
  8
DATA
  6
CONTINUOUS
 62
     7
 10
-260.80641309576032
 20
-242.87673134188799
 30
0.0
 11
-260.80641309576032
 21
-229.5767313418873
 31
0.0
  0
LINE
  5
31E
  8
DATA
  6
CONTINUOUS
 62
     7
 10
-260.80641309576032
 20
-229.5767313418873
 30
0.0
 11
-276.50641309576042
 21
-229.5767313418873
 31
0.0
  0
LINE
  5
31F
  8
DATA
  6
CONTINUOUS
 62
     7
 10
-260.80641309576032
 20
-242.87673134188799
 30
0.0
 11
-276.50641309576042
 21
-242.87673134188799
 31
0.0
  0
LINE
  5
320
  8
DATA
  6
CONTINUOUS
 62
     7
 10
-262.50641309576042
 20
-239.8767313418879
 30
0.0
 11
-274.80641309576032
 21
-239.8767313418879
 31
0.0
  0
LINE
  5
321
  8
DATA
  6
CONTINUOUS
 62
     7
 10
-262.50641309576042
 20
-239.8767313418879
 30
0.0
 11
-262.50641309576042
 21
-232.5767313418873
 31
0.0
  0
LINE
  5
322
  8
DATA
  6
CONTINUOUS
 62
     7
 10
-274.80641309576032
 20
-239.8767313418879
 30
0.0
 11
-274.80641309576032
 21
-232.5767313418873
 31
0.0
  0
LINE
  5
323
  8
DATA
  6
CONTINUOUS
 62
     7
 10
-266.43141309576032
 20
-229.5767313418873
 30
0.0
 11
-266.43141309576032
 21
-231.0767313418873
 31
0.0
  0
LINE
  5
324
  8
DATA
  6
CONTINUOUS
 62
     7
 10
-270.88141309576042
 20
-231.0767313418873
 30
0.0
 11
-270.88141309576042
 21
-229.5767313418873
 31
0.0
  0
LINE
  5
325
  8
DATA
  6
CONTINUOUS
 62
     7
 10
-265.30641309576032
 20
-231.0767313418873
 30
0.0
 11
-266.43141309576032
 21
-231.0767313418873
 31
0.0
  0
LINE
  5
326
  8
DATA
  6
CONTINUOUS
 62
     7
 10
-270.88141309576042
 20
-231.0767313418873
 30
0.0
 11
-272.00641309576042
 21
-231.0767313418873
 31
0.0
  0
LINE
  5
327
  8
DATA
  6
CONTINUOUS
 62
     7
 10
-262.50641309576042
 20
-232.5767313418873
 30
0.0
 11
-265.30641309576032
 21
-232.5767313418873
 31
0.0
  0
LINE
  5
328
  8
DATA
  6
CONTINUOUS
 62
     7
 10
-272.00641309576042
 20
-232.5767313418873
 30
0.0
 11
-274.80641309576032
 21
-232.5767313418873
 31
0.0
  0
LINE
  5
329
  8
DATA
  6
CONTINUOUS
 62
     7
 10
-265.30641309576032
 20
-231.0767313418873
 30
0.0
 11
-265.30641309576032
 21
-232.5767313418873
 31
0.0
  0
LINE
  5
32A
  8
DATA
  6
CONTINUOUS
 62
     7
 10
-272.00641309576042
 20
-232.5767313418873
 30
0.0
 11
-272.00641309576042
 21
-231.0767313418873
 31
0.0
  0
TEXT
  5
32B
  8
DATA
 62
     7
 10
-263.91022307481728
 20
-245.08634931663741
 30
0.0
 40
2.7950914062500001
  1
CAT-5
 50
180.0
 41
0.7
 11
-263.91022307481728
 21
-247.88144072288739
 31
0.0
 73
     3
  0
CIRCLE
  5
32C
  8
DATA
  6
CONTINUOUS
 62
     7
 10
-289.15360267611879
 20
-233.49999999988211
 30
0.0
 40
3.6000000000000218
  0
LINE
  5
32D
  8
DATA
  6
CONTINUOUS
 62
     7
 10
-287.32877391714561
 20
-233.49999999988211
 30
0.0
 11
-290.97843143509198
 21
-233.49999999988211
 31
0.0
  0
LINE
  5
32E
  8
DATA
  6
CONTINUOUS
 62
     7
 10
-289.15360267611879
 20
-235.32482875885529
 30
0.0
 11
-289.15360267611879
 21
-231.6751712409089
 31
0.0
  0
CIRCLE
  5
32F
  8
DATA
  6
CONTINUOUS
 62
     7
 10
-280.5768013380594
 20
-233.49999999988211
 30
0.0
 40
1.5
  0
TEXT
  5
330
  8
DATA
 62
     7
 10
-277.82772301391168
 20
-221.3987936879729
 30
0.0
 40
2.5409921875000001
  1
HOST
 50
180.0
 41
0.7
 11
-277.82772301391168
 21
-223.93978587547281
 31
0.0
 73
     3
  0
CIRCLE
  5
331
  8
DATA
  6
CONTINUOUS
 62
     7
 10
-190.0
 20
-233.49999999988211
 30
0.0
 40
3.6000000000000218
  0
LINE
  5
332
  8
DATA
  6
CONTINUOUS
 62
     7
 10
-188.17517124102679
 20
-233.49999999988211
 30
0.0
 11
-191.82482875897321
 21
-233.49999999988211
 31
0.0
  0
LINE
  5
333
  8
DATA
  6
CONTINUOUS
 62
     7
 10
-190.0
 20
-235.32482875885529
 30
0.0
 11
-190.0
 21
-231.6751712409089
 31
0.0
  0
TEXT
  5
334
  8
DATA
 62
     7
 10
-10.47119774358122
 20
-221.3987936879729
 30
0.0
 40
2.5409921875000001
  1
 LINK
 50
180.0
 41
0.7
 11
-10.47119774358122
 21
-223.93978587547281
 31
0.0
 73
     3
  0
LINE
  5
335
  8
DATA
  6
CONTINUOUS
 62
     7
 10
-23.32578850996892
 20
-242.87673134188799
 30
0.0
 11
-23.32578850996892
 21
-229.5767313418873
 31
0.0
  0
LINE
  5
336
  8
DATA
  6
CONTINUOUS
 62
     7
 10
-7.6257885099688547
 20
-242.87673134188799
 30
0.0
 11
-7.6257885099688547
 21
-229.5767313418873
 31
0.0
  0
LINE
  5
337
  8
DATA
  6
CONTINUOUS
 62
     7
 10
-7.6257885099688547
 20
-229.5767313418873
 30
0.0
 11
-23.32578850996892
 21
-229.5767313418873
 31
0.0
  0
LINE
  5
338
  8
DATA
  6
CONTINUOUS
 62
     7
 10
-7.6257885099688547
 20
-242.87673134188799
 30
0.0
 11
-23.32578850996892
 21
-242.87673134188799
 31
0.0
  0
LINE
  5
339
  8
DATA
  6
CONTINUOUS
 62
     7
 10
-9.3257885099689002
 20
-239.8767313418879
 30
0.0
 11
-21.625788509968871
 21
-239.8767313418879
 31
0.0
  0
LINE
  5
33A
  8
DATA
  6
CONTINUOUS
 62
     7
 10
-9.3257885099689002
 20
-239.8767313418879
 30
0.0
 11
-9.3257885099689002
 21
-232.5767313418873
 31
0.0
  0
LINE
  5
33B
  8
DATA
  6
CONTINUOUS
 62
     7
 10
-21.625788509968871
 20
-239.8767313418879
 30
0.0
 11
-21.625788509968871
 21
-232.5767313418873
 31
0.0
  0
LINE
  5
33C
  8
DATA
  6
CONTINUOUS
 62
     7
 10
-13.250788509968871
 20
-229.5767313418873
 30
0.0
 11
-13.250788509968871
 21
-231.0767313418873
 31
0.0
  0
LINE
  5
33D
  8
DATA
  6
CONTINUOUS
 62
     7
 10
-17.700788509968909
 20
-231.0767313418873
 30
0.0
 11
-17.700788509968909
 21
-229.5767313418873
 31
0.0
  0
LINE
  5
33E
  8
DATA
  6
CONTINUOUS
 62
     7
 10
-12.125788509968871
 20
-231.0767313418873
 30
0.0
 11
-13.250788509968871
 21
-231.0767313418873
 31
0.0
  0
LINE
  5
33F
  8
DATA
  6
CONTINUOUS
 62
     7
 10
-17.700788509968909
 20
-231.0767313418873
 30
0.0
 11
-18.82578850996892
 21
-231.0767313418873
 31
0.0
  0
LINE
  5
340
  8
DATA
  6
CONTINUOUS
 62
     7
 10
-9.3257885099689002
 20
-232.5767313418873
 30
0.0
 11
-12.125788509968871
 21
-232.5767313418873
 31
0.0
  0
LINE
  5
341
  8
DATA
  6
CONTINUOUS
 62
     7
 10
-18.82578850996892
 20
-232.5767313418873
 30
0.0
 11
-21.625788509968871
 21
-232.5767313418873
 31
0.0
  0
LINE
  5
342
  8
DATA
  6
CONTINUOUS
 62
     7
 10
-12.125788509968871
 20
-231.0767313418873
 30
0.0
 11
-12.125788509968871
 21
-232.5767313418873
 31
0.0
  0
LINE
  5
343
  8
DATA
  6
CONTINUOUS
 62
     7
 10
-18.82578850996892
 20
-232.5767313418873
 30
0.0
 11
-18.82578850996892
 21
-231.0767313418873
 31
0.0
  0
TEXT
  5
344
  8
DATA
 62
     7
 10
-10.729598489025831
 20
-245.08634931663741
 30
0.0
 40
2.7950914062500001
  1
CAT-5
 50
180.0
 41
0.7
 11
-10.729598489025831
 21
-247.88144072288739
 31
0.0
 73
     3
  0
CIRCLE
  5
345
  8
DATA
  6
CONTINUOUS
 62
     7
 10
9.9640416262861056
 20
-228.49999999988211
 30
0.0
 40
1.75
  0
CIRCLE
  5
346
  8
DATA
  6
CONTINUOUS
 62
     7
 10
9.9640416262861056
 20
-228.49999999988211
 30
0.0
 40
3.0
  0
CIRCLE
  5
347
  8
DATA
  6
CONTINUOUS
 62
     7
 10
115.0
 20
-235.5400303751224
 30
0.0
 40
3.9000000000000048
  0
CIRCLE
  5
348
  8
DATA
  6
CONTINUOUS
 62
     7
 10
115.0
 20
-235.5400303751224
 30
0.0
 40
1.0
  0
POLYLINE
  5
349
  8
DATA
  6
CONTINUOUS
 62
     7
 66
     1
 10
0.0
 20
0.0
 30
0.0
 70
     1
  0
VERTEX
  5
74B
  8
DATA
  6
CONTINUOUS
 62
     7
 10
112.3008874915385
 20
-230.86503037512239
 30
0.0
  0
VERTEX
  5
74C
  8
DATA
  6
CONTINUOUS
 62
     7
 10
109.60177498307689
 20
-235.5400303751224
 30
0.0
  0
VERTEX
  5
74D
  8
DATA
  6
CONTINUOUS
 62
     7
 10
112.3008874915385
 20
-240.21503037512241
 30
0.0
  0
VERTEX
  5
74E
  8
DATA
  6
CONTINUOUS
 62
     7
 10
117.6991125084615
 20
-240.21503037512241
 30
0.0
  0
VERTEX
  5
74F
  8
DATA
  6
CONTINUOUS
 62
     7
 10
120.39822501692301
 20
-235.5400303751224
 30
0.0
  0
VERTEX
  5
750
  8
DATA
  6
CONTINUOUS
 62
     7
 10
117.6991125084615
 20
-230.86503037512239
 30
0.0
  0
SEQEND
  5
751
  8
DATA
  6
CONTINUOUS
 62
     7
  0
POLYLINE
  5
352
  8
DATA
  6
CONTINUOUS
 62
     7
 66
     1
 10
0.0
 20
0.0
 30
0.0
 70
   129
  0
VERTEX
  5
752
  8
DATA
  6
CONTINUOUS
 62
     7
 10
90.559648167433167
 20
-233.8076763938528
 30
0.0
 42
-0.4142135623730951
  0
VERTEX
  5
753
  8
DATA
  6
CONTINUOUS
 62
     7
 10
91.059648167433181
 20
-233.3076763938528
 30
0.0
 42
-0.4142135623730868
  0
VERTEX
  5
754
  8
DATA
  6
CONTINUOUS
 62
     7
 10
91.559648167433195
 20
-233.8076763938528
 30
0.0
 42
-0.4142135623730951
  0
VERTEX
  5
755
  8
DATA
  6
CONTINUOUS
 62
     7
 10
91.059648167433181
 20
-234.3076763938528
 30
0.0
 42
-0.4142135623731035
  0
VERTEX
  5
756
  8
DATA
  6
CONTINUOUS
 62
     7
 10
90.559648167433167
 20
-233.8076763938528
 30
0.0
  0
SEQEND
  5
757
  8
DATA
  6
CONTINUOUS
 62
     7
  0
LINE
  5
359
  8
DATA
  6
CONTINUOUS
 62
     7
 10
81.129594053491488
 20
-237.97767639385279
 30
0.0
 11
94.029594053491564
 21
-237.97767639385279
 31
0.0
  0
LINE
  5
35A
  8
DATA
  6
CONTINUOUS
 62
     7
 10
81.506164053491503
 20
-229.63767639385279
 30
0.0
 11
93.653034053491552
 21
-229.63767639385279
 31
0.0
  0
POLYLINE
  5
35B
  8
DATA
  6
CONTINUOUS
 62
     7
 66
     1
 10
0.0
 20
0.0
 30
0.0
 70
   129
  0
VERTEX
  5
758
  8
DATA
  6
CONTINUOUS
 62
     7
 10
88.27964816743318
 20
-233.8076763938528
 30
0.0
 42
-0.4142135623730951
  0
VERTEX
  5
759
  8
DATA
  6
CONTINUOUS
 62
     7
 10
88.77964816743318
 20
-233.3076763938528
 30
0.0
 42
-0.4142135623731035
  0
VERTEX
  5
75A
  8
DATA
  6
CONTINUOUS
 62
     7
 10
89.279648167433166
 20
-233.8076763938528
 30
0.0
 42
-0.4142135623730951
  0
VERTEX
  5
75B
  8
DATA
  6
CONTINUOUS
 62
     7
 10
88.77964816743318
 20
-234.3076763938528
 30
0.0
 42
-0.4142135623730868
  0
VERTEX
  5
75C
  8
DATA
  6
CONTINUOUS
 62
     7
 10
88.27964816743318
 20
-233.8076763938528
 30
0.0
  0
SEQEND
  5
75D
  8
DATA
  6
CONTINUOUS
 62
     7
  0
POLYLINE
  5
362
  8
DATA
  6
CONTINUOUS
 62
     7
 66
     1
 10
0.0
 20
0.0
 30
0.0
 70
   129
  0
VERTEX
  5
75E
  8
DATA
  6
CONTINUOUS
 62
     7
 10
82.777579623107059
 20
-231.82767639385281
 30
0.0
 42
-0.4142135623730951
  0
VERTEX
  5
75F
  8
DATA
  6
CONTINUOUS
 62
     7
 10
83.277579623107044
 20
-231.32767639385281
 30
0.0
 42
-0.4142135623731035
  0
VERTEX
  5
760
  8
DATA
  6
CONTINUOUS
 62
     7
 10
83.777579623107059
 20
-231.82767639385281
 30
0.0
 42
-0.4142135623730951
  0
VERTEX
  5
761
  8
DATA
  6
CONTINUOUS
 62
     7
 10
83.277579623107044
 20
-232.3276763938529
 30
0.0
 42
-0.414213562373068
  0
VERTEX
  5
762
  8
DATA
  6
CONTINUOUS
 62
     7
 10
82.777579623107059
 20
-231.82767639385281
 30
0.0
  0
SEQEND
  5
763
  8
DATA
  6
CONTINUOUS
 62
     7
  0
POLYLINE
  5
369
  8
DATA
  6
CONTINUOUS
 62
     7
 66
     1
 10
0.0
 20
0.0
 30
0.0
 70
   129
  0
VERTEX
  5
764
  8
DATA
  6
CONTINUOUS
 62
     7
 10
85.067579623107093
 20
-231.82767639385281
 30
0.0
 42
-0.4142135623730951
  0
VERTEX
  5
765
  8
DATA
  6
CONTINUOUS
 62
     7
 10
85.567579623107093
 20
-231.32767639385281
 30
0.0
 42
-0.4142135623730992
  0
VERTEX
  5
766
  8
DATA
  6
CONTINUOUS
 62
     7
 10
86.067579623107093
 20
-231.82767639385281
 30
0.0
 42
-0.4142135623731284
  0
VERTEX
  5
767
  8
DATA
  6
CONTINUOUS
 62
     7
 10
85.567579623107093
 20
-232.3276763938529
 30
0.0
 42
-0.4142135623730868
  0
VERTEX
  5
768
  8
DATA
  6
CONTINUOUS
 62
     7
 10
85.067579623107093
 20
-231.82767639385281
 30
0.0
  0
SEQEND
  5
769
  8
DATA
  6
CONTINUOUS
 62
     7
  0
POLYLINE
  5
370
  8
DATA
  6
CONTINUOUS
 62
     7
 66
     1
 10
0.0
 20
0.0
 30
0.0
 70
   129
  0
VERTEX
  5
76A
  8
DATA
  6
CONTINUOUS
 62
     7
 10
87.357579623107142
 20
-231.82767639385281
 30
0.0
 42
-0.4142135623730951
  0
VERTEX
  5
76B
  8
DATA
  6
CONTINUOUS
 62
     7
 10
87.857579623107142
 20
-231.32767639385281
 30
0.0
 42
-0.4142135623730951
  0
VERTEX
  5
76C
  8
DATA
  6
CONTINUOUS
 62
     7
 10
88.357579623107128
 20
-231.82767639385281
 30
0.0
 42
-0.4142135623730951
  0
VERTEX
  5
76D
  8
DATA
  6
CONTINUOUS
 62
     7
 10
87.857579623107142
 20
-232.3276763938529
 30
0.0
 42
-0.4142135623730712
  0
VERTEX
  5
76E
  8
DATA
  6
CONTINUOUS
 62
     7
 10
87.357579623107142
 20
-231.82767639385281
 30
0.0
  0
SEQEND
  5
76F
  8
DATA
  6
CONTINUOUS
 62
     7
  0
POLYLINE
  5
377
  8
DATA
  6
CONTINUOUS
 62
     7
 66
     1
 10
0.0
 20
0.0
 30
0.0
 70
   129
  0
VERTEX
  5
770
  8
DATA
  6
CONTINUOUS
 62
     7
 10
89.637579623107129
 20
-231.82767639385281
 30
0.0
 42
-0.4142135623730951
  0
VERTEX
  5
771
  8
DATA
  6
CONTINUOUS
 62
     7
 10
90.137579623107143
 20
-231.32767639385281
 30
0.0
 42
-0.4142135623731117
  0
VERTEX
  5
772
  8
DATA
  6
CONTINUOUS
 62
     7
 10
90.637579623107143
 20
-231.82767639385281
 30
0.0
 42
-0.4142135623730951
  0
VERTEX
  5
773
  8
DATA
  6
CONTINUOUS
 62
     7
 10
90.137579623107143
 20
-232.3276763938529
 30
0.0
 42
-0.414213562373069
  0
VERTEX
  5
774
  8
DATA
  6
CONTINUOUS
 62
     7
 10
89.637579623107129
 20
-231.82767639385281
 30
0.0
  0
SEQEND
  5
775
  8
DATA
  6
CONTINUOUS
 62
     7
  0
POLYLINE
  5
37E
  8
DATA
  6
CONTINUOUS
 62
     7
 66
     1
 10
0.0
 20
0.0
 30
0.0
 70
   129
  0
VERTEX
  5
776
  8
DATA
  6
CONTINUOUS
 62
     7
 10
82.777579623107059
 20
-235.78767639385279
 30
0.0
 42
-0.4142135623730951
  0
VERTEX
  5
777
  8
DATA
  6
CONTINUOUS
 62
     7
 10
83.277579623107044
 20
-235.28767639385291
 30
0.0
 42
-0.4142135623731035
  0
VERTEX
  5
778
  8
DATA
  6
CONTINUOUS
 62
     7
 10
83.777579623107059
 20
-235.78767639385279
 30
0.0
 42
-0.4142135623730951
  0
VERTEX
  5
779
  8
DATA
  6
CONTINUOUS
 62
     7
 10
83.277579623107044
 20
-236.28767639385279
 30
0.0
 42
-0.4142135623730868
  0
VERTEX
  5
77A
  8
DATA
  6
CONTINUOUS
 62
     7
 10
82.777579623107059
 20
-235.78767639385279
 30
0.0
  0
SEQEND
  5
77B
  8
DATA
  6
CONTINUOUS
 62
     7
  0
POLYLINE
  5
385
  8
DATA
  6
CONTINUOUS
 62
     7
 66
     1
 10
0.0
 20
0.0
 30
0.0
 70
   129
  0
VERTEX
  5
77C
  8
DATA
  6
CONTINUOUS
 62
     7
 10
85.067579623107093
 20
-235.78767639385279
 30
0.0
 42
-0.4142135623730951
  0
VERTEX
  5
77D
  8
DATA
  6
CONTINUOUS
 62
     7
 10
85.567579623107093
 20
-235.28767639385291
 30
0.0
 42
-0.4142135623730992
  0
VERTEX
  5
77E
  8
DATA
  6
CONTINUOUS
 62
     7
 10
86.067579623107093
 20
-235.78767639385279
 30
0.0
 42
-0.4142135623730951
  0
VERTEX
  5
77F
  8
DATA
  6
CONTINUOUS
 62
     7
 10
85.567579623107093
 20
-236.28767639385279
 30
0.0
 42
-0.414213562373091
  0
VERTEX
  5
780
  8
DATA
  6
CONTINUOUS
 62
     7
 10
85.067579623107093
 20
-235.78767639385279
 30
0.0
  0
SEQEND
  5
781
  8
DATA
  6
CONTINUOUS
 62
     7
  0
POLYLINE
  5
38C
  8
DATA
  6
CONTINUOUS
 62
     7
 66
     1
 10
0.0
 20
0.0
 30
0.0
 70
   129
  0
VERTEX
  5
782
  8
DATA
  6
CONTINUOUS
 62
     7
 10
87.357579623107142
 20
-235.78767639385279
 30
0.0
 42
-0.4142135623730951
  0
VERTEX
  5
783
  8
DATA
  6
CONTINUOUS
 62
     7
 10
87.857579623107142
 20
-235.28767639385291
 30
0.0
 42
-0.4142135623730951
  0
VERTEX
  5
784
  8
DATA
  6
CONTINUOUS
 62
     7
 10
88.357579623107128
 20
-235.78767639385279
 30
0.0
 42
-0.4142135623730951
  0
VERTEX
  5
785
  8
DATA
  6
CONTINUOUS
 62
     7
 10
87.857579623107142
 20
-236.28767639385279
 30
0.0
 42
-0.4142135623730951
  0
VERTEX
  5
786
  8
DATA
  6
CONTINUOUS
 62
     7
 10
87.357579623107142
 20
-235.78767639385279
 30
0.0
  0
SEQEND
  5
787
  8
DATA
  6
CONTINUOUS
 62
     7
  0
POLYLINE
  5
393
  8
DATA
  6
CONTINUOUS
 62
     7
 66
     1
 10
0.0
 20
0.0
 30
0.0
 70
   129
  0
VERTEX
  5
788
  8
DATA
  6
CONTINUOUS
 62
     7
 10
89.637579623107129
 20
-235.78767639385279
 30
0.0
 42
-0.4142135623730951
  0
VERTEX
  5
789
  8
DATA
  6
CONTINUOUS
 62
     7
 10
90.137579623107143
 20
-235.28767639385291
 30
0.0
 42
-0.4142135623731117
  0
VERTEX
  5
78A
  8
DATA
  6
CONTINUOUS
 62
     7
 10
90.637579623107143
 20
-235.78767639385279
 30
0.0
 42
-0.4142135623730951
  0
VERTEX
  5
78B
  8
DATA
  6
CONTINUOUS
 62
     7
 10
90.137579623107143
 20
-236.28767639385279
 30
0.0
 42
-0.4142135623730784
  0
VERTEX
  5
78C
  8
DATA
  6
CONTINUOUS
 62
     7
 10
89.637579623107129
 20
-235.78767639385279
 30
0.0
  0
SEQEND
  5
78D
  8
DATA
  6
CONTINUOUS
 62
     7
  0
POLYLINE
  5
39A
  8
DATA
  6
CONTINUOUS
 62
     7
 66
     1
 10
0.0
 20
0.0
 30
0.0
 70
   129
  0
VERTEX
  5
78E
  8
DATA
  6
CONTINUOUS
 62
     7
 10
81.419648167433166
 20
-233.8076763938528
 30
0.0
 42
-0.4142135623730951
  0
VERTEX
  5
78F
  8
DATA
  6
CONTINUOUS
 62
     7
 10
81.919648167433152
 20
-233.3076763938528
 30
0.0
 42
-0.4142135623730868
  0
VERTEX
  5
790
  8
DATA
  6
CONTINUOUS
 62
     7
 10
82.419648167433152
 20
-233.8076763938528
 30
0.0
 42
-0.4142135623730951
  0
VERTEX
  5
791
  8
DATA
  6
CONTINUOUS
 62
     7
 10
81.919648167433152
 20
-234.3076763938528
 30
0.0
 42
-0.4142135623731035
  0
VERTEX
  5
792
  8
DATA
  6
CONTINUOUS
 62
     7
 10
81.419648167433166
 20
-233.8076763938528
 30
0.0
  0
SEQEND
  5
793
  8
DATA
  6
CONTINUOUS
 62
     7
  0
POLYLINE
  5
3A1
  8
DATA
  6
CONTINUOUS
 62
     7
 66
     1
 10
0.0
 20
0.0
 30
0.0
 70
   129
  0
VERTEX
  5
794
  8
DATA
  6
CONTINUOUS
 62
     7
 10
83.699648167433125
 20
-233.8076763938528
 30
0.0
 42
-0.4142135623730951
  0
VERTEX
  5
795
  8
DATA
  6
CONTINUOUS
 62
     7
 10
84.199648167433139
 20
-233.3076763938528
 30
0.0
 42
-0.4142135623731076
  0
VERTEX
  5
796
  8
DATA
  6
CONTINUOUS
 62
     7
 10
84.699648167433153
 20
-233.8076763938528
 30
0.0
 42
-0.4142135623730951
  0
VERTEX
  5
797
  8
DATA
  6
CONTINUOUS
 62
     7
 10
84.199648167433139
 20
-234.3076763938528
 30
0.0
 42
-0.4142135623730825
  0
VERTEX
  5
798
  8
DATA
  6
CONTINUOUS
 62
     7
 10
83.699648167433125
 20
-233.8076763938528
 30
0.0
  0
SEQEND
  5
799
  8
DATA
  6
CONTINUOUS
 62
     7
  0
POLYLINE
  5
3A8
  8
DATA
  6
CONTINUOUS
 62
     7
 66
     1
 10
0.0
 20
0.0
 30
0.0
 70
   129
  0
VERTEX
  5
79A
  8
DATA
  6
CONTINUOUS
 62
     7
 10
85.989648167433174
 20
-233.8076763938528
 30
0.0
 42
-0.4142135623730951
  0
VERTEX
  5
79B
  8
DATA
  6
CONTINUOUS
 62
     7
 10
86.489648167433188
 20
-233.3076763938528
 30
0.0
 42
-0.414213562373091
  0
VERTEX
  5
79C
  8
DATA
  6
CONTINUOUS
 62
     7
 10
86.989648167433174
 20
-233.8076763938528
 30
0.0
 42
-0.4142135623730951
  0
VERTEX
  5
79D
  8
DATA
  6
CONTINUOUS
 62
     7
 10
86.489648167433188
 20
-234.3076763938528
 30
0.0
 42
-0.4142135623730992
  0
VERTEX
  5
79E
  8
DATA
  6
CONTINUOUS
 62
     7
 10
85.989648167433174
 20
-233.8076763938528
 30
0.0
  0
SEQEND
  5
79F
  8
DATA
  6
CONTINUOUS
 62
     7
  0
POLYLINE
  5
3AF
  8
DATA
  6
CONTINUOUS
 62
     7
 66
     1
 10
0.0
 20
0.0
 30
0.0
 70
   129
  0
VERTEX
  5
7A0
  8
DATA
  6
CONTINUOUS
 62
     7
 10
91.927579623107135
 20
-231.82767639385281
 30
0.0
 42
-0.4142135623730951
  0
VERTEX
  5
7A1
  8
DATA
  6
CONTINUOUS
 62
     7
 10
92.427579623107121
 20
-231.32767639385281
 30
0.0
 42
-0.414213562373093
  0
VERTEX
  5
7A2
  8
DATA
  6
CONTINUOUS
 62
     7
 10
92.927579623107121
 20
-231.82767639385281
 30
0.0
 42
-0.4142135623730951
  0
VERTEX
  5
7A3
  8
DATA
  6
CONTINUOUS
 62
     7
 10
92.427579623107121
 20
-232.3276763938529
 30
0.0
 42
-0.4142135623730685
  0
VERTEX
  5
7A4
  8
DATA
  6
CONTINUOUS
 62
     7
 10
91.927579623107135
 20
-231.82767639385281
 30
0.0
  0
SEQEND
  5
7A5
  8
DATA
  6
CONTINUOUS
 62
     7
  0
POLYLINE
  5
3B6
  8
DATA
  6
CONTINUOUS
 62
     7
 66
     1
 10
0.0
 20
0.0
 30
0.0
 70
   129
  0
VERTEX
  5
7A6
  8
DATA
  6
CONTINUOUS
 62
     7
 10
91.927579623107135
 20
-235.78767639385279
 30
0.0
 42
-0.4142135623730951
  0
VERTEX
  5
7A7
  8
DATA
  6
CONTINUOUS
 62
     7
 10
92.427579623107121
 20
-235.28767639385291
 30
0.0
 42
-0.414213562373093
  0
VERTEX
  5
7A8
  8
DATA
  6
CONTINUOUS
 62
     7
 10
92.927579623107121
 20
-235.78767639385279
 30
0.0
 42
-0.4142135623730951
  0
VERTEX
  5
7A9
  8
DATA
  6
CONTINUOUS
 62
     7
 10
92.427579623107121
 20
-236.28767639385279
 30
0.0
 42
-0.4142135623730971
  0
VERTEX
  5
7AA
  8
DATA
  6
CONTINUOUS
 62
     7
 10
91.927579623107135
 20
-235.78767639385279
 30
0.0
  0
SEQEND
  5
7AB
  8
DATA
  6
CONTINUOUS
 62
     7
  0
ARC
  5
3BD
  8
DATA
  6
CONTINUOUS
 62
     7
 10
81.506164053491503
 20
-231.13767639385279
 30
0.0
 40
1.499998001665289
 50
90.0
 51
170.0000744503985
  0
ARC
  5
3BE
  8
DATA
  6
CONTINUOUS
 62
     7
 10
81.129594053491488
 20
-235.97767639385279
 30
0.0
 40
2.0
 50
180.0
 51
270.0
  0
LINE
  5
3BF
  8
DATA
  6
CONTINUOUS
 62
     7
 10
79.129594053491502
 20
-235.97767639385279
 30
0.0
 11
80.028944053491514
 21
-230.87720639385279
 31
0.0
  0
ARC
  5
3C0
  8
DATA
  6
CONTINUOUS
 62
     7
 10
93.653034053491552
 20
-231.13767639385279
 30
0.0
 40
1.4999999999999989
 50
9.999925549599828
 51
90.0
  0
ARC
  5
3C1
  8
DATA
  6
CONTINUOUS
 62
     7
 10
94.029594053491564
 20
-235.97767639385279
 30
0.0
 40
2.0
 50
270.0
 51
0.0
  0
LINE
  5
3C2
  8
DATA
  6
CONTINUOUS
 62
     7
 10
96.02959405349155
 20
-235.97767639385279
 30
0.0
 11
95.13024405349158
 21
-230.87720639385279
 31
0.0
  0
CIRCLE
  5
3C3
  8
DATA
  6
CONTINUOUS
 62
     7
 10
100.110895698866
 20
-233.7899667022439
 30
0.0
 40
1.1750000000001211
  0
POLYLINE
  5
3C4
  8
DATA
  6
CONTINUOUS
 62
     7
 66
     1
 10
0.0
 20
0.0
 30
0.0
 70
     1
  0
VERTEX
  5
7AC
  8
DATA
  6
CONTINUOUS
 62
     7
 10
100.110895698866
 20
-236.48996670224381
 30
0.0
  0
VERTEX
  5
7AD
  8
DATA
  6
CONTINUOUS
 62
     7
 10
97.772627108647924
 20
-235.13996670224381
 30
0.0
  0
VERTEX
  5
7AE
  8
DATA
  6
CONTINUOUS
 62
     7
 10
97.772627108647924
 20
-232.43996670224391
 30
0.0
  0
VERTEX
  5
7AF
  8
DATA
  6
CONTINUOUS
 62
     7
 10
100.110895698866
 20
-231.08996670224391
 30
0.0
  0
VERTEX
  5
7B0
  8
DATA
  6
CONTINUOUS
 62
     7
 10
102.4491642890841
 20
-232.43996670224391
 30
0.0
  0
VERTEX
  5
7B1
  8
DATA
  6
CONTINUOUS
 62
     7
 10
102.4491642890841
 20
-235.13996670224381
 30
0.0
  0
SEQEND
  5
7B2
  8
DATA
  6
CONTINUOUS
 62
     7
  0
CIRCLE
  5
3CD
  8
DATA
  6
CONTINUOUS
 62
     7
 10
75.11089569886559
 20
-233.7899667022439
 30
0.0
 40
1.1750000000001251
  0
POLYLINE
  5
3CE
  8
DATA
  6
CONTINUOUS
 62
     7
 66
     1
 10
0.0
 20
0.0
 30
0.0
 70
     1
  0
VERTEX
  5
7B3
  8
DATA
  6
CONTINUOUS
 62
     7
 10
75.11089569886559
 20
-236.48996670224381
 30
0.0
  0
VERTEX
  5
7B4
  8
DATA
  6
CONTINUOUS
 62
     7
 10
72.772627108647626
 20
-235.13996670224381
 30
0.0
  0
VERTEX
  5
7B5
  8
DATA
  6
CONTINUOUS
 62
     7
 10
72.772627108647626
 20
-232.43996670224391
 30
0.0
  0
VERTEX
  5
7B6
  8
DATA
  6
CONTINUOUS
 62
     7
 10
75.11089569886559
 20
-231.08996670224391
 30
0.0
  0
VERTEX
  5
7B7
  8
DATA
  6
CONTINUOUS
 62
     7
 10
77.449164289083697
 20
-232.43996670224391
 30
0.0
  0
VERTEX
  5
7B8
  8
DATA
  6
CONTINUOUS
 62
     7
 10
77.449164289083697
 20
-235.13996670224381
 30
0.0
  0
SEQEND
  5
7B9
  8
DATA
  6
CONTINUOUS
 62
     7
  0
POLYLINE
  5
3D7
  8
DATA
  6
CONTINUOUS
 62
     7
 66
     1
 10
0.0
 20
0.0
 30
0.0
 70
   129
  0
VERTEX
  5
7BA
  8
DATA
  6
CONTINUOUS
 62
     7
 10
50.559648167433167
 20
-233.8076763938528
 30
0.0
 42
-0.4142135623730951
  0
VERTEX
  5
7BB
  8
DATA
  6
CONTINUOUS
 62
     7
 10
51.059648167433167
 20
-233.3076763938528
 30
0.0
 42
-0.4142135623730868
  0
VERTEX
  5
7BC
  8
DATA
  6
CONTINUOUS
 62
     7
 10
51.559648167433167
 20
-233.8076763938528
 30
0.0
 42
-0.4142135623730951
  0
VERTEX
  5
7BD
  8
DATA
  6
CONTINUOUS
 62
     7
 10
51.059648167433167
 20
-234.3076763938528
 30
0.0
 42
-0.4142135623731035
  0
VERTEX
  5
7BE
  8
DATA
  6
CONTINUOUS
 62
     7
 10
50.559648167433167
 20
-233.8076763938528
 30
0.0
  0
SEQEND
  5
7BF
  8
DATA
  6
CONTINUOUS
 62
     7
  0
LINE
  5
3DE
  8
DATA
  6
CONTINUOUS
 62
     7
 10
41.129594053491502
 20
-237.97767639385279
 30
0.0
 11
54.029594053491572
 21
-237.97767639385279
 31
0.0
  0
LINE
  5
3DF
  8
DATA
  6
CONTINUOUS
 62
     7
 10
41.506164053491503
 20
-229.63767639385279
 30
0.0
 11
53.653034053491567
 21
-229.63767639385279
 31
0.0
  0
POLYLINE
  5
3E0
  8
DATA
  6
CONTINUOUS
 62
     7
 66
     1
 10
0.0
 20
0.0
 30
0.0
 70
   129
  0
VERTEX
  5
7C0
  8
DATA
  6
CONTINUOUS
 62
     7
 10
48.27964816743318
 20
-233.8076763938528
 30
0.0
 42
-0.4142135623730951
  0
VERTEX
  5
7C1
  8
DATA
  6
CONTINUOUS
 62
     7
 10
48.779648167433173
 20
-233.3076763938528
 30
0.0
 42
-0.4142135623731035
  0
VERTEX
  5
7C2
  8
DATA
  6
CONTINUOUS
 62
     7
 10
49.279648167433173
 20
-233.8076763938528
 30
0.0
 42
-0.4142135623730951
  0
VERTEX
  5
7C3
  8
DATA
  6
CONTINUOUS
 62
     7
 10
48.779648167433173
 20
-234.3076763938528
 30
0.0
 42
-0.4142135623730868
  0
VERTEX
  5
7C4
  8
DATA
  6
CONTINUOUS
 62
     7
 10
48.27964816743318
 20
-233.8076763938528
 30
0.0
  0
SEQEND
  5
7C5
  8
DATA
  6
CONTINUOUS
 62
     7
  0
POLYLINE
  5
3E7
  8
DATA
  6
CONTINUOUS
 62
     7
 66
     1
 10
0.0
 20
0.0
 30
0.0
 70
   129
  0
VERTEX
  5
7C6
  8
DATA
  6
CONTINUOUS
 62
     7
 10
42.777579623107073
 20
-231.82767639385281
 30
0.0
 42
-0.4142135623730951
  0
VERTEX
  5
7C7
  8
DATA
  6
CONTINUOUS
 62
     7
 10
43.277579623107073
 20
-231.32767639385281
 30
0.0
 42
-0.4142135623731035
  0
VERTEX
  5
7C8
  8
DATA
  6
CONTINUOUS
 62
     7
 10
43.777579623107073
 20
-231.82767639385281
 30
0.0
 42
-0.4142135623730951
  0
VERTEX
  5
7C9
  8
DATA
  6
CONTINUOUS
 62
     7
 10
43.277579623107073
 20
-232.3276763938529
 30
0.0
 42
-0.4142135623730702
  0
VERTEX
  5
7CA
  8
DATA
  6
CONTINUOUS
 62
     7
 10
42.777579623107073
 20
-231.82767639385281
 30
0.0
  0
SEQEND
  5
7CB
  8
DATA
  6
CONTINUOUS
 62
     7
  0
POLYLINE
  5
3EE
  8
DATA
  6
CONTINUOUS
 62
     7
 66
     1
 10
0.0
 20
0.0
 30
0.0
 70
   129
  0
VERTEX
  5
7CC
  8
DATA
  6
CONTINUOUS
 62
     7
 10
45.067579623107093
 20
-231.82767639385281
 30
0.0
 42
-0.4142135623730951
  0
VERTEX
  5
7CD
  8
DATA
  6
CONTINUOUS
 62
     7
 10
45.5675796231071
 20
-231.32767639385281
 30
0.0
 42
-0.4142135623730992
  0
VERTEX
  5
7CE
  8
DATA
  6
CONTINUOUS
 62
     7
 10
46.067579623107108
 20
-231.82767639385281
 30
0.0
 42
-0.4142135623731284
  0
VERTEX
  5
7CF
  8
DATA
  6
CONTINUOUS
 62
     7
 10
45.5675796231071
 20
-232.3276763938529
 30
0.0
 42
-0.4142135623730868
  0
VERTEX
  5
7D0
  8
DATA
  6
CONTINUOUS
 62
     7
 10
45.067579623107093
 20
-231.82767639385281
 30
0.0
  0
SEQEND
  5
7D1
  8
DATA
  6
CONTINUOUS
 62
     7
  0
POLYLINE
  5
3F5
  8
DATA
  6
CONTINUOUS
 62
     7
 66
     1
 10
0.0
 20
0.0
 30
0.0
 70
   129
  0
VERTEX
  5
7D2
  8
DATA
  6
CONTINUOUS
 62
     7
 10
47.357579623107128
 20
-231.82767639385281
 30
0.0
 42
-0.4142135623730951
  0
VERTEX
  5
7D3
  8
DATA
  6
CONTINUOUS
 62
     7
 10
47.857579623107128
 20
-231.32767639385281
 30
0.0
 42
-0.4142135623730951
  0
VERTEX
  5
7D4
  8
DATA
  6
CONTINUOUS
 62
     7
 10
48.357579623107121
 20
-231.82767639385281
 30
0.0
 42
-0.4142135623730951
  0
VERTEX
  5
7D5
  8
DATA
  6
CONTINUOUS
 62
     7
 10
47.857579623107128
 20
-232.3276763938529
 30
0.0
 42
-0.4142135623730702
  0
VERTEX
  5
7D6
  8
DATA
  6
CONTINUOUS
 62
     7
 10
47.357579623107128
 20
-231.82767639385281
 30
0.0
  0
SEQEND
  5
7D7
  8
DATA
  6
CONTINUOUS
 62
     7
  0
POLYLINE
  5
3FC
  8
DATA
  6
CONTINUOUS
 62
     7
 66
     1
 10
0.0
 20
0.0
 30
0.0
 70
   129
  0
VERTEX
  5
7D8
  8
DATA
  6
CONTINUOUS
 62
     7
 10
49.637579623107129
 20
-231.82767639385281
 30
0.0
 42
-0.4142135623730951
  0
VERTEX
  5
7D9
  8
DATA
  6
CONTINUOUS
 62
     7
 10
50.137579623107122
 20
-231.32767639385281
 30
0.0
 42
-0.4142135623731117
  0
VERTEX
  5
7DA
  8
DATA
  6
CONTINUOUS
 62
     7
 10
50.637579623107129
 20
-231.82767639385281
 30
0.0
 42
-0.4142135623730951
  0
VERTEX
  5
7DB
  8
DATA
  6
CONTINUOUS
 62
     7
 10
50.137579623107122
 20
-232.3276763938529
 30
0.0
 42
-0.4142135623730702
  0
VERTEX
  5
7DC
  8
DATA
  6
CONTINUOUS
 62
     7
 10
49.637579623107129
 20
-231.82767639385281
 30
0.0
  0
SEQEND
  5
7DD
  8
DATA
  6
CONTINUOUS
 62
     7
  0
POLYLINE
  5
403
  8
DATA
  6
CONTINUOUS
 62
     7
 66
     1
 10
0.0
 20
0.0
 30
0.0
 70
   129
  0
VERTEX
  5
7DE
  8
DATA
  6
CONTINUOUS
 62
     7
 10
42.777579623107073
 20
-235.78767639385279
 30
0.0
 42
-0.4142135623730951
  0
VERTEX
  5
7DF
  8
DATA
  6
CONTINUOUS
 62
     7
 10
43.277579623107073
 20
-235.28767639385291
 30
0.0
 42
-0.4142135623731035
  0
VERTEX
  5
7E0
  8
DATA
  6
CONTINUOUS
 62
     7
 10
43.777579623107073
 20
-235.78767639385279
 30
0.0
 42
-0.4142135623730951
  0
VERTEX
  5
7E1
  8
DATA
  6
CONTINUOUS
 62
     7
 10
43.277579623107073
 20
-236.28767639385279
 30
0.0
 42
-0.4142135623730868
  0
VERTEX
  5
7E2
  8
DATA
  6
CONTINUOUS
 62
     7
 10
42.777579623107073
 20
-235.78767639385279
 30
0.0
  0
SEQEND
  5
7E3
  8
DATA
  6
CONTINUOUS
 62
     7
  0
POLYLINE
  5
40A
  8
DATA
  6
CONTINUOUS
 62
     7
 66
     1
 10
0.0
 20
0.0
 30
0.0
 70
   129
  0
VERTEX
  5
7E4
  8
DATA
  6
CONTINUOUS
 62
     7
 10
45.067579623107093
 20
-235.78767639385279
 30
0.0
 42
-0.4142135623730951
  0
VERTEX
  5
7E5
  8
DATA
  6
CONTINUOUS
 62
     7
 10
45.5675796231071
 20
-235.28767639385291
 30
0.0
 42
-0.4142135623730992
  0
VERTEX
  5
7E6
  8
DATA
  6
CONTINUOUS
 62
     7
 10
46.067579623107108
 20
-235.78767639385279
 30
0.0
 42
-0.4142135623730951
  0
VERTEX
  5
7E7
  8
DATA
  6
CONTINUOUS
 62
     7
 10
45.5675796231071
 20
-236.28767639385279
 30
0.0
 42
-0.414213562373091
  0
VERTEX
  5
7E8
  8
DATA
  6
CONTINUOUS
 62
     7
 10
45.067579623107093
 20
-235.78767639385279
 30
0.0
  0
SEQEND
  5
7E9
  8
DATA
  6
CONTINUOUS
 62
     7
  0
POLYLINE
  5
411
  8
DATA
  6
CONTINUOUS
 62
     7
 66
     1
 10
0.0
 20
0.0
 30
0.0
 70
   129
  0
VERTEX
  5
7EA
  8
DATA
  6
CONTINUOUS
 62
     7
 10
47.357579623107128
 20
-235.78767639385279
 30
0.0
 42
-0.4142135623730951
  0
VERTEX
  5
7EB
  8
DATA
  6
CONTINUOUS
 62
     7
 10
47.857579623107128
 20
-235.28767639385291
 30
0.0
 42
-0.4142135623730951
  0
VERTEX
  5
7EC
  8
DATA
  6
CONTINUOUS
 62
     7
 10
48.357579623107121
 20
-235.78767639385279
 30
0.0
 42
-0.4142135623730951
  0
VERTEX
  5
7ED
  8
DATA
  6
CONTINUOUS
 62
     7
 10
47.857579623107128
 20
-236.28767639385279
 30
0.0
 42
-0.4142135623730951
  0
VERTEX
  5
7EE
  8
DATA
  6
CONTINUOUS
 62
     7
 10
47.357579623107128
 20
-235.78767639385279
 30
0.0
  0
SEQEND
  5
7EF
  8
DATA
  6
CONTINUOUS
 62
     7
  0
POLYLINE
  5
418
  8
DATA
  6
CONTINUOUS
 62
     7
 66
     1
 10
0.0
 20
0.0
 30
0.0
 70
   129
  0
VERTEX
  5
7F0
  8
DATA
  6
CONTINUOUS
 62
     7
 10
49.637579623107129
 20
-235.78767639385279
 30
0.0
 42
-0.4142135623730951
  0
VERTEX
  5
7F1
  8
DATA
  6
CONTINUOUS
 62
     7
 10
50.137579623107122
 20
-235.28767639385291
 30
0.0
 42
-0.4142135623731117
  0
VERTEX
  5
7F2
  8
DATA
  6
CONTINUOUS
 62
     7
 10
50.637579623107129
 20
-235.78767639385279
 30
0.0
 42
-0.4142135623730951
  0
VERTEX
  5
7F3
  8
DATA
  6
CONTINUOUS
 62
     7
 10
50.137579623107122
 20
-236.28767639385279
 30
0.0
 42
-0.4142135623730784
  0
VERTEX
  5
7F4
  8
DATA
  6
CONTINUOUS
 62
     7
 10
49.637579623107129
 20
-235.78767639385279
 30
0.0
  0
SEQEND
  5
7F5
  8
DATA
  6
CONTINUOUS
 62
     7
  0
POLYLINE
  5
41F
  8
DATA
  6
CONTINUOUS
 62
     7
 66
     1
 10
0.0
 20
0.0
 30
0.0
 70
   129
  0
VERTEX
  5
7F6
  8
DATA
  6
CONTINUOUS
 62
     7
 10
41.419648167433131
 20
-233.8076763938528
 30
0.0
 42
-0.4142135623730951
  0
VERTEX
  5
7F7
  8
DATA
  6
CONTINUOUS
 62
     7
 10
41.919648167433131
 20
-233.3076763938528
 30
0.0
 42
-0.4142135623730868
  0
VERTEX
  5
7F8
  8
DATA
  6
CONTINUOUS
 62
     7
 10
42.419648167433131
 20
-233.8076763938528
 30
0.0
 42
-0.4142135623730951
  0
VERTEX
  5
7F9
  8
DATA
  6
CONTINUOUS
 62
     7
 10
41.919648167433131
 20
-234.3076763938528
 30
0.0
 42
-0.4142135623731035
  0
VERTEX
  5
7FA
  8
DATA
  6
CONTINUOUS
 62
     7
 10
41.419648167433131
 20
-233.8076763938528
 30
0.0
  0
SEQEND
  5
7FB
  8
DATA
  6
CONTINUOUS
 62
     7
  0
POLYLINE
  5
426
  8
DATA
  6
CONTINUOUS
 62
     7
 66
     1
 10
0.0
 20
0.0
 30
0.0
 70
   129
  0
VERTEX
  5
7FC
  8
DATA
  6
CONTINUOUS
 62
     7
 10
43.699648167433118
 20
-233.8076763938528
 30
0.0
 42
-0.4142135623730617
  0
VERTEX
  5
7FD
  8
DATA
  6
CONTINUOUS
 62
     7
 10
44.199648167433118
 20
-233.3076763938528
 30
0.0
 42
-0.4142135623731076
  0
VERTEX
  5
7FE
  8
DATA
  6
CONTINUOUS
 62
     7
 10
44.699648167433132
 20
-233.8076763938528
 30
0.0
 42
-0.4142135623730951
  0
VERTEX
  5
7FF
  8
DATA
  6
CONTINUOUS
 62
     7
 10
44.199648167433118
 20
-234.3076763938528
 30
0.0
 42
-0.4142135623731159
  0
VERTEX
  5
800
  8
DATA
  6
CONTINUOUS
 62
     7
 10
43.699648167433118
 20
-233.8076763938528
 30
0.0
  0
SEQEND
  5
801
  8
DATA
  6
CONTINUOUS
 62
     7
  0
POLYLINE
  5
42D
  8
DATA
  6
CONTINUOUS
 62
     7
 66
     1
 10
0.0
 20
0.0
 30
0.0
 70
   129
  0
VERTEX
  5
802
  8
DATA
  6
CONTINUOUS
 62
     7
 10
45.989648167433167
 20
-233.8076763938528
 30
0.0
 42
-0.4142135623730951
  0
VERTEX
  5
803
  8
DATA
  6
CONTINUOUS
 62
     7
 10
46.489648167433167
 20
-233.3076763938528
 30
0.0
 42
-0.414213562373091
  0
VERTEX
  5
804
  8
DATA
  6
CONTINUOUS
 62
     7
 10
46.989648167433188
 20
-233.8076763938528
 30
0.0
 42
-0.4142135623730951
  0
VERTEX
  5
805
  8
DATA
  6
CONTINUOUS
 62
     7
 10
46.489648167433167
 20
-234.3076763938528
 30
0.0
 42
-0.4142135623730992
  0
VERTEX
  5
806
  8
DATA
  6
CONTINUOUS
 62
     7
 10
45.989648167433167
 20
-233.8076763938528
 30
0.0
  0
SEQEND
  5
807
  8
DATA
  6
CONTINUOUS
 62
     7
  0
POLYLINE
  5
434
  8
DATA
  6
CONTINUOUS
 62
     7
 66
     1
 10
0.0
 20
0.0
 30
0.0
 70
   129
  0
VERTEX
  5
808
  8
DATA
  6
CONTINUOUS
 62
     7
 10
51.927579623107121
 20
-231.82767639385281
 30
0.0
 42
-0.4142135623730951
  0
VERTEX
  5
809
  8
DATA
  6
CONTINUOUS
 62
     7
 10
52.427579623107121
 20
-231.32767639385281
 30
0.0
 42
-0.4142135623730951
  0
VERTEX
  5
80A
  8
DATA
  6
CONTINUOUS
 62
     7
 10
52.927579623107121
 20
-231.8276763938529
 30
0.0
 42
-0.4142135623730951
  0
VERTEX
  5
80B
  8
DATA
  6
CONTINUOUS
 62
     7
 10
52.427579623107121
 20
-232.3276763938529
 30
0.0
 42
-0.4142135623730659
  0
VERTEX
  5
80C
  8
DATA
  6
CONTINUOUS
 62
     7
 10
51.927579623107121
 20
-231.82767639385281
 30
0.0
  0
SEQEND
  5
80D
  8
DATA
  6
CONTINUOUS
 62
     7
  0
POLYLINE
  5
43B
  8
DATA
  6
CONTINUOUS
 62
     7
 66
     1
 10
0.0
 20
0.0
 30
0.0
 70
   129
  0
VERTEX
  5
80E
  8
DATA
  6
CONTINUOUS
 62
     7
 10
51.927579623107121
 20
-235.78767639385279
 30
0.0
 42
-0.4142135623730951
  0
VERTEX
  5
80F
  8
DATA
  6
CONTINUOUS
 62
     7
 10
52.427579623107121
 20
-235.28767639385291
 30
0.0
 42
-0.4142135623730951
  0
VERTEX
  5
810
  8
DATA
  6
CONTINUOUS
 62
     7
 10
52.927579623107121
 20
-235.78767639385279
 30
0.0
 42
-0.4142135623730951
  0
VERTEX
  5
811
  8
DATA
  6
CONTINUOUS
 62
     7
 10
52.427579623107121
 20
-236.28767639385279
 30
0.0
 42
-0.4142135623730951
  0
VERTEX
  5
812
  8
DATA
  6
CONTINUOUS
 62
     7
 10
51.927579623107121
 20
-235.78767639385279
 30
0.0
  0
SEQEND
  5
813
  8
DATA
  6
CONTINUOUS
 62
     7
  0
ARC
  5
442
  8
DATA
  6
CONTINUOUS
 62
     7
 10
41.506164053491503
 20
-231.13767639385279
 30
0.0
 40
1.499998001665289
 50
90.0
 51
170.0000744503985
  0
ARC
  5
443
  8
DATA
  6
CONTINUOUS
 62
     7
 10
41.129594053491502
 20
-235.97767639385279
 30
0.0
 40
2.0
 50
180.0
 51
270.0
  0
LINE
  5
444
  8
DATA
  6
CONTINUOUS
 62
     7
 10
39.129594053491509
 20
-235.97767639385279
 30
0.0
 11
40.028944053491522
 21
-230.87720639385279
 31
0.0
  0
ARC
  5
445
  8
DATA
  6
CONTINUOUS
 62
     7
 10
53.653034053491567
 20
-231.13767639385279
 30
0.0
 40
1.499999999999996
 50
9.9999255495998511
 51
90.0
  0
ARC
  5
446
  8
DATA
  6
CONTINUOUS
 62
     7
 10
54.029594053491572
 20
-235.97767639385279
 30
0.0
 40
2.0
 50
270.0
 51
0.0
  0
LINE
  5
447
  8
DATA
  6
CONTINUOUS
 62
     7
 10
56.029594053491579
 20
-235.97767639385279
 30
0.0
 11
55.130244053491573
 21
-230.87720639385279
 31
0.0
  0
CIRCLE
  5
448
  8
DATA
  6
CONTINUOUS
 62
     7
 10
60.110895698866017
 20
-233.7899667022439
 30
0.0
 40
1.1750000000001171
  0
POLYLINE
  5
449
  8
DATA
  6
CONTINUOUS
 62
     7
 66
     1
 10
0.0
 20
0.0
 30
0.0
 70
     1
  0
VERTEX
  5
814
  8
DATA
  6
CONTINUOUS
 62
     7
 10
60.110895698866017
 20
-236.48996670224381
 30
0.0
  0
VERTEX
  5
815
  8
DATA
  6
CONTINUOUS
 62
     7
 10
57.772627108647917
 20
-235.13996670224381
 30
0.0
  0
VERTEX
  5
816
  8
DATA
  6
CONTINUOUS
 62
     7
 10
57.772627108647917
 20
-232.43996670224391
 30
0.0
  0
VERTEX
  5
817
  8
DATA
  6
CONTINUOUS
 62
     7
 10
60.110895698866017
 20
-231.08996670224391
 30
0.0
  0
VERTEX
  5
818
  8
DATA
  6
CONTINUOUS
 62
     7
 10
62.449164289084102
 20
-232.43996670224391
 30
0.0
  0
VERTEX
  5
819
  8
DATA
  6
CONTINUOUS
 62
     7
 10
62.449164289084102
 20
-235.13996670224381
 30
0.0
  0
SEQEND
  5
81A
  8
DATA
  6
CONTINUOUS
 62
     7
  0
CIRCLE
  5
452
  8
DATA
  6
CONTINUOUS
 62
     7
 10
35.110895698865583
 20
-233.7899667022439
 30
0.0
 40
1.1750000000001319
  0
POLYLINE
  5
453
  8
DATA
  6
CONTINUOUS
 62
     7
 66
     1
 10
0.0
 20
0.0
 30
0.0
 70
     1
  0
VERTEX
  5
81B
  8
DATA
  6
CONTINUOUS
 62
     7
 10
35.110895698865583
 20
-236.48996670224381
 30
0.0
  0
VERTEX
  5
81C
  8
DATA
  6
CONTINUOUS
 62
     7
 10
32.772627108647598
 20
-235.13996670224381
 30
0.0
  0
VERTEX
  5
81D
  8
DATA
  6
CONTINUOUS
 62
     7
 10
32.772627108647598
 20
-232.43996670224391
 30
0.0
  0
VERTEX
  5
81E
  8
DATA
  6
CONTINUOUS
 62
     7
 10
35.110895698865583
 20
-231.08996670224391
 30
0.0
  0
VERTEX
  5
81F
  8
DATA
  6
CONTINUOUS
 62
     7
 10
37.449164289083683
 20
-232.43996670224391
 30
0.0
  0
VERTEX
  5
820
  8
DATA
  6
CONTINUOUS
 62
     7
 10
37.449164289083683
 20
-235.13996670224381
 30
0.0
  0
SEQEND
  5
821
  8
DATA
  6
CONTINUOUS
 62
     7
  0
TEXT
  5
45C
  8
DATA
 62
     7
 10
16.977320161790381
 20
-221.3987936879729
 30
0.0
 40
2.5409921875000001
  1
Audio Out
 50
180.0
 41
0.7
 11
16.977320161790381
 21
-223.93978587547281
 31
0.0
 73
     3
  0
TEXT
  5
45D
  8
DATA
 62
     7
 10
47.853136306363552
 20
-221.3987936879729
 30
0.0
 40
2.5409921875000001
  1
2
 50
180.0
 41
0.7
 11
47.853136306363552
 21
-223.93978587547281
 31
0.0
 73
     3
  0
TEXT
  5
45E
  8
DATA
 62
     7
 10
88.033850273407381
 20
-221.3987936879729
 30
0.0
 40
2.5409921875000001
  1
1
 50
180.0
 41
0.7
 11
88.033850273407381
 21
-223.93978587547281
 31
0.0
 73
     3
  0
TEXT
  5
45F
  8
DATA
 62
     7
 10
118.6987528569998
 20
-221.3987936879729
 30
0.0
 40
2.5409921875000001
  1
5V DC
 50
180.0
 41
0.7
 11
118.6987528569998
 21
-223.93978587547281
 31
0.0
 73
     3
  0
LINE
  5
460
  8
DATA
  6
CONTINUOUS
 62
     7
 10
62.421592538737457
 20
-290.0
 30
0.0
 11
62.421592538737457
 21
-294.00000000034152
 31
0.0
  0
LINE
  5
461
  8
DATA
  6
CONTINUOUS
 62
     7
 10
57.745055358301407
 20
-290.0
 30
0.0
 11
57.745055358301407
 21
-294.00000000034152
 31
0.0
  0
LINE
  5
462
  8
DATA
  6
CONTINUOUS
 62
     7
 10
37.42159253873718
 20
-290.0
 30
0.0
 11
37.42159253873718
 21
-294.00000000034152
 31
0.0
  0
LINE
  5
463
  8
DATA
  6
CONTINUOUS
 62
     7
 10
32.745055358301002
 20
-290.0
 30
0.0
 11
32.745055358301002
 21
-294.00000000034152
 31
0.0
  0
LINE
  5
464
  8
DATA
  6
CONTINUOUS
 62
     7
 10
56.00202230314504
 20
-290.0
 30
0.0
 11
56.00202230314504
 21
-294.00000000034152
 31
0.0
  0
LINE
  5
465
  8
DATA
  6
CONTINUOUS
 62
     7
 10
39.102022303144999
 20
-290.0
 30
0.0
 11
39.102022303144999
 21
-294.00000000034152
 31
0.0
  0
LINE
  5
466
  8
DATA
  6
CONTINUOUS
 62
     7
 10
32.745055358301002
 20
-290.0
 30
0.0
 11
37.42159253873718
 21
-290.0
 31
0.0
  0
LINE
  5
467
  8
DATA
  6
CONTINUOUS
 62
     7
 10
39.102022303144999
 20
-290.0
 30
0.0
 11
56.00202230314504
 21
-290.0
 31
0.0
  0
LINE
  5
468
  8
DATA
  6
CONTINUOUS
 62
     7
 10
57.745055358301407
 20
-290.0
 30
0.0
 11
62.421592538737457
 21
-290.0
 31
0.0
  0
LINE
  5
469
  8
DATA
  6
CONTINUOUS
 62
     7
 10
102.4215925387374
 20
-290.0
 30
0.0
 11
102.4215925387374
 21
-294.00000000034152
 31
0.0
  0
LINE
  5
46A
  8
DATA
  6
CONTINUOUS
 62
     7
 10
97.745055358301414
 20
-290.0
 30
0.0
 11
97.745055358301414
 21
-294.00000000034152
 31
0.0
  0
LINE
  5
46B
  8
DATA
  6
CONTINUOUS
 62
     7
 10
77.421592538737173
 20
-290.0
 30
0.0
 11
77.421592538737173
 21
-294.00000000034152
 31
0.0
  0
LINE
  5
46C
  8
DATA
  6
CONTINUOUS
 62
     7
 10
72.745055358300974
 20
-290.0
 30
0.0
 11
72.745055358300974
 21
-294.00000000034152
 31
0.0
  0
LINE
  5
46D
  8
DATA
  6
CONTINUOUS
 62
     7
 10
96.00202230314504
 20
-290.0
 30
0.0
 11
96.00202230314504
 21
-294.00000000034152
 31
0.0
  0
LINE
  5
46E
  8
DATA
  6
CONTINUOUS
 62
     7
 10
79.102022303144992
 20
-290.0
 30
0.0
 11
79.102022303144992
 21
-294.00000000034152
 31
0.0
  0
LINE
  5
46F
  8
DATA
  6
CONTINUOUS
 62
     7
 10
72.745055358300974
 20
-290.0
 30
0.0
 11
77.421592538737173
 21
-290.0
 31
0.0
  0
LINE
  5
470
  8
DATA
  6
CONTINUOUS
 62
     7
 10
79.102022303144992
 20
-290.0
 30
0.0
 11
96.00202230314504
 21
-290.0
 31
0.0
  0
LINE
  5
471
  8
DATA
  6
CONTINUOUS
 62
     7
 10
97.745055358301414
 20
-290.0
 30
0.0
 11
102.4215925387374
 21
-290.0
 31
0.0
  0
LINE
  5
472
  8
DATA
  6
CONTINUOUS
 62
     7
 10
114.9771604106715
 20
-294.0
 30
0.0
 11
114.9771604106715
 21
-293.0
 31
0.0
  0
LINE
  5
473
  8
DATA
  6
CONTINUOUS
 62
     7
 10
118.9271604106715
 20
-288.0
 30
0.0
 11
111.0271604106715
 21
-288.0
 31
0.0
  0
LINE
  5
474
  8
DATA
  6
CONTINUOUS
 62
     7
 10
111.0271604106715
 20
-288.0
 30
0.0
 11
111.0271604106715
 21
-293.0
 31
0.0
  0
LINE
  5
475
  8
DATA
  6
CONTINUOUS
 62
     7
 10
118.9271604106715
 20
-288.0
 30
0.0
 11
118.9271604106715
 21
-293.0
 31
0.0
  0
LINE
  5
476
  8
DATA
  6
CONTINUOUS
 62
     7
 10
120.4771604106715
 20
-293.0
 30
0.0
 11
120.4771604106715
 21
-294.0
 31
0.0
  0
LINE
  5
477
  8
DATA
  6
CONTINUOUS
 62
     7
 10
109.4771604106715
 20
-294.0
 30
0.0
 11
109.4771604106715
 21
-293.0
 31
0.0
  0
LINE
  5
478
  8
DATA
  6
CONTINUOUS
 62
     7
 10
109.4771604106715
 20
-293.0
 30
0.0
 11
120.4771604106715
 21
-293.0
 31
0.0
  0
LINE
  5
479
  8
DATA
  6
CONTINUOUS
 62
     7
 10
111.0271604106715
 20
-293.0
 30
0.0
 11
118.9271604106715
 21
-292.11970916294649
 31
0.0
  0
LINE
  5
47A
  8
DATA
  6
CONTINUOUS
 62
     7
 10
111.0271604106715
 20
-291.5
 30
0.0
 11
118.9271604106715
 21
-290.61970916294649
 31
0.0
  0
LINE
  5
47B
  8
DATA
  6
CONTINUOUS
 62
     7
 10
111.0271604106715
 20
-290.0
 30
0.0
 11
118.9271604106715
 21
-289.11970916294649
 31
0.0
  0
LINE
  5
47C
  8
DATA
  6
CONTINUOUS
 62
     7
 10
111.0271604106715
 20
-288.5
 30
0.0
 11
115.51431378514179
 21
-288.0
 31
0.0
  0
ARC
  5
47D
  8
DATA
  6
CONTINUOUS
 62
     7
 10
-289.39326801001249
 20
-296.09967513617897
 30
0.0
 40
3.6000000000000121
 50
35.678969343418338
 51
144.32103065658171
  0
ARC
  5
47E
  8
DATA
  6
CONTINUOUS
 62
     7
 10
-190.0
 20
-296.09967513617897
 30
0.0
 40
3.6000000000000121
 50
35.678969343418338
 51
144.32103065658171
  0
ARC
  5
47F
  8
DATA
  6
CONTINUOUS
 62
     7
 10
-298.0
 20
-260.49999999988211
 30
0.0
 40
2.0
 50
180.0
 51
270.0
  0
ARC
  5
480
  8
DATA
  6
CONTINUOUS
 62
     7
 10
133.0
 20
-260.49999999988211
 30
0.0
 40
2.0
 50
270.0
 51
0.0
  0
LINE
  5
481
  8
DATA
  6
CONTINUOUS
 62
     7
 10
225.0
 20
-423.0
 30
0.0
 11
225.0
 21
-294.0
 31
0.0
  0
LINE
  5
482
  8
DATA
  6
CONTINUOUS
 62
     7
 10
269.0
 20
-423.0
 30
0.0
 11
269.0
 21
-296.0
 31
0.0
  0
LINE
  5
483
  8
DATA
  6
CONTINUOUS
 62
     7
 10
225.0
 20
-294.0
 30
0.0
 11
267.0
 21
-294.0
 31
0.0
  0
LINE
  5
484
  8
DATA
  6
CONTINUOUS
 62
     7
 10
227.0
 20
-425.0
 30
0.0
 11
267.0
 21
-425.0
 31
0.0
  0
LINE
  5
485
  8
DATA
  6
CONTINUOUS
 62
     7
 10
229.0
 20
-423.0
 30
0.0
 11
265.0
 21
-423.0
 31
0.0
  0
LINE
  5
486
  8
DATA
  6
CONTINUOUS
 62
     7
 10
227.0
 20
-296.0
 30
0.0
 11
265.0
 21
-296.0
 31
0.0
  0
LINE
  5
487
  8
DATA
  6
CONTINUOUS
 62
     7
 10
225.0
 20
-415.89999999999992
 30
0.0
 11
227.0
 21
-415.89999999999992
 31
0.0
  0
LINE
  5
488
  8
DATA
  6
CONTINUOUS
 62
     7
 10
227.0
 20
-421.0
 30
0.0
 11
227.0
 21
-415.89999999999992
 31
0.0
  0
LINE
  5
489
  8
DATA
  6
CONTINUOUS
 62
     7
 10
267.0
 20
-421.0
 30
0.0
 11
267.0
 21
-418.7000000000001
 31
0.0
  0
LINE
  5
48A
  8
DATA
  6
CONTINUOUS
 62
     7
 10
267.0
 20
-418.7000000000001
 30
0.0
 11
269.0
 21
-418.7000000000001
 31
0.0
  0
LINE
  5
48B
  8
DATA
  6
CONTINUOUS
 62
     7
 10
267.0
 20
-306.0
 30
0.0
 11
269.0
 21
-306.0
 31
0.0
  0
LINE
  5
48C
  8
DATA
  6
CONTINUOUS
 62
     7
 10
267.0
 20
-306.0
 30
0.0
 11
267.0
 21
-298.0
 31
0.0
  0
ARC
  5
48D
  8
DATA
  6
CONTINUOUS
 62
     7
 10
229.0
 20
-421.0
 30
0.0
 40
2.0
 50
180.0
 51
270.0
  0
ARC
  5
48E
  8
DATA
  6
CONTINUOUS
 62
     7
 10
265.0
 20
-421.0
 30
0.0
 40
2.0
 50
270.0
 51
0.0
  0
ARC
  5
48F
  8
DATA
  6
CONTINUOUS
 62
     7
 10
227.0
 20
-423.0
 30
0.0
 40
2.0
 50
180.0
 51
270.0
  0
ARC
  5
490
  8
DATA
  6
CONTINUOUS
 62
     7
 10
267.0
 20
-423.0
 30
0.0
 40
2.0
 50
270.0
 51
0.0
  0
ARC
  5
491
  8
DATA
  6
CONTINUOUS
 62
     7
 10
265.0
 20
-298.0
 30
0.0
 40
2.0
 50
0.0
 51
90.0
  0
ARC
  5
492
  8
DATA
  6
CONTINUOUS
 62
     7
 10
267.0
 20
-296.0
 30
0.0
 40
2.0
 50
0.0
 51
90.0
  0
CIRCLE
  5
493
  8
DATA
  6
CONTINUOUS
 62
     7
 10
262.5
 20
-411.0
 30
0.0
 40
2.75
  0
LINE
  5
494
  8
DATA
  6
CONTINUOUS
 62
     7
 10
260.98000000000002
 20
-411.0
 30
0.0
 11
264.01999999999998
 21
-411.0
 31
0.0
  0
LINE
  5
495
  8
DATA
  6
CONTINUOUS
 62
     7
 10
262.5
 20
-412.51999999999992
 30
0.0
 11
262.5
 21
-409.48000000000002
 31
0.0
  0
CIRCLE
  5
496
  8
DATA
  6
CONTINUOUS
 62
     7
 10
262.5
 20
-363.0
 30
0.0
 40
2.75
  0
LINE
  5
497
  8
DATA
  6
CONTINUOUS
 62
     7
 10
260.98000000000002
 20
-363.0
 30
0.0
 11
264.01999999999998
 21
-363.0
 31
0.0
  0
LINE
  5
498
  8
DATA
  6
CONTINUOUS
 62
     7
 10
262.5
 20
-364.51999999999998
 30
0.0
 11
262.5
 21
-361.48000000000002
 31
0.0
  0
CIRCLE
  5
499
  8
DATA
  6
CONTINUOUS
 62
     7
 10
262.5
 20
-315.0
 30
0.0
 40
2.75
  0
LINE
  5
49A
  8
DATA
  6
CONTINUOUS
 62
     7
 10
260.98000000000002
 20
-315.0
 30
0.0
 11
264.01999999999998
 21
-315.0
 31
0.0
  0
LINE
  5
49B
  8
DATA
  6
CONTINUOUS
 62
     7
 10
262.5
 20
-316.51999999999998
 30
0.0
 11
262.5
 21
-313.48000000000002
 31
0.0
  0
CIRCLE
  5
49C
  8
DATA
  6
CONTINUOUS
 62
     7
 10
232.5
 20
-411.0
 30
0.0
 40
2.75
  0
LINE
  5
49D
  8
DATA
  6
CONTINUOUS
 62
     7
 10
230.97999999999999
 20
-411.0
 30
0.0
 11
234.02000000000001
 21
-411.0
 31
0.0
  0
LINE
  5
49E
  8
DATA
  6
CONTINUOUS
 62
     7
 10
232.5
 20
-412.51999999999992
 30
0.0
 11
232.5
 21
-409.48000000000002
 31
0.0
  0
LINE
  5
49F
  8
DATA
  6
CONTINUOUS
 62
     7
 10
272.99999999990001
 20
-417.0608571988646
 30
0.0
 11
268.99999999990001
 21
-419.06085719886448
 31
0.0
  0
LINE
  5
4A0
  8
DATA
  6
CONTINUOUS
 62
     7
 10
272.99999999990001
 20
-402.06085719886448
 30
0.0
 11
268.99999999990001
 21
-400.0608571988646
 31
0.0
  0
LINE
  5
4A1
  8
DATA
  6
CONTINUOUS
 62
     7
 10
272.99999999990001
 20
-417.0608571988646
 30
0.0
 11
272.99999999990001
 21
-402.06085719886448
 31
0.0
  0
LINE
  5
4A2
  8
DATA
  6
CONTINUOUS
 62
     7
 10
272.99999999990001
 20
-324.26076784082397
 30
0.0
 11
268.99999999990001
 21
-326.26076784082397
 31
0.0
  0
LINE
  5
4A3
  8
DATA
  6
CONTINUOUS
 62
     7
 10
272.99999999990001
 20
-309.26076784082397
 30
0.0
 11
268.99999999990001
 21
-307.26076784082397
 31
0.0
  0
LINE
  5
4A4
  8
DATA
  6
CONTINUOUS
 62
     7
 10
272.99999999990001
 20
-324.26076784082397
 30
0.0
 11
272.99999999990001
 21
-309.26076784082397
 31
0.0
  0
LINE
  5
4A5
  8
DATA
  6
CONTINUOUS
 62
     7
 10
251.46778967037449
 20
-294.0
 30
0.0
 11
251.46778967037449
 21
-293.0
 31
0.0
  0
LINE
  5
4A6
  8
DATA
  6
CONTINUOUS
 62
     7
 10
255.4177896703745
 20
-288.0
 30
0.0
 11
247.5177896703745
 21
-288.0
 31
0.0
  0
LINE
  5
4A7
  8
DATA
  6
CONTINUOUS
 62
     7
 10
247.5177896703745
 20
-288.0
 30
0.0
 11
247.5177896703745
 21
-293.0
 31
0.0
  0
LINE
  5
4A8
  8
DATA
  6
CONTINUOUS
 62
     7
 10
255.4177896703745
 20
-288.0
 30
0.0
 11
255.4177896703745
 21
-293.0
 31
0.0
  0
LINE
  5
4A9
  8
DATA
  6
CONTINUOUS
 62
     7
 10
256.96778967037449
 20
-293.0
 30
0.0
 11
256.96778967037449
 21
-294.0
 31
0.0
  0
LINE
  5
4AA
  8
DATA
  6
CONTINUOUS
 62
     7
 10
245.9677896703746
 20
-294.0
 30
0.0
 11
245.9677896703746
 21
-293.0
 31
0.0
  0
LINE
  5
4AB
  8
DATA
  6
CONTINUOUS
 62
     7
 10
245.9677896703746
 20
-293.0
 30
0.0
 11
256.96778967037449
 21
-293.0
 31
0.0
  0
LINE
  5
4AC
  8
DATA
  6
CONTINUOUS
 62
     7
 10
247.5177896703745
 20
-293.0
 30
0.0
 11
255.4177896703745
 21
-292.11970916294649
 31
0.0
  0
LINE
  5
4AD
  8
DATA
  6
CONTINUOUS
 62
     7
 10
247.5177896703745
 20
-291.5
 30
0.0
 11
255.4177896703745
 21
-290.61970916294649
 31
0.0
  0
LINE
  5
4AE
  8
DATA
  6
CONTINUOUS
 62
     7
 10
247.5177896703745
 20
-290.0
 30
0.0
 11
255.4177896703745
 21
-289.11970916294649
 31
0.0
  0
LINE
  5
4AF
  8
DATA
  6
CONTINUOUS
 62
     7
 10
247.5177896703745
 20
-288.5
 30
0.0
 11
252.00494304484491
 21
-288.0
 31
0.0
  0
LINE
  5
4B0
  8
DATA
  6
CONTINUOUS
 62
     7
 10
257.17466159145448
 20
-290.0
 30
0.0
 11
257.17466159145448
 21
-294.0
 31
0.0
  0
LINE
  5
4B1
  8
DATA
  6
CONTINUOUS
 62
     7
 10
259.3267741883555
 20
-290.0
 30
0.0
 11
259.3267741883555
 21
-294.0
 31
0.0
  0
LINE
  5
4B2
  8
DATA
  6
CONTINUOUS
 62
     7
 10
259.3267741883555
 20
-290.0
 30
0.0
 11
255.4177896703745
 21
-290.0
 31
0.0
  0
LINE
  5
4B3
  8
DATA
  6
CONTINUOUS
 62
     7
 10
-300.0
 20
-56.5
 30
0.0
 11
-300.0
 21
-187.5
 31
0.0
  0
LINE
  5
4B4
  8
DATA
  6
CONTINUOUS
 62
     7
 10
135.0
 20
-56.5
 30
0.0
 11
-300.0
 21
-56.5
 31
0.0
  0
LINE
  5
4B5
  8
DATA
  6
CONTINUOUS
 62
     7
 10
135.0
 20
-187.5
 30
0.0
 11
135.0
 21
-56.5
 31
0.0
  0
LINE
  5
4B6
  8
DATA
  6
CONTINUOUS
 62
     7
 10
-300.0
 20
-187.5
 30
0.0
 11
135.0
 21
-187.5
 31
0.0
  0
ARC
  5
4B7
  8
DATA
  6
CONTINUOUS
 62
     7
 10
112.0
 20
-57.125890751178581
 30
0.0
 40
1.5
 50
24.661751866922241
 51
155.33824813307771
  0
LINE
  5
4B8
  8
DATA
  6
CONTINUOUS
 62
     7
 10
62.421592538737457
 20
-191.5
 30
0.0
 11
62.421592538737457
 21
-187.49999999965851
 31
0.0
  0
LINE
  5
4B9
  8
DATA
  6
CONTINUOUS
 62
     7
 10
57.745055358301407
 20
-191.5
 30
0.0
 11
57.745055358301407
 21
-187.49999999965851
 31
0.0
  0
LINE
  5
4BA
  8
DATA
  6
CONTINUOUS
 62
     7
 10
37.42159253873718
 20
-191.5
 30
0.0
 11
37.42159253873718
 21
-187.49999999965851
 31
0.0
  0
LINE
  5
4BB
  8
DATA
  6
CONTINUOUS
 62
     7
 10
32.745055358301002
 20
-191.5
 30
0.0
 11
32.745055358301002
 21
-187.49999999965851
 31
0.0
  0
LINE
  5
4BC
  8
DATA
  6
CONTINUOUS
 62
     7
 10
56.00202230314504
 20
-191.5
 30
0.0
 11
56.00202230314504
 21
-187.49999999965851
 31
0.0
  0
LINE
  5
4BD
  8
DATA
  6
CONTINUOUS
 62
     7
 10
39.102022303144999
 20
-191.5
 30
0.0
 11
39.102022303144999
 21
-187.49999999965851
 31
0.0
  0
LINE
  5
4BE
  8
DATA
  6
CONTINUOUS
 62
     7
 10
32.745055358301002
 20
-191.5
 30
0.0
 11
37.42159253873718
 21
-191.5
 31
0.0
  0
LINE
  5
4BF
  8
DATA
  6
CONTINUOUS
 62
     7
 10
39.102022303144999
 20
-191.5
 30
0.0
 11
56.00202230314504
 21
-191.5
 31
0.0
  0
LINE
  5
4C0
  8
DATA
  6
CONTINUOUS
 62
     7
 10
57.745055358301407
 20
-191.5
 30
0.0
 11
62.421592538737457
 21
-191.5
 31
0.0
  0
LINE
  5
4C1
  8
DATA
  6
CONTINUOUS
 62
     7
 10
102.4215925387374
 20
-191.5
 30
0.0
 11
102.4215925387374
 21
-187.49999999965851
 31
0.0
  0
LINE
  5
4C2
  8
DATA
  6
CONTINUOUS
 62
     7
 10
97.745055358301414
 20
-191.5
 30
0.0
 11
97.745055358301414
 21
-187.49999999965851
 31
0.0
  0
LINE
  5
4C3
  8
DATA
  6
CONTINUOUS
 62
     7
 10
77.421592538737173
 20
-191.5
 30
0.0
 11
77.421592538737173
 21
-187.49999999965851
 31
0.0
  0
LINE
  5
4C4
  8
DATA
  6
CONTINUOUS
 62
     7
 10
72.745055358300974
 20
-191.5
 30
0.0
 11
72.745055358300974
 21
-187.49999999965851
 31
0.0
  0
LINE
  5
4C5
  8
DATA
  6
CONTINUOUS
 62
     7
 10
96.00202230314504
 20
-191.5
 30
0.0
 11
96.00202230314504
 21
-187.49999999965851
 31
0.0
  0
LINE
  5
4C6
  8
DATA
  6
CONTINUOUS
 62
     7
 10
79.102022303144992
 20
-191.5
 30
0.0
 11
79.102022303144992
 21
-187.49999999965851
 31
0.0
  0
LINE
  5
4C7
  8
DATA
  6
CONTINUOUS
 62
     7
 10
72.745055358300974
 20
-191.5
 30
0.0
 11
77.421592538737173
 21
-191.5
 31
0.0
  0
LINE
  5
4C8
  8
DATA
  6
CONTINUOUS
 62
     7
 10
79.102022303144992
 20
-191.5
 30
0.0
 11
96.00202230314504
 21
-191.5
 31
0.0
  0
LINE
  5
4C9
  8
DATA
  6
CONTINUOUS
 62
     7
 10
97.745055358301414
 20
-191.5
 30
0.0
 11
102.4215925387374
 21
-191.5
 31
0.0
  0
LINE
  5
4CA
  8
DATA
  6
CONTINUOUS
 62
     7
 10
114.9771604106715
 20
-187.5
 30
0.0
 11
114.9771604106715
 21
-188.5
 31
0.0
  0
LINE
  5
4CB
  8
DATA
  6
CONTINUOUS
 62
     7
 10
118.9271604106715
 20
-193.5
 30
0.0
 11
111.0271604106715
 21
-193.5
 31
0.0
  0
LINE
  5
4CC
  8
DATA
  6
CONTINUOUS
 62
     7
 10
111.0271604106715
 20
-193.5
 30
0.0
 11
111.0271604106715
 21
-188.5
 31
0.0
  0
LINE
  5
4CD
  8
DATA
  6
CONTINUOUS
 62
     7
 10
118.9271604106715
 20
-193.5
 30
0.0
 11
118.9271604106715
 21
-188.5
 31
0.0
  0
LINE
  5
4CE
  8
DATA
  6
CONTINUOUS
 62
     7
 10
120.4771604106715
 20
-188.5
 30
0.0
 11
120.4771604106715
 21
-187.5
 31
0.0
  0
LINE
  5
4CF
  8
DATA
  6
CONTINUOUS
 62
     7
 10
109.4771604106715
 20
-187.5
 30
0.0
 11
109.4771604106715
 21
-188.5
 31
0.0
  0
LINE
  5
4D0
  8
DATA
  6
CONTINUOUS
 62
     7
 10
109.4771604106715
 20
-188.5
 30
0.0
 11
120.4771604106715
 21
-188.5
 31
0.0
  0
LINE
  5
4D1
  8
DATA
  6
CONTINUOUS
 62
     7
 10
111.0271604106715
 20
-188.5
 30
0.0
 11
118.9271604106715
 21
-189.38029083705351
 31
0.0
  0
LINE
  5
4D2
  8
DATA
  6
CONTINUOUS
 62
     7
 10
111.0271604106715
 20
-190.0
 30
0.0
 11
118.9271604106715
 21
-190.88029083705351
 31
0.0
  0
LINE
  5
4D3
  8
DATA
  6
CONTINUOUS
 62
     7
 10
111.0271604106715
 20
-191.5
 30
0.0
 11
118.9271604106715
 21
-192.38029083705351
 31
0.0
  0
LINE
  5
4D4
  8
DATA
  6
CONTINUOUS
 62
     7
 10
111.0271604106715
 20
-193.0
 30
0.0
 11
115.51431378514179
 21
-193.5
 31
0.0
  0
ARC
  5
4D5
  8
DATA
  6
CONTINUOUS
 62
     7
 10
-289.1698681409207
 20
-185.40032486382091
 30
0.0
 40
3.6000000000000121
 50
215.6789693434184
 51
324.32103065658168
  0
ARC
  5
4D6
  8
DATA
  6
CONTINUOUS
 62
     7
 10
-190.0
 20
-185.40032486382091
 30
0.0
 40
3.6000000000000121
 50
215.6789693434184
 51
324.32103065658168
  0
LINE
  5
4D7
  8
DATA
  6
CONTINUOUS
 62
     7
 10
-300.0
 20
-178.39999999999989
 30
0.0
 11
135.0
 21
-178.39999999999989
 31
0.0
  0
CIRCLE
  5
4D8
  8
DATA
  6
CONTINUOUS
 62
     7
 10
-82.500000000000014
 20
-183.40000000000001
 30
0.0
 40
2.75
  0
LINE
  5
4D9
  8
DATA
  6
CONTINUOUS
 62
     7
 10
-84.019999999999996
 20
-183.40000000000001
 30
0.0
 11
-80.980000000000047
 21
-183.40000000000001
 31
0.0
  0
LINE
  5
4DA
  8
DATA
  6
CONTINUOUS
 62
     7
 10
-82.500000000000014
 20
-184.91999999999999
 30
0.0
 11
-82.500000000000014
 21
-181.88
 31
0.0
  0
CIRCLE
  5
4DB
  8
DATA
  6
CONTINUOUS
 62
     7
 10
17.499999999999979
 20
-183.40000000000001
 30
0.0
 40
2.75
  0
LINE
  5
4DC
  8
DATA
  6
CONTINUOUS
 62
     7
 10
15.98
 20
-183.40000000000001
 30
0.0
 11
19.019999999999971
 21
-183.40000000000001
 31
0.0
  0
LINE
  5
4DD
  8
DATA
  6
CONTINUOUS
 62
     7
 10
17.499999999999979
 20
-184.91999999999999
 30
0.0
 11
17.499999999999979
 21
-181.88
 31
0.0
  0
CIRCLE
  5
4DE
  8
DATA
  6
CONTINUOUS
 62
     7
 10
117.5
 20
-183.40000000000001
 30
0.0
 40
2.75
  0
LINE
  5
4DF
  8
DATA
  6
CONTINUOUS
 62
     7
 10
115.98
 20
-183.40000000000001
 30
0.0
 11
119.0199999999999
 21
-183.40000000000001
 31
0.0
  0
LINE
  5
4E0
  8
DATA
  6
CONTINUOUS
 62
     7
 10
117.5
 20
-184.91999999999999
 30
0.0
 11
117.5
 21
-181.88
 31
0.0
  0
CIRCLE
  5
4E1
  8
DATA
  6
CONTINUOUS
 62
     7
 10
-182.5
 20
-183.40000000000001
 30
0.0
 40
2.75
  0
LINE
  5
4E2
  8
DATA
  6
CONTINUOUS
 62
     7
 10
-184.02000000000001
 20
-183.40000000000001
 30
0.0
 11
-180.97999999999999
 21
-183.40000000000001
 31
0.0
  0
LINE
  5
4E3
  8
DATA
  6
CONTINUOUS
 62
     7
 10
-182.5
 20
-184.91999999999999
 30
0.0
 11
-182.5
 21
-181.88
 31
0.0
  0
CIRCLE
  5
4E4
  8
DATA
  6
CONTINUOUS
 62
     7
 10
-282.5
 20
-183.40000000000001
 30
0.0
 40
2.75
  0
LINE
  5
4E5
  8
DATA
  6
CONTINUOUS
 62
     7
 10
-284.01999999999998
 20
-183.40000000000001
 30
0.0
 11
-280.98000000000002
 21
-183.40000000000001
 31
0.0
  0
LINE
  5
4E6
  8
DATA
  6
CONTINUOUS
 62
     7
 10
-282.5
 20
-184.91999999999999
 30
0.0
 11
-282.5
 21
-181.88
 31
0.0
  0
CIRCLE
  5
4E7
  8
DATA
  6
CONTINUOUS
 62
     7
 10
-284.5
 20
-166.82273992284911
 30
0.0
 40
9.5
  0
CIRCLE
  5
4E8
  8
DATA
  6
CONTINUOUS
 62
     7
 10
-284.5
 20
-166.82273992284911
 30
0.0
 40
7.5
  0
CIRCLE
  5
4E9
  8
DATA
  6
CONTINUOUS
 62
     7
 10
-284.5
 20
-71.359199470383487
 30
0.0
 40
9.5
  0
CIRCLE
  5
4EA
  8
DATA
  6
CONTINUOUS
 62
     7
 10
-284.5
 20
-71.359199470383487
 30
0.0
 40
7.5
  0
CIRCLE
  5
4EB
  8
DATA
  6
CONTINUOUS
 62
     7
 10
119.5
 20
-166.82273992284911
 30
0.0
 40
9.5
  0
CIRCLE
  5
4EC
  8
DATA
  6
CONTINUOUS
 62
     7
 10
119.5
 20
-166.82273992284911
 30
0.0
 40
7.5
  0
CIRCLE
  5
4ED
  8
DATA
  6
CONTINUOUS
 62
     7
 10
119.5
 20
-71.359199470383487
 30
0.0
 40
9.5
  0
CIRCLE
  5
4EE
  8
DATA
  6
CONTINUOUS
 62
     7
 10
119.5
 20
-71.359199470383487
 30
0.0
 40
7.5
  0
LINE
  5
4EF
  8
DATA
  6
CONTINUOUS
 62
     7
 10
-298.0
 20
-178.39999999999989
 30
0.0
 11
-298.0
 21
-62.5
 31
0.0
  0
LINE
  5
4F0
  8
DATA
  6
CONTINUOUS
 62
     7
 10
133.0
 20
-178.39999999999989
 30
0.0
 11
133.0
 21
-62.5
 31
0.0
  0
LINE
  5
4F1
  8
DATA
  6
CONTINUOUS
 62
     7
 10
133.0
 20
-62.5
 30
0.0
 11
135.0
 21
-62.5
 31
0.0
  0
LINE
  5
4F2
  8
DATA
  6
CONTINUOUS
 62
     7
 10
-298.0
 20
-62.5
 30
0.0
 11
-300.0
 21
-62.5
 31
0.0
  0
POLYLINE
  5
4F3
  8
DATA
  6
CONTINUOUS
 62
     7
 66
     1
 10
0.0
 20
0.0
 30
0.0
 70
     1
  0
VERTEX
  5
822
  8
DATA
  6
CONTINUOUS
 62
     7
 10
73.799254731447391
 20
-113.39354313297081
 30
0.0
  0
VERTEX
  5
823
  8
DATA
  6
CONTINUOUS
 62
     7
 10
80.799254731447377
 20
-113.39354313297081
 30
0.0
  0
VERTEX
  5
824
  8
DATA
  6
CONTINUOUS
 62
     7
 10
80.799254731447377
 20
-127.39354313297081
 30
0.0
  0
VERTEX
  5
825
  8
DATA
  6
CONTINUOUS
 62
     7
 10
73.799254731447391
 20
-127.39354313297081
 30
0.0
  0
SEQEND
  5
826
  8
DATA
  6
CONTINUOUS
 62
     7
  0
LINE
  5
4FA
  8
DATA
  6
CONTINUOUS
 62
     7
 10
77.299254731447391
 20
-116.2935431329708
 30
0.0
 11
75.799254731447391
 21
-116.2935431329708
 31
0.0
  0
LINE
  5
4FB
  8
DATA
  6
CONTINUOUS
 62
     7
 10
75.799254731447391
 20
-114.7935431329708
 30
0.0
 11
77.299254731447391
 21
-114.7935431329708
 31
0.0
  0
LINE
  5
4FC
  8
DATA
  6
CONTINUOUS
 62
     7
 10
75.799254731447391
 20
-116.2935431329708
 30
0.0
 11
75.799254731447391
 21
-114.7935431329708
 31
0.0
  0
LINE
  5
4FD
  8
DATA
  6
CONTINUOUS
 62
     7
 10
77.299254731447391
 20
-118.9935431329708
 30
0.0
 11
75.799254731447391
 21
-118.9935431329708
 31
0.0
  0
LINE
  5
4FE
  8
DATA
  6
CONTINUOUS
 62
     7
 10
75.799254731447391
 20
-117.4935431329708
 30
0.0
 11
77.299254731447391
 21
-117.4935431329708
 31
0.0
  0
LINE
  5
4FF
  8
DATA
  6
CONTINUOUS
 62
     7
 10
75.799254731447391
 20
-118.9935431329708
 30
0.0
 11
75.799254731447391
 21
-117.4935431329708
 31
0.0
  0
LINE
  5
500
  8
DATA
  6
CONTINUOUS
 62
     7
 10
78.799254731447391
 20
-116.2935431329708
 30
0.0
 11
77.299254731447391
 21
-116.2935431329708
 31
0.0
  0
LINE
  5
501
  8
DATA
  6
CONTINUOUS
 62
     7
 10
78.799254731447391
 20
-114.7935431329708
 30
0.0
 11
78.799254731447391
 21
-116.2935431329708
 31
0.0
  0
LINE
  5
502
  8
DATA
  6
CONTINUOUS
 62
     7
 10
77.299254731447391
 20
-114.7935431329708
 30
0.0
 11
78.799254731447391
 21
-114.7935431329708
 31
0.0
  0
LINE
  5
503
  8
DATA
  6
CONTINUOUS
 62
     7
 10
78.799254731447391
 20
-118.9935431329708
 30
0.0
 11
77.299254731447391
 21
-118.9935431329708
 31
0.0
  0
LINE
  5
504
  8
DATA
  6
CONTINUOUS
 62
     7
 10
78.799254731447391
 20
-117.4935431329708
 30
0.0
 11
78.799254731447391
 21
-118.9935431329708
 31
0.0
  0
LINE
  5
505
  8
DATA
  6
CONTINUOUS
 62
     7
 10
77.299254731447391
 20
-117.4935431329708
 30
0.0
 11
78.799254731447391
 21
-117.4935431329708
 31
0.0
  0
LINE
  5
506
  8
DATA
  6
CONTINUOUS
 62
     7
 10
77.13684725784718
 20
-118.9935431329708
 30
0.0
 11
77.13684725784718
 21
-117.4935431329708
 31
0.0
  0
LINE
  5
507
  8
DATA
  6
CONTINUOUS
 62
     7
 10
77.13684725784718
 20
-116.2935431329708
 30
0.0
 11
77.13684725784718
 21
-114.7935431329708
 31
0.0
  0
TEXT
  5
508
  8
DATA
 62
     7
 10
74.452207692553387
 20
-115.18596665270231
 30
0.0
 40
0.9773046875
  1
1
 50
270.0
 41
0.7
 11
75.429512380053382
 21
-115.18596665270231
 31
0.0
 73
     3
  0
TEXT
  5
509
  8
DATA
 62
     7
 10
74.452207692553387
 20
-117.8395612386937
 30
0.0
 40
0.9773046875
  1
2
 50
270.0
 41
0.7
 11
75.429512380053382
 21
-117.8395612386937
 31
0.0
 73
     3
  0
TEXT
  5
50A
  8
DATA
 62
     7
 10
79.263082480802566
 20
-114.8739446561586
 30
0.0
 40
0.9773046875
  1
ON
 50
270.0
 41
0.7
 11
80.240387168302561
 21
-114.8739446561586
 31
0.0
 73
     3
  0
CIRCLE
  5
50B
  8
DATA
  6
CONTINUOUS
 62
     7
 10
102.5
 20
-487.95807488209442
 30
0.0
 40
2.0
  0
CIRCLE
  5
50C
  8
DATA
  6
CONTINUOUS
 62
     7
 10
94.999999999999986
 20
-487.95807488209442
 30
0.0
 40
2.0
  0
CIRCLE
  5
50D
  8
DATA
  6
CONTINUOUS
 62
     7
 10
85.999999999999986
 20
-487.95807488209442
 30
0.0
 40
2.0
  0
CIRCLE
  5
50E
  8
DATA
  6
CONTINUOUS
 62
     7
 10
78.499999999999986
 20
-487.95807488209442
 30
0.0
 40
2.0
  0
CIRCLE
  5
50F
  8
DATA
  6
CONTINUOUS
 62
     7
 10
70.999999999999986
 20
-487.95807488209442
 30
0.0
 40
2.0
  0
TEXT
  5
510
  8
DATA
 62
     7
 10
70.011400949805591
 20
-496.5252149424515
 30
0.0
 40
3.0405034722222211
  1
R
 41
0.7
 11
70.011400949805591
 21
-493.48471147022929
 31
0.0
 73
     3
  0
TEXT
  5
511
  8
DATA
 62
     7
 10
77.511400949805576
 20
-496.5252149424515
 30
0.0
 40
3.0405034722222211
  1
G
 41
0.7
 11
77.511400949805576
 21
-493.48471147022929
 31
0.0
 73
     3
  0
TEXT
  5
512
  8
DATA
 62
     7
 10
85.011400949805576
 20
-496.5252149424515
 30
0.0
 40
3.0405034722222211
  1
B
 41
0.7
 11
85.011400949805576
 21
-493.48471147022929
 31
0.0
 73
     3
  0
TEXT
  5
513
  8
DATA
 62
     7
 10
93.330084154499446
 20
-496.5252149424515
 30
0.0
 40
3.0405034722222211
  1
BR
 41
0.7
 11
93.330084154499446
 21
-493.48471147022929
 31
0.0
 73
     3
  0
TEXT
  5
514
  8
DATA
 62
     7
 10
100.8300841544994
 20
-496.5252149424515
 30
0.0
 40
3.0405034722222211
  1
Foc
 41
0.7
 11
100.8300841544994
 21
-493.48471147022929
 31
0.0
 73
     3
  0
TEXT
  5
515
  8
DATA
 62
     7
 10
74.736053298272807
 20
-484.50245531591258
 30
0.0
 40
2.432402777777777
  1
Shift
 41
0.7
 11
74.736053298272807
 21
-482.0700525381348
 31
0.0
 73
     3
  0
LINE
  5
516
  8
DATA
  6
CONTINUOUS
 62
     7
 10
72.983234943541262
 20
-483.14910140457198
 30
0.0
 11
69.983234943541277
 21
-483.14910140457198
 31
0.0
  0
LINE
  5
517
  8
DATA
  6
CONTINUOUS
 62
     7
 10
84.016765056458681
 20
-483.14910140457198
 30
0.0
 11
87.016765056458695
 21
-483.14910140457198
 31
0.0
  0
LINE
  5
518
  8
DATA
  6
CONTINUOUS
 62
     7
 10
70.041925117905507
 20
-487.95807488209442
 30
0.0
 11
71.958074882094465
 21
-487.95807488209442
 31
0.0
  0
LINE
  5
519
  8
DATA
  6
CONTINUOUS
 62
     7
 10
70.999999999999986
 20
-488.9161497641889
 30
0.0
 11
70.999999999999986
 21
-487.0
 31
0.0
  0
LINE
  5
51A
  8
DATA
  6
CONTINUOUS
 62
     7
 10
77.541925117905507
 20
-487.95807488209442
 30
0.0
 11
79.458074882094451
 21
-487.95807488209442
 31
0.0
  0
LINE
  5
51B
  8
DATA
  6
CONTINUOUS
 62
     7
 10
78.499999999999986
 20
-488.9161497641889
 30
0.0
 11
78.499999999999986
 21
-487.0
 31
0.0
  0
LINE
  5
51C
  8
DATA
  6
CONTINUOUS
 62
     7
 10
85.041925117905507
 20
-487.95807488209442
 30
0.0
 11
86.958074882094465
 21
-487.95807488209442
 31
0.0
  0
LINE
  5
51D
  8
DATA
  6
CONTINUOUS
 62
     7
 10
85.999999999999986
 20
-488.9161497641889
 30
0.0
 11
85.999999999999986
 21
-487.0
 31
0.0
  0
LINE
  5
51E
  8
DATA
  6
CONTINUOUS
 62
     7
 10
94.041925117905507
 20
-487.95807488209442
 30
0.0
 11
95.958074882094465
 21
-487.95807488209442
 31
0.0
  0
LINE
  5
51F
  8
DATA
  6
CONTINUOUS
 62
     7
 10
94.999999999999986
 20
-488.9161497641889
 30
0.0
 11
94.999999999999986
 21
-487.0
 31
0.0
  0
LINE
  5
520
  8
DATA
  6
CONTINUOUS
 62
     7
 10
101.54192511790551
 20
-487.95807488209442
 30
0.0
 11
103.45807488209439
 21
-487.95807488209442
 31
0.0
  0
LINE
  5
521
  8
DATA
  6
CONTINUOUS
 62
     7
 10
102.5
 20
-488.9161497641889
 30
0.0
 11
102.5
 21
-487.0
 31
0.0
  0
LINE
  5
522
  8
DATA
  6
CONTINUOUS
 62
     7
 10
-249.0263265970583
 20
-230.41053292042449
 30
0.0
 11
-243.92632659705819
 21
-230.41053292042449
 31
0.0
  0
LINE
  5
523
  8
DATA
  6
CONTINUOUS
 62
     7
 10
-243.92632659705819
 20
-242.9105329204244
 30
0.0
 11
-249.0263265970583
 21
-242.9105329204244
 31
0.0
  0
LINE
  5
524
  8
DATA
  6
CONTINUOUS
 62
     7
 10
-243.92632659705819
 20
-230.41053292042449
 30
0.0
 11
-243.92632659705819
 21
-242.9105329204244
 31
0.0
  0
LINE
  5
525
  8
DATA
  6
CONTINUOUS
 62
     7
 10
-249.0263265970583
 20
-230.41053292042449
 30
0.0
 11
-249.0263265970583
 21
-242.9105329204244
 31
0.0
  0
LINE
  5
526
  8
DATA
  6
CONTINUOUS
 62
     7
 10
-246.62632659705829
 20
-230.9105329204244
 30
0.0
 11
-246.62632659705829
 21
-242.4105329204244
 31
0.0
  0
LINE
  5
527
  8
DATA
  6
CONTINUOUS
 62
     7
 10
-245.32632659705831
 20
-230.9105329204244
 30
0.0
 11
-245.32632659705831
 21
-242.4105329204244
 31
0.0
  0
LINE
  5
528
  8
DATA
  6
CONTINUOUS
 62
     7
 10
-246.62632659695819
 20
-236.0726772297802
 30
0.0
 11
-246.7013265969583
 21
-236.0726772297802
 31
0.0
  0
LINE
  5
529
  8
DATA
  6
CONTINUOUS
 62
     7
 10
-246.62632659695819
 20
-234.8226772297802
 30
0.0
 11
-246.7013265969583
 21
-234.8226772297802
 31
0.0
  0
LINE
  5
52A
  8
DATA
  6
CONTINUOUS
 62
     7
 10
-246.7013265969583
 20
-234.8226772297802
 30
0.0
 11
-246.7013265969583
 21
-236.0726772297802
 31
0.0
  0
LINE
  5
52B
  8
DATA
  6
CONTINUOUS
 62
     7
 10
-246.62632659695819
 20
-237.2483886110688
 30
0.0
 11
-246.7013265969583
 21
-237.2483886110688
 31
0.0
  0
LINE
  5
52C
  8
DATA
  6
CONTINUOUS
 62
     7
 10
-246.62632659695819
 20
-238.4983886110688
 30
0.0
 11
-246.7013265969583
 21
-238.4983886110688
 31
0.0
  0
LINE
  5
52D
  8
DATA
  6
CONTINUOUS
 62
     7
 10
-246.7013265969583
 20
-238.4983886110688
 30
0.0
 11
-246.7013265969583
 21
-237.2483886110688
 31
0.0
  0
LINE
  5
52E
  8
DATA
  6
CONTINUOUS
 62
     7
 10
-246.62632659695819
 20
-233.6526772297801
 30
0.0
 11
-246.7013265969583
 21
-233.6526772297801
 31
0.0
  0
LINE
  5
52F
  8
DATA
  6
CONTINUOUS
 62
     7
 10
-246.62632659695819
 20
-232.40267722978021
 30
0.0
 11
-246.7013265969583
 21
-232.40267722978021
 31
0.0
  0
LINE
  5
530
  8
DATA
  6
CONTINUOUS
 62
     7
 10
-246.7013265969583
 20
-232.40267722978021
 30
0.0
 11
-246.7013265969583
 21
-233.6526772297801
 31
0.0
  0
LINE
  5
531
  8
DATA
  6
CONTINUOUS
 62
     7
 10
-246.62632659695819
 20
-239.66838861106879
 30
0.0
 11
-246.7013265969583
 21
-239.66838861106879
 31
0.0
  0
LINE
  5
532
  8
DATA
  6
CONTINUOUS
 62
     7
 10
-246.62632659695819
 20
-240.91838861106879
 30
0.0
 11
-246.7013265969583
 21
-240.91838861106879
 31
0.0
  0
LINE
  5
533
  8
DATA
  6
CONTINUOUS
 62
     7
 10
-246.7013265969583
 20
-240.91838861106879
 30
0.0
 11
-246.7013265969583
 21
-239.66838861106879
 31
0.0
  0
LINE
  5
534
  8
DATA
  6
CONTINUOUS
 62
     7
 10
-246.62632659705829
 20
-230.9105329204244
 30
0.0
 11
-245.32632659705831
 21
-230.9105329204244
 31
0.0
  0
LINE
  5
535
  8
DATA
  6
CONTINUOUS
 62
     7
 10
-246.62632659705829
 20
-242.4105329204244
 30
0.0
 11
-245.32632659705831
 21
-242.4105329204244
 31
0.0
  0
CIRCLE
  5
536
  8
DATA
  6
CONTINUOUS
 62
     7
 10
-251.98736848250161
 20
-233.49999999988211
 30
0.0
 40
1.5
  0
LINE
  5
537
  8
DATA
  6
CONTINUOUS
 62
     7
 10
-233.5263265970583
 20
-230.41053292042449
 30
0.0
 11
-228.42632659705831
 21
-230.41053292042449
 31
0.0
  0
LINE
  5
538
  8
DATA
  6
CONTINUOUS
 62
     7
 10
-228.42632659705831
 20
-242.9105329204244
 30
0.0
 11
-233.5263265970583
 21
-242.9105329204244
 31
0.0
  0
LINE
  5
539
  8
DATA
  6
CONTINUOUS
 62
     7
 10
-228.42632659705831
 20
-230.41053292042449
 30
0.0
 11
-228.42632659705831
 21
-242.9105329204244
 31
0.0
  0
LINE
  5
53A
  8
DATA
  6
CONTINUOUS
 62
     7
 10
-233.5263265970583
 20
-230.41053292042449
 30
0.0
 11
-233.5263265970583
 21
-242.9105329204244
 31
0.0
  0
LINE
  5
53B
  8
DATA
  6
CONTINUOUS
 62
     7
 10
-231.12632659705829
 20
-230.9105329204244
 30
0.0
 11
-231.12632659705829
 21
-242.4105329204244
 31
0.0
  0
LINE
  5
53C
  8
DATA
  6
CONTINUOUS
 62
     7
 10
-229.8263265970582
 20
-230.9105329204244
 30
0.0
 11
-229.8263265970582
 21
-242.4105329204244
 31
0.0
  0
LINE
  5
53D
  8
DATA
  6
CONTINUOUS
 62
     7
 10
-231.12632659695831
 20
-236.0726772297802
 30
0.0
 11
-231.2013265969583
 21
-236.0726772297802
 31
0.0
  0
LINE
  5
53E
  8
DATA
  6
CONTINUOUS
 62
     7
 10
-231.12632659695831
 20
-234.8226772297802
 30
0.0
 11
-231.2013265969583
 21
-234.8226772297802
 31
0.0
  0
LINE
  5
53F
  8
DATA
  6
CONTINUOUS
 62
     7
 10
-231.2013265969583
 20
-234.8226772297802
 30
0.0
 11
-231.2013265969583
 21
-236.0726772297802
 31
0.0
  0
LINE
  5
540
  8
DATA
  6
CONTINUOUS
 62
     7
 10
-231.12632659695831
 20
-237.2483886110688
 30
0.0
 11
-231.2013265969583
 21
-237.2483886110688
 31
0.0
  0
LINE
  5
541
  8
DATA
  6
CONTINUOUS
 62
     7
 10
-231.12632659695831
 20
-238.4983886110688
 30
0.0
 11
-231.2013265969583
 21
-238.4983886110688
 31
0.0
  0
LINE
  5
542
  8
DATA
  6
CONTINUOUS
 62
     7
 10
-231.2013265969583
 20
-238.4983886110688
 30
0.0
 11
-231.2013265969583
 21
-237.2483886110688
 31
0.0
  0
LINE
  5
543
  8
DATA
  6
CONTINUOUS
 62
     7
 10
-231.12632659695831
 20
-233.6526772297801
 30
0.0
 11
-231.2013265969583
 21
-233.6526772297801
 31
0.0
  0
LINE
  5
544
  8
DATA
  6
CONTINUOUS
 62
     7
 10
-231.12632659695831
 20
-232.40267722978021
 30
0.0
 11
-231.2013265969583
 21
-232.40267722978021
 31
0.0
  0
LINE
  5
545
  8
DATA
  6
CONTINUOUS
 62
     7
 10
-231.2013265969583
 20
-232.40267722978021
 30
0.0
 11
-231.2013265969583
 21
-233.6526772297801
 31
0.0
  0
LINE
  5
546
  8
DATA
  6
CONTINUOUS
 62
     7
 10
-231.12632659695831
 20
-239.66838861106879
 30
0.0
 11
-231.2013265969583
 21
-239.66838861106879
 31
0.0
  0
LINE
  5
547
  8
DATA
  6
CONTINUOUS
 62
     7
 10
-231.12632659695831
 20
-240.91838861106879
 30
0.0
 11
-231.2013265969583
 21
-240.91838861106879
 31
0.0
  0
LINE
  5
548
  8
DATA
  6
CONTINUOUS
 62
     7
 10
-231.2013265969583
 20
-240.91838861106879
 30
0.0
 11
-231.2013265969583
 21
-239.66838861106879
 31
0.0
  0
LINE
  5
549
  8
DATA
  6
CONTINUOUS
 62
     7
 10
-231.12632659705829
 20
-230.9105329204244
 30
0.0
 11
-229.8263265970582
 21
-230.9105329204244
 31
0.0
  0
LINE
  5
54A
  8
DATA
  6
CONTINUOUS
 62
     7
 10
-231.12632659705829
 20
-242.4105329204244
 30
0.0
 11
-229.8263265970582
 21
-242.4105329204244
 31
0.0
  0
CIRCLE
  5
54B
  8
DATA
  6
CONTINUOUS
 62
     7
 10
-236.48736848250161
 20
-233.49999999988211
 30
0.0
 40
1.5
  0
LINE
  5
54C
  8
DATA
  6
CONTINUOUS
 62
     7
 10
-218.0263265970583
 20
-230.41053292042449
 30
0.0
 11
-212.92632659705819
 21
-230.41053292042449
 31
0.0
  0
LINE
  5
54D
  8
DATA
  6
CONTINUOUS
 62
     7
 10
-212.92632659705819
 20
-242.9105329204244
 30
0.0
 11
-218.0263265970583
 21
-242.9105329204244
 31
0.0
  0
LINE
  5
54E
  8
DATA
  6
CONTINUOUS
 62
     7
 10
-212.92632659705819
 20
-230.41053292042449
 30
0.0
 11
-212.92632659705819
 21
-242.9105329204244
 31
0.0
  0
LINE
  5
54F
  8
DATA
  6
CONTINUOUS
 62
     7
 10
-218.0263265970583
 20
-230.41053292042449
 30
0.0
 11
-218.0263265970583
 21
-242.9105329204244
 31
0.0
  0
LINE
  5
550
  8
DATA
  6
CONTINUOUS
 62
     7
 10
-215.62632659705829
 20
-230.9105329204244
 30
0.0
 11
-215.62632659705829
 21
-242.4105329204244
 31
0.0
  0
LINE
  5
551
  8
DATA
  6
CONTINUOUS
 62
     7
 10
-214.32632659705831
 20
-230.9105329204244
 30
0.0
 11
-214.32632659705831
 21
-242.4105329204244
 31
0.0
  0
LINE
  5
552
  8
DATA
  6
CONTINUOUS
 62
     7
 10
-215.62632659695819
 20
-236.0726772297802
 30
0.0
 11
-215.7013265969583
 21
-236.0726772297802
 31
0.0
  0
LINE
  5
553
  8
DATA
  6
CONTINUOUS
 62
     7
 10
-215.62632659695819
 20
-234.8226772297802
 30
0.0
 11
-215.7013265969583
 21
-234.8226772297802
 31
0.0
  0
LINE
  5
554
  8
DATA
  6
CONTINUOUS
 62
     7
 10
-215.7013265969583
 20
-234.8226772297802
 30
0.0
 11
-215.7013265969583
 21
-236.0726772297802
 31
0.0
  0
LINE
  5
555
  8
DATA
  6
CONTINUOUS
 62
     7
 10
-215.62632659695819
 20
-237.2483886110688
 30
0.0
 11
-215.7013265969583
 21
-237.2483886110688
 31
0.0
  0
LINE
  5
556
  8
DATA
  6
CONTINUOUS
 62
     7
 10
-215.62632659695819
 20
-238.4983886110688
 30
0.0
 11
-215.7013265969583
 21
-238.4983886110688
 31
0.0
  0
LINE
  5
557
  8
DATA
  6
CONTINUOUS
 62
     7
 10
-215.7013265969583
 20
-238.4983886110688
 30
0.0
 11
-215.7013265969583
 21
-237.2483886110688
 31
0.0
  0
LINE
  5
558
  8
DATA
  6
CONTINUOUS
 62
     7
 10
-215.62632659695819
 20
-233.6526772297801
 30
0.0
 11
-215.7013265969583
 21
-233.6526772297801
 31
0.0
  0
LINE
  5
559
  8
DATA
  6
CONTINUOUS
 62
     7
 10
-215.62632659695819
 20
-232.40267722978021
 30
0.0
 11
-215.7013265969583
 21
-232.40267722978021
 31
0.0
  0
LINE
  5
55A
  8
DATA
  6
CONTINUOUS
 62
     7
 10
-215.7013265969583
 20
-232.40267722978021
 30
0.0
 11
-215.7013265969583
 21
-233.6526772297801
 31
0.0
  0
LINE
  5
55B
  8
DATA
  6
CONTINUOUS
 62
     7
 10
-215.62632659695819
 20
-239.66838861106879
 30
0.0
 11
-215.7013265969583
 21
-239.66838861106879
 31
0.0
  0
LINE
  5
55C
  8
DATA
  6
CONTINUOUS
 62
     7
 10
-215.62632659695819
 20
-240.91838861106879
 30
0.0
 11
-215.7013265969583
 21
-240.91838861106879
 31
0.0
  0
LINE
  5
55D
  8
DATA
  6
CONTINUOUS
 62
     7
 10
-215.7013265969583
 20
-240.91838861106879
 30
0.0
 11
-215.7013265969583
 21
-239.66838861106879
 31
0.0
  0
LINE
  5
55E
  8
DATA
  6
CONTINUOUS
 62
     7
 10
-215.62632659705829
 20
-230.9105329204244
 30
0.0
 11
-214.32632659705831
 21
-230.9105329204244
 31
0.0
  0
LINE
  5
55F
  8
DATA
  6
CONTINUOUS
 62
     7
 10
-215.62632659705829
 20
-242.4105329204244
 30
0.0
 11
-214.32632659705831
 21
-242.4105329204244
 31
0.0
  0
CIRCLE
  5
560
  8
DATA
  6
CONTINUOUS
 62
     7
 10
-220.98736848250161
 20
-233.49999999988211
 30
0.0
 40
1.5
  0
LINE
  5
561
  8
DATA
  6
CONTINUOUS
 62
     7
 10
-202.5263265970583
 20
-230.41053292042449
 30
0.0
 11
-197.42632659705819
 21
-230.41053292042449
 31
0.0
  0
LINE
  5
562
  8
DATA
  6
CONTINUOUS
 62
     7
 10
-197.42632659705819
 20
-242.9105329204244
 30
0.0
 11
-202.5263265970583
 21
-242.9105329204244
 31
0.0
  0
LINE
  5
563
  8
DATA
  6
CONTINUOUS
 62
     7
 10
-197.42632659705819
 20
-230.41053292042449
 30
0.0
 11
-197.42632659705819
 21
-242.9105329204244
 31
0.0
  0
LINE
  5
564
  8
DATA
  6
CONTINUOUS
 62
     7
 10
-202.5263265970583
 20
-230.41053292042449
 30
0.0
 11
-202.5263265970583
 21
-242.9105329204244
 31
0.0
  0
LINE
  5
565
  8
DATA
  6
CONTINUOUS
 62
     7
 10
-200.12632659705829
 20
-230.9105329204244
 30
0.0
 11
-200.12632659705829
 21
-242.4105329204244
 31
0.0
  0
LINE
  5
566
  8
DATA
  6
CONTINUOUS
 62
     7
 10
-198.8263265970582
 20
-230.9105329204244
 30
0.0
 11
-198.8263265970582
 21
-242.4105329204244
 31
0.0
  0
LINE
  5
567
  8
DATA
  6
CONTINUOUS
 62
     7
 10
-200.12632659695831
 20
-236.0726772297802
 30
0.0
 11
-200.2013265969583
 21
-236.0726772297802
 31
0.0
  0
LINE
  5
568
  8
DATA
  6
CONTINUOUS
 62
     7
 10
-200.12632659695831
 20
-234.8226772297802
 30
0.0
 11
-200.2013265969583
 21
-234.8226772297802
 31
0.0
  0
LINE
  5
569
  8
DATA
  6
CONTINUOUS
 62
     7
 10
-200.2013265969583
 20
-234.8226772297802
 30
0.0
 11
-200.2013265969583
 21
-236.0726772297802
 31
0.0
  0
LINE
  5
56A
  8
DATA
  6
CONTINUOUS
 62
     7
 10
-200.12632659695831
 20
-237.2483886110688
 30
0.0
 11
-200.2013265969583
 21
-237.2483886110688
 31
0.0
  0
LINE
  5
56B
  8
DATA
  6
CONTINUOUS
 62
     7
 10
-200.12632659695831
 20
-238.4983886110688
 30
0.0
 11
-200.2013265969583
 21
-238.4983886110688
 31
0.0
  0
LINE
  5
56C
  8
DATA
  6
CONTINUOUS
 62
     7
 10
-200.2013265969583
 20
-238.4983886110688
 30
0.0
 11
-200.2013265969583
 21
-237.2483886110688
 31
0.0
  0
LINE
  5
56D
  8
DATA
  6
CONTINUOUS
 62
     7
 10
-200.12632659695831
 20
-233.6526772297801
 30
0.0
 11
-200.2013265969583
 21
-233.6526772297801
 31
0.0
  0
LINE
  5
56E
  8
DATA
  6
CONTINUOUS
 62
     7
 10
-200.12632659695831
 20
-232.40267722978021
 30
0.0
 11
-200.2013265969583
 21
-232.40267722978021
 31
0.0
  0
LINE
  5
56F
  8
DATA
  6
CONTINUOUS
 62
     7
 10
-200.2013265969583
 20
-232.40267722978021
 30
0.0
 11
-200.2013265969583
 21
-233.6526772297801
 31
0.0
  0
LINE
  5
570
  8
DATA
  6
CONTINUOUS
 62
     7
 10
-200.12632659695831
 20
-239.66838861106879
 30
0.0
 11
-200.2013265969583
 21
-239.66838861106879
 31
0.0
  0
LINE
  5
571
  8
DATA
  6
CONTINUOUS
 62
     7
 10
-200.12632659695831
 20
-240.91838861106879
 30
0.0
 11
-200.2013265969583
 21
-240.91838861106879
 31
0.0
  0
LINE
  5
572
  8
DATA
  6
CONTINUOUS
 62
     7
 10
-200.2013265969583
 20
-240.91838861106879
 30
0.0
 11
-200.2013265969583
 21
-239.66838861106879
 31
0.0
  0
LINE
  5
573
  8
DATA
  6
CONTINUOUS
 62
     7
 10
-200.12632659705829
 20
-230.9105329204244
 30
0.0
 11
-198.8263265970582
 21
-230.9105329204244
 31
0.0
  0
LINE
  5
574
  8
DATA
  6
CONTINUOUS
 62
     7
 10
-200.12632659705829
 20
-242.4105329204244
 30
0.0
 11
-198.8263265970582
 21
-242.4105329204244
 31
0.0
  0
CIRCLE
  5
575
  8
DATA
  6
CONTINUOUS
 62
     7
 10
-205.48736848250161
 20
-233.49999999988211
 30
0.0
 40
1.5
  0
TEXT
  5
576
  8
DATA
 62
     7
 10
-245.08791192507911
 20
-226.24534470147091
 30
0.0
 40
2.7950914062500001
  1
4
 50
180.0
 41
0.7
 11
-245.08791192507911
 21
-229.04043610772089
 31
0.0
 73
     3
  0
TEXT
  5
577
  8
DATA
 62
     7
 10
-229.58791192507911
 20
-226.24534470147091
 30
0.0
 40
2.7950914062500001
  1
3
 50
180.0
 41
0.7
 11
-229.58791192507911
 21
-229.04043610772089
 31
0.0
 73
     3
  0
TEXT
  5
578
  8
DATA
 62
     7
 10
-214.08791192507911
 20
-226.24534470147091
 30
0.0
 40
2.7950914062500001
  1
2
 50
180.0
 41
0.7
 11
-214.08791192507911
 21
-229.04043610772089
 31
0.0
 73
     3
  0
TEXT
  5
579
  8
DATA
 62
     7
 10
-198.58791192507911
 20
-226.24534470147091
 30
0.0
 40
2.7950914062500001
  1
1
 50
180.0
 41
0.7
 11
-198.58791192507911
 21
-229.04043610772089
 31
0.0
 73
     3
  0
TEXT
  5
57A
  8
DATA
 62
     7
 10
-216.5838999993272
 20
-245.24791050883201
 30
0.0
 40
2.7950914062500001
  1
USB Out
 50
180.0
 41
0.7
 11
-216.5838999993272
 21
-248.04300191508199
 31
0.0
 73
     3
  0
LINE
  5
57B
  8
DATA
  6
CONTINUOUS
 62
     7
 10
-232.19999999999999
 20
-246.59999999999999
 30
0.0
 11
-248.2000000000001
 21
-246.59999999999999
 31
0.0
  0
LINE
  5
57C
  8
DATA
  6
CONTINUOUS
 62
     7
 10
-215.2000000000001
 20
-246.59999999999999
 30
0.0
 11
-199.19999999999999
 21
-246.59999999999999
 31
0.0
  0
TEXT
  5
57D
  8
DATA
 62
     7
 10
73.7343616709597
 20
-245.55228587734999
 30
0.0
 40
2.7950914062500001
  1
VGA Out
 50
180.0
 41
0.7
 11
73.7343616709597
 21
-248.3473772836
 31
0.0
 73
     3
  0
LINE
  5
57E
  8
DATA
  6
CONTINUOUS
 62
     7
 10
58.600000000000001
 20
-246.80000000000001
 30
0.0
 11
47.600000000000001
 21
-246.80000000000001
 31
0.0
  0
LINE
  5
57F
  8
DATA
  6
CONTINUOUS
 62
     7
 10
77.0
 20
-246.80000000000001
 30
0.0
 11
88.0
 21
-246.80000000000001
 31
0.0
  0
POLYLINE
  5
580
  8
DATA
  6
CONTINUOUS
 62
     7
 66
     1
 10
0.0
 20
0.0
 30
0.0
 70
     1
  0
VERTEX
  5
827
  8
DATA
  6
CONTINUOUS
 62
     7
 10
74.799254731447419
 20
-120.58039081164711
 30
0.0
  0
VERTEX
  5
828
  8
DATA
  6
CONTINUOUS
 62
     7
 10
79.799254731447419
 20
-120.58039081164711
 30
0.0
  0
VERTEX
  5
829
  8
DATA
  6
CONTINUOUS
 62
     7
 10
79.799254731447419
 20
-125.58039081164711
 30
0.0
  0
VERTEX
  5
82A
  8
DATA
  6
CONTINUOUS
 62
     7
 10
74.799254731447419
 20
-125.58039081164711
 30
0.0
  0
SEQEND
  5
82B
  8
DATA
  6
CONTINUOUS
 62
     7
  0
CIRCLE
  5
587
  8
DATA
  6
CONTINUOUS
 62
     7
 10
77.299254731447419
 20
-123.08039081164711
 30
0.0
 40
1.480390811647055
  0
LINE
  5
588
  8
DATA
  6
CONTINUOUS
 62
     7
 10
78.346049113169272
 20
-122.0335964299252
 30
0.0
 11
76.252460349725553
 21
-124.1271851933689
 31
0.0
  0
POLYLINE
  5
589
  8
DATA
  6
CONTINUOUS
 62
     7
 66
     1
 10
0.0
 20
0.0
 30
0.0
 70
     1
  0
VERTEX
  5
82C
  8
DATA
  6
CONTINUOUS
 62
     7
 10
395.77947503058891
 20
468.12268596339339
 30
0.0
  0
VERTEX
  5
82D
  8
DATA
  6
CONTINUOUS
 62
     7
 10
500.77947503058891
 20
468.12268596339339
 30
0.0
  0
VERTEX
  5
82E
  8
DATA
  6
CONTINUOUS
 62
     7
 10
500.77947503058891
 20
363.12268596339339
 30
0.0
  0
VERTEX
  5
82F
  8
DATA
  6
CONTINUOUS
 62
     7
 10
395.77947503058891
 20
363.12268596339339
 30
0.0
  0
SEQEND
  5
830
  8
DATA
  6
CONTINUOUS
 62
     7
  0
LINE
  5
590
  8
DATA
  6
CONTINUOUS
 62
     7
 10
448.27947503058891
 20
424.62268596339379
 30
0.0
 11
425.77947503058891
 21
424.62268596339379
 31
0.0
  0
LINE
  5
591
  8
DATA
  6
CONTINUOUS
 62
     7
 10
425.77947503058891
 20
447.12268596339368
 30
0.0
 11
448.27947503058891
 21
447.12268596339368
 31
0.0
  0
LINE
  5
592
  8
DATA
  6
CONTINUOUS
 62
     7
 10
425.77947503058891
 20
424.62268596339379
 30
0.0
 11
425.77947503058891
 21
447.12268596339368
 31
0.0
  0
LINE
  5
593
  8
DATA
  6
CONTINUOUS
 62
     7
 10
448.27947503058891
 20
384.12268596339311
 30
0.0
 11
425.77947503058891
 21
384.12268596339311
 31
0.0
  0
LINE
  5
594
  8
DATA
  6
CONTINUOUS
 62
     7
 10
425.77947503058891
 20
406.62268596339311
 30
0.0
 11
448.27947503058891
 21
406.62268596339311
 31
0.0
  0
LINE
  5
595
  8
DATA
  6
CONTINUOUS
 62
     7
 10
425.77947503058891
 20
384.12268596339311
 30
0.0
 11
425.77947503058891
 21
406.62268596339311
 31
0.0
  0
LINE
  5
596
  8
DATA
  6
CONTINUOUS
 62
     7
 10
470.77947503058891
 20
424.62268596339379
 30
0.0
 11
448.27947503058891
 21
424.62268596339379
 31
0.0
  0
LINE
  5
597
  8
DATA
  6
CONTINUOUS
 62
     7
 10
470.77947503058891
 20
447.12268596339368
 30
0.0
 11
470.77947503058891
 21
424.62268596339379
 31
0.0
  0
LINE
  5
598
  8
DATA
  6
CONTINUOUS
 62
     7
 10
448.27947503058891
 20
447.12268596339368
 30
0.0
 11
470.77947503058891
 21
447.12268596339368
 31
0.0
  0
LINE
  5
599
  8
DATA
  6
CONTINUOUS
 62
     7
 10
470.77947503058891
 20
384.12268596339311
 30
0.0
 11
448.27947503058891
 21
384.12268596339311
 31
0.0
  0
LINE
  5
59A
  8
DATA
  6
CONTINUOUS
 62
     7
 10
470.77947503058891
 20
406.62268596339311
 30
0.0
 11
470.77947503058891
 21
384.12268596339311
 31
0.0
  0
LINE
  5
59B
  8
DATA
  6
CONTINUOUS
 62
     7
 10
448.27947503058891
 20
406.62268596339311
 30
0.0
 11
470.77947503058891
 21
406.62268596339311
 31
0.0
  0
LINE
  5
59C
  8
DATA
  6
CONTINUOUS
 62
     7
 10
445.84336292658531
 20
384.12268596339311
 30
0.0
 11
445.84336292658531
 21
406.62268596339311
 31
0.0
  0
LINE
  5
59D
  8
DATA
  6
CONTINUOUS
 62
     7
 10
445.84336292658531
 20
424.62268596339379
 30
0.0
 11
445.84336292658531
 21
447.12268596339368
 31
0.0
  0
TEXT
  5
59E
  8
DATA
 62
     7
 10
405.57376944717771
 20
441.23633316742132
 30
0.0
 40
14.6595703125
  1
1
 50
270.0
 41
0.7
 11
420.23333975967768
 21
441.23633316742132
 31
0.0
 73
     3
  0
TEXT
  5
59F
  8
DATA
 62
     7
 10
405.57376944717771
 20
401.43241437755012
 30
0.0
 40
14.6595703125
  1
2
 50
270.0
 41
0.7
 11
420.23333975967768
 21
401.43241437755012
 31
0.0
 73
     3
  0
TEXT
  5
5A0
  8
DATA
 62
     7
 10
477.73689127091541
 20
445.91666311557691
 30
0.0
 40
14.6595703125
  1
ON
 50
270.0
 41
0.7
 11
492.39646158341537
 21
445.91666311557691
 31
0.0
 73
     3
  0
POLYLINE
  5
5A1
  8
DATA
  6
CONTINUOUS
 62
     7
 66
     1
 10
0.0
 20
0.0
 30
0.0
 70
     1
  0
VERTEX
  5
831
  8
DATA
  6
CONTINUOUS
 62
     7
 10
395.0
 20
-61.473057494205882
 30
0.0
  0
VERTEX
  5
832
  8
DATA
  6
CONTINUOUS
 62
     7
 10
500.0
 20
-61.473057494205882
 30
0.0
  0
VERTEX
  5
833
  8
DATA
  6
CONTINUOUS
 62
     7
 10
500.0
 20
-271.47305749420559
 30
0.0
  0
VERTEX
  5
834
  8
DATA
  6
CONTINUOUS
 62
     7
 10
395.0
 20
-271.47305749420559
 30
0.0
  0
SEQEND
  5
835
  8
DATA
  6
CONTINUOUS
 62
     7
  0
LINE
  5
5A8
  8
DATA
  6
CONTINUOUS
 62
     7
 10
447.5
 20
-104.97305749420551
 30
0.0
 11
425.0
 21
-104.97305749420551
 31
0.0
  0
LINE
  5
5A9
  8
DATA
  6
CONTINUOUS
 62
     7
 10
425.0
 20
-82.473057494205534
 30
0.0
 11
447.5
 21
-82.473057494205534
 31
0.0
  0
LINE
  5
5AA
  8
DATA
  6
CONTINUOUS
 62
     7
 10
425.0
 20
-104.97305749420551
 30
0.0
 11
425.0
 21
-82.473057494205534
 31
0.0
  0
LINE
  5
5AB
  8
DATA
  6
CONTINUOUS
 62
     7
 10
447.5
 20
-145.4730574942059
 30
0.0
 11
425.0
 21
-145.4730574942059
 31
0.0
  0
LINE
  5
5AC
  8
DATA
  6
CONTINUOUS
 62
     7
 10
425.0
 20
-122.9730574942061
 30
0.0
 11
447.5
 21
-122.9730574942061
 31
0.0
  0
LINE
  5
5AD
  8
DATA
  6
CONTINUOUS
 62
     7
 10
425.0
 20
-145.4730574942059
 30
0.0
 11
425.0
 21
-122.9730574942061
 31
0.0
  0
LINE
  5
5AE
  8
DATA
  6
CONTINUOUS
 62
     7
 10
470.0
 20
-104.97305749420551
 30
0.0
 11
447.5
 21
-104.97305749420551
 31
0.0
  0
LINE
  5
5AF
  8
DATA
  6
CONTINUOUS
 62
     7
 10
470.0
 20
-82.473057494205534
 30
0.0
 11
470.0
 21
-104.97305749420551
 31
0.0
  0
LINE
  5
5B0
  8
DATA
  6
CONTINUOUS
 62
     7
 10
447.5
 20
-82.473057494205534
 30
0.0
 11
470.0
 21
-82.473057494205534
 31
0.0
  0
LINE
  5
5B1
  8
DATA
  6
CONTINUOUS
 62
     7
 10
470.0
 20
-145.4730574942059
 30
0.0
 11
447.5
 21
-145.4730574942059
 31
0.0
  0
LINE
  5
5B2
  8
DATA
  6
CONTINUOUS
 62
     7
 10
470.0
 20
-122.9730574942061
 30
0.0
 11
470.0
 21
-145.4730574942059
 31
0.0
  0
LINE
  5
5B3
  8
DATA
  6
CONTINUOUS
 62
     7
 10
447.5
 20
-122.9730574942061
 30
0.0
 11
470.0
 21
-122.9730574942061
 31
0.0
  0
LINE
  5
5B4
  8
DATA
  6
CONTINUOUS
 62
     7
 10
445.0638878959964
 20
-145.4730574942059
 30
0.0
 11
445.0638878959964
 21
-122.9730574942061
 31
0.0
  0
LINE
  5
5B5
  8
DATA
  6
CONTINUOUS
 62
     7
 10
445.0638878959964
 20
-104.97305749420551
 30
0.0
 11
445.0638878959964
 21
-82.473057494205534
 31
0.0
  0
TEXT
  5
5B6
  8
DATA
 62
     7
 10
404.79429441658971
 20
-88.359410290177962
 30
0.0
 40
14.6595703125
  1
1
 50
270.0
 41
0.7
 11
419.45386472908962
 21
-88.359410290177962
 31
0.0
 73
     3
  0
TEXT
  5
5B7
  8
DATA
 62
     7
 10
404.79429441658971
 20
-128.1633290800489
 30
0.0
 40
14.6595703125
  1
2
 50
270.0
 41
0.7
 11
419.45386472908962
 21
-128.1633290800489
 31
0.0
 73
     3
  0
TEXT
  5
5B8
  8
DATA
 62
     7
 10
476.9574162403274
 20
-83.679080342022345
 30
0.0
 40
14.6595703125
  1
ON
 50
270.0
 41
0.7
 11
491.61698655282731
 21
-83.679080342022345
 31
0.0
 73
     3
  0
POLYLINE
  5
5B9
  8
DATA
  6
CONTINUOUS
 62
     7
 66
     1
 10
0.0
 20
0.0
 30
0.0
 70
     1
  0
VERTEX
  5
836
  8
DATA
  6
CONTINUOUS
 62
     7
 10
410.0
 20
-169.2757726743495
 30
0.0
  0
VERTEX
  5
837
  8
DATA
  6
CONTINUOUS
 62
     7
 10
485.0
 20
-169.2757726743495
 30
0.0
  0
VERTEX
  5
838
  8
DATA
  6
CONTINUOUS
 62
     7
 10
485.0
 20
-244.2757726743495
 30
0.0
  0
VERTEX
  5
839
  8
DATA
  6
CONTINUOUS
 62
     7
 10
410.0
 20
-244.2757726743495
 30
0.0
  0
SEQEND
  5
83A
  8
DATA
  6
CONTINUOUS
 62
     7
  0
CIRCLE
  5
5C0
  8
DATA
  6
CONTINUOUS
 62
     7
 10
447.5
 20
-206.7757726743495
 30
0.0
 40
22.205862174705828
  0
LINE
  5
5C1
  8
DATA
  6
CONTINUOUS
 62
     7
 10
463.20191572582758
 20
-191.07385694852189
 30
0.0
 11
431.79808427417157
 21
-222.4776884001779
 31
0.0
  0
TEXT
  5
5C2
  8
DATA
 62
     7
 10
368.33256235029029
 20
320.17163111230798
 30
0.0
 40
19.003146701388879
  1
スイッチ拡大図
 41
0.7
 11
368.33256235029029
 21
339.17477781369678
 31
0.0
 73
     3
  0
TEXT
  5
5C3
  8
DATA
 62
     7
 10
356.0
 20
-316.62572798240973
 30
0.0
 40
19.003146701388879
  1
スイッチ拡大図
 41
0.7
 11
356.0
 21
-297.62258128102081
 31
0.0
 73
     3
  0
LINE
  5
5C4
  8
DATA
  6
CONTINUOUS
 62
     7
 10
362.5
 20
312.5
 30
0.0
 11
550.0
 21
312.5
 31
0.0
  0
LINE
  5
5C5
  8
DATA
  6
CONTINUOUS
 62
     7
 10
350.0
 20
-325.0
 30
0.0
 11
537.5
 21
-325.0
 31
0.0
  0
LINE
  5
5C6
  8
DATA
  6
CONTINUOUS
 62
     7
 10
-525.0
 20
-12.5
 30
0.0
 11
712.5
 21
-12.5
 31
0.0
  0
TEXT
  5
5C7
  8
DATA
 62
     7
 10
365.39575032118762
 20
59.77512563132823
 30
0.0
 40
19.003146701388879
  1
EXT-CAT5-1600AS
 41
0.7
 11
365.39575032118762
 21
78.778272332717123
 31
0.0
 73
     3
  0
TEXT
  5
5C8
  8
DATA
 62
     7
 10
396.67514238296798
 20
32.941543951233378
 30
0.0
 40
19.003146701388879
  1
(センダー)
 41
0.7
 11
396.67514238296798
 21
51.944690652622263
 31
0.0
 73
     3
  0
LINE
  5
5C9
  8
DATA
  6
CONTINUOUS
 62
     7
 10
350.0
 20
25.0
 30
0.0
 11
562.5
 21
25.0
 31
0.0
  0
TEXT
  5
5CA
  8
DATA
 62
     7
 10
365.39575032118762
 20
-515.22487436867175
 30
0.0
 40
19.003146701388879
  1
EXT-CAT5-1600AR
 41
0.7
 11
365.39575032118762
 21
-496.22172766728289
 31
0.0
 73
     3
  0
TEXT
  5
5CB
  8
DATA
 62
     7
 10
379.82995126255003
 20
-542.05845604876663
 30
0.0
 40
19.003146701388879
  1
(レシーバー)
 41
0.7
 11
379.82995126255003
 21
-523.05530934737772
 31
0.0
 73
     3
  0
LINE
  5
5CC
  8
DATA
  6
CONTINUOUS
 62
     7
 10
350.0
 20
-550.0
 30
0.0
 11
562.5
 21
-550.0
 31
0.0
  0
ENDSEC
  0
EOF
