  0
SECTION
  2
HEADER
  9
$ACADVER
  1
AC1009
  9
$INSBASE
 10
0.0
 20
0.0
 30
0.0
  9
$EXTMIN
 10
49.981691723202402
 20
11.90643626254314
 30
-0.0015258207003583
  9
$EXTMAX
 10
950.02899391114363
 20
1350.04120187373
 30
0.0000000349246037
  9
$LIMMIN
 10
0.0
 20
0.0
  9
$LIMMAX
 10
0.0
 20
0.0
  9
$ORTHOMODE
 70
     0
  9
$REGENMODE
 70
     1
  9
$FILLMODE
 70
     1
  9
$QTEXTMODE
 70
     0
  9
$MIRRTEXT
 70
     1
  9
$DRAGMODE
 70
     2
  9
$LTSCALE
 40
25.399999999999999
  9
$OSMODE
 70
   231
  9
$ATTMODE
 70
     1
  9
$TEXTSIZE
 40
0.0
  9
$TRACEWID
 40
1.0
  9
$TEXTSTYLE
  7
STANDARD
  9
$CLAYER
  8
DATA
  9
$CELTYPE
  6
BYLAYER
  9
$CECOLOR
 62
   256
  9
$DIMSCALE
 40
1.0
  9
$DIMASZ
 40
0.18
  9
$DIMEXO
 40
0.0625
  9
$DIMDLI
 40
0.38
  9
$DIMRND
 40
0.0
  9
$DIMDLE
 40
0.0
  9
$DIMEXE
 40
0.18
  9
$DIMTP
 40
0.0
  9
$DIMTM
 40
0.0
  9
$DIMTXT
 40
0.18
  9
$DIMCEN
 40
0.09
  9
$DIMTSZ
 40
0.0
  9
$DIMTOL
 70
     0
  9
$DIMLIM
 70
     0
  9
$DIMTIH
 70
     1
  9
$DIMTOH
 70
     1
  9
$DIMSE1
 70
     0
  9
$DIMSE2
 70
     0
  9
$DIMTAD
 70
     0
  9
$DIMZIN
 70
     0
  9
$DIMBLK
  1

  9
$DIMASO
 70
     1
  9
$DIMSHO
 70
     1
  9
$DIMPOST
  1

  9
$DIMAPOST
  1

  9
$DIMALT
 70
     0
  9
$DIMALTD
 70
     2
  9
$DIMALTF
 40
25.399999999999999
  9
$DIMLFAC
 40
1.0
  9
$DIMTOFL
 70
     0
  9
$DIMTVP
 40
0.0
  9
$DIMTIX
 70
     0
  9
$DIMSOXD
 70
     0
  9
$DIMSAH
 70
     0
  9
$DIMBLK1
  1

  9
$DIMBLK2
  1

  9
$DIMSTYLE
  2
STANDARD
  9
$DIMCLRD
 70
     0
  9
$DIMCLRE
 70
     0
  9
$DIMCLRT
 70
     0
  9
$DIMTFAC
 40
1.0
  9
$DIMGAP
 40
0.09
  9
$LUNITS
 70
     2
  9
$LUPREC
 70
     4
  9
$SKETCHINC
 40
0.1
  9
$FILLETRAD
 40
0.0
  9
$AUNITS
 70
     0
  9
$AUPREC
 70
     0
  9
$MENU
  1
acad
  9
$ELEVATION
 40
0.0
  9
$PELEVATION
 40
0.0
  9
$THICKNESS
 40
0.0
  9
$LIMCHECK
 70
     0
  9
$BLIPMODE
 70
     0
  9
$CHAMFERA
 40
0.0
  9
$CHAMFERB
 40
0.0
  9
$SKPOLY
 70
     0
  9
$TDCREATE
 40
2455834.55212963
  9
$TDUPDATE
 40
2455834.5668922919
  9
$TDINDWG
 40
0.0002951042
  9
$TDUSRTIMER
 40
0.0002951042
  9
$USRTIMER
 70
     1
  9
$ANGBASE
 50
0.0
  9
$ANGDIR
 70
     0
  9
$PDMODE
 70
     1
  9
$PDSIZE
 40
-2.0
  9
$PLINEWID
 40
0.0
  9
$COORDS
 70
     1
  9
$SPLFRAME
 70
     0
  9
$SPLINETYPE
 70
     6
  9
$SPLINESEGS
 70
     8
  9
$ATTDIA
 70
     0
  9
$ATTREQ
 70
     1
  9
$HANDLING
 70
     1
  9
$HANDSEED
  5
6F1
  9
$SURFTAB1
 70
     6
  9
$SURFTAB2
 70
     6
  9
$SURFTYPE
 70
     6
  9
$SURFU
 70
     6
  9
$SURFV
 70
     6
  9
$UCSNAME
  2

  9
$UCSORG
 10
0.0
 20
0.0
 30
0.0
  9
$UCSXDIR
 10
1.0
 20
0.0
 30
0.0
  9
$UCSYDIR
 10
0.0
 20
1.0
 30
0.0
  9
$PUCSNAME
  2

  9
$PUCSORG
 10
0.0
 20
0.0
 30
0.0
  9
$PUCSXDIR
 10
1.0
 20
0.0
 30
0.0
  9
$PUCSYDIR
 10
0.0
 20
1.0
 30
0.0
  9
$USERI1
 70
     0
  9
$USERI2
 70
     0
  9
$USERI3
 70
     0
  9
$USERI4
 70
     0
  9
$USERI5
 70
     0
  9
$USERR1
 40
0.0
  9
$USERR2
 40
0.0
  9
$USERR3
 40
0.0
  9
$USERR4
 40
0.0
  9
$USERR5
 40
0.0
  9
$WORLDVIEW
 70
     1
  9
$SHADEDGE
 70
     3
  9
$SHADEDIF
 70
    70
  9
$TILEMODE
 70
     1
  9
$MAXACTVP
 70
    64
  9
$PLIMCHECK
 70
     0
  9
$PEXTMIN
 10
1.0000000000000000E+020
 20
1.0000000000000000E+020
 30
1.0000000000000000E+020
  9
$PEXTMAX
 10
-1.0000000000000000E+020
 20
-1.0000000000000000E+020
 30
-1.0000000000000000E+020
  9
$PLIMMIN
 10
0.0
 20
0.0
  9
$PLIMMAX
 10
12.0
 20
9.0
  9
$UNITMODE
 70
     0
  9
$VISRETAIN
 70
     0
  9
$PLINEGEN
 70
     1
  9
$PSLTSCALE
 70
     0
  0
ENDSEC
  0
SECTION
  2
TABLES
  0
TABLE
  2
VPORT
 70
     1
  0
VPORT
  2
*ACTIVE
 70
     0
 10
0.0
 20
0.0
 11
1.0
 21
1.0
 12
500.00534281717307
 22
680.97381906813655
 13
0.0
 23
0.0
 14
1.0
 24
1.0
 15
0.0
 25
0.0
 16
0.0
 26
0.0
 36
1.0
 17
0.0
 27
0.0
 37
0.0
 40
1347.986064499122
 41
1.961916461916462
 42
50.0
 43
0.0
 44
0.0
 50
0.0
 51
0.0
 71
     0
 72
  2000
 73
     1
 74
     1
 75
     0
 76
     0
 77
     0
 78
     0
  0
ENDTAB
  0
TABLE
  2
LTYPE
 70
    11
  0
LTYPE
  2
CONTINUOUS
 70
     0
  3
Solid line
 72
    65
 73
     0
 40
0.0
  0
ENDTAB
  0
TABLE
  2
LAYER
 70
     6
  0
LAYER
  2
0
 70
     0
 62
     7
  6
CONTINUOUS
  0
LAYER
  2
DATA
 70
     0
 62
     7
  6
CONTINUOUS
  0
LAYER
  2
HIBINO-BASE
 70
     0
 62
     7
  6
CONTINUOUS
  0
LAYER
  2
SPEC
 70
     0
 62
     7
  6
CONTINUOUS
  0
LAYER
  2
DIMNSIONS
 70
     0
 62
     7
  6
CONTINUOUS
  0
ENDTAB
  0
TABLE
  2
STYLE
 70
     3
  0
STYLE
  2
STANDARD
 70
     0
 40
0.0
 41
1.0
 50
0.0
 71
     0
 42
0.0
  3
txt
  4
BIGFONT.SHX
  0
ENDTAB
  0
TABLE
  2
VIEW
 70
     0
  0
ENDTAB
  0
TABLE
  2
UCS
 70
     0
  0
ENDTAB
  0
TABLE
  2
APPID
 70
     4
  0
APPID
  2
ACAD
 70
     0
  0
APPID
  2
ACADANNOTATIVE
 70
     0
  0
APPID
  2
ACAD_NAV_VCDISPLAY
 70
     0
  0
APPID
  2
ACAD_MLEADERVER
 70
     0
  0
ENDTAB
  0
TABLE
  2
DIMSTYLE
 70
     2
  0
DIMSTYLE
  2
STANDARD
 70
     0
  3

  4

  5

  6

  7

 40
1.0
 41
0.18
 42
0.0625
 43
0.38
 44
0.18
 45
0.0
 46
0.0
 47
0.0
 48
0.0
140
0.18
141
0.09
142
0.0
143
25.399999999999999
144
1.0
145
0.0
146
1.0
147
0.09
 71
     0
 72
     0
 73
     1
 74
     1
 75
     0
 76
     0
 77
     0
 78
     0
170
     0
171
     2
172
     0
173
     0
174
     0
175
     0
176
     0
177
     0
178
     0
  0
ENDTAB
  0
ENDSEC
  0
SECTION
  2
BLOCKS
  0
BLOCK
  8
0
  2
$MODEL_SPACE
 70
     0
 10
0.0
 20
0.0
 30
0.0
  3
$MODEL_SPACE
  1

  0
ENDBLK
  5
507
  8
0
  0
BLOCK
 67
     1
  8
0
  2
$PAPER_SPACE
 70
     0
 10
0.0
 20
0.0
 30
0.0
  3
$PAPER_SPACE
  1

  0
ENDBLK
  5
503
 67
     1
  8
0
  0
ENDSEC
  0
SECTION
  2
ENTITIES
  0
LINE
  5
2D
  8
HIBINO-BASE
  6
CONTINUOUS
 62
     7
 10
50.0
 20
1350.0
 30
0.0
 11
950.0
 21
1350.0
 31
0.0
  0
LINE
  5
2E
  8
HIBINO-BASE
  6
CONTINUOUS
 62
     7
 10
950.0
 20
50.0
 30
0.0
 11
50.0
 21
50.0
 31
0.0
  0
LINE
  5
2F
  8
HIBINO-BASE
  6
CONTINUOUS
 62
     7
 10
50.0
 20
50.0
 30
0.0
 11
50.0
 21
1350.0
 31
0.0
  0
TEXT
  5
30
  8
HIBINO-BASE
 62
     7
 10
62.82012861104743
 20
17.956611000000098
 30
0.0
 40
18.00022089843749
  1
Hibino-Intersound Corporation
 41
0.7
 11
62.82012861104743
 21
35.956831898437599
 31
0.0
 73
     3
  0
LINE
  5
31
  8
HIBINO-BASE
  6
CONTINUOUS
 62
     7
 10
950.0
 20
1350.0
 30
0.0
 11
950.0
 21
50.0
 31
0.0
  0
LINE
  5
32
  8
HIBINO-BASE
  6
CONTINUOUS
 62
     7
 10
500.0
 20
162.50000000000011
 30
0.0
 11
950.0
 21
162.50000000000011
 31
0.0
  0
LINE
  5
33
  8
HIBINO-BASE
  6
CONTINUOUS
 62
     7
 10
500.0
 20
50.0
 30
0.0
 11
500.0
 21
162.50000000000011
 31
0.0
  0
TEXT
  5
34
  8
HIBINO-BASE
 62
     7
 10
504.49999999999989
 20
149.9565333333334
 30
0.0
 40
8.1442057291666661
  1
NOTE
 41
0.7
 11
504.49999999999989
 21
158.10073906250011
 31
0.0
 73
     3
  0
LINE
  5
35
  8
HIBINO-BASE
  6
CONTINUOUS
 62
     7
 10
675.0
 20
50.0
 30
0.0
 11
675.0
 21
162.50000000000011
 31
0.0
  0
TEXT
  5
36
  8
HIBINO-BASE
 62
     7
 10
679.49999999999989
 20
149.9565333333334
 30
0.0
 40
8.1442057291666661
  1
TITLE
 41
0.7
 11
679.49999999999989
 21
158.10073906250011
 31
0.0
 73
     3
  0
TEXT
  5
37
  8
HIBINO-BASE
 62
     7
 10
595.06609521503515
 20
16.861363937191111
 30
0.0
 40
18.00022089843749
  1
ヒビノインターサウンド株式会社
 41
0.7
 11
595.06609521503515
 21
34.861584835628598
 31
0.0
 73
     3
  0
LINE
  5
38
  8
HIBINO-BASE
  6
CONTINUOUS
 62
     7
 10
500.0
 20
100.0000000000001
 30
0.0
 11
950.0
 21
100.0000000000001
 31
0.0
  0
TEXT
  5
39
  8
HIBINO-BASE
 62
     7
 10
742.0
 20
87.738133333333465
 30
0.0
 40
8.1442057291666661
  1
DRAWN
 41
0.7
 11
742.0
 21
95.882339062500137
 31
0.0
 73
     3
  0
TEXT
  5
3A
  8
HIBINO-BASE
 62
     7
 10
617.0
 20
87.738133333333465
 30
0.0
 40
8.1442057291666661
  1
DATE
 41
0.7
 11
617.0
 21
95.882339062500137
 31
0.0
 73
     3
  0
TEXT
  5
3B
  8
HIBINO-BASE
 62
     7
 10
567.0
 20
87.738133333333465
 30
0.0
 40
8.1442057291666661
  1
SCALE
 41
0.7
 11
567.0
 21
95.882339062500137
 31
0.0
 73
     3
  0
TEXT
  5
3C
  8
HIBINO-BASE
 62
     7
 10
679.49999999999989
 20
87.738133333333465
 30
0.0
 40
8.1442057291666661
  1
DESIGN
 41
0.7
 11
679.49999999999989
 21
95.882339062500137
 31
0.0
 73
     3
  0
TEXT
  5
3D
  8
HIBINO-BASE
 62
     7
 10
867.0
 20
87.738133333333465
 30
0.0
 40
8.1442057291666661
  1
DRAWING NO.
 41
0.7
 11
867.0
 21
95.882339062500137
 31
0.0
 73
     3
  0
TEXT
  5
3E
  8
HIBINO-BASE
 62
     7
 10
804.49999999999989
 20
87.738133333333465
 30
0.0
 40
8.1442057291666661
  1
CHECK
 41
0.7
 11
804.49999999999989
 21
95.882339062500137
 31
0.0
 73
     3
  0
LINE
  5
3F
  8
HIBINO-BASE
  6
CONTINUOUS
 62
     7
 10
571.87499999999989
 20
56.25
 30
0.0
 11
590.625
 21
75.000000000000099
 31
0.0
  0
TEXT
  5
40
  8
HIBINO-BASE
 62
     7
 10
568.74999999999989
 20
69.455283333333384
 30
0.0
 40
8.1442057291666661
  1
1
 41
0.7
 11
568.74999999999989
 21
77.599489062500069
 31
0.0
 73
     3
  0
LINE
  5
41
  8
HIBINO-BASE
  6
CONTINUOUS
 62
     7
 10
562.49999999999989
 20
50.0
 30
0.0
 11
562.49999999999989
 21
100.0000000000001
 31
0.0
  0
LINE
  5
42
  8
HIBINO-BASE
  6
CONTINUOUS
 62
     7
 10
612.49999999999989
 20
50.0
 30
0.0
 11
612.49999999999989
 21
100.0000000000001
 31
0.0
  0
LINE
  5
43
  8
HIBINO-BASE
  6
CONTINUOUS
 62
     7
 10
737.5
 20
100.0000000000001
 30
0.0
 11
737.5
 21
50.0
 31
0.0
  0
LINE
  5
44
  8
HIBINO-BASE
  6
CONTINUOUS
 62
     7
 10
862.5
 20
100.0000000000001
 30
0.0
 11
862.5
 21
50.0
 31
0.0
  0
LINE
  5
45
  8
HIBINO-BASE
  6
CONTINUOUS
 62
     7
 10
800.0
 20
50.0
 30
0.0
 11
800.0
 21
100.0000000000001
 31
0.0
  0
TEXT
  5
46
  8
HIBINO-BASE
 62
     7
 10
616.78269999999986
 20
64.318233333333382
 30
0.0
 40
8.1442057291666661
  1
'11.09.
 41
0.7
 11
616.78269999999986
 21
72.462439062500053
 31
0.0
 73
     3
  0
TEXT
  5
47
  8
HIBINO-BASE
 62
     7
 10
587.5
 20
60.080283333333398
 30
0.0
 40
8.1442057291666661
  1
5
 41
0.7
 11
587.5
 21
68.224489062500069
 31
0.0
 73
     3
  0
TEXT
  5
48
  8
HIBINO-BASE
 62
     7
 10
746.98306333084508
 20
64.53534591951923
 30
0.0
 40
8.1442057291666661
  1
T.Ootake
 41
0.7
 11
746.98306333084508
 21
72.679551648685901
 31
0.0
 73
     3
  0
TEXT
  5
49
  8
HIBINO-BASE
 62
     7
 10
519.41666666666674
 20
59.880000000000031
 30
0.0
 40
16.288411458333329
  1
A4
 41
0.7
 11
519.41666666666674
 21
76.168411458333352
 31
0.0
 73
     3
  0
TEXT
  5
4A
  8
HIBINO-BASE
 62
     7
 10
504.79166666666652
 20
86.902725000000103
 30
0.0
 40
8.1442057291666661
  1
PAPER SIZE
 41
0.7
 11
504.79166666666652
 21
95.046930729166775
 31
0.0
 73
     3
  0
LINE
  5
4B
  8
SPEC
  6
CONTINUOUS
 62
     7
 10
87.5
 20
1300.0
 30
0.0
 11
825.0
 21
1300.0
 31
0.0
  0
LINE
  5
4C
  8
SPEC
  6
CONTINUOUS
 62
     7
 10
87.5
 20
1281.25
 30
0.0
 11
825.0
 21
1281.25
 31
0.0
  0
LINE
  5
4D
  8
SPEC
  6
CONTINUOUS
 62
     7
 10
87.5
 20
1206.25
 30
0.0
 11
825.0
 21
1206.25
 31
0.0
  0
LINE
  5
4E
  8
SPEC
  6
CONTINUOUS
 62
     7
 10
87.5
 20
1225.0
 30
0.0
 11
825.0
 21
1225.0
 31
0.0
  0
LINE
  5
4F
  8
SPEC
  6
CONTINUOUS
 62
     7
 10
87.5
 20
1243.75
 30
0.0
 11
825.0
 21
1243.75
 31
0.0
  0
LINE
  5
50
  8
SPEC
  6
CONTINUOUS
 62
     7
 10
87.5
 20
1187.5
 30
0.0
 11
825.0
 21
1187.5
 31
0.0
  0
LINE
  5
51
  8
SPEC
  6
CONTINUOUS
 62
     7
 10
87.5
 20
1150.0
 30
0.0
 11
825.0
 21
1150.0
 31
0.0
  0
LINE
  5
52
  8
SPEC
  6
CONTINUOUS
 62
     7
 10
87.5
 20
1168.75
 30
0.0
 11
825.0
 21
1168.75
 31
0.0
  0
LINE
  5
53
  8
SPEC
  6
CONTINUOUS
 62
     7
 10
87.5
 20
1131.25
 30
0.0
 11
825.0
 21
1131.25
 31
0.0
  0
LINE
  5
54
  8
SPEC
  6
CONTINUOUS
 62
     7
 10
87.5
 20
1112.5
 30
0.0
 11
825.0
 21
1112.5
 31
0.0
  0
LINE
  5
55
  8
SPEC
  6
CONTINUOUS
 62
     7
 10
87.5
 20
1262.5
 30
0.0
 11
825.0
 21
1262.5
 31
0.0
  0
TEXT
  5
56
  8
SPEC
 62
     7
 10
93.75
 20
1306.9663499999999
 30
0.0
 40
12.21630859375
  1
仕様
 41
0.7
 11
93.75
 21
1319.1826585937499
 31
0.0
 73
     3
  0
LINE
  5
57
  8
SPEC
  6
CONTINUOUS
 62
     7
 10
325.0
 20
1300.0
 30
0.0
 11
325.0
 21
1056.25
 31
0.0
  0
LINE
  5
58
  8
SPEC
  6
CONTINUOUS
 62
     7
 10
87.5
 20
1093.75
 30
0.0
 11
825.0
 21
1093.75
 31
0.0
  0
LINE
  5
59
  8
SPEC
  6
CONTINUOUS
 62
     7
 10
87.5
 20
1056.25
 30
0.0
 11
825.0
 21
1056.25
 31
0.0
  0
TEXT
  5
5A
  8
SPEC
 62
     7
 10
91.538087283435843
 20
1098.9147045531649
 30
0.0
 40
9.5015562499999984
  1
寸法
 41
0.7
 11
91.538087283435843
 21
1108.416260803165
 31
0.0
 73
     3
  0
TEXT
  5
5B
  8
SPEC
 62
     7
 10
329.86882381312461
 20
1098.0837152783711
 30
0.0
 40
9.5015562499999984
  1
435(W)\U+00D744(H)\U+00D7131(D)mm(突起部含まず)、(センダー、レシーバー共)
 41
0.7
 11
329.86882381312461
 21
1107.5852715283711
 31
0.0
 73
     3
  0
LINE
  5
5C
  8
SPEC
  6
CONTINUOUS
 62
     7
 10
825.0
 20
1300.0
 30
0.0
 11
825.0
 21
1056.25
 31
0.0
  0
TEXT
  5
5D
  8
SPEC
 62
     7
 10
329.81393936597959
 20
1078.213853225838
 30
0.0
 40
9.5015562499999984
  1
約750g(センダー)
 41
0.7
 11
329.81393936597959
 21
1087.7154094758389
 31
0.0
 73
     3
  0
TEXT
  5
5E
  8
SPEC
 62
     7
 10
91.68786091908035
 20
1081.055008
 30
0.0
 40
9.5015562499999984
  1
重量
 41
0.7
 11
91.68786091908035
 21
1090.5565642500001
 31
0.0
 73
     3
  0
TEXT
  5
5F
  8
SPEC
 62
     7
 10
329.63433365741861
 20
1135.3937033301411
 30
0.0
 40
9.5015562499999984
  1
5V DC
 41
0.7
 11
329.63433365741861
 21
1144.8952595801411
 31
0.0
 73
     3
  0
LINE
  5
60
  8
SPEC
  6
CONTINUOUS
 62
     7
 10
87.5
 20
1300.0
 30
0.0
 11
87.5
 21
1056.25
 31
0.0
  0
TEXT
  5
61
  8
SPEC
 62
     7
 10
91.640526033961407
 20
1136.5942971994759
 30
0.0
 40
9.5015562499999984
  1
電源
 41
0.7
 11
91.640526033961407
 21
1146.095853449476
 31
0.0
 73
     3
  0
TEXT
  5
62
  8
SPEC
 62
     7
 10
329.79320906198672
 20
1061.0832223918731
 30
0.0
 40
9.5015562499999984
  1
約800g(レシーバー)
 41
0.7
 11
329.79320906198672
 21
1070.5847786418731
 31
0.0
 73
     3
  0
TEXT
  5
63
  8
SPEC
 62
     7
 10
89.70605058070322
 20
1285.6305818692049
 30
0.0
 40
9.5015562499999984
  1
ビデオアンプ帯域
 41
0.7
 11
89.70605058070322
 21
1295.1321381192049
 31
0.0
 73
     3
  0
TEXT
  5
64
  8
SPEC
 62
     7
 10
328.94892992716319
 20
1285.199159180012
 30
0.0
 40
9.5015562499999984
  1
165MHz
 41
0.7
 11
328.94892992716319
 21
1294.700715430012
 31
0.0
 73
     3
  0
TEXT
  5
65
  8
SPEC
 62
     7
 10
90.778049509911995
 20
1230.169324410432
 30
0.0
 40
9.5015733506944464
  1
シングルリンク最大対応解像度
 41
0.7
 11
90.778049509911995
 21
1239.6708977611261
 31
0.0
 73
     3
  0
TEXT
  5
66
  8
SPEC
 62
     7
 10
89.629915594785714
 20
1154.872936153819
 30
0.0
 40
9.5015733506944464
  1
リンクコネクター
 41
0.7
 11
89.629915594785714
 21
1164.3745095045131
 31
0.0
 73
     3
  0
TEXT
  5
67
  8
SPEC
 62
     7
 10
91.925193234051306
 20
1211.1424190800419
 30
0.0
 40
9.5015733506944464
  1
DVI入出力端子
 41
0.7
 11
91.925193234051306
 21
1220.643992430736
 31
0.0
 73
     3
  0
TEXT
  5
68
  8
SPEC
 62
     7
 10
91.695805703463535
 20
1267.725280474524
 30
0.0
 40
9.5015733506944464
  1
入力ビデオ信号
 41
0.7
 11
91.695805703463535
 21
1277.226853825219
 31
0.0
 73
     3
  0
TEXT
  5
69
  8
SPEC
 62
     7
 10
328.80492118378288
 20
1229.337827484856
 30
0.0
 40
9.5015733506944464
  1
1080p/1920\U+00D71200
 41
0.7
 11
328.80492118378288
 21
1238.8394008355499
 31
0.0
 73
     3
  0
TEXT
  5
6A
  8
SPEC
 62
     7
 10
329.43794498626988
 20
1154.396655335994
 30
0.0
 40
9.5015733506944464
  1
RJ-45シールド付き
 41
0.7
 11
329.43794498626988
 21
1163.8982286866881
 31
0.0
 73
     3
  0
TEXT
  5
6B
  8
SPEC
 62
     7
 10
328.81111533803659
 20
1267.767265773829
 30
0.0
 40
9.5015733506944464
  1
1.2Vp-p
 41
0.7
 11
328.81111533803659
 21
1277.268839124524
 31
0.0
 73
     3
  0
TEXT
  5
6C
  8
SPEC
 62
     7
 10
329.50074283723171
 20
1210.263595204998
 30
0.0
 40
9.5015733506944464
  1
DVI-I(29pin)female(Digital only)
 41
0.7
 11
329.50074283723171
 21
1219.765168555693
 31
0.0
 73
     3
  0
TEXT
  5
6D
  8
SPEC
 62
     7
 10
91.951359584377926
 20
1192.233623760641
 30
0.0
 40
9.5015733506944464
  1
USB端子(送信機)
 41
0.7
 11
91.951359584377926
 21
1201.7351971113351
 31
0.0
 73
     3
  0
TEXT
  5
6E
  8
SPEC
 62
     7
 10
329.53160515792717
 20
1191.9282143636719
 30
0.0
 40
9.5015733506944464
  1
USB Type B
 41
0.7
 11
329.53160515792717
 21
1201.4297877143661
 31
0.0
 73
     3
  0
TEXT
  5
6F
  8
SPEC
 62
     7
 10
91.81780472294956
 20
1248.886912369346
 30
0.0
 40
9.5015733506944464
  1
入力DDC信号
 41
0.7
 11
91.81780472294956
 21
1258.3884857200401
 31
0.0
 73
     3
  0
TEXT
  5
70
  8
SPEC
 62
     7
 10
329.47705161627738
 20
1248.3290311013379
 30
0.0
 40
9.5015733506944464
  1
5Vp-p(TTL)
 41
0.7
 11
329.47705161627738
 21
1257.830604452033
 31
0.0
 73
     3
  0
TEXT
  5
71
  8
SPEC
 62
     7
 10
91.817394841896203
 20
1117.4774488005471
 30
0.0
 40
9.5015562499999984
  1
消費電力
 41
0.7
 11
91.817394841896203
 21
1126.9790050505469
 31
0.0
 73
     3
  0
TEXT
  5
72
  8
SPEC
 62
     7
 10
329.60410420364337
 20
1117.53905414626
 30
0.0
 40
9.5015562499999984
  1
20W(最大)
 41
0.7
 11
329.60410420364337
 21
1127.04061039626
 31
0.0
 73
     3
  0
TEXT
  5
73
  8
SPEC
 62
     7
 10
91.95158998627771
 20
1174.059933423827
 30
0.0
 40
9.5015733506944464
  1
USB端子(受信機)
 41
0.7
 11
91.95158998627771
 21
1183.5615067745209
 31
0.0
 73
     3
  0
TEXT
  5
74
  8
SPEC
 62
     7
 10
329.55371678720883
 20
1173.6261285662781
 30
0.0
 40
9.5015733506944464
  1
USB Type A
 41
0.7
 11
329.55371678720883
 21
1183.127701916972
 31
0.0
 73
     3
  0
TEXT
  5
75
  8
DIMNSIONS
 62
     7
 10
400.0
 20
111.34744999999999
 30
0.0
 40
12.21630859375
  1
(単位：mm)
 41
0.7
 11
400.0
 21
123.5637585937499
 31
0.0
 73
     3
  0
LINE
  5
76
  8
DIMNSIONS
  6
CONTINUOUS
 62
     7
 10
225.0
 20
652.5
 30
0.0
 11
225.0
 21
615.0
 31
0.0
  0
LINE
  5
77
  8
DIMNSIONS
  6
CONTINUOUS
 62
     7
 10
660.0
 20
652.5
 30
0.0
 11
660.0
 21
615.0
 31
0.0
  0
LINE
  5
78
  8
DIMNSIONS
  6
CONTINUOUS
 62
     7
 10
225.0
 20
625.0
 30
0.0
 11
660.0
 21
625.0
 31
0.0
  0
LINE
  5
79
  8
DIMNSIONS
  6
CONTINUOUS
 62
     7
 10
225.0
 20
625.0
 30
0.0
 11
237.50311279296869
 21
628.35019897575125
 31
0.0
  0
LINE
  5
7A
  8
DIMNSIONS
  6
CONTINUOUS
 62
     7
 10
225.0
 20
625.0
 30
0.0
 11
237.50311279296869
 21
621.64980102424875
 31
0.0
  0
LINE
  5
7B
  8
DIMNSIONS
  6
CONTINUOUS
 62
     7
 10
660.0
 20
625.0
 30
0.0
 11
647.49688720703125
 21
621.64980102424875
 31
0.0
  0
LINE
  5
7C
  8
DIMNSIONS
  6
CONTINUOUS
 62
     7
 10
660.0
 20
625.0
 30
0.0
 11
647.49688720703125
 21
628.35019897575125
 31
0.0
  0
TEXT
  5
7D
  8
DIMNSIONS
 62
     7
 10
429.2708333333332
 20
629.96944444444455
 30
0.0
 40
13.57367621527778
  1
435
 41
0.7
 11
429.2708333333332
 21
643.54312065972238
 31
0.0
 73
     3
  0
LINE
  5
7E
  8
DIMNSIONS
  6
CONTINUOUS
 62
     7
 10
215.0
 20
662.5
 30
0.0
 11
177.5
 21
662.5
 31
0.0
  0
LINE
  5
7F
  8
DIMNSIONS
  6
CONTINUOUS
 62
     7
 10
215.0
 20
706.5
 30
0.0
 11
177.5
 21
706.5
 31
0.0
  0
LINE
  5
80
  8
DIMNSIONS
  6
CONTINUOUS
 62
     7
 10
187.5
 20
662.5
 30
0.0
 11
187.5
 21
706.5
 31
0.0
  0
LINE
  5
81
  8
DIMNSIONS
  6
CONTINUOUS
 62
     7
 10
187.5
 20
662.5
 30
0.0
 11
184.1498010242488
 21
675.00311279296875
 31
0.0
  0
LINE
  5
82
  8
DIMNSIONS
  6
CONTINUOUS
 62
     7
 10
187.5
 20
662.5
 30
0.0
 11
190.8501989757512
 21
675.00311279296875
 31
0.0
  0
LINE
  5
83
  8
DIMNSIONS
  6
CONTINUOUS
 62
     7
 10
187.5
 20
706.5
 30
0.0
 11
190.8501989757512
 21
693.99688720703125
 31
0.0
  0
LINE
  5
84
  8
DIMNSIONS
  6
CONTINUOUS
 62
     7
 10
187.5
 20
706.5
 30
0.0
 11
184.1498010242488
 21
693.99688720703125
 31
0.0
  0
TEXT
  5
85
  8
DIMNSIONS
 62
     7
 10
182.53055555555551
 20
675.68055555555554
 30
0.0
 40
13.57367621527778
  1
44
 50
90.0
 41
0.7
 11
168.95687934027771
 21
675.68055555555554
 31
0.0
 73
     3
  0
LINE
  5
86
  8
DIMNSIONS
  6
CONTINUOUS
 62
     7
 10
215.0
 20
662.5
 30
0.0
 11
177.5
 21
662.5
 31
0.0
  0
LINE
  5
87
  8
DIMNSIONS
  6
CONTINUOUS
 62
     7
 10
218.31957003464731
 20
659.49999999999989
 30
0.0
 11
177.5
 21
659.49999999999989
 31
0.0
  0
LINE
  5
88
  8
DIMNSIONS
  6
CONTINUOUS
 62
     7
 10
187.5
 20
659.49999999999989
 30
0.0
 11
187.5
 21
662.5
 31
0.0
  0
LINE
  5
89
  8
DIMNSIONS
  6
CONTINUOUS
 62
     7
 10
187.5
 20
662.5
 30
0.0
 11
187.5
 21
687.5
 31
0.0
  0
LINE
  5
8A
  8
DIMNSIONS
  6
CONTINUOUS
 62
     7
 10
187.5
 20
662.5
 30
0.0
 11
184.1498010242488
 21
675.00311279296875
 31
0.0
  0
LINE
  5
8B
  8
DIMNSIONS
  6
CONTINUOUS
 62
     7
 10
187.5
 20
662.5
 30
0.0
 11
190.8501989757512
 21
675.00311279296875
 31
0.0
  0
LINE
  5
8C
  8
DIMNSIONS
  6
CONTINUOUS
 62
     7
 10
187.5
 20
659.49999999999989
 30
0.0
 11
187.5
 21
628.68055555555554
 31
0.0
  0
LINE
  5
8D
  8
DIMNSIONS
  6
CONTINUOUS
 62
     7
 10
187.5
 20
659.49999999999989
 30
0.0
 11
190.8501989757512
 21
646.99688720703125
 31
0.0
  0
LINE
  5
8E
  8
DIMNSIONS
  6
CONTINUOUS
 62
     7
 10
187.5
 20
659.49999999999989
 30
0.0
 11
184.1498010242488
 21
646.99688720703125
 31
0.0
  0
TEXT
  5
8F
  8
DIMNSIONS
 62
     7
 10
182.53055555555551
 20
628.68055555555554
 30
0.0
 40
13.57367621527778
  1
3
 50
90.0
 41
0.7
 11
168.95687934027771
 21
628.68055555555554
 31
0.0
 73
     3
  0
LINE
  5
90
  8
DIMNSIONS
  6
CONTINUOUS
 62
     7
 10
225.0
 20
240.0
 30
0.0
 11
225.0
 21
202.5
 31
0.0
  0
LINE
  5
91
  8
DIMNSIONS
  6
CONTINUOUS
 62
     7
 10
660.0
 20
240.0
 30
0.0
 11
660.0
 21
202.5
 31
0.0
  0
LINE
  5
92
  8
DIMNSIONS
  6
CONTINUOUS
 62
     7
 10
225.0
 20
212.5
 30
0.0
 11
660.0
 21
212.5
 31
0.0
  0
LINE
  5
93
  8
DIMNSIONS
  6
CONTINUOUS
 62
     7
 10
225.0
 20
212.5
 30
0.0
 11
237.50311279296869
 21
215.8501989757512
 31
0.0
  0
LINE
  5
94
  8
DIMNSIONS
  6
CONTINUOUS
 62
     7
 10
225.0
 20
212.5
 30
0.0
 11
237.50311279296869
 21
209.1498010242488
 31
0.0
  0
LINE
  5
95
  8
DIMNSIONS
  6
CONTINUOUS
 62
     7
 10
660.0
 20
212.5
 30
0.0
 11
647.49688720703125
 21
209.1498010242488
 31
0.0
  0
LINE
  5
96
  8
DIMNSIONS
  6
CONTINUOUS
 62
     7
 10
660.0
 20
212.5
 30
0.0
 11
647.49688720703125
 21
215.8501989757512
 31
0.0
  0
TEXT
  5
97
  8
DIMNSIONS
 62
     7
 10
429.2708333333332
 20
217.46944444444449
 30
0.0
 40
13.57367621527778
  1
435
 41
0.7
 11
429.2708333333332
 21
231.04312065972229
 31
0.0
 73
     3
  0
LINE
  5
98
  8
DIMNSIONS
  6
CONTINUOUS
 62
     7
 10
215.0
 20
250.0
 30
0.0
 11
177.5
 21
250.0
 31
0.0
  0
LINE
  5
99
  8
DIMNSIONS
  6
CONTINUOUS
 62
     7
 10
215.0
 20
294.0
 30
0.0
 11
177.5
 21
294.0
 31
0.0
  0
LINE
  5
9A
  8
DIMNSIONS
  6
CONTINUOUS
 62
     7
 10
187.5
 20
250.0
 30
0.0
 11
187.5
 21
294.0
 31
0.0
  0
LINE
  5
9B
  8
DIMNSIONS
  6
CONTINUOUS
 62
     7
 10
187.5
 20
250.0
 30
0.0
 11
184.1498010242488
 21
262.50311279296881
 31
0.0
  0
LINE
  5
9C
  8
DIMNSIONS
  6
CONTINUOUS
 62
     7
 10
187.5
 20
250.0
 30
0.0
 11
190.8501989757512
 21
262.50311279296881
 31
0.0
  0
LINE
  5
9D
  8
DIMNSIONS
  6
CONTINUOUS
 62
     7
 10
187.5
 20
294.0
 30
0.0
 11
190.8501989757512
 21
281.49688720703131
 31
0.0
  0
LINE
  5
9E
  8
DIMNSIONS
  6
CONTINUOUS
 62
     7
 10
187.5
 20
294.0
 30
0.0
 11
184.1498010242488
 21
281.49688720703131
 31
0.0
  0
TEXT
  5
9F
  8
DIMNSIONS
 62
     7
 10
182.53055555555551
 20
263.1805555555556
 30
0.0
 40
13.57367621527778
  1
44
 50
90.0
 41
0.7
 11
168.95687934027771
 21
263.1805555555556
 31
0.0
 73
     3
  0
LINE
  5
A0
  8
DIMNSIONS
  6
CONTINUOUS
 62
     7
 10
215.0
 20
250.0
 30
0.0
 11
177.5
 21
250.0
 31
0.0
  0
LINE
  5
A1
  8
DIMNSIONS
  6
CONTINUOUS
 62
     7
 10
218.31957003464731
 20
247.0
 30
0.0
 11
177.5
 21
247.0
 31
0.0
  0
LINE
  5
A2
  8
DIMNSIONS
  6
CONTINUOUS
 62
     7
 10
187.5
 20
247.0
 30
0.0
 11
187.5
 21
250.0
 31
0.0
  0
LINE
  5
A3
  8
DIMNSIONS
  6
CONTINUOUS
 62
     7
 10
187.5
 20
250.0
 30
0.0
 11
187.5
 21
275.0
 31
0.0
  0
LINE
  5
A4
  8
DIMNSIONS
  6
CONTINUOUS
 62
     7
 10
187.5
 20
250.0
 30
0.0
 11
184.1498010242488
 21
262.50311279296881
 31
0.0
  0
LINE
  5
A5
  8
DIMNSIONS
  6
CONTINUOUS
 62
     7
 10
187.5
 20
250.0
 30
0.0
 11
190.8501989757512
 21
262.50311279296881
 31
0.0
  0
LINE
  5
A6
  8
DIMNSIONS
  6
CONTINUOUS
 62
     7
 10
187.5
 20
247.0
 30
0.0
 11
187.5
 21
216.1805555555556
 31
0.0
  0
LINE
  5
A7
  8
DIMNSIONS
  6
CONTINUOUS
 62
     7
 10
187.5
 20
247.0
 30
0.0
 11
190.8501989757512
 21
234.49688720703131
 31
0.0
  0
LINE
  5
A8
  8
DIMNSIONS
  6
CONTINUOUS
 62
     7
 10
187.5
 20
247.0
 30
0.0
 11
184.1498010242488
 21
234.49688720703131
 31
0.0
  0
TEXT
  5
A9
  8
DIMNSIONS
 62
     7
 10
182.53055555555551
 20
216.1805555555556
 30
0.0
 40
13.57367621527778
  1
3
 50
90.0
 41
0.7
 11
168.95687934027771
 21
216.1805555555556
 31
0.0
 73
     3
  0
LINE
  5
AA
  8
DIMNSIONS
  6
CONTINUOUS
 62
     7
 10
215.0
 20
737.5
 30
0.0
 11
177.5
 21
737.5
 31
0.0
  0
LINE
  5
AB
  8
DIMNSIONS
  6
CONTINUOUS
 62
     7
 10
215.0
 20
868.5
 30
0.0
 11
177.5
 21
868.5
 31
0.0
  0
LINE
  5
AC
  8
DIMNSIONS
  6
CONTINUOUS
 62
     7
 10
187.5
 20
737.5
 30
0.0
 11
187.5
 21
868.5
 31
0.0
  0
LINE
  5
AD
  8
DIMNSIONS
  6
CONTINUOUS
 62
     7
 10
187.5
 20
737.5
 30
0.0
 11
184.1498010242488
 21
750.00311279296864
 31
0.0
  0
LINE
  5
AE
  8
DIMNSIONS
  6
CONTINUOUS
 62
     7
 10
187.5
 20
737.5
 30
0.0
 11
190.8501989757512
 21
750.00311279296864
 31
0.0
  0
LINE
  5
AF
  8
DIMNSIONS
  6
CONTINUOUS
 62
     7
 10
187.5
 20
868.5
 30
0.0
 11
190.8501989757512
 21
855.99688720703125
 31
0.0
  0
LINE
  5
B0
  8
DIMNSIONS
  6
CONTINUOUS
 62
     7
 10
187.5
 20
868.5
 30
0.0
 11
184.1498010242488
 21
855.99688720703125
 31
0.0
  0
TEXT
  5
B1
  8
DIMNSIONS
 62
     7
 10
182.53055555555551
 20
789.77083333333326
 30
0.0
 40
13.57367621527778
  1
131
 50
90.0
 41
0.7
 11
168.95687934027771
 21
789.77083333333326
 31
0.0
 73
     3
  0
LINE
  5
B2
  8
DIMNSIONS
  6
CONTINUOUS
 62
     7
 10
215.0
 20
868.5
 30
0.0
 11
177.5
 21
868.5
 31
0.0
  0
LINE
  5
B3
  8
DIMNSIONS
  6
CONTINUOUS
 62
     7
 10
229.00404236995021
 20
874.50000000008413
 30
0.0
 11
177.5
 21
874.50000000008413
 31
0.0
  0
LINE
  5
B4
  8
DIMNSIONS
  6
CONTINUOUS
 62
     7
 10
187.5
 20
874.50000000008413
 30
0.0
 11
187.5
 21
868.5
 31
0.0
  0
LINE
  5
B5
  8
DIMNSIONS
  6
CONTINUOUS
 62
     7
 10
187.5
 20
868.5
 30
0.0
 11
187.5
 21
843.5
 31
0.0
  0
LINE
  5
B6
  8
DIMNSIONS
  6
CONTINUOUS
 62
     7
 10
187.5
 20
868.5
 30
0.0
 11
190.8501989757512
 21
855.99688720703125
 31
0.0
  0
LINE
  5
B7
  8
DIMNSIONS
  6
CONTINUOUS
 62
     7
 10
187.5
 20
868.5
 30
0.0
 11
184.1498010242488
 21
855.99688720703125
 31
0.0
  0
LINE
  5
B8
  8
DIMNSIONS
  6
CONTINUOUS
 62
     7
 10
187.5
 20
874.50000000008413
 30
0.0
 11
187.5
 21
896.31944444444446
 31
0.0
  0
LINE
  5
B9
  8
DIMNSIONS
  6
CONTINUOUS
 62
     7
 10
187.5
 20
874.50000000008413
 30
0.0
 11
184.1498010242488
 21
887.00311279305288
 31
0.0
  0
LINE
  5
BA
  8
DIMNSIONS
  6
CONTINUOUS
 62
     7
 10
187.5
 20
874.50000000008413
 30
0.0
 11
190.8501989757512
 21
887.00311279305288
 31
0.0
  0
TEXT
  5
BB
  8
DIMNSIONS
 62
     7
 10
182.53055555555551
 20
887.5
 30
0.0
 40
13.57367621527778
  1
6
 50
90.0
 41
0.7
 11
168.95687934027771
 21
887.5
 31
0.0
 73
     3
  0
LINE
  5
BC
  8
DIMNSIONS
  6
CONTINUOUS
 62
     7
 10
215.0
 20
325.0
 30
0.0
 11
177.5
 21
325.0
 31
0.0
  0
LINE
  5
BD
  8
DIMNSIONS
  6
CONTINUOUS
 62
     7
 10
215.0
 20
456.0
 30
0.0
 11
177.5
 21
456.0
 31
0.0
  0
LINE
  5
BE
  8
DIMNSIONS
  6
CONTINUOUS
 62
     7
 10
187.5
 20
325.0
 30
0.0
 11
187.5
 21
456.0
 31
0.0
  0
LINE
  5
BF
  8
DIMNSIONS
  6
CONTINUOUS
 62
     7
 10
187.5
 20
325.0
 30
0.0
 11
184.1498010242488
 21
337.50311279296881
 31
0.0
  0
LINE
  5
C0
  8
DIMNSIONS
  6
CONTINUOUS
 62
     7
 10
187.5
 20
325.0
 30
0.0
 11
190.8501989757512
 21
337.50311279296881
 31
0.0
  0
LINE
  5
C1
  8
DIMNSIONS
  6
CONTINUOUS
 62
     7
 10
187.5
 20
456.0
 30
0.0
 11
190.8501989757512
 21
443.49688720703119
 31
0.0
  0
LINE
  5
C2
  8
DIMNSIONS
  6
CONTINUOUS
 62
     7
 10
187.5
 20
456.0
 30
0.0
 11
184.1498010242488
 21
443.49688720703119
 31
0.0
  0
TEXT
  5
C3
  8
DIMNSIONS
 62
     7
 10
182.53055555555551
 20
377.27083333333331
 30
0.0
 40
13.57367621527778
  1
131
 50
90.0
 41
0.7
 11
168.95687934027771
 21
377.27083333333331
 31
0.0
 73
     3
  0
LINE
  5
C4
  8
DIMNSIONS
  6
CONTINUOUS
 62
     7
 10
215.0
 20
456.0
 30
0.0
 11
177.5
 21
456.0
 31
0.0
  0
LINE
  5
C5
  8
DIMNSIONS
  6
CONTINUOUS
 62
     7
 10
229.00404236995021
 20
462.00000000008413
 30
0.0
 11
177.5
 21
462.00000000008413
 31
0.0
  0
LINE
  5
C6
  8
DIMNSIONS
  6
CONTINUOUS
 62
     7
 10
187.5
 20
462.00000000008413
 30
0.0
 11
187.5
 21
456.0
 31
0.0
  0
LINE
  5
C7
  8
DIMNSIONS
  6
CONTINUOUS
 62
     7
 10
187.5
 20
456.0
 30
0.0
 11
187.5
 21
431.0
 31
0.0
  0
LINE
  5
C8
  8
DIMNSIONS
  6
CONTINUOUS
 62
     7
 10
187.5
 20
456.0
 30
0.0
 11
190.8501989757512
 21
443.49688720703119
 31
0.0
  0
LINE
  5
C9
  8
DIMNSIONS
  6
CONTINUOUS
 62
     7
 10
187.5
 20
456.0
 30
0.0
 11
184.1498010242488
 21
443.49688720703119
 31
0.0
  0
LINE
  5
CA
  8
DIMNSIONS
  6
CONTINUOUS
 62
     7
 10
187.5
 20
462.00000000008413
 30
0.0
 11
187.5
 21
483.81944444444451
 31
0.0
  0
LINE
  5
CB
  8
DIMNSIONS
  6
CONTINUOUS
 62
     7
 10
187.5
 20
462.00000000008413
 30
0.0
 11
184.1498010242488
 21
474.50311279305288
 31
0.0
  0
LINE
  5
CC
  8
DIMNSIONS
  6
CONTINUOUS
 62
     7
 10
187.5
 20
462.00000000008413
 30
0.0
 11
190.8501989757512
 21
474.50311279305288
 31
0.0
  0
TEXT
  5
CD
  8
DIMNSIONS
 62
     7
 10
182.53055555555551
 20
475.0
 30
0.0
 40
13.57367621527778
  1
6
 50
90.0
 41
0.7
 11
168.95687934027771
 21
475.0
 31
0.0
 73
     3
  0
TEXT
  5
CE
  8
DATA
 62
     7
 10
750.0
 20
105.65445
 30
0.0
 40
12.21630859375
  1
EXT-CAT5-1600HD
 41
0.7
 11
750.0
 21
117.87075859375
 31
0.0
 73
     3
  0
TEXT
  5
CF
  8
DATA
 62
     7
 10
750.0
 20
141.90445
 30
0.0
 40
12.21630859375
  1
Gefen
 41
0.7
 11
750.0
 21
154.12075859375
 31
0.0
 73
     3
  0
TEXT
  5
D0
  8
DATA
 62
     7
 10
737.5
 20
124.51966899999999
 30
0.0
 40
8.1442185546874981
  1
DVI KVM延長機
 41
0.7
 11
737.5
 21
132.66388755468751
 31
0.0
 73
     3
  0
TEXT
  5
D1
  8
DATA
 62
     7
 10
100.0
 20
71.190000000000111
 30
0.0
 40
8.1442057291666661
  1
仕様および外観は予告なく変更されることがありますので、ご了承ください。
 41
0.7
 11
100.0
 21
79.334205729166783
 31
0.0
 73
     3
  0
TEXT
  5
D2
  8
DATA
 62
     7
 10
561.79190438666012
 20
686.9101144003796
 30
0.0
 40
10.85894097222222
  1
CAT5-1600HDS
 41
0.7
 11
561.79190438666012
 21
697.76905537260166
 31
0.0
 73
     3
  0
CIRCLE
  5
D3
  8
DATA
  6
CONTINUOUS
 62
     7
 10
726.5
 20
700.49999999999989
 30
0.0
 40
2.0
  0
LINE
  5
D4
  8
DATA
  6
CONTINUOUS
 62
     7
 10
725.02945588301452
 20
700.49999999999989
 30
0.0
 11
727.97054411698525
 21
700.49999999999989
 31
0.0
  0
LINE
  5
D5
  8
DATA
  6
CONTINUOUS
 62
     7
 10
726.5
 20
699.02945588301452
 30
0.0
 11
726.5
 21
701.97054411698525
 31
0.0
  0
CIRCLE
  5
D6
  8
DATA
  6
CONTINUOUS
 62
     7
 10
726.5
 20
668.99583716316238
 30
0.0
 40
2.0
  0
LINE
  5
D7
  8
DATA
  6
CONTINUOUS
 62
     7
 10
725.02945588301452
 20
668.99583716316238
 30
0.0
 11
727.97054411698525
 21
668.99583716316238
 31
0.0
  0
LINE
  5
D8
  8
DATA
  6
CONTINUOUS
 62
     7
 10
726.5
 20
667.52529304617713
 30
0.0
 11
726.5
 21
670.46638128014774
 31
0.0
  0
LINE
  5
D9
  8
DATA
  6
CONTINUOUS
 62
     7
 10
225.0
 20
662.5
 30
0.0
 11
225.0
 21
706.5
 31
0.0
  0
LINE
  5
DA
  8
DATA
  6
CONTINUOUS
 62
     7
 10
660.0
 20
662.5
 30
0.0
 11
225.0
 21
662.5
 31
0.0
  0
LINE
  5
DB
  8
DATA
  6
CONTINUOUS
 62
     7
 10
660.0
 20
706.5
 30
0.0
 11
660.0
 21
662.5
 31
0.0
  0
LINE
  5
DC
  8
DATA
  6
CONTINUOUS
 62
     7
 10
660.0
 20
737.5
 30
0.0
 11
225.0
 21
737.5
 31
0.0
  0
LINE
  5
DD
  8
DATA
  6
CONTINUOUS
 62
     7
 10
712.5
 20
663.49999999999989
 30
0.0
 11
712.5
 21
705.49999999999989
 31
0.0
  0
LINE
  5
DE
  8
DATA
  6
CONTINUOUS
 62
     7
 10
660.0
 20
931.49999999999989
 30
0.0
 11
660.0
 21
887.5
 31
0.0
  0
LINE
  5
DF
  8
DATA
  6
CONTINUOUS
 62
     7
 10
225.0
 20
931.49999999999989
 30
0.0
 11
660.0
 21
931.49999999999989
 31
0.0
  0
LINE
  5
E0
  8
DATA
  6
CONTINUOUS
 62
     7
 10
225.0
 20
887.5
 30
0.0
 11
225.0
 21
931.49999999999989
 31
0.0
  0
LINE
  5
E1
  8
DATA
  6
CONTINUOUS
 62
     7
 10
613.99961370243045
 20
920.46892392102757
 30
0.0
 11
613.99961370243045
 21
908.46892392102768
 31
0.0
  0
LINE
  5
E2
  8
DATA
  6
CONTINUOUS
 62
     7
 10
601.99961370243045
 20
920.46892392102757
 30
0.0
 11
613.99961370243045
 21
920.46892392102757
 31
0.0
  0
LINE
  5
E3
  8
DATA
  6
CONTINUOUS
 62
     7
 10
601.99961370243045
 20
908.46892392102768
 30
0.0
 11
601.99961370243045
 21
920.46892392102757
 31
0.0
  0
LINE
  5
E4
  8
DATA
  6
CONTINUOUS
 62
     7
 10
613.99961370243045
 20
908.46892392102768
 30
0.0
 11
601.99961370243045
 21
908.46892392102768
 31
0.0
  0
LINE
  5
E5
  8
DATA
  6
CONTINUOUS
 62
     7
 10
603.74961370243045
 20
918.71892392102757
 30
0.0
 11
612.24961370243045
 21
918.71892392102757
 31
0.0
  0
LINE
  5
E6
  8
DATA
  6
CONTINUOUS
 62
     7
 10
612.24961370243045
 20
918.71892392102757
 30
0.0
 11
612.24961370243045
 21
911.86892392102754
 31
0.0
  0
LINE
  5
E7
  8
DATA
  6
CONTINUOUS
 62
     7
 10
603.74961370243045
 20
911.86892392102754
 30
0.0
 11
603.74961370243045
 21
918.71892392102757
 31
0.0
  0
LINE
  5
E8
  8
DATA
  6
CONTINUOUS
 62
     7
 10
610.24961370243045
 20
909.86892392102743
 30
0.0
 11
605.74961370243045
 21
909.86892392102743
 31
0.0
  0
LINE
  5
E9
  8
DATA
  6
CONTINUOUS
 62
     7
 10
612.24961370243045
 20
911.86892392102754
 30
0.0
 11
610.24961370243045
 21
909.86892392102743
 31
0.0
  0
LINE
  5
EA
  8
DATA
  6
CONTINUOUS
 62
     7
 10
603.74961370243045
 20
911.86892392102754
 30
0.0
 11
605.74961370243045
 21
909.86892392102743
 31
0.0
  0
POLYLINE
  5
EB
  8
DATA
  6
CONTINUOUS
 62
     7
 66
     1
 10
0.0
 20
0.0
 30
0.0
 70
     1
  0
VERTEX
  5
536
  8
DATA
  6
CONTINUOUS
 62
     7
 10
604.99961370243045
 20
916.777275988827
 30
0.0
  0
VERTEX
  5
537
  8
DATA
  6
CONTINUOUS
 62
     7
 10
610.99961370243045
 20
916.777275988827
 30
0.0
  0
VERTEX
  5
538
  8
DATA
  6
CONTINUOUS
 62
     7
 10
610.99961370243045
 20
912.97727598882682
 30
0.0
  0
VERTEX
  5
539
  8
DATA
  6
CONTINUOUS
 62
     7
 10
604.99961370243045
 20
912.97727598882682
 30
0.0
  0
SEQEND
  5
53A
  8
DATA
  6
CONTINUOUS
 62
     7
  0
TEXT
  5
F2
  8
DATA
 62
     7
 10
614.11126607289555
 20
929.37251962770165
 30
0.0
 40
3.121945529513888
  1
USB In 
 50
180.0
 41
0.7
 11
614.11126607289555
 21
926.25057409818749
 31
0.0
 73
     3
  0
TEXT
  5
F3
  8
DATA
 62
     7
 10
248.3363716438985
 20
929.27233629562545
 30
0.0
 40
3.121945529513888
  1
5V DC
 50
180.0
 41
0.7
 11
248.3363716438985
 21
926.15039076611174
 31
0.0
 73
     3
  0
LINE
  5
F4
  8
DATA
  6
CONTINUOUS
 62
     7
 10
660.0
 20
706.5
 30
0.0
 11
225.0
 21
706.5
 31
0.0
  0
LINE
  5
F5
  8
DATA
  6
CONTINUOUS
 62
     7
 10
225.0
 20
887.5
 30
0.0
 11
660.0
 21
887.5
 31
0.0
  0
TEXT
  5
F6
  8
DATA
 62
     7
 10
248.23559725646359
 20
664.85139485450156
 30
0.0
 40
3.121945529513888
  1
Power
 41
0.7
 11
248.23559725646359
 21
667.97334038401539
 31
0.0
 73
     3
  0
LINE
  5
F7
  8
DATA
  6
CONTINUOUS
 62
     7
 10
228.31957003464731
 20
659.49999999999989
 30
0.0
 11
227.56957003464731
 21
662.5
 31
0.0
  0
LINE
  5
F8
  8
DATA
  6
CONTINUOUS
 62
     7
 10
245.06957003464879
 20
662.5
 30
0.0
 11
244.31957003464871
 21
659.49999999999989
 31
0.0
  0
LINE
  5
F9
  8
DATA
  6
CONTINUOUS
 62
     7
 10
656.6804299653528
 20
659.49999999999989
 30
0.0
 11
657.4304299653528
 21
662.5
 31
0.0
  0
LINE
  5
FA
  8
DATA
  6
CONTINUOUS
 62
     7
 10
639.93042996535098
 20
662.5
 30
0.0
 11
640.6804299653511
 21
659.49999999999989
 31
0.0
  0
LINE
  5
FB
  8
DATA
  6
CONTINUOUS
 62
     7
 10
228.31957003464731
 20
659.49999999999989
 30
0.0
 11
244.31957003464871
 21
659.49999999999989
 31
0.0
  0
LINE
  5
FC
  8
DATA
  6
CONTINUOUS
 62
     7
 10
640.6804299653511
 20
659.49999999999989
 30
0.0
 11
656.6804299653528
 21
659.49999999999989
 31
0.0
  0
LINE
  5
FD
  8
DATA
  6
CONTINUOUS
 62
     7
 10
660.0
 20
746.49999999999989
 30
0.0
 11
225.0
 21
746.49999999999989
 31
0.0
  0
LINE
  5
FE
  8
DATA
  6
CONTINUOUS
 62
     7
 10
228.31957003464731
 20
934.49999999961381
 30
0.0
 11
227.56957003474389
 21
931.49999999999989
 31
0.0
  0
LINE
  5
FF
  8
DATA
  6
CONTINUOUS
 62
     7
 10
245.06957003455221
 20
931.49999999999989
 30
0.0
 11
244.31957003464871
 21
934.49999999961381
 31
0.0
  0
LINE
  5
100
  8
DATA
  6
CONTINUOUS
 62
     7
 10
656.6804299653528
 20
934.49999999961381
 30
0.0
 11
657.43042996525617
 21
931.49999999999989
 31
0.0
  0
LINE
  5
101
  8
DATA
  6
CONTINUOUS
 62
     7
 10
639.93042996544762
 20
931.49999999999989
 30
0.0
 11
640.6804299653511
 21
934.49999999961381
 31
0.0
  0
LINE
  5
102
  8
DATA
  6
CONTINUOUS
 62
     7
 10
228.31957003464731
 20
934.49999999961381
 30
0.0
 11
244.31957003464871
 21
934.49999999961381
 31
0.0
  0
LINE
  5
103
  8
DATA
  6
CONTINUOUS
 62
     7
 10
640.6804299653511
 20
934.49999999961381
 30
0.0
 11
656.6804299653528
 21
934.49999999961381
 31
0.0
  0
LINE
  5
104
  8
DATA
  6
CONTINUOUS
 62
     7
 10
843.5
 20
663.49999999999989
 30
0.0
 11
843.5
 21
705.49999999999989
 31
0.0
  0
LINE
  5
105
  8
DATA
  6
CONTINUOUS
 62
     7
 10
713.79842909078752
 20
662.5
 30
0.0
 11
714.54842909078752
 21
659.49999999999989
 31
0.0
  0
LINE
  5
106
  8
DATA
  6
CONTINUOUS
 62
     7
 10
714.54842909078752
 20
659.49999999999989
 30
0.0
 11
730.548429090789
 21
659.49999999999989
 31
0.0
  0
LINE
  5
107
  8
DATA
  6
CONTINUOUS
 62
     7
 10
838.39750738945145
 20
659.49999999999989
 30
0.0
 11
839.14750738945145
 21
662.5
 31
0.0
  0
LINE
  5
108
  8
DATA
  6
CONTINUOUS
 62
     7
 10
821.64750738944963
 20
662.5
 30
0.0
 11
822.39750738944974
 21
659.49999999999989
 31
0.0
  0
LINE
  5
109
  8
DATA
  6
CONTINUOUS
 62
     7
 10
822.39750738944974
 20
659.49999999999989
 30
0.0
 11
838.39750738945145
 21
659.49999999999989
 31
0.0
  0
CIRCLE
  5
10A
  8
DATA
  6
CONTINUOUS
 62
     7
 10
773.43024484997522
 20
668.99583716316238
 30
0.0
 40
2.0
  0
LINE
  5
10B
  8
DATA
  6
CONTINUOUS
 62
     7
 10
771.95970073298975
 20
668.99583716316238
 30
0.0
 11
774.90078896696059
 21
668.99583716316238
 31
0.0
  0
LINE
  5
10C
  8
DATA
  6
CONTINUOUS
 62
     7
 10
773.43024484997522
 20
667.52529304617713
 30
0.0
 11
773.43024484997522
 21
670.46638128014774
 31
0.0
  0
CIRCLE
  5
10D
  8
DATA
  6
CONTINUOUS
 62
     7
 10
820.51381053763134
 20
668.99583716316238
 30
0.0
 40
2.0
  0
LINE
  5
10E
  8
DATA
  6
CONTINUOUS
 62
     7
 10
819.04326642064609
 20
668.99583716316238
 30
0.0
 11
821.98435465461671
 21
668.99583716316238
 31
0.0
  0
LINE
  5
10F
  8
DATA
  6
CONTINUOUS
 62
     7
 10
820.51381053763134
 20
667.52529304617713
 30
0.0
 11
820.51381053763134
 21
670.46638128014774
 31
0.0
  0
ARC
  5
110
  8
DATA
  6
CONTINUOUS
 62
     7
 10
713.55000000000018
 20
675.04963173109979
 30
0.0
 40
1.750000000000028
 50
126.8698976458449
 51
233.1301023541551
  0
ARC
  5
111
  8
DATA
  6
CONTINUOUS
 62
     7
 10
252.94894810860831
 20
738.54999999999984
 30
0.0
 40
1.7500000000000111
 50
216.86989764584419
 51
323.13010235415572
  0
LINE
  5
112
  8
DATA
  6
CONTINUOUS
 62
     7
 10
225.0
 20
737.5
 30
0.0
 11
225.0
 21
868.5
 31
0.0
  0
LINE
  5
113
  8
DATA
  6
CONTINUOUS
 62
     7
 10
660.0
 20
737.5
 30
0.0
 11
660.0
 21
868.5
 31
0.0
  0
LINE
  5
114
  8
DATA
  6
CONTINUOUS
 62
     7
 10
713.49999999999989
 20
706.5
 30
0.0
 11
842.5
 21
706.5
 31
0.0
  0
LINE
  5
115
  8
DATA
  6
CONTINUOUS
 62
     7
 10
713.49999999999989
 20
662.5
 30
0.0
 11
842.5
 21
662.5
 31
0.0
  0
CIRCLE
  5
116
  8
DATA
  6
CONTINUOUS
 62
     7
 10
303.42967867176401
 20
918.63969557836117
 30
0.0
 40
1.175000000000068
  0
POLYLINE
  5
117
  8
DATA
  6
CONTINUOUS
 62
     7
 66
     1
 10
0.0
 20
0.0
 30
0.0
 70
     1
  0
VERTEX
  5
53B
  8
DATA
  6
CONTINUOUS
 62
     7
 10
303.42967867176401
 20
915.93969557836135
 30
0.0
  0
VERTEX
  5
53C
  8
DATA
  6
CONTINUOUS
 62
     7
 10
305.76794726198187
 20
917.28969557836115
 30
0.0
  0
VERTEX
  5
53D
  8
DATA
  6
CONTINUOUS
 62
     7
 10
305.76794726198187
 20
919.98969557836119
 30
0.0
  0
VERTEX
  5
53E
  8
DATA
  6
CONTINUOUS
 62
     7
 10
303.42967867176401
 20
921.3396955783611
 30
0.0
  0
VERTEX
  5
53F
  8
DATA
  6
CONTINUOUS
 62
     7
 10
301.09141008154592
 20
919.98969557836119
 30
0.0
  0
VERTEX
  5
540
  8
DATA
  6
CONTINUOUS
 62
     7
 10
301.09141008154592
 20
917.28969557836115
 30
0.0
  0
SEQEND
  5
541
  8
DATA
  6
CONTINUOUS
 62
     7
  0
CIRCLE
  5
120
  8
DATA
  6
CONTINUOUS
 62
     7
 10
270.92967867176401
 20
918.63969557836117
 30
0.0
 40
1.175000000000068
  0
POLYLINE
  5
121
  8
DATA
  6
CONTINUOUS
 62
     7
 66
     1
 10
0.0
 20
0.0
 30
0.0
 70
     1
  0
VERTEX
  5
542
  8
DATA
  6
CONTINUOUS
 62
     7
 10
270.92967867176401
 20
915.93969557836135
 30
0.0
  0
VERTEX
  5
543
  8
DATA
  6
CONTINUOUS
 62
     7
 10
273.26794726198199
 20
917.28969557836115
 30
0.0
  0
VERTEX
  5
544
  8
DATA
  6
CONTINUOUS
 62
     7
 10
273.26794726198199
 20
919.98969557836119
 30
0.0
  0
VERTEX
  5
545
  8
DATA
  6
CONTINUOUS
 62
     7
 10
270.92967867176401
 20
921.3396955783611
 30
0.0
  0
VERTEX
  5
546
  8
DATA
  6
CONTINUOUS
 62
     7
 10
268.59141008154597
 20
919.98969557836119
 30
0.0
  0
VERTEX
  5
547
  8
DATA
  6
CONTINUOUS
 62
     7
 10
268.59141008154597
 20
917.28969557836115
 30
0.0
  0
SEQEND
  5
548
  8
DATA
  6
CONTINUOUS
 62
     7
  0
LINE
  5
12A
  8
DATA
  6
CONTINUOUS
 62
     7
 10
298.12958355895569
 20
914.7146955783611
 30
0.0
 11
276.22977378457222
 21
914.7146955783611
 31
0.0
  0
LINE
  5
12B
  8
DATA
  6
CONTINUOUS
 62
     7
 10
276.78869098202438
 20
922.56469557836135
 30
0.0
 11
297.57066636150341
 21
922.56469557836135
 31
0.0
  0
POLYLINE
  5
12C
  8
DATA
  6
CONTINUOUS
 62
     7
 66
     1
 10
0.0
 20
0.0
 30
0.0
 70
     1
  0
VERTEX
  5
549
  8
DATA
  6
CONTINUOUS
 62
     7
 10
296.64974484294322
 20
919.40469557836116
 30
0.0
  0
VERTEX
  5
54A
  8
DATA
  6
CONTINUOUS
 62
     7
 10
298.17974484294319
 20
919.40469557836116
 30
0.0
  0
VERTEX
  5
54B
  8
DATA
  6
CONTINUOUS
 62
     7
 10
298.17974484294319
 20
917.87469557836118
 30
0.0
  0
VERTEX
  5
54C
  8
DATA
  6
CONTINUOUS
 62
     7
 10
296.64974484294322
 20
917.87469557836118
 30
0.0
  0
SEQEND
  5
54D
  8
DATA
  6
CONTINUOUS
 62
     7
  0
POLYLINE
  5
133
  8
DATA
  6
CONTINUOUS
 62
     7
 66
     1
 10
0.0
 20
0.0
 30
0.0
 70
     1
  0
VERTEX
  5
54E
  8
DATA
  6
CONTINUOUS
 62
     7
 10
294.64974484294322
 20
919.40469557836116
 30
0.0
  0
VERTEX
  5
54F
  8
DATA
  6
CONTINUOUS
 62
     7
 10
296.17974484294319
 20
919.40469557836116
 30
0.0
  0
VERTEX
  5
550
  8
DATA
  6
CONTINUOUS
 62
     7
 10
296.17974484294319
 20
917.87469557836118
 30
0.0
  0
VERTEX
  5
551
  8
DATA
  6
CONTINUOUS
 62
     7
 10
294.64974484294322
 20
917.87469557836118
 30
0.0
  0
SEQEND
  5
552
  8
DATA
  6
CONTINUOUS
 62
     7
  0
POLYLINE
  5
13A
  8
DATA
  6
CONTINUOUS
 62
     7
 66
     1
 10
0.0
 20
0.0
 30
0.0
 70
     1
  0
VERTEX
  5
553
  8
DATA
  6
CONTINUOUS
 62
     7
 10
292.64974484294322
 20
919.40469557836116
 30
0.0
  0
VERTEX
  5
554
  8
DATA
  6
CONTINUOUS
 62
     7
 10
294.17974484294331
 20
919.40469557836116
 30
0.0
  0
VERTEX
  5
555
  8
DATA
  6
CONTINUOUS
 62
     7
 10
294.17974484294331
 20
917.87469557836118
 30
0.0
  0
VERTEX
  5
556
  8
DATA
  6
CONTINUOUS
 62
     7
 10
292.64974484294322
 20
917.87469557836118
 30
0.0
  0
SEQEND
  5
557
  8
DATA
  6
CONTINUOUS
 62
     7
  0
POLYLINE
  5
141
  8
DATA
  6
CONTINUOUS
 62
     7
 66
     1
 10
0.0
 20
0.0
 30
0.0
 70
     1
  0
VERTEX
  5
558
  8
DATA
  6
CONTINUOUS
 62
     7
 10
290.64974484294322
 20
919.40469557836116
 30
0.0
  0
VERTEX
  5
559
  8
DATA
  6
CONTINUOUS
 62
     7
 10
292.17974484294319
 20
919.40469557836116
 30
0.0
  0
VERTEX
  5
55A
  8
DATA
  6
CONTINUOUS
 62
     7
 10
292.17974484294319
 20
917.87469557836118
 30
0.0
  0
VERTEX
  5
55B
  8
DATA
  6
CONTINUOUS
 62
     7
 10
290.64974484294322
 20
917.87469557836118
 30
0.0
  0
SEQEND
  5
55C
  8
DATA
  6
CONTINUOUS
 62
     7
  0
POLYLINE
  5
148
  8
DATA
  6
CONTINUOUS
 62
     7
 66
     1
 10
0.0
 20
0.0
 30
0.0
 70
     1
  0
VERTEX
  5
55D
  8
DATA
  6
CONTINUOUS
 62
     7
 10
288.64974484294322
 20
919.40469557836116
 30
0.0
  0
VERTEX
  5
55E
  8
DATA
  6
CONTINUOUS
 62
     7
 10
290.17974484294319
 20
919.40469557836116
 30
0.0
  0
VERTEX
  5
55F
  8
DATA
  6
CONTINUOUS
 62
     7
 10
290.17974484294319
 20
917.87469557836118
 30
0.0
  0
VERTEX
  5
560
  8
DATA
  6
CONTINUOUS
 62
     7
 10
288.64974484294322
 20
917.87469557836118
 30
0.0
  0
SEQEND
  5
561
  8
DATA
  6
CONTINUOUS
 62
     7
  0
POLYLINE
  5
14F
  8
DATA
  6
CONTINUOUS
 62
     7
 66
     1
 10
0.0
 20
0.0
 30
0.0
 70
     1
  0
VERTEX
  5
562
  8
DATA
  6
CONTINUOUS
 62
     7
 10
286.64974484294322
 20
919.40469557836116
 30
0.0
  0
VERTEX
  5
563
  8
DATA
  6
CONTINUOUS
 62
     7
 10
288.17974484294319
 20
919.40469557836116
 30
0.0
  0
VERTEX
  5
564
  8
DATA
  6
CONTINUOUS
 62
     7
 10
288.17974484294319
 20
917.87469557836118
 30
0.0
  0
VERTEX
  5
565
  8
DATA
  6
CONTINUOUS
 62
     7
 10
286.64974484294322
 20
917.87469557836118
 30
0.0
  0
SEQEND
  5
566
  8
DATA
  6
CONTINUOUS
 62
     7
  0
POLYLINE
  5
156
  8
DATA
  6
CONTINUOUS
 62
     7
 66
     1
 10
0.0
 20
0.0
 30
0.0
 70
     1
  0
VERTEX
  5
567
  8
DATA
  6
CONTINUOUS
 62
     7
 10
284.64974484294311
 20
919.40469557836116
 30
0.0
  0
VERTEX
  5
568
  8
DATA
  6
CONTINUOUS
 62
     7
 10
286.17974484294319
 20
919.40469557836116
 30
0.0
  0
VERTEX
  5
569
  8
DATA
  6
CONTINUOUS
 62
     7
 10
286.17974484294319
 20
917.87469557836118
 30
0.0
  0
VERTEX
  5
56A
  8
DATA
  6
CONTINUOUS
 62
     7
 10
284.64974484294311
 20
917.87469557836118
 30
0.0
  0
SEQEND
  5
56B
  8
DATA
  6
CONTINUOUS
 62
     7
  0
POLYLINE
  5
15D
  8
DATA
  6
CONTINUOUS
 62
     7
 66
     1
 10
0.0
 20
0.0
 30
0.0
 70
     1
  0
VERTEX
  5
56C
  8
DATA
  6
CONTINUOUS
 62
     7
 10
282.64974484294322
 20
919.40469557836116
 30
0.0
  0
VERTEX
  5
56D
  8
DATA
  6
CONTINUOUS
 62
     7
 10
284.17974484294319
 20
919.40469557836116
 30
0.0
  0
VERTEX
  5
56E
  8
DATA
  6
CONTINUOUS
 62
     7
 10
284.17974484294319
 20
917.87469557836118
 30
0.0
  0
VERTEX
  5
56F
  8
DATA
  6
CONTINUOUS
 62
     7
 10
282.64974484294322
 20
917.87469557836118
 30
0.0
  0
SEQEND
  5
570
  8
DATA
  6
CONTINUOUS
 62
     7
  0
POLYLINE
  5
164
  8
DATA
  6
CONTINUOUS
 62
     7
 66
     1
 10
0.0
 20
0.0
 30
0.0
 70
     1
  0
VERTEX
  5
571
  8
DATA
  6
CONTINUOUS
 62
     7
 10
296.64974484294322
 20
917.40469557836116
 30
0.0
  0
VERTEX
  5
572
  8
DATA
  6
CONTINUOUS
 62
     7
 10
298.17974484294319
 20
917.40469557836116
 30
0.0
  0
VERTEX
  5
573
  8
DATA
  6
CONTINUOUS
 62
     7
 10
298.17974484294319
 20
915.87469557836107
 30
0.0
  0
VERTEX
  5
574
  8
DATA
  6
CONTINUOUS
 62
     7
 10
296.64974484294322
 20
915.87469557836107
 30
0.0
  0
SEQEND
  5
575
  8
DATA
  6
CONTINUOUS
 62
     7
  0
POLYLINE
  5
16B
  8
DATA
  6
CONTINUOUS
 62
     7
 66
     1
 10
0.0
 20
0.0
 30
0.0
 70
     1
  0
VERTEX
  5
576
  8
DATA
  6
CONTINUOUS
 62
     7
 10
294.64974484294322
 20
917.40469557836116
 30
0.0
  0
VERTEX
  5
577
  8
DATA
  6
CONTINUOUS
 62
     7
 10
296.17974484294319
 20
917.40469557836116
 30
0.0
  0
VERTEX
  5
578
  8
DATA
  6
CONTINUOUS
 62
     7
 10
296.17974484294319
 20
915.87469557836107
 30
0.0
  0
VERTEX
  5
579
  8
DATA
  6
CONTINUOUS
 62
     7
 10
294.64974484294322
 20
915.87469557836107
 30
0.0
  0
SEQEND
  5
57A
  8
DATA
  6
CONTINUOUS
 62
     7
  0
POLYLINE
  5
172
  8
DATA
  6
CONTINUOUS
 62
     7
 66
     1
 10
0.0
 20
0.0
 30
0.0
 70
     1
  0
VERTEX
  5
57B
  8
DATA
  6
CONTINUOUS
 62
     7
 10
292.64974484294322
 20
917.40469557836116
 30
0.0
  0
VERTEX
  5
57C
  8
DATA
  6
CONTINUOUS
 62
     7
 10
294.17974484294331
 20
917.40469557836116
 30
0.0
  0
VERTEX
  5
57D
  8
DATA
  6
CONTINUOUS
 62
     7
 10
294.17974484294331
 20
915.87469557836107
 30
0.0
  0
VERTEX
  5
57E
  8
DATA
  6
CONTINUOUS
 62
     7
 10
292.64974484294322
 20
915.87469557836107
 30
0.0
  0
SEQEND
  5
57F
  8
DATA
  6
CONTINUOUS
 62
     7
  0
POLYLINE
  5
179
  8
DATA
  6
CONTINUOUS
 62
     7
 66
     1
 10
0.0
 20
0.0
 30
0.0
 70
     1
  0
VERTEX
  5
580
  8
DATA
  6
CONTINUOUS
 62
     7
 10
290.64974484294322
 20
917.40469557836116
 30
0.0
  0
VERTEX
  5
581
  8
DATA
  6
CONTINUOUS
 62
     7
 10
292.17974484294319
 20
917.40469557836116
 30
0.0
  0
VERTEX
  5
582
  8
DATA
  6
CONTINUOUS
 62
     7
 10
292.17974484294319
 20
915.87469557836107
 30
0.0
  0
VERTEX
  5
583
  8
DATA
  6
CONTINUOUS
 62
     7
 10
290.64974484294322
 20
915.87469557836107
 30
0.0
  0
SEQEND
  5
584
  8
DATA
  6
CONTINUOUS
 62
     7
  0
POLYLINE
  5
180
  8
DATA
  6
CONTINUOUS
 62
     7
 66
     1
 10
0.0
 20
0.0
 30
0.0
 70
     1
  0
VERTEX
  5
585
  8
DATA
  6
CONTINUOUS
 62
     7
 10
288.64974484294322
 20
917.40469557836116
 30
0.0
  0
VERTEX
  5
586
  8
DATA
  6
CONTINUOUS
 62
     7
 10
290.17974484294319
 20
917.40469557836116
 30
0.0
  0
VERTEX
  5
587
  8
DATA
  6
CONTINUOUS
 62
     7
 10
290.17974484294319
 20
915.87469557836107
 30
0.0
  0
VERTEX
  5
588
  8
DATA
  6
CONTINUOUS
 62
     7
 10
288.64974484294322
 20
915.87469557836107
 30
0.0
  0
SEQEND
  5
589
  8
DATA
  6
CONTINUOUS
 62
     7
  0
POLYLINE
  5
187
  8
DATA
  6
CONTINUOUS
 62
     7
 66
     1
 10
0.0
 20
0.0
 30
0.0
 70
     1
  0
VERTEX
  5
58A
  8
DATA
  6
CONTINUOUS
 62
     7
 10
286.64974484294322
 20
917.40469557836116
 30
0.0
  0
VERTEX
  5
58B
  8
DATA
  6
CONTINUOUS
 62
     7
 10
288.17974484294319
 20
917.40469557836116
 30
0.0
  0
VERTEX
  5
58C
  8
DATA
  6
CONTINUOUS
 62
     7
 10
288.17974484294319
 20
915.87469557836107
 30
0.0
  0
VERTEX
  5
58D
  8
DATA
  6
CONTINUOUS
 62
     7
 10
286.64974484294322
 20
915.87469557836107
 30
0.0
  0
SEQEND
  5
58E
  8
DATA
  6
CONTINUOUS
 62
     7
  0
POLYLINE
  5
18E
  8
DATA
  6
CONTINUOUS
 62
     7
 66
     1
 10
0.0
 20
0.0
 30
0.0
 70
     1
  0
VERTEX
  5
58F
  8
DATA
  6
CONTINUOUS
 62
     7
 10
284.64974484294311
 20
917.40469557836116
 30
0.0
  0
VERTEX
  5
590
  8
DATA
  6
CONTINUOUS
 62
     7
 10
286.17974484294319
 20
917.40469557836116
 30
0.0
  0
VERTEX
  5
591
  8
DATA
  6
CONTINUOUS
 62
     7
 10
286.17974484294319
 20
915.87469557836107
 30
0.0
  0
VERTEX
  5
592
  8
DATA
  6
CONTINUOUS
 62
     7
 10
284.64974484294311
 20
915.87469557836107
 30
0.0
  0
SEQEND
  5
593
  8
DATA
  6
CONTINUOUS
 62
     7
  0
POLYLINE
  5
195
  8
DATA
  6
CONTINUOUS
 62
     7
 66
     1
 10
0.0
 20
0.0
 30
0.0
 70
     1
  0
VERTEX
  5
594
  8
DATA
  6
CONTINUOUS
 62
     7
 10
282.64974484294322
 20
917.40469557836116
 30
0.0
  0
VERTEX
  5
595
  8
DATA
  6
CONTINUOUS
 62
     7
 10
284.17974484294319
 20
917.40469557836116
 30
0.0
  0
VERTEX
  5
596
  8
DATA
  6
CONTINUOUS
 62
     7
 10
284.17974484294319
 20
915.87469557836107
 30
0.0
  0
VERTEX
  5
597
  8
DATA
  6
CONTINUOUS
 62
     7
 10
282.64974484294322
 20
915.87469557836107
 30
0.0
  0
SEQEND
  5
598
  8
DATA
  6
CONTINUOUS
 62
     7
  0
POLYLINE
  5
19C
  8
DATA
  6
CONTINUOUS
 62
     7
 66
     1
 10
0.0
 20
0.0
 30
0.0
 70
     1
  0
VERTEX
  5
599
  8
DATA
  6
CONTINUOUS
 62
     7
 10
296.64974484294322
 20
921.40469557836116
 30
0.0
  0
VERTEX
  5
59A
  8
DATA
  6
CONTINUOUS
 62
     7
 10
298.17974484294319
 20
921.40469557836116
 30
0.0
  0
VERTEX
  5
59B
  8
DATA
  6
CONTINUOUS
 62
     7
 10
298.17974484294319
 20
919.87469557836118
 30
0.0
  0
VERTEX
  5
59C
  8
DATA
  6
CONTINUOUS
 62
     7
 10
296.64974484294322
 20
919.87469557836118
 30
0.0
  0
SEQEND
  5
59D
  8
DATA
  6
CONTINUOUS
 62
     7
  0
POLYLINE
  5
1A3
  8
DATA
  6
CONTINUOUS
 62
     7
 66
     1
 10
0.0
 20
0.0
 30
0.0
 70
     1
  0
VERTEX
  5
59E
  8
DATA
  6
CONTINUOUS
 62
     7
 10
294.64974484294322
 20
921.40469557836116
 30
0.0
  0
VERTEX
  5
59F
  8
DATA
  6
CONTINUOUS
 62
     7
 10
296.17974484294319
 20
921.40469557836116
 30
0.0
  0
VERTEX
  5
5A0
  8
DATA
  6
CONTINUOUS
 62
     7
 10
296.17974484294319
 20
919.87469557836118
 30
0.0
  0
VERTEX
  5
5A1
  8
DATA
  6
CONTINUOUS
 62
     7
 10
294.64974484294322
 20
919.87469557836118
 30
0.0
  0
SEQEND
  5
5A2
  8
DATA
  6
CONTINUOUS
 62
     7
  0
POLYLINE
  5
1AA
  8
DATA
  6
CONTINUOUS
 62
     7
 66
     1
 10
0.0
 20
0.0
 30
0.0
 70
     1
  0
VERTEX
  5
5A3
  8
DATA
  6
CONTINUOUS
 62
     7
 10
292.64974484294322
 20
921.40469557836116
 30
0.0
  0
VERTEX
  5
5A4
  8
DATA
  6
CONTINUOUS
 62
     7
 10
294.17974484294331
 20
921.40469557836116
 30
0.0
  0
VERTEX
  5
5A5
  8
DATA
  6
CONTINUOUS
 62
     7
 10
294.17974484294331
 20
919.87469557836118
 30
0.0
  0
VERTEX
  5
5A6
  8
DATA
  6
CONTINUOUS
 62
     7
 10
292.64974484294322
 20
919.87469557836118
 30
0.0
  0
SEQEND
  5
5A7
  8
DATA
  6
CONTINUOUS
 62
     7
  0
POLYLINE
  5
1B1
  8
DATA
  6
CONTINUOUS
 62
     7
 66
     1
 10
0.0
 20
0.0
 30
0.0
 70
     1
  0
VERTEX
  5
5A8
  8
DATA
  6
CONTINUOUS
 62
     7
 10
290.64974484294322
 20
921.40469557836116
 30
0.0
  0
VERTEX
  5
5A9
  8
DATA
  6
CONTINUOUS
 62
     7
 10
292.17974484294319
 20
921.40469557836116
 30
0.0
  0
VERTEX
  5
5AA
  8
DATA
  6
CONTINUOUS
 62
     7
 10
292.17974484294319
 20
919.87469557836118
 30
0.0
  0
VERTEX
  5
5AB
  8
DATA
  6
CONTINUOUS
 62
     7
 10
290.64974484294322
 20
919.87469557836118
 30
0.0
  0
SEQEND
  5
5AC
  8
DATA
  6
CONTINUOUS
 62
     7
  0
POLYLINE
  5
1B8
  8
DATA
  6
CONTINUOUS
 62
     7
 66
     1
 10
0.0
 20
0.0
 30
0.0
 70
     1
  0
VERTEX
  5
5AD
  8
DATA
  6
CONTINUOUS
 62
     7
 10
288.64974484294322
 20
921.40469557836116
 30
0.0
  0
VERTEX
  5
5AE
  8
DATA
  6
CONTINUOUS
 62
     7
 10
290.17974484294319
 20
921.40469557836116
 30
0.0
  0
VERTEX
  5
5AF
  8
DATA
  6
CONTINUOUS
 62
     7
 10
290.17974484294319
 20
919.87469557836118
 30
0.0
  0
VERTEX
  5
5B0
  8
DATA
  6
CONTINUOUS
 62
     7
 10
288.64974484294322
 20
919.87469557836118
 30
0.0
  0
SEQEND
  5
5B1
  8
DATA
  6
CONTINUOUS
 62
     7
  0
POLYLINE
  5
1BF
  8
DATA
  6
CONTINUOUS
 62
     7
 66
     1
 10
0.0
 20
0.0
 30
0.0
 70
     1
  0
VERTEX
  5
5B2
  8
DATA
  6
CONTINUOUS
 62
     7
 10
286.64974484294322
 20
921.40469557836116
 30
0.0
  0
VERTEX
  5
5B3
  8
DATA
  6
CONTINUOUS
 62
     7
 10
288.17974484294319
 20
921.40469557836116
 30
0.0
  0
VERTEX
  5
5B4
  8
DATA
  6
CONTINUOUS
 62
     7
 10
288.17974484294319
 20
919.87469557836118
 30
0.0
  0
VERTEX
  5
5B5
  8
DATA
  6
CONTINUOUS
 62
     7
 10
286.64974484294322
 20
919.87469557836118
 30
0.0
  0
SEQEND
  5
5B6
  8
DATA
  6
CONTINUOUS
 62
     7
  0
POLYLINE
  5
1C6
  8
DATA
  6
CONTINUOUS
 62
     7
 66
     1
 10
0.0
 20
0.0
 30
0.0
 70
     1
  0
VERTEX
  5
5B7
  8
DATA
  6
CONTINUOUS
 62
     7
 10
284.64974484294311
 20
921.40469557836116
 30
0.0
  0
VERTEX
  5
5B8
  8
DATA
  6
CONTINUOUS
 62
     7
 10
286.17974484294319
 20
921.40469557836116
 30
0.0
  0
VERTEX
  5
5B9
  8
DATA
  6
CONTINUOUS
 62
     7
 10
286.17974484294319
 20
919.87469557836118
 30
0.0
  0
VERTEX
  5
5BA
  8
DATA
  6
CONTINUOUS
 62
     7
 10
284.64974484294311
 20
919.87469557836118
 30
0.0
  0
SEQEND
  5
5BB
  8
DATA
  6
CONTINUOUS
 62
     7
  0
POLYLINE
  5
1CD
  8
DATA
  6
CONTINUOUS
 62
     7
 66
     1
 10
0.0
 20
0.0
 30
0.0
 70
     1
  0
VERTEX
  5
5BC
  8
DATA
  6
CONTINUOUS
 62
     7
 10
282.64974484294322
 20
921.40469557836116
 30
0.0
  0
VERTEX
  5
5BD
  8
DATA
  6
CONTINUOUS
 62
     7
 10
284.17974484294319
 20
921.40469557836116
 30
0.0
  0
VERTEX
  5
5BE
  8
DATA
  6
CONTINUOUS
 62
     7
 10
284.17974484294319
 20
919.87469557836118
 30
0.0
  0
VERTEX
  5
5BF
  8
DATA
  6
CONTINUOUS
 62
     7
 10
282.64974484294322
 20
919.87469557836118
 30
0.0
  0
SEQEND
  5
5C0
  8
DATA
  6
CONTINUOUS
 62
     7
  0
POLYLINE
  5
1D4
  8
DATA
  6
CONTINUOUS
 62
     7
 66
     1
 10
0.0
 20
0.0
 30
0.0
  0
VERTEX
  5
5C1
  8
DATA
  6
CONTINUOUS
 62
     7
 10
278.62967867176383
 20
918.23969557836119
 30
0.0
  0
VERTEX
  5
5C2
  8
DATA
  6
CONTINUOUS
 62
     7
 10
276.5296786717638
 20
918.23969557836119
 30
0.0
  0
VERTEX
  5
5C3
  8
DATA
  6
CONTINUOUS
 62
     7
 10
276.5296786717638
 20
919.03969557836115
 30
0.0
  0
VERTEX
  5
5C4
  8
DATA
  6
CONTINUOUS
 62
     7
 10
278.62967867176383
 20
919.03969557836115
 30
0.0
  0
SEQEND
  5
5C5
  8
DATA
  6
CONTINUOUS
 62
     7
  0
POLYLINE
  5
1DB
  8
DATA
  6
CONTINUOUS
 62
     7
 66
     1
 10
0.0
 20
0.0
 30
0.0
  0
VERTEX
  5
5C6
  8
DATA
  6
CONTINUOUS
 62
     7
 10
279.42967867176378
 20
919.03969557836115
 30
0.0
  0
VERTEX
  5
5C7
  8
DATA
  6
CONTINUOUS
 62
     7
 10
281.5296786717638
 20
919.03969557836115
 30
0.0
  0
VERTEX
  5
5C8
  8
DATA
  6
CONTINUOUS
 62
     7
 10
281.5296786717638
 20
918.23969557836119
 30
0.0
  0
VERTEX
  5
5C9
  8
DATA
  6
CONTINUOUS
 62
     7
 10
279.42967867176378
 20
918.23969557836119
 30
0.0
  0
SEQEND
  5
5CA
  8
DATA
  6
CONTINUOUS
 62
     7
  0
POLYLINE
  5
1E2
  8
DATA
  6
CONTINUOUS
 62
     7
 66
     1
 10
0.0
 20
0.0
 30
0.0
  0
VERTEX
  5
5CB
  8
DATA
  6
CONTINUOUS
 62
     7
 10
278.62967867176383
 20
919.03969557836115
 30
0.0
  0
VERTEX
  5
5CC
  8
DATA
  6
CONTINUOUS
 62
     7
 10
278.62967867176383
 20
921.13969557836106
 30
0.0
  0
VERTEX
  5
5CD
  8
DATA
  6
CONTINUOUS
 62
     7
 10
279.42967867176378
 20
921.13969557836106
 30
0.0
  0
VERTEX
  5
5CE
  8
DATA
  6
CONTINUOUS
 62
     7
 10
279.42967867176378
 20
919.03969557836115
 30
0.0
  0
SEQEND
  5
5CF
  8
DATA
  6
CONTINUOUS
 62
     7
  0
POLYLINE
  5
1E9
  8
DATA
  6
CONTINUOUS
 62
     7
 66
     1
 10
0.0
 20
0.0
 30
0.0
  0
VERTEX
  5
5D0
  8
DATA
  6
CONTINUOUS
 62
     7
 10
279.42967867176378
 20
918.23969557836119
 30
0.0
  0
VERTEX
  5
5D1
  8
DATA
  6
CONTINUOUS
 62
     7
 10
279.42967867176378
 20
916.13969557836117
 30
0.0
  0
VERTEX
  5
5D2
  8
DATA
  6
CONTINUOUS
 62
     7
 10
278.62967867176383
 20
916.13969557836117
 30
0.0
  0
VERTEX
  5
5D3
  8
DATA
  6
CONTINUOUS
 62
     7
 10
278.62967867176383
 20
918.23969557836119
 30
0.0
  0
SEQEND
  5
5D4
  8
DATA
  6
CONTINUOUS
 62
     7
  0
POLYLINE
  5
1F0
  8
DATA
  6
CONTINUOUS
 62
     7
 66
     1
 10
0.0
 20
0.0
 30
0.0
 70
     1
  0
VERTEX
  5
5D5
  8
DATA
  6
CONTINUOUS
 62
     7
 10
279.88996310223558
 20
917.88026776771108
 30
0.0
  0
VERTEX
  5
5D6
  8
DATA
  6
CONTINUOUS
 62
     7
 10
280.88996310223558
 20
917.88026776771108
 30
0.0
  0
VERTEX
  5
5D7
  8
DATA
  6
CONTINUOUS
 62
     7
 10
280.88996310223558
 20
916.88026776771119
 30
0.0
  0
VERTEX
  5
5D8
  8
DATA
  6
CONTINUOUS
 62
     7
 10
279.88996310223558
 20
916.88026776771119
 30
0.0
  0
SEQEND
  5
5D9
  8
DATA
  6
CONTINUOUS
 62
     7
  0
POLYLINE
  5
1F7
  8
DATA
  6
CONTINUOUS
 62
     7
 66
     1
 10
0.0
 20
0.0
 30
0.0
 70
     1
  0
VERTEX
  5
5DA
  8
DATA
  6
CONTINUOUS
 62
     7
 10
277.16939424129208
 20
917.88026776771108
 30
0.0
  0
VERTEX
  5
5DB
  8
DATA
  6
CONTINUOUS
 62
     7
 10
278.16939424129208
 20
917.88026776771108
 30
0.0
  0
VERTEX
  5
5DC
  8
DATA
  6
CONTINUOUS
 62
     7
 10
278.16939424129208
 20
916.88026776771119
 30
0.0
  0
VERTEX
  5
5DD
  8
DATA
  6
CONTINUOUS
 62
     7
 10
277.16939424129208
 20
916.88026776771119
 30
0.0
  0
SEQEND
  5
5DE
  8
DATA
  6
CONTINUOUS
 62
     7
  0
POLYLINE
  5
1FE
  8
DATA
  6
CONTINUOUS
 62
     7
 66
     1
 10
0.0
 20
0.0
 30
0.0
 70
     1
  0
VERTEX
  5
5DF
  8
DATA
  6
CONTINUOUS
 62
     7
 10
279.88996310223558
 20
920.39912338901115
 30
0.0
  0
VERTEX
  5
5E0
  8
DATA
  6
CONTINUOUS
 62
     7
 10
280.88996310223558
 20
920.39912338901115
 30
0.0
  0
VERTEX
  5
5E1
  8
DATA
  6
CONTINUOUS
 62
     7
 10
280.88996310223558
 20
919.39912338901127
 30
0.0
  0
VERTEX
  5
5E2
  8
DATA
  6
CONTINUOUS
 62
     7
 10
279.88996310223558
 20
919.39912338901127
 30
0.0
  0
SEQEND
  5
5E3
  8
DATA
  6
CONTINUOUS
 62
     7
  0
POLYLINE
  5
205
  8
DATA
  6
CONTINUOUS
 62
     7
 66
     1
 10
0.0
 20
0.0
 30
0.0
 70
     1
  0
VERTEX
  5
5E4
  8
DATA
  6
CONTINUOUS
 62
     7
 10
277.16939424129208
 20
920.39912338901115
 30
0.0
  0
VERTEX
  5
5E5
  8
DATA
  6
CONTINUOUS
 62
     7
 10
278.16939424129208
 20
920.39912338901115
 30
0.0
  0
VERTEX
  5
5E6
  8
DATA
  6
CONTINUOUS
 62
     7
 10
278.16939424129208
 20
919.39912338901127
 30
0.0
  0
VERTEX
  5
5E7
  8
DATA
  6
CONTINUOUS
 62
     7
 10
277.16939424129208
 20
919.39912338901127
 30
0.0
  0
SEQEND
  5
5E8
  8
DATA
  6
CONTINUOUS
 62
     7
  0
LINE
  5
20C
  8
DATA
  6
CONTINUOUS
 62
     7
 10
299.1250504897111
 20
915.80980388384762
 30
0.0
 11
298.56613329225871
 21
921.6598038838473
 31
0.0
  0
LINE
  5
20D
  8
DATA
  6
CONTINUOUS
 62
     7
 10
275.23430685381669
 20
915.80980388384762
 30
0.0
 11
275.79322405126902
 21
921.6598038838473
 31
0.0
  0
ARC
  5
20E
  8
DATA
  6
CONTINUOUS
 62
     7
 10
298.12958355895569
 20
915.71469557836133
 30
0.0
 40
0.9999999999999715
 50
270.0
 51
5.4575534851075531
  0
ARC
  5
20F
  8
DATA
  6
CONTINUOUS
 62
     7
 10
276.2297737845721
 20
915.71469557836133
 30
0.0
 40
0.9999999999999729
 50
174.5424465148939
 51
270.00000000000159
  0
ARC
  5
210
  8
DATA
  6
CONTINUOUS
 62
     7
 10
297.57066636150341
 20
921.56469557836112
 30
0.0
 40
1.0000000000000291
 50
5.4575534851057794
 51
89.99999999999838
  0
ARC
  5
211
  8
DATA
  6
CONTINUOUS
 62
     7
 10
276.78869098202438
 20
921.56469557836112
 30
0.0
 40
1.0
 50
90.0
 51
174.54244651489569
  0
TEXT
  5
212
  8
DATA
 62
     7
 10
294.0347071043978
 20
928.55072692686838
 30
0.0
 40
3.121945529513888
  1
DVI In 
 50
180.0
 41
0.7
 11
294.0347071043978
 21
925.42878139735444
 31
0.0
 73
     3
  0
LINE
  5
213
  8
DATA
  6
CONTINUOUS
 62
     7
 10
237.73877374189189
 20
870.30000000008408
 30
0.0
 11
237.73877374189189
 21
868.50000000008401
 31
0.0
  0
LINE
  5
214
  8
DATA
  6
CONTINUOUS
 62
     7
 10
248.68667668397919
 20
870.30000000008408
 30
0.0
 11
248.68667668397919
 21
868.50000000008401
 31
0.0
  0
LINE
  5
215
  8
DATA
  6
CONTINUOUS
 62
     7
 10
237.73877374189189
 20
870.30000000008408
 30
0.0
 11
248.68667668397919
 21
870.30000000008408
 31
0.0
  0
LINE
  5
216
  8
DATA
  6
CONTINUOUS
 62
     7
 10
243.5214080559212
 20
870.30000000008408
 30
0.0
 11
243.5214080559212
 21
868.50000000008401
 31
0.0
  0
LINE
  5
217
  8
DATA
  6
CONTINUOUS
 62
     7
 10
239.00404236995021
 20
874.50000000008413
 30
0.0
 11
239.00404236995021
 21
870.30000000008408
 31
0.0
  0
LINE
  5
218
  8
DATA
  6
CONTINUOUS
 62
     7
 10
246.80404236995011
 20
874.50000000008413
 30
0.0
 11
246.80404236995011
 21
870.30000000008408
 31
0.0
  0
LINE
  5
219
  8
DATA
  6
CONTINUOUS
 62
     7
 10
239.00404236995021
 20
874.50000000008413
 30
0.0
 11
246.80404236995011
 21
874.50000000008413
 31
0.0
  0
LINE
  5
21A
  8
DATA
  6
CONTINUOUS
 62
     7
 10
269.00844779039471
 20
873.50000000008413
 30
0.0
 11
269.00844779039471
 21
868.50000000008401
 31
0.0
  0
LINE
  5
21B
  8
DATA
  6
CONTINUOUS
 62
     7
 10
273.68498497083073
 20
873.50000000008413
 30
0.0
 11
273.68498497083073
 21
868.50000000008401
 31
0.0
  0
LINE
  5
21C
  8
DATA
  6
CONTINUOUS
 62
     7
 10
275.6469893268993
 20
873.50000000008413
 30
0.0
 11
275.6469893268993
 21
868.50000000008401
 31
0.0
  0
LINE
  5
21D
  8
DATA
  6
CONTINUOUS
 62
     7
 10
299.53392266138201
 20
873.50000000008413
 30
0.0
 11
299.53392266138201
 21
868.50000000008401
 31
0.0
  0
LINE
  5
21E
  8
DATA
  6
CONTINUOUS
 62
     7
 10
301.50844779039522
 20
873.50000000008413
 30
0.0
 11
301.50844779039522
 21
868.50000000008401
 31
0.0
  0
LINE
  5
21F
  8
DATA
  6
CONTINUOUS
 62
     7
 10
306.18498497083112
 20
873.50000000008413
 30
0.0
 11
306.18498497083112
 21
868.50000000008401
 31
0.0
  0
LINE
  5
220
  8
DATA
  6
CONTINUOUS
 62
     7
 10
306.18498497083112
 20
873.50000000008413
 30
0.0
 11
301.50844779039522
 21
873.50000000008413
 31
0.0
  0
LINE
  5
221
  8
DATA
  6
CONTINUOUS
 62
     7
 10
299.53392266138201
 20
873.50000000008413
 30
0.0
 11
275.6469893268993
 21
873.50000000008413
 31
0.0
  0
LINE
  5
222
  8
DATA
  6
CONTINUOUS
 62
     7
 10
273.68498497083073
 20
873.50000000008413
 30
0.0
 11
269.00844779039471
 21
873.50000000008413
 31
0.0
  0
TEXT
  5
223
  8
DATA
 62
     7
 10
620.35694436033555
 20
492.25959482049899
 30
0.0
 40
3.121945529513888
  1
USB Out 
 50
180.0
 41
0.7
 11
620.35694436033555
 21
489.137649290985
 31
0.0
 73
     3
  0
LINE
  5
224
  8
DATA
  6
CONTINUOUS
 62
     7
 10
634.33215136607805
 20
507.16192160970121
 30
0.0
 11
638.97843954415669
 21
507.16192160970121
 31
0.0
  0
LINE
  5
225
  8
DATA
  6
CONTINUOUS
 62
     7
 10
633.73215136607814
 20
495.26192160970112
 30
0.0
 11
633.73215136607814
 21
506.56192160970119
 31
0.0
  0
LINE
  5
226
  8
DATA
  6
CONTINUOUS
 62
     7
 10
638.97843954415669
 20
494.66192160970121
 30
0.0
 11
634.33215136607805
 21
494.66192160970121
 31
0.0
  0
LINE
  5
227
  8
DATA
  6
CONTINUOUS
 62
     7
 10
638.97843954415669
 20
493.86192160970108
 30
0.0
 11
638.97843954415669
 21
507.96192160970111
 31
0.0
  0
LINE
  5
228
  8
DATA
  6
CONTINUOUS
 62
     7
 10
636.13215136607789
 20
495.16192160970121
 30
0.0
 11
636.13215136607789
 21
506.66192160970121
 31
0.0
  0
LINE
  5
229
  8
DATA
  6
CONTINUOUS
 62
     7
 10
637.43215136607796
 20
495.16192160970121
 30
0.0
 11
637.43215136607796
 21
506.66192160970121
 31
0.0
  0
LINE
  5
22A
  8
DATA
  6
CONTINUOUS
 62
     7
 10
636.13215136607789
 20
501.49977730034561
 30
0.0
 11
636.05715136607796
 21
501.49977730034561
 31
0.0
  0
LINE
  5
22B
  8
DATA
  6
CONTINUOUS
 62
     7
 10
636.13215136607789
 20
502.7497773003455
 30
0.0
 11
636.05715136607796
 21
502.7497773003455
 31
0.0
  0
LINE
  5
22C
  8
DATA
  6
CONTINUOUS
 62
     7
 10
636.05715136607796
 20
502.7497773003455
 30
0.0
 11
636.05715136607796
 21
501.49977730034561
 31
0.0
  0
LINE
  5
22D
  8
DATA
  6
CONTINUOUS
 62
     7
 10
636.13215136607789
 20
500.32406591905681
 30
0.0
 11
636.05715136607796
 21
500.32406591905681
 31
0.0
  0
LINE
  5
22E
  8
DATA
  6
CONTINUOUS
 62
     7
 10
636.13215136607789
 20
499.07406591905681
 30
0.0
 11
636.05715136607796
 21
499.07406591905681
 31
0.0
  0
LINE
  5
22F
  8
DATA
  6
CONTINUOUS
 62
     7
 10
636.05715136607796
 20
499.07406591905681
 30
0.0
 11
636.05715136607796
 21
500.32406591905681
 31
0.0
  0
LINE
  5
230
  8
DATA
  6
CONTINUOUS
 62
     7
 10
636.13215136607789
 20
503.91977730034557
 30
0.0
 11
636.05715136607796
 21
503.91977730034557
 31
0.0
  0
LINE
  5
231
  8
DATA
  6
CONTINUOUS
 62
     7
 10
636.13215136607789
 20
505.16977730034557
 30
0.0
 11
636.05715136607796
 21
505.16977730034557
 31
0.0
  0
LINE
  5
232
  8
DATA
  6
CONTINUOUS
 62
     7
 10
636.05715136607796
 20
505.16977730034557
 30
0.0
 11
636.05715136607796
 21
503.91977730034557
 31
0.0
  0
LINE
  5
233
  8
DATA
  6
CONTINUOUS
 62
     7
 10
636.13215136607789
 20
497.9040659190569
 30
0.0
 11
636.05715136607796
 21
497.9040659190569
 31
0.0
  0
LINE
  5
234
  8
DATA
  6
CONTINUOUS
 62
     7
 10
636.13215136607789
 20
496.65406591905679
 30
0.0
 11
636.05715136607796
 21
496.65406591905679
 31
0.0
  0
LINE
  5
235
  8
DATA
  6
CONTINUOUS
 62
     7
 10
636.05715136607796
 20
496.65406591905679
 30
0.0
 11
636.05715136607796
 21
497.9040659190569
 31
0.0
  0
ARC
  5
236
  8
DATA
  6
CONTINUOUS
 62
     7
 10
634.33215136607805
 20
506.56192160970119
 30
0.0
 40
0.6000000000000229
 50
90.0
 51
180.0
  0
ARC
  5
237
  8
DATA
  6
CONTINUOUS
 62
     7
 10
634.33215136607805
 20
495.26192160970112
 30
0.0
 40
0.5999999999999659
 50
180.0
 51
270.0
  0
LINE
  5
238
  8
DATA
  6
CONTINUOUS
 62
     7
 10
636.13215136607789
 20
506.66192160970121
 30
0.0
 11
637.43215136607796
 21
506.66192160970121
 31
0.0
  0
LINE
  5
239
  8
DATA
  6
CONTINUOUS
 62
     7
 10
636.13215136607789
 20
495.16192160970121
 30
0.0
 11
637.43215136607796
 21
495.16192160970121
 31
0.0
  0
LINE
  5
23A
  8
DATA
  6
CONTINUOUS
 62
     7
 10
633.16511539679277
 20
507.96192160970111
 30
0.0
 11
633.16511539679277
 21
493.86192160970108
 31
0.0
  0
LINE
  5
23B
  8
DATA
  6
CONTINUOUS
 62
     7
 10
638.97843954415669
 20
493.86192160970108
 30
0.0
 11
633.16511539679277
 21
493.86192160970108
 31
0.0
  0
LINE
  5
23C
  8
DATA
  6
CONTINUOUS
 62
     7
 10
638.97843954415669
 20
507.96192160970111
 30
0.0
 11
633.16511539679277
 21
507.96192160970111
 31
0.0
  0
TEXT
  5
23D
  8
DATA
 62
     7
 10
435.02856205950201
 20
598.02484872787329
 30
0.0
 40
13.57367621527778
  1
CAT5-1600HDS(センダー)
 41
0.7
 11
435.02856205950201
 21
611.59852494315112
 31
0.0
 73
     3
  0
TEXT
  5
23E
  8
DATA
 62
     7
 10
434.63629029188593
 20
186.04582976951411
 30
0.0
 40
13.57367621527778
  1
CAT5-1600HDR(レシーバー)
 41
0.7
 11
434.63629029188593
 21
199.6195059847918
 31
0.0
 73
     3
  0
LINE
  5
23F
  8
DATA
  6
CONTINUOUS
 62
     7
 10
660.0
 20
868.5
 30
0.0
 11
225.0
 21
868.5
 31
0.0
  0
CIRCLE
  5
240
  8
DATA
  6
CONTINUOUS
 62
     7
 10
253.0
 20
675.0
 30
0.0
 40
1.5
  0
CIRCLE
  5
241
  8
DATA
  6
CONTINUOUS
 62
     7
 10
243.5
 20
914.49999999999989
 30
0.0
 40
3.9000000000000048
  0
CIRCLE
  5
242
  8
DATA
  6
CONTINUOUS
 62
     7
 10
243.5
 20
914.49999999999989
 30
0.0
 40
0.6500000000000057
  0
POLYLINE
  5
243
  8
DATA
  6
CONTINUOUS
 62
     7
 66
     1
 10
0.0
 20
0.0
 30
0.0
 70
     1
  0
VERTEX
  5
5E9
  8
DATA
  6
CONTINUOUS
 62
     7
 10
237.71736568597089
 20
917.12573298786242
 30
0.0
  0
VERTEX
  5
5EA
  8
DATA
  6
CONTINUOUS
 62
     7
 10
238.3347313719417
 20
910.8049582771863
 30
0.0
  0
VERTEX
  5
5EB
  8
DATA
  6
CONTINUOUS
 62
     7
 10
244.1173656859707
 20
908.17922528932422
 30
0.0
  0
VERTEX
  5
5EC
  8
DATA
  6
CONTINUOUS
 62
     7
 10
249.282634314029
 20
911.87426701213758
 30
0.0
  0
VERTEX
  5
5ED
  8
DATA
  6
CONTINUOUS
 62
     7
 10
248.66526862805819
 20
918.19504172281347
 30
0.0
  0
VERTEX
  5
5EE
  8
DATA
  6
CONTINUOUS
 62
     7
 10
242.88263431402919
 20
920.82077471067601
 30
0.0
  0
SEQEND
  5
5EF
  8
DATA
  6
CONTINUOUS
 62
     7
  0
LINE
  5
24C
  8
DATA
  6
CONTINUOUS
 62
     7
 10
338.7727241003256
 20
923.55489248914751
 30
0.0
 11
338.7727241003256
 21
910.25489248914744
 31
0.0
  0
LINE
  5
24D
  8
DATA
  6
CONTINUOUS
 62
     7
 10
323.07272410032567
 20
923.55489248914751
 30
0.0
 11
323.07272410032567
 21
910.25489248914744
 31
0.0
  0
LINE
  5
24E
  8
DATA
  6
CONTINUOUS
 62
     7
 10
324.77272410032572
 20
920.55489248914751
 30
0.0
 11
324.77272410032572
 21
913.25489248914755
 31
0.0
  0
LINE
  5
24F
  8
DATA
  6
CONTINUOUS
 62
     7
 10
337.07272410032567
 20
920.55489248914751
 30
0.0
 11
337.07272410032567
 21
913.25489248914755
 31
0.0
  0
LINE
  5
250
  8
DATA
  6
CONTINUOUS
 62
     7
 10
324.77272410032572
 20
920.55489248914751
 30
0.0
 11
337.07272410032567
 21
920.55489248914751
 31
0.0
  0
LINE
  5
251
  8
DATA
  6
CONTINUOUS
 62
     7
 10
328.69772410032567
 20
910.25489248914744
 30
0.0
 11
328.69772410032567
 21
911.75489248914744
 31
0.0
  0
LINE
  5
252
  8
DATA
  6
CONTINUOUS
 62
     7
 10
333.1477241003256
 20
911.75489248914744
 30
0.0
 11
333.1477241003256
 21
910.25489248914744
 31
0.0
  0
LINE
  5
253
  8
DATA
  6
CONTINUOUS
 62
     7
 10
327.57272410032567
 20
911.75489248914744
 30
0.0
 11
328.69772410032567
 21
911.75489248914744
 31
0.0
  0
LINE
  5
254
  8
DATA
  6
CONTINUOUS
 62
     7
 10
333.1477241003256
 20
911.75489248914744
 30
0.0
 11
334.2727241003256
 21
911.75489248914744
 31
0.0
  0
LINE
  5
255
  8
DATA
  6
CONTINUOUS
 62
     7
 10
324.77272410032572
 20
913.25489248914755
 30
0.0
 11
327.57272410032567
 21
913.25489248914755
 31
0.0
  0
LINE
  5
256
  8
DATA
  6
CONTINUOUS
 62
     7
 10
334.2727241003256
 20
913.25489248914755
 30
0.0
 11
337.07272410032567
 21
913.25489248914755
 31
0.0
  0
LINE
  5
257
  8
DATA
  6
CONTINUOUS
 62
     7
 10
327.57272410032567
 20
911.75489248914744
 30
0.0
 11
327.57272410032567
 21
913.25489248914755
 31
0.0
  0
LINE
  5
258
  8
DATA
  6
CONTINUOUS
 62
     7
 10
334.2727241003256
 20
913.25489248914755
 30
0.0
 11
334.2727241003256
 21
911.75489248914744
 31
0.0
  0
LINE
  5
259
  8
DATA
  6
CONTINUOUS
 62
     7
 10
338.7727241003256
 20
910.25489248914744
 30
0.0
 11
323.07272410032567
 21
910.25489248914744
 31
0.0
  0
LINE
  5
25A
  8
DATA
  6
CONTINUOUS
 62
     7
 10
338.7727241003256
 20
923.55489248914751
 30
0.0
 11
323.07272410032567
 21
923.55489248914751
 31
0.0
  0
TEXT
  5
25B
  8
DATA
 62
     7
 10
335.3753888831136
 20
928.69735001266565
 30
0.0
 40
3.121945529513888
  1
LINK
 50
180.0
 41
0.7
 11
335.3753888831136
 21
925.57540448315149
 31
0.0
 73
     3
  0
TEXT
  5
25C
  8
DATA
 62
     7
 10
336.31767160285767
 20
907.85279572587547
 30
0.0
 40
3.121945529513888
  1
CAT-5
 50
180.0
 41
0.7
 11
336.31767160285767
 21
904.73085019636164
 31
0.0
 73
     3
  0
LINE
  5
25D
  8
DATA
  6
CONTINUOUS
 62
     7
 10
561.21673064799904
 20
907.1796615422362
 30
0.0
 11
561.21673064799904
 21
920.47966154223604
 31
0.0
  0
LINE
  5
25E
  8
DATA
  6
CONTINUOUS
 62
     7
 10
576.91673064799875
 20
907.1796615422362
 30
0.0
 11
576.91673064799875
 21
920.47966154223604
 31
0.0
  0
LINE
  5
25F
  8
DATA
  6
CONTINUOUS
 62
     7
 10
575.2167306479987
 20
910.1796615422362
 30
0.0
 11
575.2167306479987
 21
917.47966154223604
 31
0.0
  0
LINE
  5
260
  8
DATA
  6
CONTINUOUS
 62
     7
 10
562.91673064799886
 20
910.1796615422362
 30
0.0
 11
562.91673064799886
 21
917.47966154223604
 31
0.0
  0
LINE
  5
261
  8
DATA
  6
CONTINUOUS
 62
     7
 10
575.2167306479987
 20
910.1796615422362
 30
0.0
 11
562.91673064799886
 21
910.1796615422362
 31
0.0
  0
LINE
  5
262
  8
DATA
  6
CONTINUOUS
 62
     7
 10
571.29173064799875
 20
920.47966154223604
 30
0.0
 11
571.29173064799875
 21
918.97966154223604
 31
0.0
  0
LINE
  5
263
  8
DATA
  6
CONTINUOUS
 62
     7
 10
566.84173064799893
 20
918.97966154223604
 30
0.0
 11
566.84173064799893
 21
920.47966154223604
 31
0.0
  0
LINE
  5
264
  8
DATA
  6
CONTINUOUS
 62
     7
 10
572.41673064799875
 20
918.97966154223604
 30
0.0
 11
571.29173064799875
 21
918.97966154223604
 31
0.0
  0
LINE
  5
265
  8
DATA
  6
CONTINUOUS
 62
     7
 10
566.84173064799893
 20
918.97966154223604
 30
0.0
 11
565.71673064799893
 21
918.97966154223604
 31
0.0
  0
LINE
  5
266
  8
DATA
  6
CONTINUOUS
 62
     7
 10
575.2167306479987
 20
917.47966154223604
 30
0.0
 11
572.41673064799875
 21
917.47966154223604
 31
0.0
  0
LINE
  5
267
  8
DATA
  6
CONTINUOUS
 62
     7
 10
565.71673064799893
 20
917.47966154223604
 30
0.0
 11
562.91673064799886
 21
917.47966154223604
 31
0.0
  0
LINE
  5
268
  8
DATA
  6
CONTINUOUS
 62
     7
 10
572.41673064799875
 20
918.97966154223604
 30
0.0
 11
572.41673064799875
 21
917.47966154223604
 31
0.0
  0
LINE
  5
269
  8
DATA
  6
CONTINUOUS
 62
     7
 10
565.71673064799893
 20
917.47966154223604
 30
0.0
 11
565.71673064799893
 21
918.97966154223604
 31
0.0
  0
LINE
  5
26A
  8
DATA
  6
CONTINUOUS
 62
     7
 10
561.21673064799904
 20
920.47966154223604
 30
0.0
 11
576.91673064799875
 21
920.47966154223604
 31
0.0
  0
LINE
  5
26B
  8
DATA
  6
CONTINUOUS
 62
     7
 10
561.21673064799904
 20
907.1796615422362
 30
0.0
 11
576.91673064799875
 21
907.1796615422362
 31
0.0
  0
TEXT
  5
26C
  8
DATA
 62
     7
 10
572.27899310494229
 20
928.69735001266565
 30
0.0
 40
3.121945529513888
  1
USB
 50
180.0
 41
0.7
 11
572.27899310494229
 21
925.57540448315149
 31
0.0
 73
     3
  0
TEXT
  5
26D
  8
DATA
 62
     7
 10
574.17579239317047
 20
905.52501058884218
 30
0.0
 40
3.121945529513888
  1
CAT-5
 50
180.0
 41
0.7
 11
574.17579239317047
 21
902.40306505932836
 31
0.0
 73
     3
  0
CIRCLE
  5
26E
  8
DATA
  6
CONTINUOUS
 62
     7
 10
581.91673064799875
 20
918.03021747056391
 30
0.0
 40
1.5
  0
TEXT
  5
26F
  8
DATA
 62
     7
 10
585.25422560613038
 20
928.69735001266565
 30
0.0
 40
3.121945529513888
  1
HOST
 50
180.0
 41
0.7
 11
585.25422560613038
 21
925.57540448315149
 31
0.0
 73
     3
  0
LINE
  5
270
  8
DATA
  6
CONTINUOUS
 62
     7
 10
548.0
 20
922.28978583448725
 30
0.0
 11
548.0
 21
918.71021416551264
 31
0.0
  0
LINE
  5
271
  8
DATA
  6
CONTINUOUS
 62
     7
 10
549.7897858344877
 20
920.5
 30
0.0
 11
546.21021416551207
 21
920.5
 31
0.0
  0
CIRCLE
  5
272
  8
DATA
  6
CONTINUOUS
 62
     7
 10
548.0
 20
920.5
 30
0.0
 40
3.5
  0
LINE
  5
273
  8
DATA
  6
CONTINUOUS
 62
     7
 10
647.0
 20
922.28978583448725
 30
0.0
 11
647.0
 21
918.71021416551264
 31
0.0
  0
LINE
  5
274
  8
DATA
  6
CONTINUOUS
 62
     7
 10
648.78978583448782
 20
920.5
 30
0.0
 11
645.21021416551218
 21
920.5
 31
0.0
  0
CIRCLE
  5
275
  8
DATA
  6
CONTINUOUS
 62
     7
 10
647.0
 20
920.5
 30
0.0
 40
3.5
  0
LINE
  5
276
  8
DATA
  6
CONTINUOUS
 62
     7
 10
545.5
 20
870.5
 30
0.0
 11
550.49999999999989
 21
870.5
 31
0.0
  0
LINE
  5
277
  8
DATA
  6
CONTINUOUS
 62
     7
 10
644.5
 20
870.5
 30
0.0
 11
649.5
 21
870.5
 31
0.0
  0
LINE
  5
278
  8
DATA
  6
CONTINUOUS
 62
     7
 10
544.5
 20
869.5
 30
0.0
 11
544.5
 21
868.5
 31
0.0
  0
LINE
  5
279
  8
DATA
  6
CONTINUOUS
 62
     7
 10
551.49999999999989
 20
869.5
 30
0.0
 11
551.49999999999989
 21
868.5
 31
0.0
  0
LINE
  5
27A
  8
DATA
  6
CONTINUOUS
 62
     7
 10
643.5
 20
869.5
 30
0.0
 11
643.5
 21
868.5
 31
0.0
  0
LINE
  5
27B
  8
DATA
  6
CONTINUOUS
 62
     7
 10
650.49999999999989
 20
869.5
 30
0.0
 11
650.49999999999989
 21
868.5
 31
0.0
  0
ARC
  5
27C
  8
DATA
  6
CONTINUOUS
 62
     7
 10
545.5
 20
869.5
 30
0.0
 40
1.0
 50
90.0
 51
180.0
  0
ARC
  5
27D
  8
DATA
  6
CONTINUOUS
 62
     7
 10
550.49999999999989
 20
869.5
 30
0.0
 40
1.0
 50
0.0
 51
90.0
  0
ARC
  5
27E
  8
DATA
  6
CONTINUOUS
 62
     7
 10
649.5
 20
869.5
 30
0.0
 40
1.0
 50
0.0
 51
90.0
  0
ARC
  5
27F
  8
DATA
  6
CONTINUOUS
 62
     7
 10
644.5
 20
869.5
 30
0.0
 40
1.0
 50
90.0
 51
180.0
  0
LINE
  5
280
  8
DATA
  6
CONTINUOUS
 62
     7
 10
843.5
 20
679.22500000000002
 30
0.0
 11
848.49999999999989
 21
679.22500000000002
 31
0.0
  0
LINE
  5
281
  8
DATA
  6
CONTINUOUS
 62
     7
 10
848.49999999999989
 20
671.375
 30
0.0
 11
843.5
 21
671.375
 31
0.0
  0
LINE
  5
282
  8
DATA
  6
CONTINUOUS
 62
     7
 10
848.49999999999989
 20
671.375
 30
0.0
 11
848.49999999999989
 21
679.22500000000002
 31
0.0
  0
LINE
  5
283
  8
DATA
  6
CONTINUOUS
 62
     7
 10
851.29999999999984
 20
676.5
 30
0.0
 11
848.49999999999989
 21
676.5
 31
0.0
  0
LINE
  5
284
  8
DATA
  6
CONTINUOUS
 62
     7
 10
851.29999999999984
 20
682.5
 30
0.0
 11
851.29999999999984
 21
676.5
 31
0.0
  0
LINE
  5
285
  8
DATA
  6
CONTINUOUS
 62
     7
 10
843.5
 20
682.5
 30
0.0
 11
851.29999999999984
 21
682.5
 31
0.0
  0
POLYLINE
  5
286
  8
DATA
  6
CONTINUOUS
 62
     7
 66
     1
 10
0.0
 20
0.0
 30
0.0
  0
VERTEX
  5
5F0
  8
DATA
  6
CONTINUOUS
 62
     7
 10
843.5
 20
674.0
 30
0.0
  0
VERTEX
  5
5F1
  8
DATA
  6
CONTINUOUS
 62
     7
 10
843.5
 20
685.0
 30
0.0
  0
VERTEX
  5
5F2
  8
DATA
  6
CONTINUOUS
 62
     7
 10
845.29999999999995
 20
685.0
 30
0.0
  0
VERTEX
  5
5F3
  8
DATA
  6
CONTINUOUS
 62
     7
 10
845.29999999999995
 20
682.5
 30
0.0
  0
SEQEND
  5
5F4
  8
DATA
  6
CONTINUOUS
 62
     7
  0
TEXT
  5
28D
  8
DATA
 62
     7
 10
561.79190438666012
 20
274.48901058868
 30
0.0
 40
10.85894097222222
  1
CAT5-1600HDR
 41
0.7
 11
561.79190438666012
 21
285.34795156090217
 31
0.0
 73
     3
  0
LINE
  5
28E
  8
DATA
  6
CONTINUOUS
 62
     7
 10
225.0
 20
250.0
 30
0.0
 11
225.0
 21
294.0
 31
0.0
  0
LINE
  5
28F
  8
DATA
  6
CONTINUOUS
 62
     7
 10
660.0
 20
250.0
 30
0.0
 11
225.0
 21
250.0
 31
0.0
  0
LINE
  5
290
  8
DATA
  6
CONTINUOUS
 62
     7
 10
660.0
 20
294.0
 30
0.0
 11
660.0
 21
250.0
 31
0.0
  0
LINE
  5
291
  8
DATA
  6
CONTINUOUS
 62
     7
 10
660.0
 20
325.0
 30
0.0
 11
225.0
 21
325.0
 31
0.0
  0
LINE
  5
292
  8
DATA
  6
CONTINUOUS
 62
     7
 10
660.0
 20
519.0
 30
0.0
 11
660.0
 21
475.0
 31
0.0
  0
LINE
  5
293
  8
DATA
  6
CONTINUOUS
 62
     7
 10
225.0
 20
519.0
 30
0.0
 11
660.0
 21
519.0
 31
0.0
  0
LINE
  5
294
  8
DATA
  6
CONTINUOUS
 62
     7
 10
225.0
 20
475.0
 30
0.0
 11
225.0
 21
519.0
 31
0.0
  0
TEXT
  5
295
  8
DATA
 62
     7
 10
248.3363716438985
 20
516.77233629562545
 30
0.0
 40
3.121945529513888
  1
5V DC
 50
180.0
 41
0.7
 11
248.3363716438985
 21
513.65039076611163
 31
0.0
 73
     3
  0
LINE
  5
296
  8
DATA
  6
CONTINUOUS
 62
     7
 10
660.0
 20
294.0
 30
0.0
 11
225.0
 21
294.0
 31
0.0
  0
LINE
  5
297
  8
DATA
  6
CONTINUOUS
 62
     7
 10
225.0
 20
475.0
 30
0.0
 11
660.0
 21
475.0
 31
0.0
  0
TEXT
  5
298
  8
DATA
 62
     7
 10
240.4419365175608
 20
252.35139485450159
 30
0.0
 40
3.121945529513888
  1
Power
 41
0.7
 11
240.4419365175608
 21
255.4733403840155
 31
0.0
 73
     3
  0
LINE
  5
299
  8
DATA
  6
CONTINUOUS
 62
     7
 10
228.31957003464731
 20
247.0
 30
0.0
 11
227.56957003464731
 21
250.0
 31
0.0
  0
LINE
  5
29A
  8
DATA
  6
CONTINUOUS
 62
     7
 10
245.06957003464879
 20
250.0
 30
0.0
 11
244.31957003464871
 21
247.0
 31
0.0
  0
LINE
  5
29B
  8
DATA
  6
CONTINUOUS
 62
     7
 10
656.6804299653528
 20
247.0
 30
0.0
 11
657.4304299653528
 21
250.0
 31
0.0
  0
LINE
  5
29C
  8
DATA
  6
CONTINUOUS
 62
     7
 10
639.93042996535098
 20
250.0
 30
0.0
 11
640.6804299653511
 21
247.0
 31
0.0
  0
LINE
  5
29D
  8
DATA
  6
CONTINUOUS
 62
     7
 10
228.31957003464731
 20
247.0
 30
0.0
 11
244.31957003464871
 21
247.0
 31
0.0
  0
LINE
  5
29E
  8
DATA
  6
CONTINUOUS
 62
     7
 10
640.6804299653511
 20
247.0
 30
0.0
 11
656.6804299653528
 21
247.0
 31
0.0
  0
LINE
  5
29F
  8
DATA
  6
CONTINUOUS
 62
     7
 10
660.0
 20
334.0
 30
0.0
 11
225.0
 21
334.0
 31
0.0
  0
LINE
  5
2A0
  8
DATA
  6
CONTINUOUS
 62
     7
 10
228.31957003464731
 20
521.99999999961369
 30
0.0
 11
227.56957003474389
 21
519.0
 31
0.0
  0
LINE
  5
2A1
  8
DATA
  6
CONTINUOUS
 62
     7
 10
245.06957003455221
 20
519.0
 30
0.0
 11
244.31957003464871
 21
521.99999999961369
 31
0.0
  0
LINE
  5
2A2
  8
DATA
  6
CONTINUOUS
 62
     7
 10
656.6804299653528
 20
521.99999999961369
 30
0.0
 11
657.43042996525617
 21
519.0
 31
0.0
  0
LINE
  5
2A3
  8
DATA
  6
CONTINUOUS
 62
     7
 10
639.93042996544762
 20
519.0
 30
0.0
 11
640.6804299653511
 21
521.99999999961369
 31
0.0
  0
LINE
  5
2A4
  8
DATA
  6
CONTINUOUS
 62
     7
 10
228.31957003464731
 20
521.99999999961369
 30
0.0
 11
244.31957003464871
 21
521.99999999961369
 31
0.0
  0
LINE
  5
2A5
  8
DATA
  6
CONTINUOUS
 62
     7
 10
640.6804299653511
 20
521.99999999961369
 30
0.0
 11
656.6804299653528
 21
521.99999999961369
 31
0.0
  0
ARC
  5
2A6
  8
DATA
  6
CONTINUOUS
 62
     7
 10
252.94894810860831
 20
326.05000000000001
 30
0.0
 40
1.7500000000000111
 50
216.86989764584419
 51
323.13010235415572
  0
LINE
  5
2A7
  8
DATA
  6
CONTINUOUS
 62
     7
 10
225.0
 20
325.0
 30
0.0
 11
225.0
 21
456.0
 31
0.0
  0
LINE
  5
2A8
  8
DATA
  6
CONTINUOUS
 62
     7
 10
660.0
 20
325.0
 30
0.0
 11
660.0
 21
456.0
 31
0.0
  0
CIRCLE
  5
2A9
  8
DATA
  6
CONTINUOUS
 62
     7
 10
303.42967867176401
 20
506.13969557836128
 30
0.0
 40
1.175000000000068
  0
POLYLINE
  5
2AA
  8
DATA
  6
CONTINUOUS
 62
     7
 66
     1
 10
0.0
 20
0.0
 30
0.0
 70
     1
  0
VERTEX
  5
5F5
  8
DATA
  6
CONTINUOUS
 62
     7
 10
303.42967867176401
 20
503.4396955783613
 30
0.0
  0
VERTEX
  5
5F6
  8
DATA
  6
CONTINUOUS
 62
     7
 10
305.76794726198187
 20
504.7896955783612
 30
0.0
  0
VERTEX
  5
5F7
  8
DATA
  6
CONTINUOUS
 62
     7
 10
305.76794726198187
 20
507.48969557836119
 30
0.0
  0
VERTEX
  5
5F8
  8
DATA
  6
CONTINUOUS
 62
     7
 10
303.42967867176401
 20
508.83969557836122
 30
0.0
  0
VERTEX
  5
5F9
  8
DATA
  6
CONTINUOUS
 62
     7
 10
301.09141008154592
 20
507.48969557836119
 30
0.0
  0
VERTEX
  5
5FA
  8
DATA
  6
CONTINUOUS
 62
     7
 10
301.09141008154592
 20
504.7896955783612
 30
0.0
  0
SEQEND
  5
5FB
  8
DATA
  6
CONTINUOUS
 62
     7
  0
CIRCLE
  5
2B3
  8
DATA
  6
CONTINUOUS
 62
     7
 10
270.92967867176401
 20
506.13969557836128
 30
0.0
 40
1.175000000000068
  0
POLYLINE
  5
2B4
  8
DATA
  6
CONTINUOUS
 62
     7
 66
     1
 10
0.0
 20
0.0
 30
0.0
 70
     1
  0
VERTEX
  5
5FC
  8
DATA
  6
CONTINUOUS
 62
     7
 10
270.92967867176401
 20
503.4396955783613
 30
0.0
  0
VERTEX
  5
5FD
  8
DATA
  6
CONTINUOUS
 62
     7
 10
273.26794726198199
 20
504.7896955783612
 30
0.0
  0
VERTEX
  5
5FE
  8
DATA
  6
CONTINUOUS
 62
     7
 10
273.26794726198199
 20
507.48969557836119
 30
0.0
  0
VERTEX
  5
5FF
  8
DATA
  6
CONTINUOUS
 62
     7
 10
270.92967867176401
 20
508.83969557836122
 30
0.0
  0
VERTEX
  5
600
  8
DATA
  6
CONTINUOUS
 62
     7
 10
268.59141008154597
 20
507.48969557836119
 30
0.0
  0
VERTEX
  5
601
  8
DATA
  6
CONTINUOUS
 62
     7
 10
268.59141008154597
 20
504.7896955783612
 30
0.0
  0
SEQEND
  5
602
  8
DATA
  6
CONTINUOUS
 62
     7
  0
LINE
  5
2BD
  8
DATA
  6
CONTINUOUS
 62
     7
 10
298.12958355895569
 20
502.21469557836122
 30
0.0
 11
276.22977378457222
 21
502.21469557836122
 31
0.0
  0
LINE
  5
2BE
  8
DATA
  6
CONTINUOUS
 62
     7
 10
276.78869098202438
 20
510.0646955783613
 30
0.0
 11
297.57066636150341
 21
510.0646955783613
 31
0.0
  0
POLYLINE
  5
2BF
  8
DATA
  6
CONTINUOUS
 62
     7
 66
     1
 10
0.0
 20
0.0
 30
0.0
 70
     1
  0
VERTEX
  5
603
  8
DATA
  6
CONTINUOUS
 62
     7
 10
296.64974484294322
 20
506.90469557836121
 30
0.0
  0
VERTEX
  5
604
  8
DATA
  6
CONTINUOUS
 62
     7
 10
298.17974484294319
 20
506.90469557836121
 30
0.0
  0
VERTEX
  5
605
  8
DATA
  6
CONTINUOUS
 62
     7
 10
298.17974484294319
 20
505.3746955783613
 30
0.0
  0
VERTEX
  5
606
  8
DATA
  6
CONTINUOUS
 62
     7
 10
296.64974484294322
 20
505.3746955783613
 30
0.0
  0
SEQEND
  5
607
  8
DATA
  6
CONTINUOUS
 62
     7
  0
POLYLINE
  5
2C6
  8
DATA
  6
CONTINUOUS
 62
     7
 66
     1
 10
0.0
 20
0.0
 30
0.0
 70
     1
  0
VERTEX
  5
608
  8
DATA
  6
CONTINUOUS
 62
     7
 10
294.64974484294322
 20
506.90469557836121
 30
0.0
  0
VERTEX
  5
609
  8
DATA
  6
CONTINUOUS
 62
     7
 10
296.17974484294319
 20
506.90469557836121
 30
0.0
  0
VERTEX
  5
60A
  8
DATA
  6
CONTINUOUS
 62
     7
 10
296.17974484294319
 20
505.3746955783613
 30
0.0
  0
VERTEX
  5
60B
  8
DATA
  6
CONTINUOUS
 62
     7
 10
294.64974484294322
 20
505.3746955783613
 30
0.0
  0
SEQEND
  5
60C
  8
DATA
  6
CONTINUOUS
 62
     7
  0
POLYLINE
  5
2CD
  8
DATA
  6
CONTINUOUS
 62
     7
 66
     1
 10
0.0
 20
0.0
 30
0.0
 70
     1
  0
VERTEX
  5
60D
  8
DATA
  6
CONTINUOUS
 62
     7
 10
292.64974484294322
 20
506.90469557836121
 30
0.0
  0
VERTEX
  5
60E
  8
DATA
  6
CONTINUOUS
 62
     7
 10
294.17974484294331
 20
506.90469557836121
 30
0.0
  0
VERTEX
  5
60F
  8
DATA
  6
CONTINUOUS
 62
     7
 10
294.17974484294331
 20
505.3746955783613
 30
0.0
  0
VERTEX
  5
610
  8
DATA
  6
CONTINUOUS
 62
     7
 10
292.64974484294322
 20
505.3746955783613
 30
0.0
  0
SEQEND
  5
611
  8
DATA
  6
CONTINUOUS
 62
     7
  0
POLYLINE
  5
2D4
  8
DATA
  6
CONTINUOUS
 62
     7
 66
     1
 10
0.0
 20
0.0
 30
0.0
 70
     1
  0
VERTEX
  5
612
  8
DATA
  6
CONTINUOUS
 62
     7
 10
290.64974484294322
 20
506.90469557836121
 30
0.0
  0
VERTEX
  5
613
  8
DATA
  6
CONTINUOUS
 62
     7
 10
292.17974484294319
 20
506.90469557836121
 30
0.0
  0
VERTEX
  5
614
  8
DATA
  6
CONTINUOUS
 62
     7
 10
292.17974484294319
 20
505.3746955783613
 30
0.0
  0
VERTEX
  5
615
  8
DATA
  6
CONTINUOUS
 62
     7
 10
290.64974484294322
 20
505.3746955783613
 30
0.0
  0
SEQEND
  5
616
  8
DATA
  6
CONTINUOUS
 62
     7
  0
POLYLINE
  5
2DB
  8
DATA
  6
CONTINUOUS
 62
     7
 66
     1
 10
0.0
 20
0.0
 30
0.0
 70
     1
  0
VERTEX
  5
617
  8
DATA
  6
CONTINUOUS
 62
     7
 10
288.64974484294322
 20
506.90469557836121
 30
0.0
  0
VERTEX
  5
618
  8
DATA
  6
CONTINUOUS
 62
     7
 10
290.17974484294319
 20
506.90469557836121
 30
0.0
  0
VERTEX
  5
619
  8
DATA
  6
CONTINUOUS
 62
     7
 10
290.17974484294319
 20
505.3746955783613
 30
0.0
  0
VERTEX
  5
61A
  8
DATA
  6
CONTINUOUS
 62
     7
 10
288.64974484294322
 20
505.3746955783613
 30
0.0
  0
SEQEND
  5
61B
  8
DATA
  6
CONTINUOUS
 62
     7
  0
POLYLINE
  5
2E2
  8
DATA
  6
CONTINUOUS
 62
     7
 66
     1
 10
0.0
 20
0.0
 30
0.0
 70
     1
  0
VERTEX
  5
61C
  8
DATA
  6
CONTINUOUS
 62
     7
 10
286.64974484294322
 20
506.90469557836121
 30
0.0
  0
VERTEX
  5
61D
  8
DATA
  6
CONTINUOUS
 62
     7
 10
288.17974484294319
 20
506.90469557836121
 30
0.0
  0
VERTEX
  5
61E
  8
DATA
  6
CONTINUOUS
 62
     7
 10
288.17974484294319
 20
505.3746955783613
 30
0.0
  0
VERTEX
  5
61F
  8
DATA
  6
CONTINUOUS
 62
     7
 10
286.64974484294322
 20
505.3746955783613
 30
0.0
  0
SEQEND
  5
620
  8
DATA
  6
CONTINUOUS
 62
     7
  0
POLYLINE
  5
2E9
  8
DATA
  6
CONTINUOUS
 62
     7
 66
     1
 10
0.0
 20
0.0
 30
0.0
 70
     1
  0
VERTEX
  5
621
  8
DATA
  6
CONTINUOUS
 62
     7
 10
284.64974484294311
 20
506.90469557836121
 30
0.0
  0
VERTEX
  5
622
  8
DATA
  6
CONTINUOUS
 62
     7
 10
286.17974484294319
 20
506.90469557836121
 30
0.0
  0
VERTEX
  5
623
  8
DATA
  6
CONTINUOUS
 62
     7
 10
286.17974484294319
 20
505.3746955783613
 30
0.0
  0
VERTEX
  5
624
  8
DATA
  6
CONTINUOUS
 62
     7
 10
284.64974484294311
 20
505.3746955783613
 30
0.0
  0
SEQEND
  5
625
  8
DATA
  6
CONTINUOUS
 62
     7
  0
POLYLINE
  5
2F0
  8
DATA
  6
CONTINUOUS
 62
     7
 66
     1
 10
0.0
 20
0.0
 30
0.0
 70
     1
  0
VERTEX
  5
626
  8
DATA
  6
CONTINUOUS
 62
     7
 10
282.64974484294322
 20
506.90469557836121
 30
0.0
  0
VERTEX
  5
627
  8
DATA
  6
CONTINUOUS
 62
     7
 10
284.17974484294319
 20
506.90469557836121
 30
0.0
  0
VERTEX
  5
628
  8
DATA
  6
CONTINUOUS
 62
     7
 10
284.17974484294319
 20
505.3746955783613
 30
0.0
  0
VERTEX
  5
629
  8
DATA
  6
CONTINUOUS
 62
     7
 10
282.64974484294322
 20
505.3746955783613
 30
0.0
  0
SEQEND
  5
62A
  8
DATA
  6
CONTINUOUS
 62
     7
  0
POLYLINE
  5
2F7
  8
DATA
  6
CONTINUOUS
 62
     7
 66
     1
 10
0.0
 20
0.0
 30
0.0
 70
     1
  0
VERTEX
  5
62B
  8
DATA
  6
CONTINUOUS
 62
     7
 10
296.64974484294322
 20
504.90469557836121
 30
0.0
  0
VERTEX
  5
62C
  8
DATA
  6
CONTINUOUS
 62
     7
 10
298.17974484294319
 20
504.90469557836121
 30
0.0
  0
VERTEX
  5
62D
  8
DATA
  6
CONTINUOUS
 62
     7
 10
298.17974484294319
 20
503.37469557836118
 30
0.0
  0
VERTEX
  5
62E
  8
DATA
  6
CONTINUOUS
 62
     7
 10
296.64974484294322
 20
503.37469557836118
 30
0.0
  0
SEQEND
  5
62F
  8
DATA
  6
CONTINUOUS
 62
     7
  0
POLYLINE
  5
2FE
  8
DATA
  6
CONTINUOUS
 62
     7
 66
     1
 10
0.0
 20
0.0
 30
0.0
 70
     1
  0
VERTEX
  5
630
  8
DATA
  6
CONTINUOUS
 62
     7
 10
294.64974484294322
 20
504.90469557836121
 30
0.0
  0
VERTEX
  5
631
  8
DATA
  6
CONTINUOUS
 62
     7
 10
296.17974484294319
 20
504.90469557836121
 30
0.0
  0
VERTEX
  5
632
  8
DATA
  6
CONTINUOUS
 62
     7
 10
296.17974484294319
 20
503.37469557836118
 30
0.0
  0
VERTEX
  5
633
  8
DATA
  6
CONTINUOUS
 62
     7
 10
294.64974484294322
 20
503.37469557836118
 30
0.0
  0
SEQEND
  5
634
  8
DATA
  6
CONTINUOUS
 62
     7
  0
POLYLINE
  5
305
  8
DATA
  6
CONTINUOUS
 62
     7
 66
     1
 10
0.0
 20
0.0
 30
0.0
 70
     1
  0
VERTEX
  5
635
  8
DATA
  6
CONTINUOUS
 62
     7
 10
292.64974484294322
 20
504.90469557836121
 30
0.0
  0
VERTEX
  5
636
  8
DATA
  6
CONTINUOUS
 62
     7
 10
294.17974484294331
 20
504.90469557836121
 30
0.0
  0
VERTEX
  5
637
  8
DATA
  6
CONTINUOUS
 62
     7
 10
294.17974484294331
 20
503.37469557836118
 30
0.0
  0
VERTEX
  5
638
  8
DATA
  6
CONTINUOUS
 62
     7
 10
292.64974484294322
 20
503.37469557836118
 30
0.0
  0
SEQEND
  5
639
  8
DATA
  6
CONTINUOUS
 62
     7
  0
POLYLINE
  5
30C
  8
DATA
  6
CONTINUOUS
 62
     7
 66
     1
 10
0.0
 20
0.0
 30
0.0
 70
     1
  0
VERTEX
  5
63A
  8
DATA
  6
CONTINUOUS
 62
     7
 10
290.64974484294322
 20
504.90469557836121
 30
0.0
  0
VERTEX
  5
63B
  8
DATA
  6
CONTINUOUS
 62
     7
 10
292.17974484294319
 20
504.90469557836121
 30
0.0
  0
VERTEX
  5
63C
  8
DATA
  6
CONTINUOUS
 62
     7
 10
292.17974484294319
 20
503.37469557836118
 30
0.0
  0
VERTEX
  5
63D
  8
DATA
  6
CONTINUOUS
 62
     7
 10
290.64974484294322
 20
503.37469557836118
 30
0.0
  0
SEQEND
  5
63E
  8
DATA
  6
CONTINUOUS
 62
     7
  0
POLYLINE
  5
313
  8
DATA
  6
CONTINUOUS
 62
     7
 66
     1
 10
0.0
 20
0.0
 30
0.0
 70
     1
  0
VERTEX
  5
63F
  8
DATA
  6
CONTINUOUS
 62
     7
 10
288.64974484294322
 20
504.90469557836121
 30
0.0
  0
VERTEX
  5
640
  8
DATA
  6
CONTINUOUS
 62
     7
 10
290.17974484294319
 20
504.90469557836121
 30
0.0
  0
VERTEX
  5
641
  8
DATA
  6
CONTINUOUS
 62
     7
 10
290.17974484294319
 20
503.37469557836118
 30
0.0
  0
VERTEX
  5
642
  8
DATA
  6
CONTINUOUS
 62
     7
 10
288.64974484294322
 20
503.37469557836118
 30
0.0
  0
SEQEND
  5
643
  8
DATA
  6
CONTINUOUS
 62
     7
  0
POLYLINE
  5
31A
  8
DATA
  6
CONTINUOUS
 62
     7
 66
     1
 10
0.0
 20
0.0
 30
0.0
 70
     1
  0
VERTEX
  5
644
  8
DATA
  6
CONTINUOUS
 62
     7
 10
286.64974484294322
 20
504.90469557836121
 30
0.0
  0
VERTEX
  5
645
  8
DATA
  6
CONTINUOUS
 62
     7
 10
288.17974484294319
 20
504.90469557836121
 30
0.0
  0
VERTEX
  5
646
  8
DATA
  6
CONTINUOUS
 62
     7
 10
288.17974484294319
 20
503.37469557836118
 30
0.0
  0
VERTEX
  5
647
  8
DATA
  6
CONTINUOUS
 62
     7
 10
286.64974484294322
 20
503.37469557836118
 30
0.0
  0
SEQEND
  5
648
  8
DATA
  6
CONTINUOUS
 62
     7
  0
POLYLINE
  5
321
  8
DATA
  6
CONTINUOUS
 62
     7
 66
     1
 10
0.0
 20
0.0
 30
0.0
 70
     1
  0
VERTEX
  5
649
  8
DATA
  6
CONTINUOUS
 62
     7
 10
284.64974484294311
 20
504.90469557836121
 30
0.0
  0
VERTEX
  5
64A
  8
DATA
  6
CONTINUOUS
 62
     7
 10
286.17974484294319
 20
504.90469557836121
 30
0.0
  0
VERTEX
  5
64B
  8
DATA
  6
CONTINUOUS
 62
     7
 10
286.17974484294319
 20
503.37469557836118
 30
0.0
  0
VERTEX
  5
64C
  8
DATA
  6
CONTINUOUS
 62
     7
 10
284.64974484294311
 20
503.37469557836118
 30
0.0
  0
SEQEND
  5
64D
  8
DATA
  6
CONTINUOUS
 62
     7
  0
POLYLINE
  5
328
  8
DATA
  6
CONTINUOUS
 62
     7
 66
     1
 10
0.0
 20
0.0
 30
0.0
 70
     1
  0
VERTEX
  5
64E
  8
DATA
  6
CONTINUOUS
 62
     7
 10
282.64974484294322
 20
504.90469557836121
 30
0.0
  0
VERTEX
  5
64F
  8
DATA
  6
CONTINUOUS
 62
     7
 10
284.17974484294319
 20
504.90469557836121
 30
0.0
  0
VERTEX
  5
650
  8
DATA
  6
CONTINUOUS
 62
     7
 10
284.17974484294319
 20
503.37469557836118
 30
0.0
  0
VERTEX
  5
651
  8
DATA
  6
CONTINUOUS
 62
     7
 10
282.64974484294322
 20
503.37469557836118
 30
0.0
  0
SEQEND
  5
652
  8
DATA
  6
CONTINUOUS
 62
     7
  0
POLYLINE
  5
32F
  8
DATA
  6
CONTINUOUS
 62
     7
 66
     1
 10
0.0
 20
0.0
 30
0.0
 70
     1
  0
VERTEX
  5
653
  8
DATA
  6
CONTINUOUS
 62
     7
 10
296.64974484294322
 20
508.90469557836121
 30
0.0
  0
VERTEX
  5
654
  8
DATA
  6
CONTINUOUS
 62
     7
 10
298.17974484294319
 20
508.90469557836121
 30
0.0
  0
VERTEX
  5
655
  8
DATA
  6
CONTINUOUS
 62
     7
 10
298.17974484294319
 20
507.3746955783613
 30
0.0
  0
VERTEX
  5
656
  8
DATA
  6
CONTINUOUS
 62
     7
 10
296.64974484294322
 20
507.3746955783613
 30
0.0
  0
SEQEND
  5
657
  8
DATA
  6
CONTINUOUS
 62
     7
  0
POLYLINE
  5
336
  8
DATA
  6
CONTINUOUS
 62
     7
 66
     1
 10
0.0
 20
0.0
 30
0.0
 70
     1
  0
VERTEX
  5
658
  8
DATA
  6
CONTINUOUS
 62
     7
 10
294.64974484294322
 20
508.90469557836121
 30
0.0
  0
VERTEX
  5
659
  8
DATA
  6
CONTINUOUS
 62
     7
 10
296.17974484294319
 20
508.90469557836121
 30
0.0
  0
VERTEX
  5
65A
  8
DATA
  6
CONTINUOUS
 62
     7
 10
296.17974484294319
 20
507.3746955783613
 30
0.0
  0
VERTEX
  5
65B
  8
DATA
  6
CONTINUOUS
 62
     7
 10
294.64974484294322
 20
507.3746955783613
 30
0.0
  0
SEQEND
  5
65C
  8
DATA
  6
CONTINUOUS
 62
     7
  0
POLYLINE
  5
33D
  8
DATA
  6
CONTINUOUS
 62
     7
 66
     1
 10
0.0
 20
0.0
 30
0.0
 70
     1
  0
VERTEX
  5
65D
  8
DATA
  6
CONTINUOUS
 62
     7
 10
292.64974484294322
 20
508.90469557836121
 30
0.0
  0
VERTEX
  5
65E
  8
DATA
  6
CONTINUOUS
 62
     7
 10
294.17974484294331
 20
508.90469557836121
 30
0.0
  0
VERTEX
  5
65F
  8
DATA
  6
CONTINUOUS
 62
     7
 10
294.17974484294331
 20
507.3746955783613
 30
0.0
  0
VERTEX
  5
660
  8
DATA
  6
CONTINUOUS
 62
     7
 10
292.64974484294322
 20
507.3746955783613
 30
0.0
  0
SEQEND
  5
661
  8
DATA
  6
CONTINUOUS
 62
     7
  0
POLYLINE
  5
344
  8
DATA
  6
CONTINUOUS
 62
     7
 66
     1
 10
0.0
 20
0.0
 30
0.0
 70
     1
  0
VERTEX
  5
662
  8
DATA
  6
CONTINUOUS
 62
     7
 10
290.64974484294322
 20
508.90469557836121
 30
0.0
  0
VERTEX
  5
663
  8
DATA
  6
CONTINUOUS
 62
     7
 10
292.17974484294319
 20
508.90469557836121
 30
0.0
  0
VERTEX
  5
664
  8
DATA
  6
CONTINUOUS
 62
     7
 10
292.17974484294319
 20
507.3746955783613
 30
0.0
  0
VERTEX
  5
665
  8
DATA
  6
CONTINUOUS
 62
     7
 10
290.64974484294322
 20
507.3746955783613
 30
0.0
  0
SEQEND
  5
666
  8
DATA
  6
CONTINUOUS
 62
     7
  0
POLYLINE
  5
34B
  8
DATA
  6
CONTINUOUS
 62
     7
 66
     1
 10
0.0
 20
0.0
 30
0.0
 70
     1
  0
VERTEX
  5
667
  8
DATA
  6
CONTINUOUS
 62
     7
 10
288.64974484294322
 20
508.90469557836121
 30
0.0
  0
VERTEX
  5
668
  8
DATA
  6
CONTINUOUS
 62
     7
 10
290.17974484294319
 20
508.90469557836121
 30
0.0
  0
VERTEX
  5
669
  8
DATA
  6
CONTINUOUS
 62
     7
 10
290.17974484294319
 20
507.3746955783613
 30
0.0
  0
VERTEX
  5
66A
  8
DATA
  6
CONTINUOUS
 62
     7
 10
288.64974484294322
 20
507.3746955783613
 30
0.0
  0
SEQEND
  5
66B
  8
DATA
  6
CONTINUOUS
 62
     7
  0
POLYLINE
  5
352
  8
DATA
  6
CONTINUOUS
 62
     7
 66
     1
 10
0.0
 20
0.0
 30
0.0
 70
     1
  0
VERTEX
  5
66C
  8
DATA
  6
CONTINUOUS
 62
     7
 10
286.64974484294322
 20
508.90469557836121
 30
0.0
  0
VERTEX
  5
66D
  8
DATA
  6
CONTINUOUS
 62
     7
 10
288.17974484294319
 20
508.90469557836121
 30
0.0
  0
VERTEX
  5
66E
  8
DATA
  6
CONTINUOUS
 62
     7
 10
288.17974484294319
 20
507.3746955783613
 30
0.0
  0
VERTEX
  5
66F
  8
DATA
  6
CONTINUOUS
 62
     7
 10
286.64974484294322
 20
507.3746955783613
 30
0.0
  0
SEQEND
  5
670
  8
DATA
  6
CONTINUOUS
 62
     7
  0
POLYLINE
  5
359
  8
DATA
  6
CONTINUOUS
 62
     7
 66
     1
 10
0.0
 20
0.0
 30
0.0
 70
     1
  0
VERTEX
  5
671
  8
DATA
  6
CONTINUOUS
 62
     7
 10
284.64974484294311
 20
508.90469557836121
 30
0.0
  0
VERTEX
  5
672
  8
DATA
  6
CONTINUOUS
 62
     7
 10
286.17974484294319
 20
508.90469557836121
 30
0.0
  0
VERTEX
  5
673
  8
DATA
  6
CONTINUOUS
 62
     7
 10
286.17974484294319
 20
507.3746955783613
 30
0.0
  0
VERTEX
  5
674
  8
DATA
  6
CONTINUOUS
 62
     7
 10
284.64974484294311
 20
507.3746955783613
 30
0.0
  0
SEQEND
  5
675
  8
DATA
  6
CONTINUOUS
 62
     7
  0
POLYLINE
  5
360
  8
DATA
  6
CONTINUOUS
 62
     7
 66
     1
 10
0.0
 20
0.0
 30
0.0
 70
     1
  0
VERTEX
  5
676
  8
DATA
  6
CONTINUOUS
 62
     7
 10
282.64974484294322
 20
508.90469557836121
 30
0.0
  0
VERTEX
  5
677
  8
DATA
  6
CONTINUOUS
 62
     7
 10
284.17974484294319
 20
508.90469557836121
 30
0.0
  0
VERTEX
  5
678
  8
DATA
  6
CONTINUOUS
 62
     7
 10
284.17974484294319
 20
507.3746955783613
 30
0.0
  0
VERTEX
  5
679
  8
DATA
  6
CONTINUOUS
 62
     7
 10
282.64974484294322
 20
507.3746955783613
 30
0.0
  0
SEQEND
  5
67A
  8
DATA
  6
CONTINUOUS
 62
     7
  0
POLYLINE
  5
367
  8
DATA
  6
CONTINUOUS
 62
     7
 66
     1
 10
0.0
 20
0.0
 30
0.0
  0
VERTEX
  5
67B
  8
DATA
  6
CONTINUOUS
 62
     7
 10
278.62967867176383
 20
505.73969557836119
 30
0.0
  0
VERTEX
  5
67C
  8
DATA
  6
CONTINUOUS
 62
     7
 10
276.5296786717638
 20
505.73969557836119
 30
0.0
  0
VERTEX
  5
67D
  8
DATA
  6
CONTINUOUS
 62
     7
 10
276.5296786717638
 20
506.5396955783612
 30
0.0
  0
VERTEX
  5
67E
  8
DATA
  6
CONTINUOUS
 62
     7
 10
278.62967867176383
 20
506.5396955783612
 30
0.0
  0
SEQEND
  5
67F
  8
DATA
  6
CONTINUOUS
 62
     7
  0
POLYLINE
  5
36E
  8
DATA
  6
CONTINUOUS
 62
     7
 66
     1
 10
0.0
 20
0.0
 30
0.0
  0
VERTEX
  5
680
  8
DATA
  6
CONTINUOUS
 62
     7
 10
279.42967867176378
 20
506.5396955783612
 30
0.0
  0
VERTEX
  5
681
  8
DATA
  6
CONTINUOUS
 62
     7
 10
281.5296786717638
 20
506.5396955783612
 30
0.0
  0
VERTEX
  5
682
  8
DATA
  6
CONTINUOUS
 62
     7
 10
281.5296786717638
 20
505.73969557836119
 30
0.0
  0
VERTEX
  5
683
  8
DATA
  6
CONTINUOUS
 62
     7
 10
279.42967867176378
 20
505.73969557836119
 30
0.0
  0
SEQEND
  5
684
  8
DATA
  6
CONTINUOUS
 62
     7
  0
POLYLINE
  5
375
  8
DATA
  6
CONTINUOUS
 62
     7
 66
     1
 10
0.0
 20
0.0
 30
0.0
  0
VERTEX
  5
685
  8
DATA
  6
CONTINUOUS
 62
     7
 10
278.62967867176383
 20
506.5396955783612
 30
0.0
  0
VERTEX
  5
686
  8
DATA
  6
CONTINUOUS
 62
     7
 10
278.62967867176383
 20
508.63969557836123
 30
0.0
  0
VERTEX
  5
687
  8
DATA
  6
CONTINUOUS
 62
     7
 10
279.42967867176378
 20
508.63969557836123
 30
0.0
  0
VERTEX
  5
688
  8
DATA
  6
CONTINUOUS
 62
     7
 10
279.42967867176378
 20
506.5396955783612
 30
0.0
  0
SEQEND
  5
689
  8
DATA
  6
CONTINUOUS
 62
     7
  0
POLYLINE
  5
37C
  8
DATA
  6
CONTINUOUS
 62
     7
 66
     1
 10
0.0
 20
0.0
 30
0.0
  0
VERTEX
  5
68A
  8
DATA
  6
CONTINUOUS
 62
     7
 10
279.42967867176378
 20
505.73969557836119
 30
0.0
  0
VERTEX
  5
68B
  8
DATA
  6
CONTINUOUS
 62
     7
 10
279.42967867176378
 20
503.63969557836128
 30
0.0
  0
VERTEX
  5
68C
  8
DATA
  6
CONTINUOUS
 62
     7
 10
278.62967867176383
 20
503.63969557836128
 30
0.0
  0
VERTEX
  5
68D
  8
DATA
  6
CONTINUOUS
 62
     7
 10
278.62967867176383
 20
505.73969557836119
 30
0.0
  0
SEQEND
  5
68E
  8
DATA
  6
CONTINUOUS
 62
     7
  0
POLYLINE
  5
383
  8
DATA
  6
CONTINUOUS
 62
     7
 66
     1
 10
0.0
 20
0.0
 30
0.0
 70
     1
  0
VERTEX
  5
68F
  8
DATA
  6
CONTINUOUS
 62
     7
 10
279.88996310223558
 20
505.3802677677113
 30
0.0
  0
VERTEX
  5
690
  8
DATA
  6
CONTINUOUS
 62
     7
 10
280.88996310223558
 20
505.3802677677113
 30
0.0
  0
VERTEX
  5
691
  8
DATA
  6
CONTINUOUS
 62
     7
 10
280.88996310223558
 20
504.3802677677113
 30
0.0
  0
VERTEX
  5
692
  8
DATA
  6
CONTINUOUS
 62
     7
 10
279.88996310223558
 20
504.3802677677113
 30
0.0
  0
SEQEND
  5
693
  8
DATA
  6
CONTINUOUS
 62
     7
  0
POLYLINE
  5
38A
  8
DATA
  6
CONTINUOUS
 62
     7
 66
     1
 10
0.0
 20
0.0
 30
0.0
 70
     1
  0
VERTEX
  5
694
  8
DATA
  6
CONTINUOUS
 62
     7
 10
277.16939424129208
 20
505.3802677677113
 30
0.0
  0
VERTEX
  5
695
  8
DATA
  6
CONTINUOUS
 62
     7
 10
278.16939424129208
 20
505.3802677677113
 30
0.0
  0
VERTEX
  5
696
  8
DATA
  6
CONTINUOUS
 62
     7
 10
278.16939424129208
 20
504.3802677677113
 30
0.0
  0
VERTEX
  5
697
  8
DATA
  6
CONTINUOUS
 62
     7
 10
277.16939424129208
 20
504.3802677677113
 30
0.0
  0
SEQEND
  5
698
  8
DATA
  6
CONTINUOUS
 62
     7
  0
POLYLINE
  5
391
  8
DATA
  6
CONTINUOUS
 62
     7
 66
     1
 10
0.0
 20
0.0
 30
0.0
 70
     1
  0
VERTEX
  5
699
  8
DATA
  6
CONTINUOUS
 62
     7
 10
279.88996310223558
 20
507.89912338901109
 30
0.0
  0
VERTEX
  5
69A
  8
DATA
  6
CONTINUOUS
 62
     7
 10
280.88996310223558
 20
507.89912338901109
 30
0.0
  0
VERTEX
  5
69B
  8
DATA
  6
CONTINUOUS
 62
     7
 10
280.88996310223558
 20
506.89912338901109
 30
0.0
  0
VERTEX
  5
69C
  8
DATA
  6
CONTINUOUS
 62
     7
 10
279.88996310223558
 20
506.89912338901109
 30
0.0
  0
SEQEND
  5
69D
  8
DATA
  6
CONTINUOUS
 62
     7
  0
POLYLINE
  5
398
  8
DATA
  6
CONTINUOUS
 62
     7
 66
     1
 10
0.0
 20
0.0
 30
0.0
 70
     1
  0
VERTEX
  5
69E
  8
DATA
  6
CONTINUOUS
 62
     7
 10
277.16939424129208
 20
507.89912338901109
 30
0.0
  0
VERTEX
  5
69F
  8
DATA
  6
CONTINUOUS
 62
     7
 10
278.16939424129208
 20
507.89912338901109
 30
0.0
  0
VERTEX
  5
6A0
  8
DATA
  6
CONTINUOUS
 62
     7
 10
278.16939424129208
 20
506.89912338901109
 30
0.0
  0
VERTEX
  5
6A1
  8
DATA
  6
CONTINUOUS
 62
     7
 10
277.16939424129208
 20
506.89912338901109
 30
0.0
  0
SEQEND
  5
6A2
  8
DATA
  6
CONTINUOUS
 62
     7
  0
LINE
  5
39F
  8
DATA
  6
CONTINUOUS
 62
     7
 10
299.1250504897111
 20
503.30980388384739
 30
0.0
 11
298.56613329225871
 21
509.15980388384742
 31
0.0
  0
LINE
  5
3A0
  8
DATA
  6
CONTINUOUS
 62
     7
 10
275.23430685381669
 20
503.30980388384739
 30
0.0
 11
275.79322405126902
 21
509.15980388384742
 31
0.0
  0
ARC
  5
3A1
  8
DATA
  6
CONTINUOUS
 62
     7
 10
298.12958355895569
 20
503.21469557836122
 30
0.0
 40
0.9999999999999715
 50
270.0
 51
5.4575534851075531
  0
ARC
  5
3A2
  8
DATA
  6
CONTINUOUS
 62
     7
 10
276.2297737845721
 20
503.21469557836122
 30
0.0
 40
0.9999999999999729
 50
174.5424465148939
 51
270.00000000000159
  0
ARC
  5
3A3
  8
DATA
  6
CONTINUOUS
 62
     7
 10
297.57066636150341
 20
509.06469557836118
 30
0.0
 40
1.0000000000000291
 50
5.4575534851057794
 51
89.99999999999838
  0
ARC
  5
3A4
  8
DATA
  6
CONTINUOUS
 62
     7
 10
276.78869098202438
 20
509.06469557836118
 30
0.0
 40
1.0
 50
90.0
 51
174.54244651489569
  0
TEXT
  5
3A5
  8
DATA
 62
     7
 10
294.0347071043978
 20
516.05072692686815
 30
0.0
 40
3.121945529513888
  1
DVI Out
 50
180.0
 41
0.7
 11
294.0347071043978
 21
512.92878139735433
 31
0.0
 73
     3
  0
LINE
  5
3A6
  8
DATA
  6
CONTINUOUS
 62
     7
 10
237.73877374189189
 20
457.80000000008408
 30
0.0
 11
237.73877374189189
 21
456.00000000008401
 31
0.0
  0
LINE
  5
3A7
  8
DATA
  6
CONTINUOUS
 62
     7
 10
248.68667668397919
 20
457.80000000008408
 30
0.0
 11
248.68667668397919
 21
456.00000000008401
 31
0.0
  0
LINE
  5
3A8
  8
DATA
  6
CONTINUOUS
 62
     7
 10
237.73877374189189
 20
457.80000000008408
 30
0.0
 11
248.68667668397919
 21
457.80000000008408
 31
0.0
  0
LINE
  5
3A9
  8
DATA
  6
CONTINUOUS
 62
     7
 10
243.5214080559212
 20
457.80000000008408
 30
0.0
 11
243.5214080559212
 21
456.00000000008401
 31
0.0
  0
LINE
  5
3AA
  8
DATA
  6
CONTINUOUS
 62
     7
 10
239.00404236995021
 20
462.00000000008413
 30
0.0
 11
239.00404236995021
 21
457.80000000008408
 31
0.0
  0
LINE
  5
3AB
  8
DATA
  6
CONTINUOUS
 62
     7
 10
246.80404236995011
 20
462.00000000008413
 30
0.0
 11
246.80404236995011
 21
457.80000000008408
 31
0.0
  0
LINE
  5
3AC
  8
DATA
  6
CONTINUOUS
 62
     7
 10
239.00404236995021
 20
462.00000000008413
 30
0.0
 11
246.80404236995011
 21
462.00000000008413
 31
0.0
  0
LINE
  5
3AD
  8
DATA
  6
CONTINUOUS
 62
     7
 10
269.00844779039471
 20
461.00000000008413
 30
0.0
 11
269.00844779039471
 21
456.00000000008413
 31
0.0
  0
LINE
  5
3AE
  8
DATA
  6
CONTINUOUS
 62
     7
 10
273.68498497083073
 20
461.00000000008413
 30
0.0
 11
273.68498497083073
 21
456.00000000008413
 31
0.0
  0
LINE
  5
3AF
  8
DATA
  6
CONTINUOUS
 62
     7
 10
275.6469893268993
 20
461.00000000008413
 30
0.0
 11
275.6469893268993
 21
456.00000000008413
 31
0.0
  0
LINE
  5
3B0
  8
DATA
  6
CONTINUOUS
 62
     7
 10
299.53392266138201
 20
461.00000000008413
 30
0.0
 11
299.53392266138201
 21
456.00000000008413
 31
0.0
  0
LINE
  5
3B1
  8
DATA
  6
CONTINUOUS
 62
     7
 10
301.50844779039522
 20
461.00000000008413
 30
0.0
 11
301.50844779039522
 21
456.00000000008413
 31
0.0
  0
LINE
  5
3B2
  8
DATA
  6
CONTINUOUS
 62
     7
 10
306.18498497083112
 20
461.00000000008413
 30
0.0
 11
306.18498497083112
 21
456.00000000008413
 31
0.0
  0
LINE
  5
3B3
  8
DATA
  6
CONTINUOUS
 62
     7
 10
306.18498497083112
 20
461.00000000008413
 30
0.0
 11
301.50844779039522
 21
461.00000000008413
 31
0.0
  0
LINE
  5
3B4
  8
DATA
  6
CONTINUOUS
 62
     7
 10
299.53392266138201
 20
461.00000000008413
 30
0.0
 11
275.6469893268993
 21
461.00000000008413
 31
0.0
  0
LINE
  5
3B5
  8
DATA
  6
CONTINUOUS
 62
     7
 10
273.68498497083073
 20
461.00000000008413
 30
0.0
 11
269.00844779039471
 21
461.00000000008413
 31
0.0
  0
LINE
  5
3B6
  8
DATA
  6
CONTINUOUS
 62
     7
 10
660.0
 20
456.0
 30
0.0
 11
225.0
 21
456.0
 31
0.0
  0
CIRCLE
  5
3B7
  8
DATA
  6
CONTINUOUS
 62
     7
 10
245.2063392610971
 20
262.5
 30
0.0
 40
1.5
  0
CIRCLE
  5
3B8
  8
DATA
  6
CONTINUOUS
 62
     7
 10
243.5
 20
502.0
 30
0.0
 40
3.9000000000000048
  0
CIRCLE
  5
3B9
  8
DATA
  6
CONTINUOUS
 62
     7
 10
243.5
 20
502.0
 30
0.0
 40
0.6500000000000057
  0
POLYLINE
  5
3BA
  8
DATA
  6
CONTINUOUS
 62
     7
 66
     1
 10
0.0
 20
0.0
 30
0.0
 70
     1
  0
VERTEX
  5
6A3
  8
DATA
  6
CONTINUOUS
 62
     7
 10
237.71736568597089
 20
504.62573298786242
 30
0.0
  0
VERTEX
  5
6A4
  8
DATA
  6
CONTINUOUS
 62
     7
 10
238.3347313719417
 20
498.30495827718647
 30
0.0
  0
VERTEX
  5
6A5
  8
DATA
  6
CONTINUOUS
 62
     7
 10
244.1173656859707
 20
495.67922528932399
 30
0.0
  0
VERTEX
  5
6A6
  8
DATA
  6
CONTINUOUS
 62
     7
 10
249.282634314029
 20
499.37426701213752
 30
0.0
  0
VERTEX
  5
6A7
  8
DATA
  6
CONTINUOUS
 62
     7
 10
248.66526862805819
 20
505.69504172281353
 30
0.0
  0
VERTEX
  5
6A8
  8
DATA
  6
CONTINUOUS
 62
     7
 10
242.88263431402919
 20
508.32077471067589
 30
0.0
  0
SEQEND
  5
6A9
  8
DATA
  6
CONTINUOUS
 62
     7
  0
LINE
  5
3C3
  8
DATA
  6
CONTINUOUS
 62
     7
 10
338.7727241003256
 20
511.05489248914751
 30
0.0
 11
338.7727241003256
 21
497.75489248914772
 31
0.0
  0
LINE
  5
3C4
  8
DATA
  6
CONTINUOUS
 62
     7
 10
323.07272410032567
 20
511.05489248914751
 30
0.0
 11
323.07272410032567
 21
497.75489248914772
 31
0.0
  0
LINE
  5
3C5
  8
DATA
  6
CONTINUOUS
 62
     7
 10
324.77272410032572
 20
508.05489248914768
 30
0.0
 11
324.77272410032572
 21
500.75489248914772
 31
0.0
  0
LINE
  5
3C6
  8
DATA
  6
CONTINUOUS
 62
     7
 10
337.07272410032567
 20
508.05489248914768
 30
0.0
 11
337.07272410032567
 21
500.75489248914772
 31
0.0
  0
LINE
  5
3C7
  8
DATA
  6
CONTINUOUS
 62
     7
 10
324.77272410032572
 20
508.05489248914768
 30
0.0
 11
337.07272410032567
 21
508.05489248914768
 31
0.0
  0
LINE
  5
3C8
  8
DATA
  6
CONTINUOUS
 62
     7
 10
328.69772410032567
 20
497.75489248914772
 30
0.0
 11
328.69772410032567
 21
499.25489248914772
 31
0.0
  0
LINE
  5
3C9
  8
DATA
  6
CONTINUOUS
 62
     7
 10
333.1477241003256
 20
499.25489248914772
 30
0.0
 11
333.1477241003256
 21
497.75489248914772
 31
0.0
  0
LINE
  5
3CA
  8
DATA
  6
CONTINUOUS
 62
     7
 10
327.57272410032567
 20
499.25489248914772
 30
0.0
 11
328.69772410032567
 21
499.25489248914772
 31
0.0
  0
LINE
  5
3CB
  8
DATA
  6
CONTINUOUS
 62
     7
 10
333.1477241003256
 20
499.25489248914772
 30
0.0
 11
334.2727241003256
 21
499.25489248914772
 31
0.0
  0
LINE
  5
3CC
  8
DATA
  6
CONTINUOUS
 62
     7
 10
324.77272410032572
 20
500.75489248914772
 30
0.0
 11
327.57272410032567
 21
500.75489248914772
 31
0.0
  0
LINE
  5
3CD
  8
DATA
  6
CONTINUOUS
 62
     7
 10
334.2727241003256
 20
500.75489248914772
 30
0.0
 11
337.07272410032567
 21
500.75489248914772
 31
0.0
  0
LINE
  5
3CE
  8
DATA
  6
CONTINUOUS
 62
     7
 10
327.57272410032567
 20
499.25489248914772
 30
0.0
 11
327.57272410032567
 21
500.75489248914772
 31
0.0
  0
LINE
  5
3CF
  8
DATA
  6
CONTINUOUS
 62
     7
 10
334.2727241003256
 20
500.75489248914772
 30
0.0
 11
334.2727241003256
 21
499.25489248914772
 31
0.0
  0
LINE
  5
3D0
  8
DATA
  6
CONTINUOUS
 62
     7
 10
338.7727241003256
 20
497.75489248914772
 30
0.0
 11
323.07272410032567
 21
497.75489248914772
 31
0.0
  0
LINE
  5
3D1
  8
DATA
  6
CONTINUOUS
 62
     7
 10
338.7727241003256
 20
511.05489248914751
 30
0.0
 11
323.07272410032567
 21
511.05489248914751
 31
0.0
  0
TEXT
  5
3D2
  8
DATA
 62
     7
 10
335.3753888831136
 20
516.19735001266565
 30
0.0
 40
3.121945529513888
  1
LINK
 50
180.0
 41
0.7
 11
335.3753888831136
 21
513.07540448315171
 31
0.0
 73
     3
  0
TEXT
  5
3D3
  8
DATA
 62
     7
 10
336.31767160285767
 20
495.35279572587569
 30
0.0
 40
3.121945529513888
  1
CAT-5
 50
180.0
 41
0.7
 11
336.31767160285767
 21
492.23085019636193
 31
0.0
 73
     3
  0
LINE
  5
3D4
  8
DATA
  6
CONTINUOUS
 62
     7
 10
561.21673064799904
 20
494.67966154223609
 30
0.0
 11
561.21673064799904
 21
507.97966154223599
 31
0.0
  0
LINE
  5
3D5
  8
DATA
  6
CONTINUOUS
 62
     7
 10
576.91673064799875
 20
494.67966154223609
 30
0.0
 11
576.91673064799875
 21
507.97966154223599
 31
0.0
  0
LINE
  5
3D6
  8
DATA
  6
CONTINUOUS
 62
     7
 10
575.2167306479987
 20
497.67966154223598
 30
0.0
 11
575.2167306479987
 21
504.97966154223599
 31
0.0
  0
LINE
  5
3D7
  8
DATA
  6
CONTINUOUS
 62
     7
 10
562.91673064799886
 20
497.67966154223598
 30
0.0
 11
562.91673064799886
 21
504.97966154223599
 31
0.0
  0
LINE
  5
3D8
  8
DATA
  6
CONTINUOUS
 62
     7
 10
575.2167306479987
 20
497.67966154223598
 30
0.0
 11
562.91673064799886
 21
497.67966154223598
 31
0.0
  0
LINE
  5
3D9
  8
DATA
  6
CONTINUOUS
 62
     7
 10
571.29173064799875
 20
507.97966154223599
 30
0.0
 11
571.29173064799875
 21
506.47966154223599
 31
0.0
  0
LINE
  5
3DA
  8
DATA
  6
CONTINUOUS
 62
     7
 10
566.84173064799893
 20
506.47966154223599
 30
0.0
 11
566.84173064799893
 21
507.97966154223599
 31
0.0
  0
LINE
  5
3DB
  8
DATA
  6
CONTINUOUS
 62
     7
 10
572.41673064799875
 20
506.47966154223599
 30
0.0
 11
571.29173064799875
 21
506.47966154223599
 31
0.0
  0
LINE
  5
3DC
  8
DATA
  6
CONTINUOUS
 62
     7
 10
566.84173064799893
 20
506.47966154223599
 30
0.0
 11
565.71673064799893
 21
506.47966154223599
 31
0.0
  0
LINE
  5
3DD
  8
DATA
  6
CONTINUOUS
 62
     7
 10
575.2167306479987
 20
504.97966154223599
 30
0.0
 11
572.41673064799875
 21
504.97966154223599
 31
0.0
  0
LINE
  5
3DE
  8
DATA
  6
CONTINUOUS
 62
     7
 10
565.71673064799893
 20
504.97966154223599
 30
0.0
 11
562.91673064799886
 21
504.97966154223599
 31
0.0
  0
LINE
  5
3DF
  8
DATA
  6
CONTINUOUS
 62
     7
 10
572.41673064799875
 20
506.47966154223599
 30
0.0
 11
572.41673064799875
 21
504.97966154223599
 31
0.0
  0
LINE
  5
3E0
  8
DATA
  6
CONTINUOUS
 62
     7
 10
565.71673064799893
 20
504.97966154223599
 30
0.0
 11
565.71673064799893
 21
506.47966154223599
 31
0.0
  0
LINE
  5
3E1
  8
DATA
  6
CONTINUOUS
 62
     7
 10
561.21673064799904
 20
507.97966154223599
 30
0.0
 11
576.91673064799875
 21
507.97966154223599
 31
0.0
  0
LINE
  5
3E2
  8
DATA
  6
CONTINUOUS
 62
     7
 10
561.21673064799904
 20
494.67966154223609
 30
0.0
 11
576.91673064799875
 21
494.67966154223609
 31
0.0
  0
TEXT
  5
3E3
  8
DATA
 62
     7
 10
572.27899310494229
 20
516.19735001266565
 30
0.0
 40
3.121945529513888
  1
USB
 50
180.0
 41
0.7
 11
572.27899310494229
 21
513.07540448315171
 31
0.0
 73
     3
  0
TEXT
  5
3E4
  8
DATA
 62
     7
 10
574.17579239317047
 20
492.45773971662283
 30
0.0
 40
3.121945529513888
  1
CAT-5
 50
180.0
 41
0.7
 11
574.17579239317047
 21
489.33579418710889
 31
0.0
 73
     3
  0
CIRCLE
  5
3E5
  8
DATA
  6
CONTINUOUS
 62
     7
 10
556.91673064799886
 20
505.5302174705642
 30
0.0
 40
1.5
  0
TEXT
  5
3E6
  8
DATA
 62
     7
 10
561.38652499645252
 20
516.19735001266565
 30
0.0
 40
3.121945529513888
  1
HOST
 50
180.0
 41
0.7
 11
561.38652499645252
 21
513.07540448315171
 31
0.0
 73
     3
  0
LINE
  5
3E7
  8
DATA
  6
CONTINUOUS
 62
     7
 10
548.0
 20
509.78978583448719
 30
0.0
 11
548.0
 21
506.21021416551281
 31
0.0
  0
LINE
  5
3E8
  8
DATA
  6
CONTINUOUS
 62
     7
 10
549.7897858344877
 20
508.0
 30
0.0
 11
546.21021416551207
 21
508.0
 31
0.0
  0
CIRCLE
  5
3E9
  8
DATA
  6
CONTINUOUS
 62
     7
 10
548.0
 20
508.0
 30
0.0
 40
3.5
  0
LINE
  5
3EA
  8
DATA
  6
CONTINUOUS
 62
     7
 10
645.72987018441279
 20
509.78978583448719
 30
0.0
 11
645.72987018441279
 21
506.21021416551281
 31
0.0
  0
LINE
  5
3EB
  8
DATA
  6
CONTINUOUS
 62
     7
 10
647.51965601890072
 20
508.0
 30
0.0
 11
643.94008434992497
 21
508.0
 31
0.0
  0
CIRCLE
  5
3EC
  8
DATA
  6
CONTINUOUS
 62
     7
 10
645.72987018441279
 20
508.0
 30
0.0
 40
3.5
  0
LINE
  5
3ED
  8
DATA
  6
CONTINUOUS
 62
     7
 10
545.5
 20
458.0
 30
0.0
 11
550.49999999999989
 21
458.0
 31
0.0
  0
LINE
  5
3EE
  8
DATA
  6
CONTINUOUS
 62
     7
 10
643.41377964567596
 20
458.0
 30
0.0
 11
648.41377964567596
 21
458.0
 31
0.0
  0
LINE
  5
3EF
  8
DATA
  6
CONTINUOUS
 62
     7
 10
544.5
 20
457.0
 30
0.0
 11
544.5
 21
456.0
 31
0.0
  0
LINE
  5
3F0
  8
DATA
  6
CONTINUOUS
 62
     7
 10
551.49999999999989
 20
457.0
 30
0.0
 11
551.49999999999989
 21
456.0
 31
0.0
  0
LINE
  5
3F1
  8
DATA
  6
CONTINUOUS
 62
     7
 10
642.41377964567596
 20
457.0
 30
0.0
 11
642.41377964567596
 21
456.0
 31
0.0
  0
LINE
  5
3F2
  8
DATA
  6
CONTINUOUS
 62
     7
 10
649.41377964567607
 20
457.0
 30
0.0
 11
649.41377964567607
 21
456.0
 31
0.0
  0
ARC
  5
3F3
  8
DATA
  6
CONTINUOUS
 62
     7
 10
545.5
 20
457.0
 30
0.0
 40
1.0
 50
90.0
 51
180.0
  0
ARC
  5
3F4
  8
DATA
  6
CONTINUOUS
 62
     7
 10
550.49999999999989
 20
457.0
 30
0.0
 40
1.0
 50
0.0
 51
90.0
  0
ARC
  5
3F5
  8
DATA
  6
CONTINUOUS
 62
     7
 10
648.41377964567596
 20
457.0
 30
0.0
 40
1.0
 50
0.0
 51
90.0
  0
ARC
  5
3F6
  8
DATA
  6
CONTINUOUS
 62
     7
 10
643.41377964567596
 20
457.0
 30
0.0
 40
1.0
 50
90.0
 51
180.0
  0
TEXT
  5
3F7
  8
DATA
 62
     7
 10
259.28668242204901
 20
252.35139485450159
 30
0.0
 40
3.121945529513888
  1
EQ
 41
0.7
 11
259.28668242204901
 21
255.4733403840155
 31
0.0
 73
     3
  0
POLYLINE
  5
3F8
  8
DATA
  6
CONTINUOUS
 62
     7
 66
     1
 10
0.0
 20
0.0
 30
0.0
 70
     1
  0
VERTEX
  5
6AA
  8
DATA
  6
CONTINUOUS
 62
     7
 10
256.5
 20
269.0
 30
0.0
  0
VERTEX
  5
6AB
  8
DATA
  6
CONTINUOUS
 62
     7
 10
266.5
 20
269.0
 30
0.0
  0
VERTEX
  5
6AC
  8
DATA
  6
CONTINUOUS
 62
     7
 10
266.5
 20
259.0
 30
0.0
  0
VERTEX
  5
6AD
  8
DATA
  6
CONTINUOUS
 62
     7
 10
256.5
 20
259.0
 30
0.0
  0
SEQEND
  5
6AE
  8
DATA
  6
CONTINUOUS
 62
     7
  0
CIRCLE
  5
3FF
  8
DATA
  6
CONTINUOUS
 62
     7
 10
261.5
 20
264.0
 30
0.0
 40
1.5
  0
CIRCLE
  5
400
  8
DATA
  6
CONTINUOUS
 62
     7
 10
630.20000000000005
 20
504.91398150674411
 30
0.0
 40
1.5
  0
LINE
  5
401
  8
DATA
  6
CONTINUOUS
 62
     7
 10
619.33215136607805
 20
507.16192160970121
 30
0.0
 11
623.97843954415657
 21
507.16192160970121
 31
0.0
  0
LINE
  5
402
  8
DATA
  6
CONTINUOUS
 62
     7
 10
618.73215136607814
 20
495.26192160970112
 30
0.0
 11
618.73215136607814
 21
506.56192160970119
 31
0.0
  0
LINE
  5
403
  8
DATA
  6
CONTINUOUS
 62
     7
 10
623.97843954415657
 20
494.66192160970121
 30
0.0
 11
619.33215136607805
 21
494.66192160970121
 31
0.0
  0
LINE
  5
404
  8
DATA
  6
CONTINUOUS
 62
     7
 10
623.97843954415657
 20
493.86192160970108
 30
0.0
 11
623.97843954415657
 21
507.96192160970111
 31
0.0
  0
LINE
  5
405
  8
DATA
  6
CONTINUOUS
 62
     7
 10
621.13215136607801
 20
495.16192160970121
 30
0.0
 11
621.13215136607801
 21
506.66192160970121
 31
0.0
  0
LINE
  5
406
  8
DATA
  6
CONTINUOUS
 62
     7
 10
622.43215136607807
 20
495.16192160970121
 30
0.0
 11
622.43215136607807
 21
506.66192160970121
 31
0.0
  0
LINE
  5
407
  8
DATA
  6
CONTINUOUS
 62
     7
 10
621.13215136607801
 20
501.49977730034561
 30
0.0
 11
621.05715136607807
 21
501.49977730034561
 31
0.0
  0
LINE
  5
408
  8
DATA
  6
CONTINUOUS
 62
     7
 10
621.13215136607801
 20
502.7497773003455
 30
0.0
 11
621.05715136607807
 21
502.7497773003455
 31
0.0
  0
LINE
  5
409
  8
DATA
  6
CONTINUOUS
 62
     7
 10
621.05715136607807
 20
502.7497773003455
 30
0.0
 11
621.05715136607807
 21
501.49977730034561
 31
0.0
  0
LINE
  5
40A
  8
DATA
  6
CONTINUOUS
 62
     7
 10
621.13215136607801
 20
500.32406591905681
 30
0.0
 11
621.05715136607807
 21
500.32406591905681
 31
0.0
  0
LINE
  5
40B
  8
DATA
  6
CONTINUOUS
 62
     7
 10
621.13215136607801
 20
499.07406591905681
 30
0.0
 11
621.05715136607807
 21
499.07406591905681
 31
0.0
  0
LINE
  5
40C
  8
DATA
  6
CONTINUOUS
 62
     7
 10
621.05715136607807
 20
499.07406591905681
 30
0.0
 11
621.05715136607807
 21
500.32406591905681
 31
0.0
  0
LINE
  5
40D
  8
DATA
  6
CONTINUOUS
 62
     7
 10
621.13215136607801
 20
503.91977730034557
 30
0.0
 11
621.05715136607807
 21
503.91977730034557
 31
0.0
  0
LINE
  5
40E
  8
DATA
  6
CONTINUOUS
 62
     7
 10
621.13215136607801
 20
505.16977730034557
 30
0.0
 11
621.05715136607807
 21
505.16977730034557
 31
0.0
  0
LINE
  5
40F
  8
DATA
  6
CONTINUOUS
 62
     7
 10
621.05715136607807
 20
505.16977730034557
 30
0.0
 11
621.05715136607807
 21
503.91977730034557
 31
0.0
  0
LINE
  5
410
  8
DATA
  6
CONTINUOUS
 62
     7
 10
621.13215136607801
 20
497.9040659190569
 30
0.0
 11
621.05715136607807
 21
497.9040659190569
 31
0.0
  0
LINE
  5
411
  8
DATA
  6
CONTINUOUS
 62
     7
 10
621.13215136607801
 20
496.65406591905679
 30
0.0
 11
621.05715136607807
 21
496.65406591905679
 31
0.0
  0
LINE
  5
412
  8
DATA
  6
CONTINUOUS
 62
     7
 10
621.05715136607807
 20
496.65406591905679
 30
0.0
 11
621.05715136607807
 21
497.9040659190569
 31
0.0
  0
ARC
  5
413
  8
DATA
  6
CONTINUOUS
 62
     7
 10
619.33215136607805
 20
506.56192160970119
 30
0.0
 40
0.6000000000000229
 50
90.0
 51
180.0
  0
ARC
  5
414
  8
DATA
  6
CONTINUOUS
 62
     7
 10
619.33215136607805
 20
495.26192160970112
 30
0.0
 40
0.5999999999999659
 50
180.0
 51
270.0
  0
LINE
  5
415
  8
DATA
  6
CONTINUOUS
 62
     7
 10
621.13215136607801
 20
506.66192160970121
 30
0.0
 11
622.43215136607807
 21
506.66192160970121
 31
0.0
  0
LINE
  5
416
  8
DATA
  6
CONTINUOUS
 62
     7
 10
621.13215136607801
 20
495.16192160970121
 30
0.0
 11
622.43215136607807
 21
495.16192160970121
 31
0.0
  0
LINE
  5
417
  8
DATA
  6
CONTINUOUS
 62
     7
 10
618.16511539679266
 20
507.96192160970111
 30
0.0
 11
618.16511539679266
 21
493.86192160970108
 31
0.0
  0
LINE
  5
418
  8
DATA
  6
CONTINUOUS
 62
     7
 10
623.97843954415657
 20
493.86192160970108
 30
0.0
 11
618.16511539679266
 21
493.86192160970108
 31
0.0
  0
LINE
  5
419
  8
DATA
  6
CONTINUOUS
 62
     7
 10
623.97843954415657
 20
507.96192160970111
 30
0.0
 11
618.16511539679266
 21
507.96192160970111
 31
0.0
  0
CIRCLE
  5
41A
  8
DATA
  6
CONTINUOUS
 62
     7
 10
615.20000000000005
 20
504.91398150674411
 30
0.0
 40
1.5
  0
LINE
  5
41B
  8
DATA
  6
CONTINUOUS
 62
     7
 10
604.33215136607816
 20
507.16192160970121
 30
0.0
 11
608.97843954415669
 21
507.16192160970121
 31
0.0
  0
LINE
  5
41C
  8
DATA
  6
CONTINUOUS
 62
     7
 10
603.73215136607814
 20
495.26192160970112
 30
0.0
 11
603.73215136607814
 21
506.56192160970119
 31
0.0
  0
LINE
  5
41D
  8
DATA
  6
CONTINUOUS
 62
     7
 10
608.97843954415669
 20
494.66192160970121
 30
0.0
 11
604.33215136607816
 21
494.66192160970121
 31
0.0
  0
LINE
  5
41E
  8
DATA
  6
CONTINUOUS
 62
     7
 10
608.97843954415669
 20
493.86192160970108
 30
0.0
 11
608.97843954415669
 21
507.96192160970111
 31
0.0
  0
LINE
  5
41F
  8
DATA
  6
CONTINUOUS
 62
     7
 10
606.13215136607801
 20
495.16192160970121
 30
0.0
 11
606.13215136607801
 21
506.66192160970121
 31
0.0
  0
LINE
  5
420
  8
DATA
  6
CONTINUOUS
 62
     7
 10
607.43215136607796
 20
495.16192160970121
 30
0.0
 11
607.43215136607796
 21
506.66192160970121
 31
0.0
  0
LINE
  5
421
  8
DATA
  6
CONTINUOUS
 62
     7
 10
606.13215136607801
 20
501.49977730034561
 30
0.0
 11
606.05715136607796
 21
501.49977730034561
 31
0.0
  0
LINE
  5
422
  8
DATA
  6
CONTINUOUS
 62
     7
 10
606.13215136607801
 20
502.7497773003455
 30
0.0
 11
606.05715136607796
 21
502.7497773003455
 31
0.0
  0
LINE
  5
423
  8
DATA
  6
CONTINUOUS
 62
     7
 10
606.05715136607796
 20
502.7497773003455
 30
0.0
 11
606.05715136607796
 21
501.49977730034561
 31
0.0
  0
LINE
  5
424
  8
DATA
  6
CONTINUOUS
 62
     7
 10
606.13215136607801
 20
500.32406591905681
 30
0.0
 11
606.05715136607796
 21
500.32406591905681
 31
0.0
  0
LINE
  5
425
  8
DATA
  6
CONTINUOUS
 62
     7
 10
606.13215136607801
 20
499.07406591905681
 30
0.0
 11
606.05715136607796
 21
499.07406591905681
 31
0.0
  0
LINE
  5
426
  8
DATA
  6
CONTINUOUS
 62
     7
 10
606.05715136607796
 20
499.07406591905681
 30
0.0
 11
606.05715136607796
 21
500.32406591905681
 31
0.0
  0
LINE
  5
427
  8
DATA
  6
CONTINUOUS
 62
     7
 10
606.13215136607801
 20
503.91977730034557
 30
0.0
 11
606.05715136607796
 21
503.91977730034557
 31
0.0
  0
LINE
  5
428
  8
DATA
  6
CONTINUOUS
 62
     7
 10
606.13215136607801
 20
505.16977730034557
 30
0.0
 11
606.05715136607796
 21
505.16977730034557
 31
0.0
  0
LINE
  5
429
  8
DATA
  6
CONTINUOUS
 62
     7
 10
606.05715136607796
 20
505.16977730034557
 30
0.0
 11
606.05715136607796
 21
503.91977730034557
 31
0.0
  0
LINE
  5
42A
  8
DATA
  6
CONTINUOUS
 62
     7
 10
606.13215136607801
 20
497.9040659190569
 30
0.0
 11
606.05715136607796
 21
497.9040659190569
 31
0.0
  0
LINE
  5
42B
  8
DATA
  6
CONTINUOUS
 62
     7
 10
606.13215136607801
 20
496.65406591905679
 30
0.0
 11
606.05715136607796
 21
496.65406591905679
 31
0.0
  0
LINE
  5
42C
  8
DATA
  6
CONTINUOUS
 62
     7
 10
606.05715136607796
 20
496.65406591905679
 30
0.0
 11
606.05715136607796
 21
497.9040659190569
 31
0.0
  0
ARC
  5
42D
  8
DATA
  6
CONTINUOUS
 62
     7
 10
604.33215136607816
 20
506.56192160970119
 30
0.0
 40
0.6000000000000229
 50
90.0
 51
180.0
  0
ARC
  5
42E
  8
DATA
  6
CONTINUOUS
 62
     7
 10
604.33215136607816
 20
495.26192160970112
 30
0.0
 40
0.5999999999999659
 50
180.0
 51
270.0
  0
LINE
  5
42F
  8
DATA
  6
CONTINUOUS
 62
     7
 10
606.13215136607801
 20
506.66192160970121
 30
0.0
 11
607.43215136607796
 21
506.66192160970121
 31
0.0
  0
LINE
  5
430
  8
DATA
  6
CONTINUOUS
 62
     7
 10
606.13215136607801
 20
495.16192160970121
 30
0.0
 11
607.43215136607796
 21
495.16192160970121
 31
0.0
  0
LINE
  5
431
  8
DATA
  6
CONTINUOUS
 62
     7
 10
603.16511539679277
 20
507.96192160970111
 30
0.0
 11
603.16511539679277
 21
493.86192160970108
 31
0.0
  0
LINE
  5
432
  8
DATA
  6
CONTINUOUS
 62
     7
 10
608.97843954415669
 20
493.86192160970108
 30
0.0
 11
603.16511539679277
 21
493.86192160970108
 31
0.0
  0
LINE
  5
433
  8
DATA
  6
CONTINUOUS
 62
     7
 10
608.97843954415669
 20
507.96192160970111
 30
0.0
 11
603.16511539679277
 21
507.96192160970111
 31
0.0
  0
CIRCLE
  5
434
  8
DATA
  6
CONTINUOUS
 62
     7
 10
600.20000000000005
 20
504.91398150674411
 30
0.0
 40
1.5
  0
LINE
  5
435
  8
DATA
  6
CONTINUOUS
 62
     7
 10
589.33215136607805
 20
507.16192160970121
 30
0.0
 11
593.97843954415657
 21
507.16192160970121
 31
0.0
  0
LINE
  5
436
  8
DATA
  6
CONTINUOUS
 62
     7
 10
588.73215136607814
 20
495.26192160970112
 30
0.0
 11
588.73215136607814
 21
506.56192160970119
 31
0.0
  0
LINE
  5
437
  8
DATA
  6
CONTINUOUS
 62
     7
 10
593.97843954415657
 20
494.66192160970121
 30
0.0
 11
589.33215136607805
 21
494.66192160970121
 31
0.0
  0
LINE
  5
438
  8
DATA
  6
CONTINUOUS
 62
     7
 10
593.97843954415657
 20
493.86192160970108
 30
0.0
 11
593.97843954415657
 21
507.96192160970111
 31
0.0
  0
LINE
  5
439
  8
DATA
  6
CONTINUOUS
 62
     7
 10
591.13215136607789
 20
495.16192160970121
 30
0.0
 11
591.13215136607789
 21
506.66192160970121
 31
0.0
  0
LINE
  5
43A
  8
DATA
  6
CONTINUOUS
 62
     7
 10
592.43215136607796
 20
495.16192160970121
 30
0.0
 11
592.43215136607796
 21
506.66192160970121
 31
0.0
  0
LINE
  5
43B
  8
DATA
  6
CONTINUOUS
 62
     7
 10
591.13215136607789
 20
501.49977730034561
 30
0.0
 11
591.05715136607796
 21
501.49977730034561
 31
0.0
  0
LINE
  5
43C
  8
DATA
  6
CONTINUOUS
 62
     7
 10
591.13215136607789
 20
502.7497773003455
 30
0.0
 11
591.05715136607796
 21
502.7497773003455
 31
0.0
  0
LINE
  5
43D
  8
DATA
  6
CONTINUOUS
 62
     7
 10
591.05715136607796
 20
502.7497773003455
 30
0.0
 11
591.05715136607796
 21
501.49977730034561
 31
0.0
  0
LINE
  5
43E
  8
DATA
  6
CONTINUOUS
 62
     7
 10
591.13215136607789
 20
500.32406591905681
 30
0.0
 11
591.05715136607796
 21
500.32406591905681
 31
0.0
  0
LINE
  5
43F
  8
DATA
  6
CONTINUOUS
 62
     7
 10
591.13215136607789
 20
499.07406591905681
 30
0.0
 11
591.05715136607796
 21
499.07406591905681
 31
0.0
  0
LINE
  5
440
  8
DATA
  6
CONTINUOUS
 62
     7
 10
591.05715136607796
 20
499.07406591905681
 30
0.0
 11
591.05715136607796
 21
500.32406591905681
 31
0.0
  0
LINE
  5
441
  8
DATA
  6
CONTINUOUS
 62
     7
 10
591.13215136607789
 20
503.91977730034557
 30
0.0
 11
591.05715136607796
 21
503.91977730034557
 31
0.0
  0
LINE
  5
442
  8
DATA
  6
CONTINUOUS
 62
     7
 10
591.13215136607789
 20
505.16977730034557
 30
0.0
 11
591.05715136607796
 21
505.16977730034557
 31
0.0
  0
LINE
  5
443
  8
DATA
  6
CONTINUOUS
 62
     7
 10
591.05715136607796
 20
505.16977730034557
 30
0.0
 11
591.05715136607796
 21
503.91977730034557
 31
0.0
  0
LINE
  5
444
  8
DATA
  6
CONTINUOUS
 62
     7
 10
591.13215136607789
 20
497.9040659190569
 30
0.0
 11
591.05715136607796
 21
497.9040659190569
 31
0.0
  0
LINE
  5
445
  8
DATA
  6
CONTINUOUS
 62
     7
 10
591.13215136607789
 20
496.65406591905679
 30
0.0
 11
591.05715136607796
 21
496.65406591905679
 31
0.0
  0
LINE
  5
446
  8
DATA
  6
CONTINUOUS
 62
     7
 10
591.05715136607796
 20
496.65406591905679
 30
0.0
 11
591.05715136607796
 21
497.9040659190569
 31
0.0
  0
ARC
  5
447
  8
DATA
  6
CONTINUOUS
 62
     7
 10
589.33215136607805
 20
506.56192160970119
 30
0.0
 40
0.6000000000000229
 50
90.0
 51
180.0
  0
ARC
  5
448
  8
DATA
  6
CONTINUOUS
 62
     7
 10
589.33215136607805
 20
495.26192160970112
 30
0.0
 40
0.5999999999999659
 50
180.0
 51
270.0
  0
LINE
  5
449
  8
DATA
  6
CONTINUOUS
 62
     7
 10
591.13215136607789
 20
506.66192160970121
 30
0.0
 11
592.43215136607796
 21
506.66192160970121
 31
0.0
  0
LINE
  5
44A
  8
DATA
  6
CONTINUOUS
 62
     7
 10
591.13215136607789
 20
495.16192160970121
 30
0.0
 11
592.43215136607796
 21
495.16192160970121
 31
0.0
  0
LINE
  5
44B
  8
DATA
  6
CONTINUOUS
 62
     7
 10
588.16511539679266
 20
507.96192160970111
 30
0.0
 11
588.16511539679266
 21
493.86192160970108
 31
0.0
  0
LINE
  5
44C
  8
DATA
  6
CONTINUOUS
 62
     7
 10
593.97843954415657
 20
493.86192160970108
 30
0.0
 11
588.16511539679266
 21
493.86192160970108
 31
0.0
  0
LINE
  5
44D
  8
DATA
  6
CONTINUOUS
 62
     7
 10
593.97843954415657
 20
507.96192160970111
 30
0.0
 11
588.16511539679266
 21
507.96192160970111
 31
0.0
  0
CIRCLE
  5
44E
  8
DATA
  6
CONTINUOUS
 62
     7
 10
585.20000000000016
 20
504.91398150674411
 30
0.0
 40
1.5
  0
LINE
  5
44F
  8
DATA
  6
CONTINUOUS
 62
     7
 10
604.12916691899295
 20
490.79909482049891
 30
0.0
 11
587.80000000000007
 21
490.79909482049891
 31
0.0
  0
LINE
  5
450
  8
DATA
  6
CONTINUOUS
 62
     7
 10
622.44974551101177
 20
490.79909482049891
 30
0.0
 11
638.77891243000488
 21
490.79909482049891
 31
0.0
  0
TEXT
  5
451
  8
DATA
 62
     7
 10
636.92142060526407
 20
516.19735001266565
 30
0.0
 40
3.121945529513888
  1
1
 50
180.0
 41
0.7
 11
636.92142060526407
 21
513.07540448315171
 31
0.0
 73
     3
  0
TEXT
  5
452
  8
DATA
 62
     7
 10
621.92142060526396
 20
516.19735001266565
 30
0.0
 40
3.121945529513888
  1
2
 50
180.0
 41
0.7
 11
621.92142060526396
 21
513.07540448315171
 31
0.0
 73
     3
  0
TEXT
  5
453
  8
DATA
 62
     7
 10
606.92142060526407
 20
516.19735001266565
 30
0.0
 40
3.121945529513888
  1
3
 50
180.0
 41
0.7
 11
606.92142060526407
 21
513.07540448315171
 31
0.0
 73
     3
  0
TEXT
  5
454
  8
DATA
 62
     7
 10
591.92142060526396
 20
516.19735001266565
 30
0.0
 40
3.121945529513888
  1
4
 50
180.0
 41
0.7
 11
591.92142060526396
 21
513.07540448315171
 31
0.0
 73
     3
  0
LINE
  5
455
  8
DATA
  6
CONTINUOUS
 62
     7
 10
713.49999999999989
 20
664.5
 30
0.0
 11
713.49999999999989
 21
704.49999999999989
 31
0.0
  0
LINE
  5
456
  8
DATA
  6
CONTINUOUS
 62
     7
 10
842.5
 20
664.5
 30
0.0
 11
842.5
 21
705.49999999999989
 31
0.0
  0
LINE
  5
457
  8
DATA
  6
CONTINUOUS
 62
     7
 10
714.5
 20
705.49999999999989
 30
0.0
 11
721.49999999999989
 21
705.49999999999989
 31
0.0
  0
LINE
  5
458
  8
DATA
  6
CONTINUOUS
 62
     7
 10
721.49999999999989
 20
705.49999999999989
 30
0.0
 11
721.49999999999989
 21
706.5
 31
0.0
  0
LINE
  5
459
  8
DATA
  6
CONTINUOUS
 62
     7
 10
719.5
 20
662.5
 30
0.0
 11
719.5
 21
663.49999999999989
 31
0.0
  0
LINE
  5
45A
  8
DATA
  6
CONTINUOUS
 62
     7
 10
714.5
 20
663.49999999999989
 30
0.0
 11
719.5
 21
663.49999999999989
 31
0.0
  0
ARC
  5
45B
  8
DATA
  6
CONTINUOUS
 62
     7
 10
714.5
 20
704.49999999999989
 30
0.0
 40
1.0
 50
90.0
 51
180.0
  0
ARC
  5
45C
  8
DATA
  6
CONTINUOUS
 62
     7
 10
713.49999999999989
 20
705.49999999999989
 30
0.0
 40
1.0
 50
90.0
 51
180.0
  0
ARC
  5
45D
  8
DATA
  6
CONTINUOUS
 62
     7
 10
714.5
 20
664.5
 30
0.0
 40
1.0
 50
180.0
 51
270.0
  0
ARC
  5
45E
  8
DATA
  6
CONTINUOUS
 62
     7
 10
713.49999999999989
 20
663.49999999999989
 30
0.0
 40
1.0
 50
180.0
 51
270.0
  0
LINE
  5
45F
  8
DATA
  6
CONTINUOUS
 62
     7
 10
832.49999999999989
 20
662.5
 30
0.0
 11
832.49999999999989
 21
663.49999999999989
 31
0.0
  0
LINE
  5
460
  8
DATA
  6
CONTINUOUS
 62
     7
 10
841.5
 20
663.49999999999989
 30
0.0
 11
832.49999999999989
 21
663.49999999999989
 31
0.0
  0
ARC
  5
461
  8
DATA
  6
CONTINUOUS
 62
     7
 10
841.5
 20
664.5
 30
0.0
 40
1.0
 50
270.0
 51
0.0
  0
ARC
  5
462
  8
DATA
  6
CONTINUOUS
 62
     7
 10
842.5
 20
663.49999999999989
 30
0.0
 40
1.0
 50
270.0
 51
0.0
  0
ARC
  5
463
  8
DATA
  6
CONTINUOUS
 62
     7
 10
842.5
 20
705.49999999999989
 30
0.0
 40
1.0
 50
0.0
 51
90.0
  0
LINE
  5
464
  8
DATA
  6
CONTINUOUS
 62
     7
 10
730.548429090789
 20
659.49999999999989
 30
0.0
 11
731.29842909078889
 21
662.5
 31
0.0
  0
CIRCLE
  5
465
  8
DATA
  6
CONTINUOUS
 62
     7
 10
726.5
 20
288.0
 30
0.0
 40
2.0
  0
LINE
  5
466
  8
DATA
  6
CONTINUOUS
 62
     7
 10
725.02945588301452
 20
288.0
 30
0.0
 11
727.97054411698525
 21
288.0
 31
0.0
  0
LINE
  5
467
  8
DATA
  6
CONTINUOUS
 62
     7
 10
726.5
 20
286.52945588301469
 30
0.0
 11
726.5
 21
289.47054411698531
 31
0.0
  0
CIRCLE
  5
468
  8
DATA
  6
CONTINUOUS
 62
     7
 10
726.5
 20
256.49583716316238
 30
0.0
 40
2.0
  0
LINE
  5
469
  8
DATA
  6
CONTINUOUS
 62
     7
 10
725.02945588301452
 20
256.49583716316238
 30
0.0
 11
727.97054411698525
 21
256.49583716316238
 31
0.0
  0
LINE
  5
46A
  8
DATA
  6
CONTINUOUS
 62
     7
 10
726.5
 20
255.02529304617721
 30
0.0
 11
726.5
 21
257.9663812801478
 31
0.0
  0
LINE
  5
46B
  8
DATA
  6
CONTINUOUS
 62
     7
 10
712.5
 20
251.0
 30
0.0
 11
712.5
 21
293.0
 31
0.0
  0
LINE
  5
46C
  8
DATA
  6
CONTINUOUS
 62
     7
 10
843.5
 20
251.0
 30
0.0
 11
843.5
 21
293.0
 31
0.0
  0
LINE
  5
46D
  8
DATA
  6
CONTINUOUS
 62
     7
 10
713.79842909078752
 20
250.0
 30
0.0
 11
714.54842909078752
 21
247.0
 31
0.0
  0
LINE
  5
46E
  8
DATA
  6
CONTINUOUS
 62
     7
 10
714.54842909078752
 20
247.0
 30
0.0
 11
730.548429090789
 21
247.0
 31
0.0
  0
LINE
  5
46F
  8
DATA
  6
CONTINUOUS
 62
     7
 10
838.39750738945145
 20
247.0
 30
0.0
 11
839.14750738945145
 21
250.0
 31
0.0
  0
LINE
  5
470
  8
DATA
  6
CONTINUOUS
 62
     7
 10
821.64750738944963
 20
250.0
 30
0.0
 11
822.39750738944974
 21
247.0
 31
0.0
  0
LINE
  5
471
  8
DATA
  6
CONTINUOUS
 62
     7
 10
822.39750738944974
 20
247.0
 30
0.0
 11
838.39750738945145
 21
247.0
 31
0.0
  0
CIRCLE
  5
472
  8
DATA
  6
CONTINUOUS
 62
     7
 10
773.43024484997522
 20
256.49583716316238
 30
0.0
 40
2.0
  0
LINE
  5
473
  8
DATA
  6
CONTINUOUS
 62
     7
 10
771.95970073298975
 20
256.49583716316238
 30
0.0
 11
774.90078896696059
 21
256.49583716316238
 31
0.0
  0
LINE
  5
474
  8
DATA
  6
CONTINUOUS
 62
     7
 10
773.43024484997522
 20
255.02529304617721
 30
0.0
 11
773.43024484997522
 21
257.9663812801478
 31
0.0
  0
CIRCLE
  5
475
  8
DATA
  6
CONTINUOUS
 62
     7
 10
820.51381053763134
 20
256.49583716316238
 30
0.0
 40
2.0
  0
LINE
  5
476
  8
DATA
  6
CONTINUOUS
 62
     7
 10
819.04326642064609
 20
256.49583716316238
 30
0.0
 11
821.98435465461671
 21
256.49583716316238
 31
0.0
  0
LINE
  5
477
  8
DATA
  6
CONTINUOUS
 62
     7
 10
820.51381053763134
 20
255.02529304617721
 30
0.0
 11
820.51381053763134
 21
257.9663812801478
 31
0.0
  0
ARC
  5
478
  8
DATA
  6
CONTINUOUS
 62
     7
 10
713.55000000000018
 20
262.54963173110002
 30
0.0
 40
1.7500000000000051
 50
126.8698976458455
 51
233.13010235415561
  0
LINE
  5
479
  8
DATA
  6
CONTINUOUS
 62
     7
 10
713.49999999999989
 20
294.0
 30
0.0
 11
842.5
 21
294.0
 31
0.0
  0
LINE
  5
47A
  8
DATA
  6
CONTINUOUS
 62
     7
 10
713.49999999999989
 20
250.0
 30
0.0
 11
842.5
 21
250.0
 31
0.0
  0
LINE
  5
47B
  8
DATA
  6
CONTINUOUS
 62
     7
 10
843.5
 20
266.72500000000002
 30
0.0
 11
848.49999999999989
 21
266.72500000000002
 31
0.0
  0
LINE
  5
47C
  8
DATA
  6
CONTINUOUS
 62
     7
 10
848.49999999999989
 20
258.875
 30
0.0
 11
843.5
 21
258.875
 31
0.0
  0
LINE
  5
47D
  8
DATA
  6
CONTINUOUS
 62
     7
 10
848.49999999999989
 20
258.875
 30
0.0
 11
848.49999999999989
 21
266.72500000000002
 31
0.0
  0
LINE
  5
47E
  8
DATA
  6
CONTINUOUS
 62
     7
 10
851.29999999999984
 20
264.0
 30
0.0
 11
848.49999999999989
 21
264.0
 31
0.0
  0
LINE
  5
47F
  8
DATA
  6
CONTINUOUS
 62
     7
 10
851.29999999999984
 20
270.0
 30
0.0
 11
851.29999999999984
 21
264.0
 31
0.0
  0
LINE
  5
480
  8
DATA
  6
CONTINUOUS
 62
     7
 10
843.5
 20
270.0
 30
0.0
 11
851.29999999999984
 21
270.0
 31
0.0
  0
POLYLINE
  5
481
  8
DATA
  6
CONTINUOUS
 62
     7
 66
     1
 10
0.0
 20
0.0
 30
0.0
  0
VERTEX
  5
6AF
  8
DATA
  6
CONTINUOUS
 62
     7
 10
843.5
 20
261.5
 30
0.0
  0
VERTEX
  5
6B0
  8
DATA
  6
CONTINUOUS
 62
     7
 10
843.5
 20
272.5
 30
0.0
  0
VERTEX
  5
6B1
  8
DATA
  6
CONTINUOUS
 62
     7
 10
845.29999999999995
 20
272.5
 30
0.0
  0
VERTEX
  5
6B2
  8
DATA
  6
CONTINUOUS
 62
     7
 10
845.29999999999995
 20
270.0
 30
0.0
  0
SEQEND
  5
6B3
  8
DATA
  6
CONTINUOUS
 62
     7
  0
LINE
  5
488
  8
DATA
  6
CONTINUOUS
 62
     7
 10
713.49999999999989
 20
252.0
 30
0.0
 11
713.49999999999989
 21
292.0
 31
0.0
  0
LINE
  5
489
  8
DATA
  6
CONTINUOUS
 62
     7
 10
842.5
 20
252.0
 30
0.0
 11
842.5
 21
293.0
 31
0.0
  0
LINE
  5
48A
  8
DATA
  6
CONTINUOUS
 62
     7
 10
714.5
 20
293.0
 30
0.0
 11
721.49999999999989
 21
293.0
 31
0.0
  0
LINE
  5
48B
  8
DATA
  6
CONTINUOUS
 62
     7
 10
721.49999999999989
 20
293.0
 30
0.0
 11
721.49999999999989
 21
294.0
 31
0.0
  0
LINE
  5
48C
  8
DATA
  6
CONTINUOUS
 62
     7
 10
719.5
 20
250.0
 30
0.0
 11
719.5
 21
251.0
 31
0.0
  0
LINE
  5
48D
  8
DATA
  6
CONTINUOUS
 62
     7
 10
714.5
 20
251.0
 30
0.0
 11
719.5
 21
251.0
 31
0.0
  0
ARC
  5
48E
  8
DATA
  6
CONTINUOUS
 62
     7
 10
714.5
 20
292.0
 30
0.0
 40
1.0
 50
90.0
 51
180.0
  0
ARC
  5
48F
  8
DATA
  6
CONTINUOUS
 62
     7
 10
713.49999999999989
 20
293.0
 30
0.0
 40
1.0
 50
90.0
 51
180.0
  0
ARC
  5
490
  8
DATA
  6
CONTINUOUS
 62
     7
 10
714.5
 20
252.0
 30
0.0
 40
1.0
 50
180.0
 51
270.0
  0
ARC
  5
491
  8
DATA
  6
CONTINUOUS
 62
     7
 10
713.49999999999989
 20
251.0
 30
0.0
 40
1.0
 50
180.0
 51
270.0
  0
LINE
  5
492
  8
DATA
  6
CONTINUOUS
 62
     7
 10
832.49999999999989
 20
250.0
 30
0.0
 11
832.49999999999989
 21
251.0
 31
0.0
  0
LINE
  5
493
  8
DATA
  6
CONTINUOUS
 62
     7
 10
841.5
 20
251.0
 30
0.0
 11
832.49999999999989
 21
251.0
 31
0.0
  0
ARC
  5
494
  8
DATA
  6
CONTINUOUS
 62
     7
 10
841.5
 20
252.0
 30
0.0
 40
1.0
 50
270.0
 51
0.0
  0
ARC
  5
495
  8
DATA
  6
CONTINUOUS
 62
     7
 10
842.5
 20
251.0
 30
0.0
 40
1.0
 50
270.0
 51
0.0
  0
ARC
  5
496
  8
DATA
  6
CONTINUOUS
 62
     7
 10
842.5
 20
293.0
 30
0.0
 40
1.0
 50
0.0
 51
90.0
  0
LINE
  5
497
  8
DATA
  6
CONTINUOUS
 62
     7
 10
730.548429090789
 20
247.0
 30
0.0
 11
731.29842909078889
 21
250.0
 31
0.0
  0
LINE
  5
498
  8
DATA
  6
CONTINUOUS
 62
     7
 10
62.5
 20
562.5
 30
0.0
 11
937.5
 21
562.5
 31
0.0
  0
ENDSEC
  0
EOF
