  0
SECTION
  2
HEADER
  9
$ACADVER
  1
AC1015
  9
$ACADMAINTVER
 70
    20
  9
$DWGCODEPAGE
  3
ANSI_932
  9
$INSBASE
 10
0.0
 20
0.0
 30
0.0
  9
$EXTMIN
 10
-80.01098548994741
 20
-131.6305311533767
 30
-0.0015258207003583
  9
$EXTMAX
 10
280.0109871663281
 20
403.5345744079081
 30
0.0000000349246037
  9
$LIMMIN
 10
0.0
 20
0.0
  9
$LIMMAX
 10
0.0
 20
0.0
  9
$ORTHOMODE
 70
     0
  9
$REGENMODE
 70
     1
  9
$FILLMODE
 70
     1
  9
$QTEXTMODE
 70
     0
  9
$MIRRTEXT
 70
     1
  9
$LTSCALE
 40
10.16
  9
$ATTMODE
 70
     1
  9
$TEXTSIZE
 40
0.0
  9
$TRACEWID
 40
1.0
  9
$TEXTSTYLE
  7
STANDARD
  9
$CLAYER
  8
DATA
  9
$CELTYPE
  6
ByLayer
  9
$CECOLOR
 62
   256
  9
$CELTSCALE
 40
1.0
  9
$DISPSILH
 70
     0
  9
$DIMSCALE
 40
1.0
  9
$DIMASZ
 40
0.18
  9
$DIMEXO
 40
0.0625
  9
$DIMDLI
 40
0.38
  9
$DIMRND
 40
0.0
  9
$DIMDLE
 40
0.0
  9
$DIMEXE
 40
0.18
  9
$DIMTP
 40
0.0
  9
$DIMTM
 40
0.0
  9
$DIMTXT
 40
0.18
  9
$DIMCEN
 40
0.09
  9
$DIMTSZ
 40
0.0
  9
$DIMTOL
 70
     0
  9
$DIMLIM
 70
     0
  9
$DIMTIH
 70
     1
  9
$DIMTOH
 70
     1
  9
$DIMSE1
 70
     0
  9
$DIMSE2
 70
     0
  9
$DIMTAD
 70
     0
  9
$DIMZIN
 70
     0
  9
$DIMBLK
  1

  9
$DIMASO
 70
     1
  9
$DIMSHO
 70
     1
  9
$DIMPOST
  1

  9
$DIMAPOST
  1

  9
$DIMALT
 70
     0
  9
$DIMALTD
 70
     2
  9
$DIMALTF
 40
25.4
  9
$DIMLFAC
 40
1.0
  9
$DIMTOFL
 70
     0
  9
$DIMTVP
 40
0.0
  9
$DIMTIX
 70
     0
  9
$DIMSOXD
 70
     0
  9
$DIMSAH
 70
     0
  9
$DIMBLK1
  1

  9
$DIMBLK2
  1

  9
$DIMSTYLE
  2
STANDARD
  9
$DIMCLRD
 70
     0
  9
$DIMCLRE
 70
     0
  9
$DIMCLRT
 70
     0
  9
$DIMTFAC
 40
1.0
  9
$DIMGAP
 40
0.09
  9
$DIMJUST
 70
     0
  9
$DIMSD1
 70
     0
  9
$DIMSD2
 70
     0
  9
$DIMTOLJ
 70
     1
  9
$DIMTZIN
 70
     0
  9
$DIMALTZ
 70
     0
  9
$DIMALTTZ
 70
     0
  9
$DIMUPT
 70
     0
  9
$DIMDEC
 70
     4
  9
$DIMTDEC
 70
     4
  9
$DIMALTU
 70
     2
  9
$DIMALTTD
 70
     2
  9
$DIMTXSTY
  7
STANDARD
  9
$DIMAUNIT
 70
     0
  9
$DIMADEC
 70
     0
  9
$DIMALTRND
 40
0.0
  9
$DIMAZIN
 70
     0
  9
$DIMDSEP
 70
    46
  9
$DIMATFIT
 70
     3
  9
$DIMFRAC
 70
     0
  9
$DIMLDRBLK
  1

  9
$DIMLUNIT
 70
     2
  9
$DIMLWD
 70
    -2
  9
$DIMLWE
 70
    -2
  9
$DIMTMOVE
 70
     0
  9
$LUNITS
 70
     2
  9
$LUPREC
 70
     4
  9
$SKETCHINC
 40
0.1
  9
$FILLETRAD
 40
0.0
  9
$AUNITS
 70
     0
  9
$AUPREC
 70
     0
  9
$MENU
  1
acad
  9
$ELEVATION
 40
0.0
  9
$PELEVATION
 40
0.0
  9
$THICKNESS
 40
0.0
  9
$LIMCHECK
 70
     0
  9
$CHAMFERA
 40
0.0
  9
$CHAMFERB
 40
0.0
  9
$CHAMFERC
 40
0.0
  9
$CHAMFERD
 40
0.0
  9
$SKPOLY
 70
     0
  9
$TDCREATE
 40
2455202.647800926
  9
$TDUCREATE
 40
2455202.272800926
  9
$TDUPDATE
 40
2455202.648891146
  9
$TDUUPDATE
 40
2455202.273891146
  9
$TDINDWG
 40
0.0002400579
  9
$TDUSRTIMER
 40
0.0002398727
  9
$USRTIMER
 70
     1
  9
$ANGBASE
 50
0.0
  9
$ANGDIR
 70
     0
  9
$PDMODE
 70
     1
  9
$PDSIZE
 40
-2.0
  9
$PLINEWID
 40
0.0
  9
$SPLFRAME
 70
     0
  9
$SPLINETYPE
 70
     6
  9
$SPLINESEGS
 70
     8
  9
$HANDSEED
  5
264
  9
$SURFTAB1
 70
     6
  9
$SURFTAB2
 70
     6
  9
$SURFTYPE
 70
     6
  9
$SURFU
 70
     6
  9
$SURFV
 70
     6
  9
$UCSBASE
  2

  9
$UCSNAME
  2

  9
$UCSORG
 10
0.0
 20
0.0
 30
0.0
  9
$UCSXDIR
 10
1.0
 20
0.0
 30
0.0
  9
$UCSYDIR
 10
0.0
 20
1.0
 30
0.0
  9
$UCSORTHOREF
  2

  9
$UCSORTHOVIEW
 70
     0
  9
$UCSORGTOP
 10
0.0
 20
0.0
 30
0.0
  9
$UCSORGBOTTOM
 10
0.0
 20
0.0
 30
0.0
  9
$UCSORGLEFT
 10
0.0
 20
0.0
 30
0.0
  9
$UCSORGRIGHT
 10
0.0
 20
0.0
 30
0.0
  9
$UCSORGFRONT
 10
0.0
 20
0.0
 30
0.0
  9
$UCSORGBACK
 10
0.0
 20
0.0
 30
0.0
  9
$PUCSBASE
  2

  9
$PUCSNAME
  2

  9
$PUCSORG
 10
0.0
 20
0.0
 30
0.0
  9
$PUCSXDIR
 10
1.0
 20
0.0
 30
0.0
  9
$PUCSYDIR
 10
0.0
 20
1.0
 30
0.0
  9
$PUCSORTHOREF
  2

  9
$PUCSORTHOVIEW
 70
     0
  9
$PUCSORGTOP
 10
0.0
 20
0.0
 30
0.0
  9
$PUCSORGBOTTOM
 10
0.0
 20
0.0
 30
0.0
  9
$PUCSORGLEFT
 10
0.0
 20
0.0
 30
0.0
  9
$PUCSORGRIGHT
 10
0.0
 20
0.0
 30
0.0
  9
$PUCSORGFRONT
 10
0.0
 20
0.0
 30
0.0
  9
$PUCSORGBACK
 10
0.0
 20
0.0
 30
0.0
  9
$USERI1
 70
     0
  9
$USERI2
 70
     0
  9
$USERI3
 70
     0
  9
$USERI4
 70
     0
  9
$USERI5
 70
     0
  9
$USERR1
 40
0.0
  9
$USERR2
 40
0.0
  9
$USERR3
 40
0.0
  9
$USERR4
 40
0.0
  9
$USERR5
 40
0.0
  9
$WORLDVIEW
 70
     1
  9
$SHADEDGE
 70
     3
  9
$SHADEDIF
 70
    70
  9
$TILEMODE
 70
     1
  9
$MAXACTVP
 70
    64
  9
$PINSBASE
 10
0.0
 20
0.0
 30
0.0
  9
$PLIMCHECK
 70
     0
  9
$PEXTMIN
 10
1.000000000000000E+20
 20
1.000000000000000E+20
 30
1.000000000000000E+20
  9
$PEXTMAX
 10
-1.000000000000000E+20
 20
-1.000000000000000E+20
 30
-1.000000000000000E+20
  9
$PLIMMIN
 10
0.0
 20
0.0
  9
$PLIMMAX
 10
12.0
 20
9.0
  9
$UNITMODE
 70
     0
  9
$VISRETAIN
 70
     0
  9
$PLINEGEN
 70
     1
  9
$PSLTSCALE
 70
     0
  9
$TREEDEPTH
 70
  3020
  9
$CMLSTYLE
  2
Standard
  9
$CMLJUST
 70
     0
  9
$CMLSCALE
 40
1.0
  9
$PROXYGRAPHICS
 70
     1
  9
$MEASUREMENT
 70
     0
  9
$CELWEIGHT
370
    -1
  9
$ENDCAPS
280
     0
  9
$JOINSTYLE
280
     0
  9
$LWDISPLAY
290
     0
  9
$INSUNITS
 70
     0
  9
$HYPERLINKBASE
  1

  9
$STYLESHEET
  1

  9
$XEDIT
290
     1
  9
$CEPSNTYPE
380
     0
  9
$PSTYLEMODE
290
     1
  9
$FINGERPRINTGUID
  2
{70DA6F69-D9CF-4FBC-A93C-069FEEF40AEC}
  9
$VERSIONGUID
  2
{595D7601-DEAA-457D-8551-B3FD192F357D}
  9
$EXTNAMES
290
     1
  9
$PSVPSCALE
 40
0.0
  9
$OLESTARTUP
290
     0
  0
ENDSEC
  0
SECTION
  2
CLASSES
  0
CLASS
  1
ACDBDICTIONARYWDFLT
  2
AcDbDictionaryWithDefault
  3
ObjectDBX Classes
 90
        0
280
     0
281
     0
  0
CLASS
  1
MATERIAL
  2
AcDbMaterial
  3
ObjectDBX Classes
 90
     1153
280
     0
281
     0
  0
CLASS
  1
VISUALSTYLE
  2
AcDbVisualStyle
  3
ObjectDBX Classes
 90
     4095
280
     0
281
     0
  0
CLASS
  1
SCALE
  2
AcDbScale
  3
ObjectDBX Classes
 90
     1153
280
     0
281
     0
  0
CLASS
  1
TABLESTYLE
  2
AcDbTableStyle
  3
ObjectDBX Classes
 90
     4095
280
     0
281
     0
  0
CLASS
  1
MLEADERSTYLE
  2
AcDbMLeaderStyle
  3
ACDB_MLEADERSTYLE_CLASS
 90
     4095
280
     0
281
     0
  0
CLASS
  1
DICTIONARYVAR
  2
AcDbDictionaryVar
  3
ObjectDBX Classes
 90
        0
280
     0
281
     0
  0
CLASS
  1
CELLSTYLEMAP
  2
AcDbCellStyleMap
  3
ObjectDBX Classes
 90
     1152
280
     0
281
     0
  0
CLASS
  1
ACDBPLACEHOLDER
  2
AcDbPlaceHolder
  3
ObjectDBX Classes
 90
        0
280
     0
281
     0
  0
CLASS
  1
LAYOUT
  2
AcDbLayout
  3
ObjectDBX Classes
 90
        0
280
     0
281
     0
  0
ENDSEC
  0
SECTION
  2
TABLES
  0
TABLE
  2
VPORT
  5
199
330
0
100
AcDbSymbolTable
 70
     1
  0
VPORT
  5
20C
330
199
100
AcDbSymbolTableRecord
100
AcDbViewportTableRecord
  2
*ACTIVE
 70
     0
 10
0.0
 20
0.0
 11
1.0
 21
1.0
 12
100.0000008381904
 22
135.9520216272657
 13
0.0
 23
0.0
 14
1.0
 24
1.0
 15
0.0
 25
0.0
 16
0.0
 26
0.0
 36
1.0
 17
0.0
 27
0.0
 37
0.0
 40
539.1098114990831
 41
1.964329643296433
 42
50.0
 43
0.0
 44
0.0
 50
0.0
 51
0.0
 71
     0
 72
  2000
 73
     1
 74
     1
 75
     0
 76
     0
 77
     0
 78
     0
281
     0
 65
     1
110
0.0
120
0.0
130
0.0
111
1.0
121
0.0
131
0.0
112
0.0
122
1.0
132
0.0
 79
     0
146
0.0
  0
ENDTAB
  0
TABLE
  2
LTYPE
  5
196
330
0
100
AcDbSymbolTable
 70
    11
  0
LTYPE
  5
1F6
330
196
100
AcDbSymbolTableRecord
100
AcDbLinetypeTableRecord
  2
ByBlock
 70
     0
  3

 72
    65
 73
     0
 40
0.0
  0
LTYPE
  5
1F7
330
196
100
AcDbSymbolTableRecord
100
AcDbLinetypeTableRecord
  2
ByLayer
 70
     0
  3

 72
    65
 73
     0
 40
0.0
  0
LTYPE
  5
1F8
330
196
100
AcDbSymbolTableRecord
100
AcDbLinetypeTableRecord
  2
CONTINUOUS
 70
     0
  3
Solid line
 72
    65
 73
     0
 40
0.0
  0
ENDTAB
  0
TABLE
  2
LAYER
  5
193
330
0
100
AcDbSymbolTable
 70
     5
  0
LAYER
  5
1F0
102
{ACAD_XDICTIONARY
360
21F
102
}
330
193
100
AcDbSymbolTableRecord
100
AcDbLayerTableRecord
  2
0
 70
     0
 62
     7
  6
CONTINUOUS
370
    -3
390
1A0
  0
LAYER
  5
20B
102
{ACAD_XDICTIONARY
360
221
102
}
330
193
100
AcDbSymbolTableRecord
100
AcDbLayerTableRecord
  2
DATA
 70
     0
 62
     7
  6
CONTINUOUS
370
    -3
390
1A0
  0
LAYER
  5
217
102
{ACAD_XDICTIONARY
360
223
102
}
330
193
100
AcDbSymbolTableRecord
100
AcDbLayerTableRecord
  2
HIBINO-BASE
 70
     0
 62
     7
  6
CONTINUOUS
370
    -3
390
1A0
  0
LAYER
  5
218
102
{ACAD_XDICTIONARY
360
225
102
}
330
193
100
AcDbSymbolTableRecord
100
AcDbLayerTableRecord
  2
SPEC
 70
     0
 62
     7
  6
CONTINUOUS
370
    -3
390
1A0
  0
LAYER
  5
219
102
{ACAD_XDICTIONARY
360
227
102
}
330
193
100
AcDbSymbolTableRecord
100
AcDbLayerTableRecord
  2
DIMNSIONS
 70
     0
 62
     7
  6
CONTINUOUS
370
    -3
390
1A0
  0
ENDTAB
  0
TABLE
  2
STYLE
  5
194
330
0
100
AcDbSymbolTable
 70
     3
  0
STYLE
  5
1F1
330
194
100
AcDbSymbolTableRecord
100
AcDbTextStyleTableRecord
  2
STANDARD
 70
     0
 40
0.0
 41
1.0
 50
0.0
 71
     0
 42
0.0
  3
txt
  4
BIGFONT.SHX
  0
ENDTAB
  0
TABLE
  2
VIEW
  5
197
330
0
100
AcDbSymbolTable
 70
     0
  0
ENDTAB
  0
TABLE
  2
UCS
  5
198
330
0
100
AcDbSymbolTable
 70
     0
  0
ENDTAB
  0
TABLE
  2
APPID
  5
19A
330
0
100
AcDbSymbolTable
 70
     3
  0
APPID
  5
1F2
330
19A
100
AcDbSymbolTableRecord
100
AcDbRegAppTableRecord
  2
ACAD
 70
     0
  0
APPID
  5
1F9
330
19A
100
AcDbSymbolTableRecord
100
AcDbRegAppTableRecord
  2
AcadAnnotative
 70
     0
  0
APPID
  5
25F
330
19A
100
AcDbSymbolTableRecord
100
AcDbRegAppTableRecord
  2
ACAD_MLEADERVER
 70
     0
  0
ENDTAB
  0
TABLE
  2
DIMSTYLE
  5
19B
330
0
100
AcDbSymbolTable
 70
     2
100
AcDbDimStyleTable
 71
     0
  0
DIMSTYLE
105
1F3
330
19B
100
AcDbSymbolTableRecord
100
AcDbDimStyleTableRecord
  2
STANDARD
 70
     0
279
     2
340
1F1
  0
ENDTAB
  0
TABLE
  2
BLOCK_RECORD
  5
192
330
0
100
AcDbSymbolTable
 70
     0
  0
BLOCK_RECORD
  5
207
330
192
100
AcDbSymbolTableRecord
100
AcDbBlockTableRecord
  2
*Model_Space
340
20A
  0
BLOCK_RECORD
  5
203
330
192
100
AcDbSymbolTableRecord
100
AcDbBlockTableRecord
  2
*Paper_Space
340
206
  0
ENDTAB
  0
ENDSEC
  0
SECTION
  2
BLOCKS
  0
BLOCK
  5
208
330
207
100
AcDbEntity
  8
0
100
AcDbBlockBegin
  2
*Model_Space
 70
     0
 10
0.0
 20
0.0
 30
0.0
  3
*Model_Space
  1

  0
ENDBLK
  5
209
330
207
100
AcDbEntity
  8
0
100
AcDbBlockEnd
  0
BLOCK
  5
204
330
203
100
AcDbEntity
 67
     1
  8
0
100
AcDbBlockBegin
  2
*Paper_Space
 70
     0
 10
0.0
 20
0.0
 30
0.0
  3
*Paper_Space
  1

  0
ENDBLK
  5
205
330
203
100
AcDbEntity
 67
     1
  8
0
100
AcDbBlockEnd
  0
ENDSEC
  0
SECTION
  2
ENTITIES
  0
LINE
  5
2C
330
207
100
AcDbEntity
  8
HIBINO-BASE
  6
Continuous
 62
     7
100
AcDbLine
 10
-79.99999999999999
 20
403.5182745469052
 30
0.0
 11
279.9999999999999
 21
403.5182745469052
 31
0.0
  0
LINE
  5
2D
330
207
100
AcDbEntity
  8
HIBINO-BASE
  6
Continuous
 62
     7
100
AcDbLine
 10
279.9999999999999
 20
-116.4817254530948
 30
0.0
 11
-79.99999999999999
 21
-116.4817254530948
 31
0.0
  0
LINE
  5
2E
330
207
100
AcDbEntity
  8
HIBINO-BASE
  6
Continuous
 62
     7
100
AcDbLine
 10
-79.99999999999999
 20
-116.4817254530948
 30
0.0
 11
-79.99999999999999
 21
403.5182745469052
 31
0.0
  0
LINE
  5
2F
330
207
100
AcDbEntity
  8
HIBINO-BASE
  6
Continuous
 62
     7
100
AcDbLine
 10
279.9999999999999
 20
403.5182745469052
 30
0.0
 11
279.9999999999999
 21
-116.4817254530948
 31
0.0
  0
LINE
  5
30
330
207
100
AcDbEntity
  8
HIBINO-BASE
  6
Continuous
 62
     7
100
AcDbLine
 10
100.0
 20
-71.48172545309478
 30
0.0
 11
279.9999999999999
 21
-71.48172545309478
 31
0.0
  0
LINE
  5
31
330
207
100
AcDbEntity
  8
HIBINO-BASE
  6
Continuous
 62
     7
100
AcDbLine
 10
100.0
 20
-116.4817254530948
 30
0.0
 11
100.0
 21
-71.48172545309478
 31
0.0
  0
TEXT
  5
32
330
207
100
AcDbEntity
  8
HIBINO-BASE
 62
     7
100
AcDbText
 10
101.8
 20
-76.49911211976149
 30
0.0
 40
3.257682291666666
  1
NOTE
 41
0.7
 11
101.8
 21
-73.24142982809482
 31
0.0
100
AcDbText
 73
     3
  0
LINE
  5
33
330
207
100
AcDbEntity
  8
HIBINO-BASE
  6
Continuous
 62
     7
100
AcDbLine
 10
170.0
 20
-116.4817254530948
 30
0.0
 11
170.0
 21
-71.48172545309478
 31
0.0
  0
TEXT
  5
34
330
207
100
AcDbEntity
  8
HIBINO-BASE
 62
     7
100
AcDbText
 10
171.7999999999999
 20
-76.49911211976149
 30
0.0
 40
3.257682291666666
  1
TITLE
 41
0.7
 11
171.7999999999999
 21
-73.24142982809482
 31
0.0
100
AcDbText
 73
     3
  0
LINE
  5
35
330
207
100
AcDbEntity
  8
HIBINO-BASE
  6
Continuous
 62
     7
100
AcDbLine
 10
100.0
 20
-96.48172545309478
 30
0.0
 11
279.9999999999999
 21
-96.48172545309478
 31
0.0
  0
TEXT
  5
36
330
207
100
AcDbEntity
  8
HIBINO-BASE
 62
     7
100
AcDbText
 10
196.8
 20
-101.3864721197615
 30
0.0
 40
3.257682291666666
  1
DRAWN
 41
0.7
 11
196.8
 21
-98.12878982809481
 31
0.0
100
AcDbText
 73
     3
  0
TEXT
  5
37
330
207
100
AcDbEntity
  8
HIBINO-BASE
 62
     7
100
AcDbText
 10
146.7999999999999
 20
-101.3864721197615
 30
0.0
 40
3.257682291666666
  1
DATE
 41
0.7
 11
146.7999999999999
 21
-98.12878982809481
 31
0.0
100
AcDbText
 73
     3
  0
TEXT
  5
38
330
207
100
AcDbEntity
  8
HIBINO-BASE
 62
     7
100
AcDbText
 10
126.8
 20
-101.3864721197615
 30
0.0
 40
3.257682291666666
  1
SCALE
 41
0.7
 11
126.8
 21
-98.12878982809481
 31
0.0
100
AcDbText
 73
     3
  0
TEXT
  5
39
330
207
100
AcDbEntity
  8
HIBINO-BASE
 62
     7
100
AcDbText
 10
171.7999999999999
 20
-101.3864721197615
 30
0.0
 40
3.257682291666666
  1
DESIGN
 41
0.7
 11
171.7999999999999
 21
-98.12878982809481
 31
0.0
100
AcDbText
 73
     3
  0
TEXT
  5
3A
330
207
100
AcDbEntity
  8
HIBINO-BASE
 62
     7
100
AcDbText
 10
246.7999999999999
 20
-101.3864721197615
 30
0.0
 40
3.257682291666666
  1
DRAWING NO.
 41
0.7
 11
246.7999999999999
 21
-98.12878982809481
 31
0.0
100
AcDbText
 73
     3
  0
TEXT
  5
3B
330
207
100
AcDbEntity
  8
HIBINO-BASE
 62
     7
100
AcDbText
 10
221.7999999999999
 20
-101.3864721197615
 30
0.0
 40
3.257682291666666
  1
CHECK
 41
0.7
 11
221.7999999999999
 21
-98.12878982809481
 31
0.0
100
AcDbText
 73
     3
  0
LINE
  5
3C
330
207
100
AcDbEntity
  8
HIBINO-BASE
  6
Continuous
 62
     7
100
AcDbLine
 10
128.7499999999999
 20
-113.9817254530948
 30
0.0
 11
136.25
 21
-106.4817254530947
 31
0.0
  0
TEXT
  5
3D
330
207
100
AcDbEntity
  8
HIBINO-BASE
 62
     7
100
AcDbText
 10
127.5
 20
-108.6996121197614
 30
0.0
 40
3.257682291666666
  1
1
 41
0.7
 11
127.5
 21
-105.4419298280948
 31
0.0
100
AcDbText
 73
     3
  0
LINE
  5
3E
330
207
100
AcDbEntity
  8
HIBINO-BASE
  6
Continuous
 62
     7
100
AcDbLine
 10
125.0
 20
-116.4817254530948
 30
0.0
 11
125.0
 21
-96.48172545309478
 31
0.0
  0
LINE
  5
3F
330
207
100
AcDbEntity
  8
HIBINO-BASE
  6
Continuous
 62
     7
100
AcDbLine
 10
145.0
 20
-116.4817254530948
 30
0.0
 11
145.0
 21
-96.48172545309478
 31
0.0
  0
LINE
  5
40
330
207
100
AcDbEntity
  8
HIBINO-BASE
  6
Continuous
 62
     7
100
AcDbLine
 10
195.0
 20
-96.48172545309478
 30
0.0
 11
195.0
 21
-116.4817254530948
 31
0.0
  0
LINE
  5
41
330
207
100
AcDbEntity
  8
HIBINO-BASE
  6
Continuous
 62
     7
100
AcDbLine
 10
245.0
 20
-96.48172545309478
 30
0.0
 11
245.0
 21
-116.4817254530948
 31
0.0
  0
LINE
  5
42
330
207
100
AcDbEntity
  8
HIBINO-BASE
  6
Continuous
 62
     7
100
AcDbLine
 10
220.0
 20
-116.4817254530948
 30
0.0
 11
220.0
 21
-96.48172545309478
 31
0.0
  0
TEXT
  5
43
330
207
100
AcDbEntity
  8
HIBINO-BASE
 62
     7
100
AcDbText
 10
146.71308
 20
-110.7544321197614
 30
0.0
 40
3.257682291666666
  1
'09.09.
 41
0.7
 11
146.71308
 21
-107.4967498280948
 31
0.0
100
AcDbText
 73
     3
  0
TEXT
  5
44
330
207
100
AcDbEntity
  8
HIBINO-BASE
 62
     7
100
AcDbText
 10
135.0
 20
-112.4496121197614
 30
0.0
 40
3.257682291666666
  1
2
 41
0.7
 11
135.0
 21
-109.1919298280948
 31
0.0
100
AcDbText
 73
     3
  0
TEXT
  5
45
330
207
100
AcDbEntity
  8
HIBINO-BASE
 62
     7
100
AcDbText
 10
107.7666666666666
 20
-112.5297254530948
 30
0.0
 40
6.515364583333332
  1
A4
 41
0.7
 11
107.7666666666666
 21
-106.0143608697615
 31
0.0
100
AcDbText
 73
     3
  0
TEXT
  5
46
330
207
100
AcDbEntity
  8
HIBINO-BASE
 62
     7
100
AcDbText
 10
101.9166666666666
 20
-101.7206354530948
 30
0.0
 40
3.257682291666666
  1
PAPER SIZE
 41
0.7
 11
101.9166666666666
 21
-98.46295316142814
 31
0.0
100
AcDbText
 73
     3
  0
TEXT
  5
47
330
207
100
AcDbEntity
  8
HIBINO-BASE
 62
     7
100
AcDbText
 10
-74.17157850640373
 20
-129.2707125296043
 30
0.0
 40
7.058311631944444
  1
Hibino-Intersound Corporation
 41
0.7
 11
-74.17157850640373
 21
-122.2124008976599
 31
0.0
100
AcDbText
 73
     3
  0
TEXT
  5
48
330
207
100
AcDbEntity
  8
HIBINO-BASE
 62
     7
100
AcDbText
 10
141.2919332079756
 20
-128.6500345286857
 30
0.0
 40
7.058311631944444
  1
ヒビノインターサウンド株式会社
 41
0.7
 11
141.2919332079756
 21
-121.5917228967413
 31
0.0
100
AcDbText
 73
     3
  0
TEXT
  5
49
330
207
100
AcDbEntity
  8
HIBINO-BASE
 62
     7
100
AcDbText
 10
197.2528452664134
 20
-110.6624137825101
 30
0.0
 40
3.257682291666666
  1
T.Ootake
 41
0.7
 11
197.2528452664134
 21
-107.4047314908435
 31
0.0
100
AcDbText
 73
     3
  0
TEXT
  5
4A
330
207
100
AcDbEntity
  8
SPEC
 62
     7
100
AcDbText
 10
-62.5
 20
386.3048145469052
 30
0.0
 40
4.8865234375
  1
仕様
 41
0.7
 11
-62.5
 21
391.1913379844052
 31
0.0
100
AcDbText
 73
     3
  0
LINE
  5
4B
330
207
100
AcDbEntity
  8
SPEC
  6
Continuous
 62
     7
100
AcDbLine
 10
-64.99999999988078
 20
383.518274546818
 30
0.0
 11
230.0000000001192
 21
383.518274546818
 31
0.0
  0
LINE
  5
4C
330
207
100
AcDbEntity
  8
SPEC
  6
Continuous
 62
     7
100
AcDbLine
 10
-64.99999999988078
 20
376.018274546818
 30
0.0
 11
230.0000000001192
 21
376.018274546818
 31
0.0
  0
LINE
  5
4D
330
207
100
AcDbEntity
  8
SPEC
  6
Continuous
 62
     7
100
AcDbLine
 10
-64.99999999988078
 20
346.018274546818
 30
0.0
 11
230.0000000001192
 21
346.018274546818
 31
0.0
  0
LINE
  5
4E
330
207
100
AcDbEntity
  8
SPEC
  6
Continuous
 62
     7
100
AcDbLine
 10
-64.99999999988078
 20
353.518274546818
 30
0.0
 11
230.0000000001192
 21
353.518274546818
 31
0.0
  0
LINE
  5
4F
330
207
100
AcDbEntity
  8
SPEC
  6
Continuous
 62
     7
100
AcDbLine
 10
-64.99999999988078
 20
361.018274546818
 30
0.0
 11
230.0000000001192
 21
361.018274546818
 31
0.0
  0
LINE
  5
50
330
207
100
AcDbEntity
  8
SPEC
  6
Continuous
 62
     7
100
AcDbLine
 10
230.0000000001192
 20
338.518274546818
 30
0.0
 11
-64.99999999988078
 21
338.518274546818
 31
0.0
  0
LINE
  5
51
330
207
100
AcDbEntity
  8
SPEC
  6
Continuous
 62
     7
100
AcDbLine
 10
-64.99999999988078
 20
368.518274546818
 30
0.0
 11
230.0000000001192
 21
368.518274546818
 31
0.0
  0
LINE
  5
52
330
207
100
AcDbEntity
  8
SPEC
  6
Continuous
 62
     7
100
AcDbLine
 10
-64.99999999988078
 20
383.518274546818
 30
0.0
 11
-64.99999999988078
 21
286.018274546818
 31
0.0
  0
LINE
  5
53
330
207
100
AcDbEntity
  8
SPEC
  6
Continuous
 62
     7
100
AcDbLine
 10
230.0000000001192
 20
383.518274546818
 30
0.0
 11
230.0000000001192
 21
286.018274546818
 31
0.0
  0
LINE
  5
54
330
207
100
AcDbEntity
  8
SPEC
  6
Continuous
 62
     7
100
AcDbLine
 10
12.36862553113552
 20
383.518274546818
 30
0.0
 11
12.36862553113552
 21
286.018274546818
 31
0.0
  0
LINE
  5
55
330
207
100
AcDbEntity
  8
SPEC
  6
Continuous
 62
     7
100
AcDbLine
 10
230.0000000001192
 20
331.018274546818
 30
0.0
 11
-64.99999999988078
 21
331.018274546818
 31
0.0
  0
LINE
  5
56
330
207
100
AcDbEntity
  8
SPEC
  6
Continuous
 62
     7
100
AcDbLine
 10
230.0000000001192
 20
323.518274546818
 30
0.0
 11
-64.99999999988078
 21
323.518274546818
 31
0.0
  0
LINE
  5
57
330
207
100
AcDbEntity
  8
SPEC
  6
Continuous
 62
     7
100
AcDbLine
 10
230.0000000001192
 20
316.018274546818
 30
0.0
 11
-64.99999999988078
 21
316.018274546818
 31
0.0
  0
LINE
  5
58
330
207
100
AcDbEntity
  8
SPEC
  6
Continuous
 62
     7
100
AcDbLine
 10
230.0000000001192
 20
308.518274546818
 30
0.0
 11
-64.99999999988078
 21
308.518274546818
 31
0.0
  0
LINE
  5
59
330
207
100
AcDbEntity
  8
SPEC
  6
Continuous
 62
     7
100
AcDbLine
 10
230.0000000001192
 20
301.018274546818
 30
0.0
 11
-64.99999999988078
 21
301.018274546818
 31
0.0
  0
LINE
  5
5A
330
207
100
AcDbEntity
  8
SPEC
  6
Continuous
 62
     7
100
AcDbLine
 10
230.0000000001192
 20
293.518274546818
 30
0.0
 11
-64.99999999988078
 21
293.518274546818
 31
0.0
  0
LINE
  5
5B
330
207
100
AcDbEntity
  8
SPEC
  6
Continuous
 62
     7
100
AcDbLine
 10
230.0000000001192
 20
286.018274546818
 30
0.0
 11
-64.99999999988078
 21
286.018274546818
 31
0.0
  0
TEXT
  5
5C
330
207
100
AcDbEntity
  8
SPEC
 62
     7
100
AcDbText
 10
-63.29423716605099
 20
377.9446517476167
 30
0.0
 40
3.800629340277777
  1
形式
 41
0.7
 11
-63.29423716605099
 21
381.7452810878945
 31
0.0
100
AcDbText
 73
     3
  0
TEXT
  5
5D
330
207
100
AcDbEntity
  8
SPEC
 62
     7
100
AcDbText
 10
13.61540542066171
 20
377.8449566821958
 30
0.0
 40
3.800629340277777
  1
コンポーネント延長機
 41
0.7
 11
13.61540542066171
 21
381.6455860224736
 31
0.0
100
AcDbText
 73
     3
  0
TEXT
  5
5E
330
207
100
AcDbEntity
  8
SPEC
 62
     7
100
AcDbText
 10
-63.28979045415114
 20
370.4247649636781
 30
0.0
 40
3.800629340277777
  1
入力ビデオ帯域
 41
0.7
 11
-63.28979045415114
 21
374.2253943039559
 31
0.0
100
AcDbText
 73
     3
  0
TEXT
  5
5F
330
207
100
AcDbEntity
  8
SPEC
 62
     7
100
AcDbText
 10
14.20285356988052
 20
370.2940077172545
 30
0.0
 40
3.800629340277777
  1
350MHz
 41
0.7
 11
14.20285356988052
 21
374.0946370575323
 31
0.0
100
AcDbText
 73
     3
  0
TEXT
  5
60
330
207
100
AcDbEntity
  8
SPEC
 62
     7
100
AcDbText
 10
-63.2335430327477
 20
363.0281994670364
 30
0.0
 40
3.800629340277777
  1
実動作帯域
 41
0.7
 11
-63.2335430327477
 21
366.8288288073142
 31
0.0
100
AcDbText
 73
     3
  0
TEXT
  5
61
330
207
100
AcDbEntity
  8
SPEC
 62
     7
100
AcDbText
 10
13.93405296854956
 20
362.987709799081
 30
0.0
 40
3.800629340277777
  1
120MHz
 41
0.7
 11
13.93405296854956
 21
366.7883391393588
 31
0.0
100
AcDbText
 73
     3
  0
TEXT
  5
62
330
207
100
AcDbEntity
  8
SPEC
 62
     7
100
AcDbText
 10
-63.29936176575301
 20
355.3286914009112
 30
0.0
 40
3.800629340277777
  1
入力ビデオ信号
 41
0.7
 11
-63.29936176575301
 21
359.129320741189
 31
0.0
100
AcDbText
 73
     3
  0
TEXT
  5
63
330
207
100
AcDbEntity
  8
SPEC
 62
     7
100
AcDbText
 10
13.89669475077539
 20
355.4110286237772
 30
0.0
 40
3.800629340277777
  1
1.2V p-p
 41
0.7
 11
13.89669475077539
 21
359.211657964055
 31
0.0
100
AcDbText
 73
     3
  0
TEXT
  5
64
330
207
100
AcDbEntity
  8
SPEC
 62
     7
100
AcDbText
 10
-63.27302182656437
 20
347.7948264142424
 30
0.0
 40
3.800629340277777
  1
入力DDC信号
 41
0.7
 11
-63.27302182656437
 21
351.5954557545202
 31
0.0
100
AcDbText
 73
     3
  0
TEXT
  5
65
330
207
100
AcDbEntity
  8
SPEC
 62
     7
100
AcDbText
 10
14.17528013588733
 20
347.7756303148395
 30
0.0
 40
3.800629340277777
  1
5V p-p(TTL)
 41
0.7
 11
14.17528013588733
 21
351.5762596551173
 31
0.0
100
AcDbText
 73
     3
  0
TEXT
  5
66
330
207
100
AcDbEntity
  8
SPEC
 62
     7
100
AcDbText
 10
-63.33185485000871
 20
340.4221568923842
 30
0.0
 40
3.800629340277777
  1
対応水平同期周波数
 41
0.7
 11
-63.33185485000871
 21
344.222786232662
 31
0.0
100
AcDbText
 73
     3
  0
TEXT
  5
67
330
207
100
AcDbEntity
  8
SPEC
 62
     7
100
AcDbText
 10
13.91006179310568
 20
340.2397210707487
 30
0.0
 40
3.800629340277777
  1
15～70kHz
 41
0.7
 11
13.91006179310568
 21
344.0403504110265
 31
0.0
100
AcDbText
 73
     3
  0
TEXT
  5
68
330
207
100
AcDbEntity
  8
SPEC
 62
     7
100
AcDbText
 10
-63.30918642574111
 20
332.9885564938738
 30
0.0
 40
3.800629340277777
  1
対応垂直同期周波数
 41
0.7
 11
-63.30918642574111
 21
336.7891858341516
 31
0.0
100
AcDbText
 73
     3
  0
TEXT
  5
69
330
207
100
AcDbEntity
  8
SPEC
 62
     7
100
AcDbText
 10
14.17892270498595
 20
332.7249464422351
 30
0.0
 40
3.800629340277777
  1
30～170Hz
 41
0.7
 11
14.17892270498595
 21
336.5255757825129
 31
0.0
100
AcDbText
 73
     3
  0
TEXT
  5
6A
330
207
100
AcDbEntity
  8
SPEC
 62
     7
100
AcDbText
 10
-64.10149484773675
 20
325.4532837414259
 30
0.0
 40
3.800629340277777
  1
ビデオ入出力端子
 41
0.7
 11
-64.10149484773675
 21
329.2539130817037
 31
0.0
100
AcDbText
 73
     3
  0
TEXT
  5
6B
330
207
100
AcDbEntity
  8
SPEC
 62
     7
100
AcDbText
 10
14.15850833544789
 20
325.5524406528419
 30
0.0
 40
3.800629340277777
  1
3RCAコンポーネント
 41
0.7
 11
14.15850833544789
 21
329.3530699931197
 31
0.0
100
AcDbText
 73
     3
  0
TEXT
  5
6C
330
207
100
AcDbEntity
  8
SPEC
 62
     7
100
AcDbText
 10
-63.32896312346007
 20
318.0333365599273
 30
0.0
 40
3.800629340277777
  1
延長用コネクター
 41
0.7
 11
-63.32896312346007
 21
321.8339659002051
 31
0.0
100
AcDbText
 73
     3
  0
TEXT
  5
6D
330
207
100
AcDbEntity
  8
SPEC
 62
     7
100
AcDbText
 10
14.17991916263409
 20
317.8654919294753
 30
0.0
 40
3.800629340277777
  1
RJ-45
 41
0.7
 11
14.17991916263409
 21
321.6661212697531
 31
0.0
100
AcDbText
 73
     3
  0
TEXT
  5
6E
330
207
100
AcDbEntity
  8
SPEC
 62
     7
100
AcDbText
 10
-63.41013861273886
 20
295.6954670303172
 30
0.0
 40
3.800629340277777
  1
寸法
 41
0.7
 11
-63.41013861273886
 21
299.4960963705951
 31
0.0
100
AcDbText
 73
     3
  0
TEXT
  5
6F
330
207
100
AcDbEntity
  8
SPEC
 62
     7
100
AcDbText
 10
-63.33510310949986
 20
287.902608199885
 30
0.0
 40
3.800629340277777
  1
重量
 41
0.7
 11
-63.33510310949986
 21
291.7032375401628
 31
0.0
100
AcDbText
 73
     3
  0
TEXT
  5
70
330
207
100
AcDbEntity
  8
SPEC
 62
     7
100
AcDbText
 10
-63.3764747746644
 20
310.6047085564746
 30
0.0
 40
3.800629340277777
  1
電源
 41
0.7
 11
-63.3764747746644
 21
314.4053378967524
 31
0.0
100
AcDbText
 73
     3
  0
TEXT
  5
71
330
207
100
AcDbEntity
  8
SPEC
 62
     7
100
AcDbText
 10
14.16623753257596
 20
310.1796575873015
 30
0.0
 40
3.800629340277777
  1
5V DC
 41
0.7
 11
14.16623753257596
 21
313.9802869275793
 31
0.0
100
AcDbText
 73
     3
  0
TEXT
  5
72
330
207
100
AcDbEntity
  8
SPEC
 62
     7
100
AcDbText
 10
14.18410275299879
 20
295.4976766446844
 30
0.0
 40
3.800629340277777
  1
53(W)\U+00D732(H)\U+00D791(D)mm(突起部含まず)、(センダー、レシーバー共に)
 41
0.7
 11
14.18410275299879
 21
299.2983059849622
 31
0.0
100
AcDbText
 73
     3
  0
TEXT
  5
73
330
207
100
AcDbEntity
  8
SPEC
 62
     7
100
AcDbText
 10
14.08082954127246
 20
288.2897530291364
 30
0.0
 40
3.800629340277777
  1
約110g(センダー、レシーバー共に)
 41
0.7
 11
14.08082954127246
 21
292.0903823694142
 31
0.0
100
AcDbText
 73
     3
  0
TEXT
  5
74
330
207
100
AcDbEntity
  8
SPEC
 62
     7
100
AcDbText
 10
-63.29126248360733
 20
303.1130715239124
 30
0.0
 40
3.800629340277777
  1
消費電力
 41
0.7
 11
-63.29126248360733
 21
306.9137008641902
 31
0.0
100
AcDbText
 73
     3
  0
TEXT
  5
75
330
207
100
AcDbEntity
  8
SPEC
 62
     7
100
AcDbText
 10
14.19635142650213
 20
302.8688165137737
 30
0.0
 40
3.800629340277777
  1
5W(最大)
 41
0.7
 11
14.19635142650213
 21
306.6694458540515
 31
0.0
100
AcDbText
 73
     3
  0
TEXT
  5
76
330
207
100
AcDbEntity
  8
DIMNSIONS
 62
     7
100
AcDbText
 10
60.0
 20
-91.94274545309479
 30
0.0
 40
4.8865234375
  1
(単位：mm)
 41
0.7
 11
60.0
 21
-87.05622201559478
 31
0.0
100
AcDbText
 73
     3
  0
LINE
  5
77
330
207
100
AcDbEntity
  8
DIMNSIONS
  6
Continuous
 62
     7
100
AcDbLine
 10
-29.00000000094373
 20
62.50000000017529
 30
0.0
 11
-41.50000000104372
 21
62.50000000017529
 31
0.0
  0
LINE
  5
78
330
207
100
AcDbEntity
  8
DIMNSIONS
  6
Continuous
 62
     7
100
AcDbLine
 10
-29.00000000094373
 20
153.5000000001753
 30
0.0
 11
-41.50000000104372
 21
153.5000000001753
 31
0.0
  0
LINE
  5
79
330
207
100
AcDbEntity
  8
DIMNSIONS
  6
Continuous
 62
     7
100
AcDbLine
 10
-37.50000000104372
 20
62.50000000017529
 30
0.0
 11
-37.50000000104372
 21
153.5000000001753
 31
0.0
  0
LINE
  5
7A
330
207
100
AcDbEntity
  8
DIMNSIONS
  6
Continuous
 62
     7
100
AcDbLine
 10
-37.50000000104372
 20
62.50000000017529
 30
0.0
 11
-38.84007959134421
 21
67.50124511736278
 31
0.0
  0
LINE
  5
7B
330
207
100
AcDbEntity
  8
DIMNSIONS
  6
Continuous
 62
     7
100
AcDbLine
 10
-37.50000000104372
 20
62.50000000017529
 30
0.0
 11
-36.15992041074323
 21
67.50124511736278
 31
0.0
  0
LINE
  5
7C
330
207
100
AcDbEntity
  8
DIMNSIONS
  6
Continuous
 62
     7
100
AcDbLine
 10
-37.50000000104372
 20
153.5000000001753
 30
0.0
 11
-36.15992041074323
 21
148.4987548829878
 31
0.0
  0
LINE
  5
7D
330
207
100
AcDbEntity
  8
DIMNSIONS
  6
Continuous
 62
     7
100
AcDbLine
 10
-37.50000000104372
 20
153.5000000001753
 30
0.0
 11
-38.84007959134421
 21
148.4987548829878
 31
0.0
  0
TEXT
  5
7E
330
207
100
AcDbEntity
  8
DIMNSIONS
 62
     7
100
AcDbText
 10
-39.48777777882146
 20
104.4722222223975
 30
0.0
 40
5.429470486111111
  1
91
 50
90.0
 41
0.7
 11
-44.91724826493257
 21
104.4722222223975
 31
0.0
100
AcDbText
 73
     3
  0
LINE
  5
7F
330
207
100
AcDbEntity
  8
DIMNSIONS
  6
Continuous
 62
     7
100
AcDbLine
 10
-24.99999999961371
 20
-3.999999999824695
 30
0.0
 11
-24.99999999961371
 21
-16.49999999982469
 31
0.0
  0
LINE
  5
80
330
207
100
AcDbEntity
  8
DIMNSIONS
  6
Continuous
 62
     7
100
AcDbLine
 10
28.00000000038628
 20
-3.999999999824695
 30
0.0
 11
28.00000000038628
 21
-16.49999999982469
 31
0.0
  0
LINE
  5
81
330
207
100
AcDbEntity
  8
DIMNSIONS
  6
Continuous
 62
     7
100
AcDbLine
 10
-24.99999999961371
 20
-12.49999999982469
 30
0.0
 11
28.00000000038628
 21
-12.49999999982469
 31
0.0
  0
LINE
  5
82
330
207
100
AcDbEntity
  8
DIMNSIONS
  6
Continuous
 62
     7
100
AcDbLine
 10
-24.99999999961371
 20
-12.49999999982469
 30
0.0
 11
-19.99875488242621
 21
-11.1599204095242
 31
0.0
  0
LINE
  5
83
330
207
100
AcDbEntity
  8
DIMNSIONS
  6
Continuous
 62
     7
100
AcDbLine
 10
-24.99999999961371
 20
-12.49999999982469
 30
0.0
 11
-19.99875488242621
 21
-13.84007959012518
 31
0.0
  0
LINE
  5
84
330
207
100
AcDbEntity
  8
DIMNSIONS
  6
Continuous
 62
     7
100
AcDbLine
 10
28.00000000038628
 20
-12.49999999982469
 30
0.0
 11
22.99875488319878
 21
-13.84007959012518
 31
0.0
  0
LINE
  5
85
330
207
100
AcDbEntity
  8
DIMNSIONS
  6
Continuous
 62
     7
100
AcDbLine
 10
28.00000000038628
 20
-12.49999999982469
 30
0.0
 11
22.99875488319878
 21
-11.1599204095242
 31
0.0
  0
TEXT
  5
86
330
207
100
AcDbEntity
  8
DIMNSIONS
 62
     7
100
AcDbText
 10
-2.027777777391478
 20
-10.51222222204694
 30
0.0
 40
5.429470486111111
  1
53
 41
0.7
 11
-2.027777777391477
 21
-5.082751735935829
 31
0.0
100
AcDbText
 73
     3
  0
LINE
  5
87
330
207
100
AcDbEntity
  8
DIMNSIONS
  6
Continuous
 62
     7
100
AcDbLine
 10
-28.99999999961371
 20
0.0000000001753051
 30
0.0
 11
-41.50000000104372
 21
0.0000000001753051
 31
0.0
  0
LINE
  5
88
330
207
100
AcDbEntity
  8
DIMNSIONS
  6
Continuous
 62
     7
100
AcDbLine
 10
-27.49999999961371
 20
32.00000000017529
 30
0.0
 11
-41.50000000104372
 21
32.00000000017529
 31
0.0
  0
LINE
  5
89
330
207
100
AcDbEntity
  8
DIMNSIONS
  6
Continuous
 62
     7
100
AcDbLine
 10
-37.50000000104372
 20
0.0000000001753051
 30
0.0
 11
-37.50000000104372
 21
32.00000000017529
 31
0.0
  0
LINE
  5
8A
330
207
100
AcDbEntity
  8
DIMNSIONS
  6
Continuous
 62
     7
100
AcDbLine
 10
-37.50000000104372
 20
0.0000000001753051
 30
0.0
 11
-38.84007959134421
 21
5.0012451173628
 31
0.0
  0
LINE
  5
8B
330
207
100
AcDbEntity
  8
DIMNSIONS
  6
Continuous
 62
     7
100
AcDbLine
 10
-37.50000000104372
 20
0.0000000001753051
 30
0.0
 11
-36.15992041074323
 21
5.0012451173628
 31
0.0
  0
LINE
  5
8C
330
207
100
AcDbEntity
  8
DIMNSIONS
  6
Continuous
 62
     7
100
AcDbLine
 10
-37.50000000104372
 20
32.00000000017529
 30
0.0
 11
-36.15992041074323
 21
26.9987548829878
 31
0.0
  0
LINE
  5
8D
330
207
100
AcDbEntity
  8
DIMNSIONS
  6
Continuous
 62
     7
100
AcDbLine
 10
-37.50000000104372
 20
32.00000000017529
 30
0.0
 11
-38.84007959134421
 21
26.9987548829878
 31
0.0
  0
TEXT
  5
8E
330
207
100
AcDbEntity
  8
DIMNSIONS
 62
     7
100
AcDbText
 10
-39.48777777882146
 20
12.47222222239753
 30
0.0
 40
5.429470486111111
  1
32
 50
90.0
 41
0.7
 11
-44.91724826493257
 21
12.47222222239753
 31
0.0
100
AcDbText
 73
     3
  0
LINE
  5
8F
330
207
100
AcDbEntity
  8
DIMNSIONS
  6
Continuous
 62
     7
100
AcDbLine
 10
-23.94392201078669
 20
-1.999999999824694
 30
0.0
 11
-41.50000000104372
 21
-1.999999999824694
 31
0.0
  0
LINE
  5
90
330
207
100
AcDbEntity
  8
DIMNSIONS
  6
Continuous
 62
     7
100
AcDbLine
 10
-28.99999999961371
 20
0.0000000001753051
 30
0.0
 11
-41.50000000104372
 21
0.0000000001753051
 31
0.0
  0
LINE
  5
91
330
207
100
AcDbEntity
  8
DIMNSIONS
  6
Continuous
 62
     7
100
AcDbLine
 10
-37.50000000104372
 20
0.0000000001753051
 30
0.0
 11
-37.50000000104372
 21
-1.999999999824694
 31
0.0
  0
LINE
  5
92
330
207
100
AcDbEntity
  8
DIMNSIONS
  6
Continuous
 62
     7
100
AcDbLine
 10
-37.50000000104372
 20
-1.999999999824694
 30
0.0
 11
-37.50000000104372
 21
-12.92777777760247
 31
0.0
  0
LINE
  5
93
330
207
100
AcDbEntity
  8
DIMNSIONS
  6
Continuous
 62
     7
100
AcDbLine
 10
-37.50000000104372
 20
-1.999999999824694
 30
0.0
 11
-36.15992041074323
 21
-7.001245117012189
 31
0.0
  0
LINE
  5
94
330
207
100
AcDbEntity
  8
DIMNSIONS
  6
Continuous
 62
     7
100
AcDbLine
 10
-37.50000000104372
 20
-1.999999999824694
 30
0.0
 11
-38.84007959134421
 21
-7.001245117012189
 31
0.0
  0
LINE
  5
95
330
207
100
AcDbEntity
  8
DIMNSIONS
  6
Continuous
 62
     7
100
AcDbLine
 10
-37.50000000104372
 20
0.0000000001753051
 30
0.0
 11
-37.50000000104372
 21
10.0000000001753
 31
0.0
  0
LINE
  5
96
330
207
100
AcDbEntity
  8
DIMNSIONS
  6
Continuous
 62
     7
100
AcDbLine
 10
-37.50000000104372
 20
0.0000000001753051
 30
0.0
 11
-38.84007959134421
 21
5.0012451173628
 31
0.0
  0
LINE
  5
97
330
207
100
AcDbEntity
  8
DIMNSIONS
  6
Continuous
 62
     7
100
AcDbLine
 10
-37.50000000104372
 20
0.0000000001753051
 30
0.0
 11
-36.15992041074323
 21
5.0012451173628
 31
0.0
  0
TEXT
  5
98
330
207
100
AcDbEntity
  8
DIMNSIONS
 62
     7
100
AcDbText
 10
-39.48777777882146
 20
-12.92777777760247
 30
0.0
 40
5.429470486111111
  1
2
 50
90.0
 41
0.7
 11
-44.91724826493257
 21
-12.92777777760247
 31
0.0
100
AcDbText
 73
     3
  0
LINE
  5
99
330
207
100
AcDbEntity
  8
DIMNSIONS
  6
Continuous
 62
     7
100
AcDbLine
 10
-29.00000000094373
 20
153.5000000001753
 30
0.0
 11
-41.50000000104372
 21
153.5000000001753
 31
0.0
  0
LINE
  5
9A
330
207
100
AcDbEntity
  8
DIMNSIONS
  6
Continuous
 62
     7
100
AcDbLine
 10
-21.91231407724372
 20
159.5000000001753
 30
0.0
 11
-41.50000000104372
 21
159.5000000001753
 31
0.0
  0
LINE
  5
9B
330
207
100
AcDbEntity
  8
DIMNSIONS
  6
Continuous
 62
     7
100
AcDbLine
 10
-37.50000000104372
 20
159.5000000001753
 30
0.0
 11
-37.50000000104372
 21
153.5000000001753
 31
0.0
  0
LINE
  5
9C
330
207
100
AcDbEntity
  8
DIMNSIONS
  6
Continuous
 62
     7
100
AcDbLine
 10
-37.50000000104372
 20
153.5000000001753
 30
0.0
 11
-37.50000000104372
 21
143.5000000001753
 31
0.0
  0
LINE
  5
9D
330
207
100
AcDbEntity
  8
DIMNSIONS
  6
Continuous
 62
     7
100
AcDbLine
 10
-37.50000000104372
 20
153.5000000001753
 30
0.0
 11
-36.15992041074323
 21
148.4987548829878
 31
0.0
  0
LINE
  5
9E
330
207
100
AcDbEntity
  8
DIMNSIONS
  6
Continuous
 62
     7
100
AcDbLine
 10
-37.50000000104372
 20
153.5000000001753
 30
0.0
 11
-38.84007959134421
 21
148.4987548829878
 31
0.0
  0
LINE
  5
9F
330
207
100
AcDbEntity
  8
DIMNSIONS
  6
Continuous
 62
     7
100
AcDbLine
 10
-37.50000000104372
 20
159.5000000001753
 30
0.0
 11
-37.50000000104372
 21
169.8277777779531
 31
0.0
  0
LINE
  5
A0
330
207
100
AcDbEntity
  8
DIMNSIONS
  6
Continuous
 62
     7
100
AcDbLine
 10
-37.50000000104372
 20
159.5000000001753
 30
0.0
 11
-38.84007959134421
 21
164.5012451173628
 31
0.0
  0
LINE
  5
A1
330
207
100
AcDbEntity
  8
DIMNSIONS
  6
Continuous
 62
     7
100
AcDbLine
 10
-37.50000000104372
 20
159.5000000001753
 30
0.0
 11
-36.15992041074323
 21
164.5012451173628
 31
0.0
  0
TEXT
  5
A2
330
207
100
AcDbEntity
  8
DIMNSIONS
 62
     7
100
AcDbText
 10
-39.48777777882146
 20
166.3000000001753
 30
0.0
 40
5.429470486111111
  1
6
 50
90.0
 41
0.7
 11
-44.91724826493257
 21
166.3000000001753
 31
0.0
100
AcDbText
 73
     3
  0
LINE
  5
A3
330
207
100
AcDbEntity
  8
DIMNSIONS
  6
Continuous
 62
     7
100
AcDbLine
 10
133.4999999996015
 20
62.5000000002581
 30
0.0
 11
120.9999999995015
 21
62.5000000002581
 31
0.0
  0
LINE
  5
A4
330
207
100
AcDbEntity
  8
DIMNSIONS
  6
Continuous
 62
     7
100
AcDbLine
 10
133.4999999996015
 20
153.5000000002576
 30
0.0
 11
120.9999999995015
 21
153.5000000002576
 31
0.0
  0
LINE
  5
A5
330
207
100
AcDbEntity
  8
DIMNSIONS
  6
Continuous
 62
     7
100
AcDbLine
 10
124.9999999995015
 20
62.5000000002581
 30
0.0
 11
124.9999999995015
 21
153.5000000002576
 31
0.0
  0
LINE
  5
A6
330
207
100
AcDbEntity
  8
DIMNSIONS
  6
Continuous
 62
     7
100
AcDbLine
 10
124.9999999995015
 20
62.5000000002581
 30
0.0
 11
123.659920409201
 21
67.50124511744559
 31
0.0
  0
LINE
  5
A7
330
207
100
AcDbEntity
  8
DIMNSIONS
  6
Continuous
 62
     7
100
AcDbLine
 10
124.9999999995015
 20
62.5000000002581
 30
0.0
 11
126.340079589802
 21
67.50124511744559
 31
0.0
  0
LINE
  5
A8
330
207
100
AcDbEntity
  8
DIMNSIONS
  6
Continuous
 62
     7
100
AcDbLine
 10
124.9999999995015
 20
153.5000000002576
 30
0.0
 11
126.340079589802
 21
148.4987548830702
 31
0.0
  0
LINE
  5
A9
330
207
100
AcDbEntity
  8
DIMNSIONS
  6
Continuous
 62
     7
100
AcDbLine
 10
124.9999999995015
 20
153.5000000002576
 30
0.0
 11
123.659920409201
 21
148.4987548830702
 31
0.0
  0
TEXT
  5
AA
330
207
100
AcDbEntity
  8
DIMNSIONS
 62
     7
100
AcDbText
 10
123.0122222217238
 20
104.4722222224801
 30
0.0
 40
5.429470486111111
  1
91
 50
90.0
 41
0.7
 11
117.5827517356127
 21
104.4722222224801
 31
0.0
100
AcDbText
 73
     3
  0
LINE
  5
AB
330
207
100
AcDbEntity
  8
DIMNSIONS
  6
Continuous
 62
     7
100
AcDbLine
 10
133.4999999998015
 20
0.0000000002580975
 30
0.0
 11
120.9999999995015
 21
0.0000000002580975
 31
0.0
  0
LINE
  5
AC
330
207
100
AcDbEntity
  8
DIMNSIONS
  6
Continuous
 62
     7
100
AcDbLine
 10
134.9999999998015
 20
32.00000000025809
 30
0.0
 11
120.9999999995015
 21
32.00000000025809
 31
0.0
  0
LINE
  5
AD
330
207
100
AcDbEntity
  8
DIMNSIONS
  6
Continuous
 62
     7
100
AcDbLine
 10
124.9999999995015
 20
0.0000000002580975
 30
0.0
 11
124.9999999995015
 21
32.00000000025809
 31
0.0
  0
LINE
  5
AE
330
207
100
AcDbEntity
  8
DIMNSIONS
  6
Continuous
 62
     7
100
AcDbLine
 10
124.9999999995015
 20
0.0000000002580975
 30
0.0
 11
123.659920409201
 21
5.001245117445591
 31
0.0
  0
LINE
  5
AF
330
207
100
AcDbEntity
  8
DIMNSIONS
  6
Continuous
 62
     7
100
AcDbLine
 10
124.9999999995015
 20
0.0000000002580975
 30
0.0
 11
126.340079589802
 21
5.001245117445591
 31
0.0
  0
LINE
  5
B0
330
207
100
AcDbEntity
  8
DIMNSIONS
  6
Continuous
 62
     7
100
AcDbLine
 10
124.9999999995015
 20
32.00000000025809
 30
0.0
 11
126.340079589802
 21
26.99875488307061
 31
0.0
  0
LINE
  5
B1
330
207
100
AcDbEntity
  8
DIMNSIONS
  6
Continuous
 62
     7
100
AcDbLine
 10
124.9999999995015
 20
32.00000000025809
 30
0.0
 11
123.659920409201
 21
26.99875488307061
 31
0.0
  0
TEXT
  5
B2
330
207
100
AcDbEntity
  8
DIMNSIONS
 62
     7
100
AcDbText
 10
123.0122222217238
 20
12.47222222248032
 30
0.0
 40
5.429470486111111
  1
32
 50
90.0
 41
0.7
 11
117.5827517356127
 21
12.47222222248032
 31
0.0
100
AcDbText
 73
     3
  0
LINE
  5
B3
330
207
100
AcDbEntity
  8
DIMNSIONS
  6
Continuous
 62
     7
100
AcDbLine
 10
138.5560779886286
 20
-1.999999999741902
 30
0.0
 11
120.9999999995015
 21
-1.999999999741902
 31
0.0
  0
LINE
  5
B4
330
207
100
AcDbEntity
  8
DIMNSIONS
  6
Continuous
 62
     7
100
AcDbLine
 10
133.4999999998015
 20
0.0000000002580975
 30
0.0
 11
120.9999999995015
 21
0.0000000002580975
 31
0.0
  0
LINE
  5
B5
330
207
100
AcDbEntity
  8
DIMNSIONS
  6
Continuous
 62
     7
100
AcDbLine
 10
124.9999999995015
 20
0.0000000002580975
 30
0.0
 11
124.9999999995015
 21
-1.999999999741902
 31
0.0
  0
LINE
  5
B6
330
207
100
AcDbEntity
  8
DIMNSIONS
  6
Continuous
 62
     7
100
AcDbLine
 10
124.9999999995015
 20
-1.999999999741902
 30
0.0
 11
124.9999999995015
 21
-13.72777777751969
 31
0.0
  0
LINE
  5
B7
330
207
100
AcDbEntity
  8
DIMNSIONS
  6
Continuous
 62
     7
100
AcDbLine
 10
124.9999999995015
 20
-1.999999999741902
 30
0.0
 11
126.340079589802
 21
-7.001245116929396
 31
0.0
  0
LINE
  5
B8
330
207
100
AcDbEntity
  8
DIMNSIONS
  6
Continuous
 62
     7
100
AcDbLine
 10
124.9999999995015
 20
-1.999999999741902
 30
0.0
 11
123.659920409201
 21
-7.001245116929396
 31
0.0
  0
LINE
  5
B9
330
207
100
AcDbEntity
  8
DIMNSIONS
  6
Continuous
 62
     7
100
AcDbLine
 10
124.9999999995015
 20
0.0000000002580975
 30
0.0
 11
124.9999999995015
 21
10.0000000002581
 31
0.0
  0
LINE
  5
BA
330
207
100
AcDbEntity
  8
DIMNSIONS
  6
Continuous
 62
     7
100
AcDbLine
 10
124.9999999995015
 20
0.0000000002580975
 30
0.0
 11
123.659920409201
 21
5.001245117445591
 31
0.0
  0
LINE
  5
BB
330
207
100
AcDbEntity
  8
DIMNSIONS
  6
Continuous
 62
     7
100
AcDbLine
 10
124.9999999995015
 20
0.0000000002580975
 30
0.0
 11
126.340079589802
 21
5.001245117445591
 31
0.0
  0
TEXT
  5
BC
330
207
100
AcDbEntity
  8
DIMNSIONS
 62
     7
100
AcDbText
 10
123.0122222217238
 20
-13.72777777751969
 30
0.0
 40
5.429470486111111
  1
2
 50
90.0
 41
0.7
 11
117.5827517356127
 21
-13.72777777751969
 31
0.0
100
AcDbText
 73
     3
  0
LINE
  5
BD
330
207
100
AcDbEntity
  8
DIMNSIONS
  6
Continuous
 62
     7
100
AcDbLine
 10
133.4999999996015
 20
153.5000000002576
 30
0.0
 11
120.9999999995015
 21
153.5000000002576
 31
0.0
  0
LINE
  5
BE
330
207
100
AcDbEntity
  8
DIMNSIONS
  6
Continuous
 62
     7
100
AcDbLine
 10
140.5876859233015
 20
159.5000000002577
 30
0.0
 11
120.9999999995015
 21
159.5000000002577
 31
0.0
  0
LINE
  5
BF
330
207
100
AcDbEntity
  8
DIMNSIONS
  6
Continuous
 62
     7
100
AcDbLine
 10
124.9999999995015
 20
159.5000000002577
 30
0.0
 11
124.9999999995015
 21
153.5000000002576
 31
0.0
  0
LINE
  5
C0
330
207
100
AcDbEntity
  8
DIMNSIONS
  6
Continuous
 62
     7
100
AcDbLine
 10
124.9999999995015
 20
153.5000000002576
 30
0.0
 11
124.9999999995015
 21
143.5000000002576
 31
0.0
  0
LINE
  5
C1
330
207
100
AcDbEntity
  8
DIMNSIONS
  6
Continuous
 62
     7
100
AcDbLine
 10
124.9999999995015
 20
153.5000000002576
 30
0.0
 11
126.340079589802
 21
148.4987548830702
 31
0.0
  0
LINE
  5
C2
330
207
100
AcDbEntity
  8
DIMNSIONS
  6
Continuous
 62
     7
100
AcDbLine
 10
124.9999999995015
 20
153.5000000002576
 30
0.0
 11
123.659920409201
 21
148.4987548830702
 31
0.0
  0
LINE
  5
C3
330
207
100
AcDbEntity
  8
DIMNSIONS
  6
Continuous
 62
     7
100
AcDbLine
 10
124.9999999995015
 20
159.5000000002577
 30
0.0
 11
124.9999999995015
 21
169.8277777780355
 31
0.0
  0
LINE
  5
C4
330
207
100
AcDbEntity
  8
DIMNSIONS
  6
Continuous
 62
     7
100
AcDbLine
 10
124.9999999995015
 20
159.5000000002577
 30
0.0
 11
123.659920409201
 21
164.5012451174452
 31
0.0
  0
LINE
  5
C5
330
207
100
AcDbEntity
  8
DIMNSIONS
  6
Continuous
 62
     7
100
AcDbLine
 10
124.9999999995015
 20
159.5000000002577
 30
0.0
 11
126.340079589802
 21
164.5012451174452
 31
0.0
  0
TEXT
  5
C6
330
207
100
AcDbEntity
  8
DIMNSIONS
 62
     7
100
AcDbText
 10
123.0122222217238
 20
166.3000000002577
 30
0.0
 40
5.429470486111111
  1
6
 50
90.0
 41
0.7
 11
117.5827517356127
 21
166.3000000002577
 31
0.0
100
AcDbText
 73
     3
  0
LINE
  5
C7
330
207
100
AcDbEntity
  8
DIMNSIONS
  6
Continuous
 62
     7
100
AcDbLine
 10
137.4999999998015
 20
-3.999999999741903
 30
0.0
 11
137.4999999998015
 21
-16.4999999997419
 31
0.0
  0
LINE
  5
C8
330
207
100
AcDbEntity
  8
DIMNSIONS
  6
Continuous
 62
     7
100
AcDbLine
 10
190.4999999998016
 20
-3.999999999741903
 30
0.0
 11
190.4999999998016
 21
-16.4999999997419
 31
0.0
  0
LINE
  5
C9
330
207
100
AcDbEntity
  8
DIMNSIONS
  6
Continuous
 62
     7
100
AcDbLine
 10
137.4999999998015
 20
-12.4999999997419
 30
0.0
 11
190.4999999998016
 21
-12.4999999997419
 31
0.0
  0
LINE
  5
CA
330
207
100
AcDbEntity
  8
DIMNSIONS
  6
Continuous
 62
     7
100
AcDbLine
 10
137.4999999998015
 20
-12.4999999997419
 30
0.0
 11
142.501245116989
 21
-11.15992040944141
 31
0.0
  0
LINE
  5
CB
330
207
100
AcDbEntity
  8
DIMNSIONS
  6
Continuous
 62
     7
100
AcDbLine
 10
137.4999999998015
 20
-12.4999999997419
 30
0.0
 11
142.501245116989
 21
-13.84007959004239
 31
0.0
  0
LINE
  5
CC
330
207
100
AcDbEntity
  8
DIMNSIONS
  6
Continuous
 62
     7
100
AcDbLine
 10
190.4999999998016
 20
-12.4999999997419
 30
0.0
 11
185.4987548826141
 21
-13.84007959004239
 31
0.0
  0
LINE
  5
CD
330
207
100
AcDbEntity
  8
DIMNSIONS
  6
Continuous
 62
     7
100
AcDbLine
 10
190.4999999998016
 20
-12.4999999997419
 30
0.0
 11
185.4987548826141
 21
-11.15992040944141
 31
0.0
  0
TEXT
  5
CE
330
207
100
AcDbEntity
  8
DIMNSIONS
 62
     7
100
AcDbText
 10
160.4722222220238
 20
-10.51222222196415
 30
0.0
 40
5.429470486111111
  1
53
 41
0.7
 11
160.4722222220238
 21
-5.082751735853037
 31
0.0
100
AcDbText
 73
     3
  0
TEXT
  5
CF
330
207
100
AcDbEntity
  8
DATA
 62
     7
100
AcDbText
 10
-60.0
 20
-108.0057254530948
 30
0.0
 40
3.257682291666666
  1
仕様および外観は予告なく変更されることがありますので、ご了承ください。
 41
0.7
 11
-60.0
 21
-104.7480431614282
 31
0.0
100
AcDbText
 73
     3
  0
TEXT
  5
D0
330
207
100
AcDbEntity
  8
DATA
 62
     7
100
AcDbText
 10
199.7
 20
-94.3395480330154
 30
0.0
 40
4.8865234375
  1
EXT-COMP-141N
 41
0.7
 11
199.7
 21
-89.45302459551539
 31
0.0
100
AcDbText
 73
     3
  0
TEXT
  5
D1
330
207
100
AcDbEntity
  8
DATA
 62
     7
100
AcDbText
 10
199.7760867538855
 20
-78.45971436433984
 30
0.0
 40
4.8865234375
  1
Gefen
 41
0.7
 11
199.7760867538855
 21
-73.57319092683984
 31
0.0
100
AcDbText
 73
     3
  0
TEXT
  5
D2
330
207
100
AcDbEntity
  8
DATA
 62
     7
100
AcDbText
 10
195.8
 20
-85.83751449847676
 30
0.0
 40
3.257682291666666
  1
コンポーネント延長機
 41
0.7
 11
195.8
 21
-82.5798322068101
 31
0.0
100
AcDbText
 73
     3
  0
LINE
  5
D3
330
207
100
AcDbEntity
  8
DATA
  6
Continuous
 62
     7
100
AcDbLine
 10
-25.0000000010137
 20
62.50000000017529
 30
0.0
 11
-25.0000000010137
 21
153.5000000001753
 31
0.0
  0
LINE
  5
D4
330
207
100
AcDbEntity
  8
DATA
  6
Continuous
 62
     7
100
AcDbLine
 10
27.99999999898629
 20
62.50000000017529
 30
0.0
 11
-25.0000000010137
 21
62.50000000017529
 31
0.0
  0
LINE
  5
D5
330
207
100
AcDbEntity
  8
DATA
  6
Continuous
 62
     7
100
AcDbLine
 10
27.99999999898629
 20
153.5000000001753
 30
0.0
 11
27.99999999898629
 21
62.50000000017529
 31
0.0
  0
LINE
  5
D6
330
207
100
AcDbEntity
  8
DATA
  6
Continuous
 62
     7
100
AcDbLine
 10
-25.0000000010137
 20
153.5000000001753
 30
0.0
 11
27.99999999898629
 21
153.5000000001753
 31
0.0
  0
LINE
  5
D7
330
207
100
AcDbEntity
  8
DATA
  6
Continuous
 62
     7
100
AcDbLine
 10
-24.99999999961371
 20
0.0000000001753051
 30
0.0
 11
-24.99999999961371
 21
30.50000000017529
 31
0.0
  0
LINE
  5
D8
330
207
100
AcDbEntity
  8
DATA
  6
Continuous
 62
     7
100
AcDbLine
 10
28.00000000038628
 20
0.0000000001753051
 30
0.0
 11
16.00000000038628
 21
0.0000000001753051
 31
0.0
  0
LINE
  5
D9
330
207
100
AcDbEntity
  8
DATA
  6
Continuous
 62
     7
100
AcDbLine
 10
-12.9999999996137
 20
0.0000000001753051
 30
0.0
 11
-24.99999999961371
 21
0.0000000001753051
 31
0.0
  0
LINE
  5
DA
330
207
100
AcDbEntity
  8
DATA
  6
Continuous
 62
     7
100
AcDbLine
 10
28.00000000038628
 20
30.50000000017529
 30
0.0
 11
28.00000000038628
 21
0.0000000001753051
 31
0.0
  0
LINE
  5
DB
330
207
100
AcDbEntity
  8
DATA
  6
Continuous
 62
     7
100
AcDbLine
 10
-23.4999999996137
 20
32.00000000017529
 30
0.0
 11
26.50000000038628
 21
32.00000000017529
 31
0.0
  0
LINE
  5
DC
330
207
100
AcDbEntity
  8
DATA
  6
Continuous
 62
     7
100
AcDbLine
 10
-24.99999999961371
 20
2.000000000175304
 30
0.0
 11
28.00000000038628
 21
2.000000000175304
 31
0.0
  0
LINE
  5
DD
330
207
100
AcDbEntity
  8
DATA
  6
Continuous
 62
     7
100
AcDbLine
 10
-12.9999999996137
 20
0.0000000001753051
 30
0.0
 11
-12.9999999996137
 21
2.000000000175304
 31
0.0
  0
LINE
  5
DE
330
207
100
AcDbEntity
  8
DATA
  6
Continuous
 62
     7
100
AcDbLine
 10
16.00000000038628
 20
2.000000000175304
 30
0.0
 11
16.00000000038628
 21
0.0000000001753051
 31
0.0
  0
LINE
  5
DF
330
207
100
AcDbEntity
  8
DATA
  6
Continuous
 62
     7
100
AcDbLine
 10
-6.587685923306239
 20
11.15198755685114
 30
0.0
 11
-6.587685923306239
 21
24.45198755685107
 31
0.0
  0
LINE
  5
E0
330
207
100
AcDbEntity
  8
DATA
  6
Continuous
 62
     7
100
AcDbLine
 10
9.112314076693692
 20
11.15198755685114
 30
0.0
 11
9.112314076693692
 21
24.45198755685107
 31
0.0
  0
LINE
  5
E1
330
207
100
AcDbEntity
  8
DATA
  6
Continuous
 62
     7
100
AcDbLine
 10
9.112314076693692
 20
24.45198755685107
 30
0.0
 11
-6.587685923306239
 21
24.45198755685107
 31
0.0
  0
LINE
  5
E2
330
207
100
AcDbEntity
  8
DATA
  6
Continuous
 62
     7
100
AcDbLine
 10
9.112314076693692
 20
11.15198755685114
 30
0.0
 11
-6.587685923306239
 21
11.15198755685114
 31
0.0
  0
LINE
  5
E3
330
207
100
AcDbEntity
  8
DATA
  6
Continuous
 62
     7
100
AcDbLine
 10
7.41231407669376
 20
14.15198755685111
 30
0.0
 11
-4.887685923306307
 21
14.15198755685111
 31
0.0
  0
LINE
  5
E4
330
207
100
AcDbEntity
  8
DATA
  6
Continuous
 62
     7
100
AcDbLine
 10
7.41231407669376
 20
14.15198755685111
 30
0.0
 11
7.41231407669376
 21
21.45198755685109
 31
0.0
  0
LINE
  5
E5
330
207
100
AcDbEntity
  8
DATA
  6
Continuous
 62
     7
100
AcDbLine
 10
-4.887685923306307
 20
14.15198755685111
 30
0.0
 11
-4.887685923306307
 21
21.45198755685109
 31
0.0
  0
LINE
  5
E6
330
207
100
AcDbEntity
  8
DATA
  6
Continuous
 62
     7
100
AcDbLine
 10
3.487314076693692
 20
24.45198755685107
 30
0.0
 11
3.487314076693692
 21
22.95198755685107
 31
0.0
  0
LINE
  5
E7
330
207
100
AcDbEntity
  8
DATA
  6
Continuous
 62
     7
100
AcDbLine
 10
-0.9626859233062388
 20
22.95198755685107
 30
0.0
 11
-0.9626859233062388
 21
24.45198755685107
 31
0.0
  0
LINE
  5
E8
330
207
100
AcDbEntity
  8
DATA
  6
Continuous
 62
     7
100
AcDbLine
 10
4.612314076693692
 20
22.95198755685107
 30
0.0
 11
3.487314076693692
 21
22.95198755685107
 31
0.0
  0
LINE
  5
E9
330
207
100
AcDbEntity
  8
DATA
  6
Continuous
 62
     7
100
AcDbLine
 10
-0.9626859233062388
 20
22.95198755685107
 30
0.0
 11
-2.087685923306239
 21
22.95198755685107
 31
0.0
  0
LINE
  5
EA
330
207
100
AcDbEntity
  8
DATA
  6
Continuous
 62
     7
100
AcDbLine
 10
7.41231407669376
 20
21.45198755685109
 30
0.0
 11
4.612314076693692
 21
21.45198755685109
 31
0.0
  0
LINE
  5
EB
330
207
100
AcDbEntity
  8
DATA
  6
Continuous
 62
     7
100
AcDbLine
 10
-2.087685923306239
 20
21.45198755685109
 30
0.0
 11
-4.887685923306307
 21
21.45198755685109
 31
0.0
  0
LINE
  5
EC
330
207
100
AcDbEntity
  8
DATA
  6
Continuous
 62
     7
100
AcDbLine
 10
4.612314076693692
 20
22.95198755685107
 30
0.0
 11
4.612314076693692
 21
21.45198755685109
 31
0.0
  0
LINE
  5
ED
330
207
100
AcDbEntity
  8
DATA
  6
Continuous
 62
     7
100
AcDbLine
 10
-2.087685923306239
 20
21.45198755685109
 30
0.0
 11
-2.087685923306239
 21
22.95198755685107
 31
0.0
  0
CIRCLE
  5
EE
330
207
100
AcDbEntity
  8
DATA
  6
Continuous
 62
     7
100
AcDbCircle
 10
19.50000000038628
 20
16.5000000001753
 30
0.0
 40
1.5
  0
CIRCLE
  5
EF
330
207
100
AcDbEntity
  8
DATA
  6
Continuous
 62
     7
100
AcDbCircle
 10
-14.94620419579645
 20
16.5000000001753
 30
0.0
 40
3.349999999999994
  0
CIRCLE
  5
F0
330
207
100
AcDbEntity
  8
DATA
  6
Continuous
 62
     7
100
AcDbCircle
 10
-14.94620419579645
 20
16.5000000001753
 30
0.0
 40
0.4242640687119044
  0
LINE
  5
F1
330
207
100
AcDbEntity
  8
DATA
  6
Continuous
 62
     7
100
AcDbLine
 10
-19.94392201078669
 20
-1.999999999824694
 30
0.0
 11
-20.99392201078668
 21
0.0000000001753051
 31
0.0
  0
LINE
  5
F2
330
207
100
AcDbEntity
  8
DATA
  6
Continuous
 62
     7
100
AcDbLine
 10
-14.94392201078669
 20
-1.999999999824694
 30
0.0
 11
-13.89392201078671
 21
0.0000000001753051
 31
0.0
  0
LINE
  5
F3
330
207
100
AcDbEntity
  8
DATA
  6
Continuous
 62
     7
100
AcDbLine
 10
-19.94392201078669
 20
-1.999999999824694
 30
0.0
 11
-14.94392201078669
 21
-1.999999999824694
 31
0.0
  0
LINE
  5
F4
330
207
100
AcDbEntity
  8
DATA
  6
Continuous
 62
     7
100
AcDbLine
 10
22.46855016415925
 20
-1.999999999824694
 30
0.0
 11
23.51855016415925
 21
0.0000000001753051
 31
0.0
  0
LINE
  5
F5
330
207
100
AcDbEntity
  8
DATA
  6
Continuous
 62
     7
100
AcDbLine
 10
17.46855016415925
 20
-1.999999999824694
 30
0.0
 11
16.41855016415926
 21
0.0000000001753051
 31
0.0
  0
LINE
  5
F6
330
207
100
AcDbEntity
  8
DATA
  6
Continuous
 62
     7
100
AcDbLine
 10
22.46855016415925
 20
-1.999999999824694
 30
0.0
 11
17.46855016415925
 21
-1.999999999824694
 31
0.0
  0
ARC
  5
F7
330
207
100
AcDbEntity
  8
DATA
  6
Continuous
 62
     7
100
AcDbCircle
 10
19.73768592268628
 20
62.91240988383576
 30
0.0
 40
1.500000000000005
100
AcDbArc
 50
195.9584339657203
 51
344.0415660342798
  0
LINE
  5
F8
330
207
100
AcDbEntity
  8
DATA
  6
Continuous
 62
     7
100
AcDbLine
 10
-24.99999999961371
 20
207.0000000003371
 30
0.0
 11
-24.99999999961371
 21
176.5000000003371
 31
0.0
  0
LINE
  5
F9
330
207
100
AcDbEntity
  8
DATA
  6
Continuous
 62
     7
100
AcDbLine
 10
28.00000000038628
 20
207.0000000003371
 30
0.0
 11
16.00000000038628
 21
207.0000000003371
 31
0.0
  0
LINE
  5
FA
330
207
100
AcDbEntity
  8
DATA
  6
Continuous
 62
     7
100
AcDbLine
 10
-12.9999999996137
 20
207.0000000003371
 30
0.0
 11
-24.99999999961371
 21
207.0000000003371
 31
0.0
  0
LINE
  5
FB
330
207
100
AcDbEntity
  8
DATA
  6
Continuous
 62
     7
100
AcDbLine
 10
28.00000000038628
 20
176.5000000003371
 30
0.0
 11
28.00000000038628
 21
207.0000000003371
 31
0.0
  0
LINE
  5
FC
330
207
100
AcDbEntity
  8
DATA
  6
Continuous
 62
     7
100
AcDbLine
 10
-23.4999999996137
 20
175.0000000003371
 30
0.0
 11
26.50000000038628
 21
175.0000000003371
 31
0.0
  0
LINE
  5
FD
330
207
100
AcDbEntity
  8
DATA
  6
Continuous
 62
     7
100
AcDbLine
 10
-24.99999999961371
 20
205.0000000003371
 30
0.0
 11
28.00000000038628
 21
205.0000000003371
 31
0.0
  0
LINE
  5
FE
330
207
100
AcDbEntity
  8
DATA
  6
Continuous
 62
     7
100
AcDbLine
 10
-12.9999999996137
 20
207.0000000003371
 30
0.0
 11
-12.9999999996137
 21
205.0000000003371
 31
0.0
  0
LINE
  5
FF
330
207
100
AcDbEntity
  8
DATA
  6
Continuous
 62
     7
100
AcDbLine
 10
16.00000000038628
 20
205.0000000003371
 30
0.0
 11
16.00000000038628
 21
207.0000000003371
 31
0.0
  0
LINE
  5
100
330
207
100
AcDbEntity
  8
DATA
  6
Continuous
 62
     7
100
AcDbLine
 10
-19.94392201078669
 20
209.0000000003371
 30
0.0
 11
-20.99392201078668
 21
207.0000000003371
 31
0.0
  0
LINE
  5
101
330
207
100
AcDbEntity
  8
DATA
  6
Continuous
 62
     7
100
AcDbLine
 10
-14.94392201078669
 20
209.0000000003371
 30
0.0
 11
-13.89392201078671
 21
207.0000000003371
 31
0.0
  0
LINE
  5
102
330
207
100
AcDbEntity
  8
DATA
  6
Continuous
 62
     7
100
AcDbLine
 10
-19.94392201078669
 20
209.0000000003371
 30
0.0
 11
-14.94392201078669
 21
209.0000000003371
 31
0.0
  0
LINE
  5
103
330
207
100
AcDbEntity
  8
DATA
  6
Continuous
 62
     7
100
AcDbLine
 10
22.46855016415925
 20
209.0000000003371
 30
0.0
 11
23.51855016415925
 21
207.0000000003371
 31
0.0
  0
LINE
  5
104
330
207
100
AcDbEntity
  8
DATA
  6
Continuous
 62
     7
100
AcDbLine
 10
17.46855016415925
 20
209.0000000003371
 30
0.0
 11
16.41855016415926
 21
207.0000000003371
 31
0.0
  0
LINE
  5
105
330
207
100
AcDbEntity
  8
DATA
  6
Continuous
 62
     7
100
AcDbLine
 10
22.46855016415925
 20
209.0000000003371
 30
0.0
 11
17.46855016415925
 21
209.0000000003371
 31
0.0
  0
CIRCLE
  5
106
330
207
100
AcDbEntity
  8
DATA
  6
Continuous
 62
     7
100
AcDbCircle
 10
-13.9999999996137
 20
184.0000000003371
 30
0.0
 40
4.149999999999976
  0
CIRCLE
  5
107
330
207
100
AcDbEntity
  8
DATA
  6
Continuous
 62
     7
100
AcDbCircle
 10
1.000000000386279
 20
184.0000000003371
 30
0.0
 40
4.150000000000005
  0
CIRCLE
  5
108
330
207
100
AcDbEntity
  8
DATA
  6
Continuous
 62
     7
100
AcDbCircle
 10
16.00000000038628
 20
184.0000000003371
 30
0.0
 40
4.150000000000005
  0
CIRCLE
  5
109
330
207
100
AcDbEntity
  8
DATA
  6
Continuous
 62
     7
100
AcDbCircle
 10
-13.9999999996137
 20
184.0000000003371
 30
0.0
 40
1.75
  0
CIRCLE
  5
10A
330
207
100
AcDbEntity
  8
DATA
  6
Continuous
 62
     7
100
AcDbCircle
 10
1.000000000386279
 20
184.0000000003371
 30
0.0
 40
1.75
  0
CIRCLE
  5
10B
330
207
100
AcDbEntity
  8
DATA
  6
Continuous
 62
     7
100
AcDbCircle
 10
16.00000000038628
 20
184.0000000003371
 30
0.0
 40
1.75
  0
LINE
  5
10C
330
207
100
AcDbEntity
  8
DATA
  6
Continuous
 62
     7
100
AcDbLine
 10
-17.91231407731373
 20
159.5000000001753
 30
0.0
 11
-9.612314077313712
 21
159.5000000001753
 31
0.0
  0
LINE
  5
10D
330
207
100
AcDbEntity
  8
DATA
  6
Continuous
 62
     7
100
AcDbLine
 10
-2.901456500581787
 20
159.5000000001753
 30
0.0
 11
5.387685922686287
 21
159.5000000001753
 31
0.0
  0
LINE
  5
10E
330
207
100
AcDbEntity
  8
DATA
  6
Continuous
 62
     7
100
AcDbLine
 10
12.09854349941842
 20
159.5000000001753
 30
0.0
 11
20.38768592268629
 21
159.5000000001753
 31
0.0
  0
LINE
  5
10F
330
207
100
AcDbEntity
  8
DATA
  6
Continuous
 62
     7
100
AcDbLine
 10
-17.91231407731373
 20
159.5000000001753
 30
0.0
 11
-17.91231407731373
 21
153.5000000001753
 31
0.0
  0
LINE
  5
110
330
207
100
AcDbEntity
  8
DATA
  6
Continuous
 62
     7
100
AcDbLine
 10
-9.612314077313712
 20
159.5000000001753
 30
0.0
 11
-9.612314077313712
 21
153.5000000001753
 31
0.0
  0
LINE
  5
111
330
207
100
AcDbEntity
  8
DATA
  6
Continuous
 62
     7
100
AcDbLine
 10
-2.901456500581787
 20
159.5000000001753
 30
0.0
 11
-2.901456500581787
 21
153.5000000001753
 31
0.0
  0
LINE
  5
112
330
207
100
AcDbEntity
  8
DATA
  6
Continuous
 62
     7
100
AcDbLine
 10
5.387685922686287
 20
159.5000000001753
 30
0.0
 11
5.387685922686287
 21
153.5000000001753
 31
0.0
  0
LINE
  5
113
330
207
100
AcDbEntity
  8
DATA
  6
Continuous
 62
     7
100
AcDbLine
 10
12.09854349941842
 20
159.5000000001753
 30
0.0
 11
12.09854349941842
 21
153.5000000001753
 31
0.0
  0
LINE
  5
114
330
207
100
AcDbEntity
  8
DATA
  6
Continuous
 62
     7
100
AcDbLine
 10
20.38768592268629
 20
159.5000000001753
 30
0.0
 11
20.38768592268629
 21
153.5000000001753
 31
0.0
  0
TEXT
  5
115
330
207
100
AcDbEntity
  8
DATA
 62
     7
100
AcDbText
 10
-18.05216040226993
 20
63.3685992896315
 30
0.0
 40
2.084916666666666
  1
5V DC
 41
0.7
 11
-18.05216040226993
 21
65.45351595629816
 31
0.0
100
AcDbText
 73
     3
  0
TEXT
  5
116
330
207
100
AcDbEntity
  8
DATA
 62
     7
100
AcDbText
 10
-4.043920316339693
 20
63.3685992896315
 30
0.0
 40
2.084916666666666
  1
CAT-5 Out
 41
0.7
 11
-4.043920316339693
 21
65.45351595629816
 31
0.0
100
AcDbText
 73
     3
  0
TEXT
  5
117
330
207
100
AcDbEntity
  8
DATA
 62
     7
100
AcDbText
 10
16.6256447733114
 20
63.3685992896315
 30
0.0
 40
2.084916666666666
  1
Power
 41
0.7
 11
16.6256447733114
 21
65.45351595629816
 31
0.0
100
AcDbText
 73
     3
  0
TEXT
  5
118
330
207
100
AcDbEntity
  8
DATA
 62
     7
100
AcDbText
 10
17.52511501604404
 20
152.2206933335086
 30
0.0
 40
2.084916666666666
  1
Pr
 50
180.0
 41
0.7
 11
17.52511501604404
 21
150.1357766668419
 31
0.0
100
AcDbText
 73
     3
  0
TEXT
  5
119
330
207
100
AcDbEntity
  8
DATA
 62
     7
100
AcDbText
 10
2.004736108695809
 20
152.2206933335086
 30
0.0
 40
2.084916666666666
  1
Y
 50
180.0
 41
0.7
 11
2.004736108695808
 21
150.1357766668419
 31
0.0
100
AcDbText
 73
     3
  0
TEXT
  5
11A
330
207
100
AcDbEntity
  8
DATA
 62
     7
100
AcDbText
 10
-12.50692827770818
 20
152.2206933335086
 30
0.0
 40
2.084916666666666
  1
Pb
 50
180.0
 41
0.7
 11
-12.50692827770818
 21
150.1357766668419
 31
0.0
100
AcDbText
 73
     3
  0
TEXT
  5
11B
330
207
100
AcDbEntity
  8
DATA
 62
     7
100
AcDbText
 10
6.145429552003281
 20
99.94236167797147
 30
0.0
 40
7.329785156249999
  1
COMPONENT
 50
90.0
 41
0.7
 11
-1.184355604246718
 21
99.94236167797147
 31
0.0
100
AcDbText
 73
     3
  0
TEXT
  5
11C
330
207
100
AcDbEntity
  8
DATA
 62
     7
100
AcDbText
 10
18.52663657355949
 20
88.6179922330654
 30
0.0
 40
7.329785156249999
  1
extender S
 50
90.0
 41
0.7
 11
11.19685141730949
 21
88.6179922330654
 31
0.0
100
AcDbText
 73
     3
  0
LINE
  5
11D
330
207
100
AcDbEntity
  8
DATA
  6
Continuous
 62
     7
100
AcDbLine
 10
43.74999999895631
 20
62.50000000017529
 30
0.0
 11
43.74999999895631
 21
153.5000000001753
 31
0.0
  0
LINE
  5
11E
330
207
100
AcDbEntity
  8
DATA
  6
Continuous
 62
     7
100
AcDbLine
 10
75.7499999989563
 20
62.50000000017529
 30
0.0
 11
43.74999999895631
 21
62.50000000017529
 31
0.0
  0
LINE
  5
11F
330
207
100
AcDbEntity
  8
DATA
  6
Continuous
 62
     7
100
AcDbLine
 10
75.7499999989563
 20
153.5000000001753
 30
0.0
 11
75.7499999989563
 21
62.50000000017529
 31
0.0
  0
LINE
  5
120
330
207
100
AcDbEntity
  8
DATA
  6
Continuous
 62
     7
100
AcDbLine
 10
43.74999999895631
 20
153.5000000001753
 30
0.0
 11
75.7499999989563
 21
153.5000000001753
 31
0.0
  0
LINE
  5
121
330
207
100
AcDbEntity
  8
DATA
  6
Continuous
 62
     7
100
AcDbLine
 10
77.74999999925632
 20
69.97191558328187
 30
0.0
 11
75.74999999925632
 21
71.02191558328184
 31
0.0
  0
LINE
  5
122
330
207
100
AcDbEntity
  8
DATA
  6
Continuous
 62
     7
100
AcDbLine
 10
77.74999999925632
 20
64.97191558328187
 30
0.0
 11
75.74999999925632
 21
63.92191558328189
 31
0.0
  0
LINE
  5
123
330
207
100
AcDbEntity
  8
DATA
  6
Continuous
 62
     7
100
AcDbLine
 10
77.74999999925632
 20
69.97191558328187
 30
0.0
 11
77.74999999925632
 21
64.97191558328187
 31
0.0
  0
LINE
  5
124
330
207
100
AcDbEntity
  8
DATA
  6
Continuous
 62
     7
100
AcDbLine
 10
77.74999999925632
 20
145.2753226543206
 30
0.0
 11
75.74999999925632
 21
144.2253226543207
 31
0.0
  0
LINE
  5
125
330
207
100
AcDbEntity
  8
DATA
  6
Continuous
 62
     7
100
AcDbLine
 10
77.74999999925632
 20
150.2753226543207
 30
0.0
 11
75.74999999925632
 21
151.3253226543207
 31
0.0
  0
LINE
  5
126
330
207
100
AcDbEntity
  8
DATA
  6
Continuous
 62
     7
100
AcDbLine
 10
77.74999999925632
 20
145.2753226543206
 30
0.0
 11
77.74999999925632
 21
150.2753226543207
 31
0.0
  0
LINE
  5
127
330
207
100
AcDbEntity
  8
DATA
  6
Continuous
 62
     7
100
AcDbLine
 10
53.65030826619794
 20
159.5000000001753
 30
0.0
 11
61.93945068946582
 21
159.5000000001753
 31
0.0
  0
LINE
  5
128
330
207
100
AcDbEntity
  8
DATA
  6
Continuous
 62
     7
100
AcDbLine
 10
53.65030826619794
 20
159.5000000001753
 30
0.0
 11
53.65030826619794
 21
153.5000000001753
 31
0.0
  0
LINE
  5
129
330
207
100
AcDbEntity
  8
DATA
  6
Continuous
 62
     7
100
AcDbLine
 10
61.93945068946582
 20
159.5000000001753
 30
0.0
 11
61.93945068946582
 21
153.5000000001753
 31
0.0
  0
ARC
  5
12A
330
207
100
AcDbEntity
  8
DATA
  6
Continuous
 62
     7
100
AcDbCircle
 10
59.24186670472202
 20
62.91240988383576
 30
0.0
 40
1.500000000000005
100
AcDbArc
 50
195.9584339657203
 51
344.0415660342798
  0
TEXT
  5
12B
330
207
100
AcDbEntity
  8
DATA
 62
     7
100
AcDbText
 10
-12.82093397788129
 20
-29.41710756941623
 30
0.0
 40
5.429470486111111
  1
センダー
 41
0.7
 11
-12.82093397788129
 21
-23.98763708330512
 31
0.0
100
AcDbText
 73
     3
  0
LINE
  5
12C
330
207
100
AcDbEntity
  8
DATA
  6
Continuous
 62
     7
100
AcDbLine
 10
-18.75000000104369
 20
-31.24999999982466
 30
0.0
 11
18.74999999895631
 21
-31.24999999982466
 31
0.0
  0
LINE
  5
12D
330
207
100
AcDbEntity
  8
DATA
  6
Continuous
 62
     7
100
AcDbLine
 10
137.4999999996015
 20
62.5000000002581
 30
0.0
 11
137.4999999996015
 21
153.5000000002576
 31
0.0
  0
LINE
  5
12E
330
207
100
AcDbEntity
  8
DATA
  6
Continuous
 62
     7
100
AcDbLine
 10
190.4999999996016
 20
62.5000000002581
 30
0.0
 11
137.4999999996015
 21
62.5000000002581
 31
0.0
  0
LINE
  5
12F
330
207
100
AcDbEntity
  8
DATA
  6
Continuous
 62
     7
100
AcDbLine
 10
190.4999999996016
 20
153.5000000002576
 30
0.0
 11
190.4999999996016
 21
62.5000000002581
 31
0.0
  0
LINE
  5
130
330
207
100
AcDbEntity
  8
DATA
  6
Continuous
 62
     7
100
AcDbLine
 10
137.4999999996015
 20
153.5000000002576
 30
0.0
 11
190.4999999996016
 21
153.5000000002576
 31
0.0
  0
LINE
  5
131
330
207
100
AcDbEntity
  8
DATA
  6
Continuous
 62
     7
100
AcDbLine
 10
137.4999999998015
 20
0.0000000002580975
 30
0.0
 11
137.4999999998015
 21
30.50000000025809
 31
0.0
  0
LINE
  5
132
330
207
100
AcDbEntity
  8
DATA
  6
Continuous
 62
     7
100
AcDbLine
 10
190.4999999998016
 20
0.0000000002580975
 30
0.0
 11
178.4999999998016
 21
0.0000000002580975
 31
0.0
  0
LINE
  5
133
330
207
100
AcDbEntity
  8
DATA
  6
Continuous
 62
     7
100
AcDbLine
 10
149.4999999998016
 20
0.0000000002580975
 30
0.0
 11
137.4999999998015
 21
0.0000000002580975
 31
0.0
  0
LINE
  5
134
330
207
100
AcDbEntity
  8
DATA
  6
Continuous
 62
     7
100
AcDbLine
 10
190.4999999998016
 20
30.50000000025809
 30
0.0
 11
190.4999999998016
 21
0.0000000002580975
 31
0.0
  0
LINE
  5
135
330
207
100
AcDbEntity
  8
DATA
  6
Continuous
 62
     7
100
AcDbLine
 10
138.9999999998015
 20
32.00000000025809
 30
0.0
 11
188.9999999998016
 21
32.00000000025809
 31
0.0
  0
LINE
  5
136
330
207
100
AcDbEntity
  8
DATA
  6
Continuous
 62
     7
100
AcDbLine
 10
137.4999999998015
 20
2.000000000258097
 30
0.0
 11
190.4999999998016
 21
2.000000000258097
 31
0.0
  0
LINE
  5
137
330
207
100
AcDbEntity
  8
DATA
  6
Continuous
 62
     7
100
AcDbLine
 10
149.4999999998016
 20
0.0000000002580975
 30
0.0
 11
149.4999999998016
 21
2.000000000258097
 31
0.0
  0
LINE
  5
138
330
207
100
AcDbEntity
  8
DATA
  6
Continuous
 62
     7
100
AcDbLine
 10
178.4999999998016
 20
2.000000000258097
 30
0.0
 11
178.4999999998016
 21
0.0000000002580975
 31
0.0
  0
LINE
  5
139
330
207
100
AcDbEntity
  8
DATA
  6
Continuous
 62
     7
100
AcDbLine
 10
155.912314076109
 20
11.15198755693393
 30
0.0
 11
155.912314076109
 21
24.45198755693389
 31
0.0
  0
LINE
  5
13A
330
207
100
AcDbEntity
  8
DATA
  6
Continuous
 62
     7
100
AcDbLine
 10
171.612314076109
 20
11.15198755693393
 30
0.0
 11
171.612314076109
 21
24.45198755693389
 31
0.0
  0
LINE
  5
13B
330
207
100
AcDbEntity
  8
DATA
  6
Continuous
 62
     7
100
AcDbLine
 10
171.612314076109
 20
24.45198755693389
 30
0.0
 11
155.912314076109
 21
24.45198755693389
 31
0.0
  0
LINE
  5
13C
330
207
100
AcDbEntity
  8
DATA
  6
Continuous
 62
     7
100
AcDbLine
 10
171.612314076109
 20
11.15198755693393
 30
0.0
 11
155.912314076109
 21
11.15198755693393
 31
0.0
  0
LINE
  5
13D
330
207
100
AcDbEntity
  8
DATA
  6
Continuous
 62
     7
100
AcDbLine
 10
169.912314076109
 20
14.1519875569339
 30
0.0
 11
157.612314076109
 21
14.1519875569339
 31
0.0
  0
LINE
  5
13E
330
207
100
AcDbEntity
  8
DATA
  6
Continuous
 62
     7
100
AcDbLine
 10
169.912314076109
 20
14.1519875569339
 30
0.0
 11
169.912314076109
 21
21.45198755693389
 31
0.0
  0
LINE
  5
13F
330
207
100
AcDbEntity
  8
DATA
  6
Continuous
 62
     7
100
AcDbLine
 10
157.612314076109
 20
14.1519875569339
 30
0.0
 11
157.612314076109
 21
21.45198755693389
 31
0.0
  0
LINE
  5
140
330
207
100
AcDbEntity
  8
DATA
  6
Continuous
 62
     7
100
AcDbLine
 10
165.987314076109
 20
24.45198755693389
 30
0.0
 11
165.987314076109
 21
22.95198755693389
 31
0.0
  0
LINE
  5
141
330
207
100
AcDbEntity
  8
DATA
  6
Continuous
 62
     7
100
AcDbLine
 10
161.537314076109
 20
22.95198755693389
 30
0.0
 11
161.537314076109
 21
24.45198755693389
 31
0.0
  0
LINE
  5
142
330
207
100
AcDbEntity
  8
DATA
  6
Continuous
 62
     7
100
AcDbLine
 10
167.112314076109
 20
22.95198755693389
 30
0.0
 11
165.987314076109
 21
22.95198755693389
 31
0.0
  0
LINE
  5
143
330
207
100
AcDbEntity
  8
DATA
  6
Continuous
 62
     7
100
AcDbLine
 10
161.537314076109
 20
22.95198755693389
 30
0.0
 11
160.412314076109
 21
22.95198755693389
 31
0.0
  0
LINE
  5
144
330
207
100
AcDbEntity
  8
DATA
  6
Continuous
 62
     7
100
AcDbLine
 10
169.912314076109
 20
21.45198755693389
 30
0.0
 11
167.112314076109
 21
21.45198755693389
 31
0.0
  0
LINE
  5
145
330
207
100
AcDbEntity
  8
DATA
  6
Continuous
 62
     7
100
AcDbLine
 10
160.412314076109
 20
21.45198755693389
 30
0.0
 11
157.612314076109
 21
21.45198755693389
 31
0.0
  0
LINE
  5
146
330
207
100
AcDbEntity
  8
DATA
  6
Continuous
 62
     7
100
AcDbLine
 10
167.112314076109
 20
22.95198755693389
 30
0.0
 11
167.112314076109
 21
21.45198755693389
 31
0.0
  0
LINE
  5
147
330
207
100
AcDbEntity
  8
DATA
  6
Continuous
 62
     7
100
AcDbLine
 10
160.412314076109
 20
21.45198755693389
 30
0.0
 11
160.412314076109
 21
22.95198755693389
 31
0.0
  0
CIRCLE
  5
148
330
207
100
AcDbEntity
  8
DATA
  6
Continuous
 62
     7
100
AcDbCircle
 10
181.9999999998016
 20
16.5000000002581
 30
0.0
 40
1.5
  0
CIRCLE
  5
149
330
207
100
AcDbEntity
  8
DATA
  6
Continuous
 62
     7
100
AcDbCircle
 10
146.594103129651
 20
16.5000000002581
 30
0.0
 40
1.900000000000005
  0
LINE
  5
14A
330
207
100
AcDbEntity
  8
DATA
  6
Continuous
 62
     7
100
AcDbLine
 10
142.5560779886286
 20
-1.999999999741902
 30
0.0
 11
141.5060779886286
 21
0.0000000002580975
 31
0.0
  0
LINE
  5
14B
330
207
100
AcDbEntity
  8
DATA
  6
Continuous
 62
     7
100
AcDbLine
 10
147.5560779886286
 20
-1.999999999741902
 30
0.0
 11
148.6060779886286
 21
0.0000000002580975
 31
0.0
  0
LINE
  5
14C
330
207
100
AcDbEntity
  8
DATA
  6
Continuous
 62
     7
100
AcDbLine
 10
142.5560779886286
 20
-1.999999999741902
 30
0.0
 11
147.5560779886286
 21
-1.999999999741902
 31
0.0
  0
LINE
  5
14D
330
207
100
AcDbEntity
  8
DATA
  6
Continuous
 62
     7
100
AcDbLine
 10
184.9685501635745
 20
-1.999999999741902
 30
0.0
 11
186.0185501635745
 21
0.0000000002580975
 31
0.0
  0
LINE
  5
14E
330
207
100
AcDbEntity
  8
DATA
  6
Continuous
 62
     7
100
AcDbLine
 10
179.9685501635745
 20
-1.999999999741902
 30
0.0
 11
178.9185501635745
 21
0.0000000002580975
 31
0.0
  0
LINE
  5
14F
330
207
100
AcDbEntity
  8
DATA
  6
Continuous
 62
     7
100
AcDbLine
 10
184.9685501635745
 20
-1.999999999741902
 30
0.0
 11
179.9685501635745
 21
-1.999999999741902
 31
0.0
  0
ARC
  5
150
330
207
100
AcDbEntity
  8
DATA
  6
Continuous
 62
     7
100
AcDbCircle
 10
182.2376859233015
 20
62.91240988391857
 30
0.0
 40
1.500000000000005
100
AcDbArc
 50
195.9584339657203
 51
344.0415660342799
  0
LINE
  5
151
330
207
100
AcDbEntity
  8
DATA
  6
Continuous
 62
     7
100
AcDbLine
 10
137.4999999996015
 20
207.0000000004199
 30
0.0
 11
137.4999999996015
 21
176.5000000004195
 31
0.0
  0
LINE
  5
152
330
207
100
AcDbEntity
  8
DATA
  6
Continuous
 62
     7
100
AcDbLine
 10
190.4999999996016
 20
207.0000000004199
 30
0.0
 11
178.4999999996015
 21
207.0000000004199
 31
0.0
  0
LINE
  5
153
330
207
100
AcDbEntity
  8
DATA
  6
Continuous
 62
     7
100
AcDbLine
 10
149.4999999996016
 20
207.0000000004199
 30
0.0
 11
137.4999999996015
 21
207.0000000004199
 31
0.0
  0
LINE
  5
154
330
207
100
AcDbEntity
  8
DATA
  6
Continuous
 62
     7
100
AcDbLine
 10
190.4999999996016
 20
176.5000000004195
 30
0.0
 11
190.4999999996016
 21
207.0000000004199
 31
0.0
  0
LINE
  5
155
330
207
100
AcDbEntity
  8
DATA
  6
Continuous
 62
     7
100
AcDbLine
 10
138.9999999996015
 20
175.0000000004195
 30
0.0
 11
188.9999999996016
 21
175.0000000004195
 31
0.0
  0
LINE
  5
156
330
207
100
AcDbEntity
  8
DATA
  6
Continuous
 62
     7
100
AcDbLine
 10
137.4999999996015
 20
205.0000000004197
 30
0.0
 11
190.4999999996016
 21
205.0000000004197
 31
0.0
  0
LINE
  5
157
330
207
100
AcDbEntity
  8
DATA
  6
Continuous
 62
     7
100
AcDbLine
 10
149.4999999996016
 20
207.0000000004199
 30
0.0
 11
149.4999999996016
 21
205.0000000004197
 31
0.0
  0
LINE
  5
158
330
207
100
AcDbEntity
  8
DATA
  6
Continuous
 62
     7
100
AcDbLine
 10
178.4999999996015
 20
205.0000000004197
 30
0.0
 11
178.4999999996015
 21
207.0000000004199
 31
0.0
  0
LINE
  5
159
330
207
100
AcDbEntity
  8
DATA
  6
Continuous
 62
     7
100
AcDbLine
 10
142.5560779884286
 20
209.0000000004199
 30
0.0
 11
141.5060779884286
 21
207.0000000004199
 31
0.0
  0
LINE
  5
15A
330
207
100
AcDbEntity
  8
DATA
  6
Continuous
 62
     7
100
AcDbLine
 10
147.5560779884286
 20
209.0000000004199
 30
0.0
 11
148.6060779884286
 21
207.0000000004199
 31
0.0
  0
LINE
  5
15B
330
207
100
AcDbEntity
  8
DATA
  6
Continuous
 62
     7
100
AcDbLine
 10
142.5560779884286
 20
209.0000000004199
 30
0.0
 11
147.5560779884286
 21
209.0000000004199
 31
0.0
  0
LINE
  5
15C
330
207
100
AcDbEntity
  8
DATA
  6
Continuous
 62
     7
100
AcDbLine
 10
184.9685501633745
 20
209.0000000004199
 30
0.0
 11
186.0185501633745
 21
207.0000000004199
 31
0.0
  0
LINE
  5
15D
330
207
100
AcDbEntity
  8
DATA
  6
Continuous
 62
     7
100
AcDbLine
 10
179.9685501633745
 20
209.0000000004199
 30
0.0
 11
178.9185501633745
 21
207.0000000004199
 31
0.0
  0
LINE
  5
15E
330
207
100
AcDbEntity
  8
DATA
  6
Continuous
 62
     7
100
AcDbLine
 10
184.9685501633745
 20
209.0000000004199
 30
0.0
 11
179.9685501633745
 21
209.0000000004199
 31
0.0
  0
CIRCLE
  5
15F
330
207
100
AcDbEntity
  8
DATA
  6
Continuous
 62
     7
100
AcDbCircle
 10
148.4999999996016
 20
184.0000000004195
 30
0.0
 40
4.150000000000005
  0
CIRCLE
  5
160
330
207
100
AcDbEntity
  8
DATA
  6
Continuous
 62
     7
100
AcDbCircle
 10
163.4999999996016
 20
184.0000000004195
 30
0.0
 40
4.150000000000005
  0
CIRCLE
  5
161
330
207
100
AcDbEntity
  8
DATA
  6
Continuous
 62
     7
100
AcDbCircle
 10
178.4999999996015
 20
184.0000000004195
 30
0.0
 40
4.150000000000019
  0
CIRCLE
  5
162
330
207
100
AcDbEntity
  8
DATA
  6
Continuous
 62
     7
100
AcDbCircle
 10
148.4999999996016
 20
184.0000000004195
 30
0.0
 40
1.75
  0
CIRCLE
  5
163
330
207
100
AcDbEntity
  8
DATA
  6
Continuous
 62
     7
100
AcDbCircle
 10
163.4999999996016
 20
184.0000000004195
 30
0.0
 40
1.75
  0
CIRCLE
  5
164
330
207
100
AcDbEntity
  8
DATA
  6
Continuous
 62
     7
100
AcDbCircle
 10
178.4999999996015
 20
184.0000000004195
 30
0.0
 40
1.75
  0
LINE
  5
165
330
207
100
AcDbEntity
  8
DATA
  6
Continuous
 62
     7
100
AcDbLine
 10
144.5876859233015
 20
159.5000000002577
 30
0.0
 11
152.8876859233016
 21
159.5000000002577
 31
0.0
  0
LINE
  5
166
330
207
100
AcDbEntity
  8
DATA
  6
Continuous
 62
     7
100
AcDbLine
 10
159.5985435000335
 20
159.5000000002577
 30
0.0
 11
167.8876859233016
 21
159.5000000002577
 31
0.0
  0
LINE
  5
167
330
207
100
AcDbEntity
  8
DATA
  6
Continuous
 62
     7
100
AcDbLine
 10
174.5985435000337
 20
159.5000000002577
 30
0.0
 11
182.8876859233016
 21
159.5000000002577
 31
0.0
  0
LINE
  5
168
330
207
100
AcDbEntity
  8
DATA
  6
Continuous
 62
     7
100
AcDbLine
 10
144.5876859233015
 20
159.5000000002577
 30
0.0
 11
144.5876859233015
 21
153.5000000002576
 31
0.0
  0
LINE
  5
169
330
207
100
AcDbEntity
  8
DATA
  6
Continuous
 62
     7
100
AcDbLine
 10
152.8876859233016
 20
159.5000000002577
 30
0.0
 11
152.8876859233016
 21
153.5000000002576
 31
0.0
  0
LINE
  5
16A
330
207
100
AcDbEntity
  8
DATA
  6
Continuous
 62
     7
100
AcDbLine
 10
159.5985435000335
 20
159.5000000002577
 30
0.0
 11
159.5985435000335
 21
153.5000000002576
 31
0.0
  0
LINE
  5
16B
330
207
100
AcDbEntity
  8
DATA
  6
Continuous
 62
     7
100
AcDbLine
 10
167.8876859233016
 20
159.5000000002577
 30
0.0
 11
167.8876859233016
 21
153.5000000002576
 31
0.0
  0
LINE
  5
16C
330
207
100
AcDbEntity
  8
DATA
  6
Continuous
 62
     7
100
AcDbLine
 10
174.5985435000337
 20
159.5000000002577
 30
0.0
 11
174.5985435000337
 21
153.5000000002576
 31
0.0
  0
LINE
  5
16D
330
207
100
AcDbEntity
  8
DATA
  6
Continuous
 62
     7
100
AcDbLine
 10
182.8876859233016
 20
159.5000000002577
 30
0.0
 11
182.8876859233016
 21
153.5000000002576
 31
0.0
  0
TEXT
  5
16E
330
207
100
AcDbEntity
  8
DATA
 62
     7
100
AcDbText
 10
144.4478395983454
 20
63.3685992897143
 30
0.0
 40
2.084916666666666
  1
Br.
 41
0.7
 11
144.4478395983454
 21
65.45351595638097
 31
0.0
100
AcDbText
 73
     3
  0
TEXT
  5
16F
330
207
100
AcDbEntity
  8
DATA
 62
     7
100
AcDbText
 10
158.4560796842755
 20
63.3685992897143
 30
0.0
 40
2.084916666666666
  1
CAT-5 In
 41
0.7
 11
158.4560796842755
 21
65.45351595638097
 31
0.0
100
AcDbText
 73
     3
  0
TEXT
  5
170
330
207
100
AcDbEntity
  8
DATA
 62
     7
100
AcDbText
 10
179.1256447739267
 20
63.3685992897143
 30
0.0
 40
2.084916666666666
  1
Power
 41
0.7
 11
179.1256447739267
 21
65.45351595638097
 31
0.0
100
AcDbText
 73
     3
  0
TEXT
  5
171
330
207
100
AcDbEntity
  8
DATA
 62
     7
100
AcDbText
 10
180.0251150166594
 20
152.220693333591
 30
0.0
 40
2.084916666666666
  1
Pr
 50
180.0
 41
0.7
 11
180.0251150166594
 21
150.1357766669244
 31
0.0
100
AcDbText
 73
     3
  0
TEXT
  5
172
330
207
100
AcDbEntity
  8
DATA
 62
     7
100
AcDbText
 10
164.5047361093111
 20
152.220693333591
 30
0.0
 40
2.084916666666666
  1
Y
 50
180.0
 41
0.7
 11
164.5047361093111
 21
150.1357766669244
 31
0.0
100
AcDbText
 73
     3
  0
TEXT
  5
173
330
207
100
AcDbEntity
  8
DATA
 62
     7
100
AcDbText
 10
149.9930717229071
 20
152.220693333591
 30
0.0
 40
2.084916666666666
  1
Pb
 50
180.0
 41
0.7
 11
149.9930717229071
 21
150.1357766669244
 31
0.0
100
AcDbText
 73
     3
  0
TEXT
  5
174
330
207
100
AcDbEntity
  8
DATA
 62
     7
100
AcDbText
 10
168.6454295526186
 20
99.94236167805391
 30
0.0
 40
7.329785156249999
  1
COMPONENT
 50
90.0
 41
0.7
 11
161.3156443963686
 21
99.94236167805391
 31
0.0
100
AcDbText
 73
     3
  0
TEXT
  5
175
330
207
100
AcDbEntity
  8
DATA
 62
     7
100
AcDbText
 10
181.0266365741748
 20
88.61799223314784
 30
0.0
 40
7.329785156249999
  1
extender R
 50
90.0
 41
0.7
 11
173.6968514179248
 21
88.61799223314784
 31
0.0
100
AcDbText
 73
     3
  0
LINE
  5
176
330
207
100
AcDbEntity
  8
DATA
  6
Continuous
 62
     7
100
AcDbLine
 10
206.2499999995016
 20
62.5000000002581
 30
0.0
 11
206.2499999995016
 21
153.5000000002576
 31
0.0
  0
LINE
  5
177
330
207
100
AcDbEntity
  8
DATA
  6
Continuous
 62
     7
100
AcDbLine
 10
238.2499999995016
 20
62.5000000002581
 30
0.0
 11
206.2499999995016
 21
62.5000000002581
 31
0.0
  0
LINE
  5
178
330
207
100
AcDbEntity
  8
DATA
  6
Continuous
 62
     7
100
AcDbLine
 10
238.2499999995016
 20
153.5000000002576
 30
0.0
 11
238.2499999995016
 21
62.5000000002581
 31
0.0
  0
LINE
  5
179
330
207
100
AcDbEntity
  8
DATA
  6
Continuous
 62
     7
100
AcDbLine
 10
206.2499999995016
 20
153.5000000002576
 30
0.0
 11
238.2499999995016
 21
153.5000000002576
 31
0.0
  0
LINE
  5
17A
330
207
100
AcDbEntity
  8
DATA
  6
Continuous
 62
     7
100
AcDbLine
 10
240.2499999998016
 20
69.97191558336457
 30
0.0
 11
238.2499999998016
 21
71.02191558336453
 31
0.0
  0
LINE
  5
17B
330
207
100
AcDbEntity
  8
DATA
  6
Continuous
 62
     7
100
AcDbLine
 10
240.2499999998016
 20
64.97191558336467
 30
0.0
 11
238.2499999998016
 21
63.92191558336469
 31
0.0
  0
LINE
  5
17C
330
207
100
AcDbEntity
  8
DATA
  6
Continuous
 62
     7
100
AcDbLine
 10
240.2499999998016
 20
69.97191558336457
 30
0.0
 11
240.2499999998016
 21
64.97191558336467
 31
0.0
  0
LINE
  5
17D
330
207
100
AcDbEntity
  8
DATA
  6
Continuous
 62
     7
100
AcDbLine
 10
240.2499999998016
 20
145.2753226544031
 30
0.0
 11
238.2499999998016
 21
144.2253226544031
 31
0.0
  0
LINE
  5
17E
330
207
100
AcDbEntity
  8
DATA
  6
Continuous
 62
     7
100
AcDbLine
 10
240.2499999998016
 20
150.2753226544031
 30
0.0
 11
238.2499999998016
 21
151.3253226544031
 31
0.0
  0
LINE
  5
17F
330
207
100
AcDbEntity
  8
DATA
  6
Continuous
 62
     7
100
AcDbLine
 10
240.2499999998016
 20
145.2753226544031
 30
0.0
 11
240.2499999998016
 21
150.2753226544031
 31
0.0
  0
LINE
  5
180
330
207
100
AcDbEntity
  8
DATA
  6
Continuous
 62
     7
100
AcDbLine
 10
216.1503082667433
 20
159.5000000002577
 30
0.0
 11
224.4394506900111
 21
159.5000000002577
 31
0.0
  0
LINE
  5
181
330
207
100
AcDbEntity
  8
DATA
  6
Continuous
 62
     7
100
AcDbLine
 10
216.1503082667433
 20
159.5000000002577
 30
0.0
 11
216.1503082667433
 21
153.5000000002576
 31
0.0
  0
LINE
  5
182
330
207
100
AcDbEntity
  8
DATA
  6
Continuous
 62
     7
100
AcDbLine
 10
224.4394506900111
 20
159.5000000002577
 30
0.0
 11
224.4394506900111
 21
153.5000000002576
 31
0.0
  0
LINE
  5
183
330
207
100
AcDbEntity
  8
DATA
  6
Continuous
 62
     7
100
AcDbLine
 10
145.6469670957748
 20
15.55286396638192
 30
0.0
 11
147.5412391635272
 21
17.44713603413424
 31
0.0
  0
LINE
  5
184
330
207
100
AcDbEntity
  8
DATA
  6
Continuous
 62
     7
100
AcDbLine
 10
147.5412391635272
 20
15.55286396638192
 30
0.0
 11
145.6469670957748
 21
17.44713603413424
 31
0.0
  0
ARC
  5
185
330
207
100
AcDbEntity
  8
DATA
  6
Continuous
 62
     7
100
AcDbCircle
 10
221.7418667052673
 20
62.91240988391857
 30
0.0
 40
1.500000000000019
100
AcDbArc
 50
195.9584339657201
 51
344.0415660342797
  0
TEXT
  5
186
330
207
100
AcDbEntity
  8
DATA
 62
     7
100
AcDbText
 10
148.2273409788688
 20
-29.60063049080614
 30
0.0
 40
5.429470486111111
  1
レシーバー
 41
0.7
 11
148.2273409788688
 21
-24.17116000469503
 31
0.0
100
AcDbText
 73
     3
  0
LINE
  5
187
330
207
100
AcDbEntity
  8
DATA
  6
Continuous
 62
     7
100
AcDbLine
 10
143.7499999995016
 20
-31.24999999974191
 30
0.0
 11
187.4999999995016
 21
-31.24999999974191
 31
0.0
  0
ARC
  5
188
330
207
100
AcDbEntity
  8
DATA
  6
Continuous
 62
     7
100
AcDbCircle
 10
-23.4999999996137
 20
30.50000000017529
 30
0.0
 40
1.5
100
AcDbArc
 50
90.0
 51
180.0
  0
ARC
  5
189
330
207
100
AcDbEntity
  8
DATA
  6
Continuous
 62
     7
100
AcDbCircle
 10
26.50000000038628
 20
30.50000000017529
 30
0.0
 40
1.5
100
AcDbArc
 50
0.0
 51
90.0
  0
ARC
  5
18A
330
207
100
AcDbEntity
  8
DATA
  6
Continuous
 62
     7
100
AcDbCircle
 10
138.9999999998015
 20
30.50000000025809
 30
0.0
 40
1.5
100
AcDbArc
 50
90.0
 51
180.0
  0
ARC
  5
18B
330
207
100
AcDbEntity
  8
DATA
  6
Continuous
 62
     7
100
AcDbCircle
 10
188.9999999998016
 20
30.50000000025809
 30
0.0
 40
1.5
100
AcDbArc
 50
0.0
 51
90.0
  0
ARC
  5
18C
330
207
100
AcDbEntity
  8
DATA
  6
Continuous
 62
     7
100
AcDbCircle
 10
-23.4999999996137
 20
176.5000000003371
 30
0.0
 40
1.5
100
AcDbArc
 50
180.0
 51
270.0
  0
ARC
  5
18D
330
207
100
AcDbEntity
  8
DATA
  6
Continuous
 62
     7
100
AcDbCircle
 10
26.50000000038628
 20
176.5000000003371
 30
0.0
 40
1.5
100
AcDbArc
 50
270.0
 51
0.0
  0
ARC
  5
18E
330
207
100
AcDbEntity
  8
DATA
  6
Continuous
 62
     7
100
AcDbCircle
 10
138.9999999996015
 20
176.5000000004195
 30
0.0
 40
1.5
100
AcDbArc
 50
180.0
 51
270.0
  0
ARC
  5
18F
330
207
100
AcDbEntity
  8
DATA
  6
Continuous
 62
     7
100
AcDbCircle
 10
188.9999999996016
 20
176.5000000004195
 30
0.0
 40
1.5
100
AcDbArc
 50
270.0
 51
0.0
  0
ENDSEC
  0
SECTION
  2
OBJECTS
  0
DICTIONARY
  5
19D
330
0
100
AcDbDictionary
281
     1
  3
ACAD_COLOR
350
1FE
  3
ACAD_GROUP
350
19E
  3
ACAD_LAYOUT
350
1FD
  3
ACAD_MATERIAL
350
1A1
  3
ACAD_MLEADERSTYLE
350
201
  3
ACAD_MLINESTYLE
350
1FA
  3
ACAD_PLOTSETTINGS
350
1FC
  3
ACAD_PLOTSTYLENAME
350
19F
  3
ACAD_SCALELIST
350
1CE
  3
ACAD_TABLESTYLE
350
1FF
  3
ACAD_VISUALSTYLE
350
1BA
  3
ACDB_RECOMPOSE_DATA
350
233
  3
AcDbVariableDictionary
350
229
  3
DWGPROPS
350
234
  0
DICTIONARY
  5
21F
330
1F0
100
AcDbDictionary
280
     1
281
     1
  3
ADSK_XREC_LAYER_RECONCILED
360
220
  0
DICTIONARY
  5
221
330
20B
100
AcDbDictionary
280
     1
281
     1
  3
ADSK_XREC_LAYER_RECONCILED
360
222
  0
DICTIONARY
  5
223
330
217
100
AcDbDictionary
280
     1
281
     1
  3
ADSK_XREC_LAYER_RECONCILED
360
224
  0
DICTIONARY
  5
225
330
218
100
AcDbDictionary
280
     1
281
     1
  3
ADSK_XREC_LAYER_RECONCILED
360
226
  0
DICTIONARY
  5
227
330
219
100
AcDbDictionary
280
     1
281
     1
  3
ADSK_XREC_LAYER_RECONCILED
360
228
  0
DICTIONARY
  5
1FE
102
{ACAD_REACTORS
330
19D
102
}
330
19D
100
AcDbDictionary
281
     1
  0
DICTIONARY
  5
19E
102
{ACAD_REACTORS
330
19D
102
}
330
19D
100
AcDbDictionary
281
     1
  0
DICTIONARY
  5
1FD
102
{ACAD_REACTORS
330
19D
102
}
330
19D
100
AcDbDictionary
281
     1
  3
Model
350
20A
  3
レイアウト1
350
206
  0
DICTIONARY
  5
1A1
102
{ACAD_REACTORS
330
19D
102
}
330
19D
100
AcDbDictionary
281
     1
  3
ByBlock
350
1AA
  3
ByLayer
350
1A2
  3
Global
350
1B2
  0
DICTIONARY
  5
201
102
{ACAD_REACTORS
330
19D
102
}
330
19D
100
AcDbDictionary
281
     1
  3
Standard
350
202
  0
DICTIONARY
  5
1FA
102
{ACAD_REACTORS
330
19D
102
}
330
19D
100
AcDbDictionary
281
     1
  3
Standard
350
1FB
  0
DICTIONARY
  5
1FC
102
{ACAD_REACTORS
330
19D
102
}
330
19D
100
AcDbDictionary
281
     1
  0
ACDBDICTIONARYWDFLT
  5
19F
102
{ACAD_REACTORS
330
19D
102
}
330
19D
100
AcDbDictionary
281
     1
  3
Normal
350
1A0
100
AcDbDictionaryWithDefault
340
1A0
  0
DICTIONARY
  5
1CE
102
{ACAD_REACTORS
330
19D
102
}
330
19D
100
AcDbDictionary
281
     1
  3
A0
350
1CF
  3
A1
350
1D0
  3
A2
350
1D1
  3
A3
350
1D2
  3
A4
350
1D3
  3
A5
350
1D4
  3
A6
350
1D5
  3
A7
350
1D6
  3
A8
350
1D7
  3
A9
350
1D8
  3
B0
350
1D9
  3
B1
350
1DA
  3
B2
350
1DB
  3
B3
350
1DC
  3
B4
350
1DD
  3
B5
350
1DE
  3
B6
350
1DF
  3
B7
350
1E0
  3
B8
350
1E1
  3
B9
350
1E2
  3
C0
350
1E3
  3
C1
350
1E4
  3
C2
350
1E5
  3
C3
350
1E6
  3
C4
350
1E7
  3
C5
350
1E8
  3
C6
350
1E9
  3
C7
350
1EA
  3
C8
350
1EB
  3
C9
350
1EC
  3
D0
350
1ED
  3
D1
350
1EE
  3
D2
350
1EF
  0
DICTIONARY
  5
1FF
102
{ACAD_REACTORS
330
19D
102
}
330
19D
100
AcDbDictionary
281
     1
  3
Standard
350
200
  0
DICTIONARY
  5
1BA
102
{ACAD_REACTORS
330
19D
102
}
330
19D
100
AcDbDictionary
281
     1
  3
2dWireframe
350
1C0
  3
3D Hidden
350
1C2
  3
3dWireframe
350
1C1
  3
Basic
350
1BF
  3
Brighten
350
1C6
  3
ColorChange
350
1CA
  3
Conceptual
350
1C3
  3
Dim
350
1C5
  3
EdgeColorOff
350
1CD
  3
Facepattern
350
1C9
  3
Flat
350
1BB
  3
FlatWithEdges
350
1BC
  3
Gouraud
350
1BD
  3
GouraudWithEdges
350
1BE
  3
JitterOff
350
1CB
  3
Linepattern
350
1C8
  3
OverhangOff
350
1CC
  3
Realistic
350
1C4
  3
Thicken
350
1C7
  0
XRECORD
  5
233
102
{ACAD_REACTORS
330
19D
102
}
330
19D
100
AcDbXrecord
280
     1
 90
        1
330
200
  0
DICTIONARY
  5
229
102
{ACAD_REACTORS
330
19D
102
}
330
19D
100
AcDbDictionary
281
     1
  3
CANNOSCALE
350
22C
  3
CMLEADERSTYLE
350
22B
  3
CTABLESTYLE
350
22A
  3
DIMASSOC
350
22F
  3
INDEXCTL
350
22E
  3
SORTENTS
350
22D
  3
XCLIPFRAME
350
230
  0
XRECORD
  5
234
102
{ACAD_REACTORS
330
19D
102
}
330
19D
100
AcDbXrecord
280
     1
  1
DWGPROPS COOKIE
  2

  3

  4

  6

  7

  8
sasaki_n
  9

300
=
301
=
302
=
303
=
304
=
305
=
306
=
307
=
308
=
309
=
 40
0.0002398726851852
 41
2455202.647800926
 42
2455202.648891146
  1

 90
        0
  0
XRECORD
  5
220
102
{ACAD_REACTORS
330
21F
102
}
330
21F
100
AcDbXrecord
280
     1
290
     1
  0
XRECORD
  5
222
102
{ACAD_REACTORS
330
221
102
}
330
221
100
AcDbXrecord
280
     1
290
     1
  0
XRECORD
  5
224
102
{ACAD_REACTORS
330
223
102
}
330
223
100
AcDbXrecord
280
     1
290
     1
  0
XRECORD
  5
226
102
{ACAD_REACTORS
330
225
102
}
330
225
100
AcDbXrecord
280
     1
290
     1
  0
XRECORD
  5
228
102
{ACAD_REACTORS
330
227
102
}
330
227
100
AcDbXrecord
280
     1
290
     1
  0
LAYOUT
  5
20A
102
{ACAD_XDICTIONARY
360
262
102
}
102
{ACAD_REACTORS
330
1FD
102
}
330
1FD
100
AcDbPlotSettings
  1

  2
DocuPrint 255-1
  4

  6

 40
0.0
 41
0.0
 42
0.0
 43
0.0
 44
0.0
 45
0.0
 46
0.0
 47
0.0
 48
0.0
 49
0.0
140
0.0
141
0.0
142
1.0
143
1.0
 70
  1712
 72
     0
 73
     0
 74
     0
  7

 75
     0
147
1.0
148
0.0
149
0.0
100
AcDbLayout
  1
Model
 70
     1
 71
     0
 10
0.0
 20
0.0
 11
12.0
 21
9.0
 12
0.0
 22
0.0
 32
0.0
 14
0.0
 24
0.0
 34
0.0
 15
0.0
 25
0.0
 35
0.0
146
0.0
 13
0.0
 23
0.0
 33
0.0
 16
1.0
 26
0.0
 36
0.0
 17
0.0
 27
1.0
 37
0.0
 76
     0
330
207
331
20C
  0
LAYOUT
  5
206
102
{ACAD_XDICTIONARY
360
260
102
}
102
{ACAD_REACTORS
330
1FD
102
}
330
1FD
100
AcDbPlotSettings
  1

  2
DocuPrint 255-1
  4

  6

 40
0.0
 41
0.0
 42
0.0
 43
0.0
 44
0.0
 45
0.0
 46
0.0
 47
0.0
 48
0.0
 49
0.0
140
0.0
141
0.0
142
1.0
143
1.0
 70
   688
 72
     0
 73
     0
 74
     5
  7

 75
    16
147
1.0
148
0.0
149
0.0
100
AcDbLayout
  1
レイアウト1
 70
     0
 71
     1
 10
0.0
 20
0.0
 11
12.0
 21
9.0
 12
0.0
 22
0.0
 32
0.0
 14
1.000000000000000E+20
 24
1.000000000000000E+20
 34
1.000000000000000E+20
 15
-1.000000000000000E+20
 25
-1.000000000000000E+20
 35
-1.000000000000000E+20
146
0.0
 13
0.0
 23
0.0
 33
0.0
 16
1.0
 26
0.0
 36
0.0
 17
0.0
 27
1.0
 37
0.0
 76
     0
330
203
  0
MATERIAL
  5
1AA
102
{ACAD_XDICTIONARY
360
1AB
102
}
102
{ACAD_REACTORS
330
1A1
102
}
330
1A1
100
AcDbMaterial
  1
ByBlock
 72
     0
 43
0.0208333333333333
 43
0.0
 43
0.0
 43
0.0
 43
0.0
 43
0.0208333333333333
 43
0.0
 43
0.0
 43
0.0
 43
0.0
 43
1.0
 43
0.0
 43
0.0
 43
0.0
 43
0.0
 43
1.0
 77
     0
 47
0.0208333333333333
 47
0.0
 47
0.0
 47
0.0
 47
0.0
 47
0.0208333333333333
 47
0.0
 47
0.0
 47
0.0
 47
0.0
 47
1.0
 47
0.0
 47
0.0
 47
0.0
 47
0.0
 47
1.0
171
     0
 49
0.0208333333333333
 49
0.0
 49
0.0
 49
0.0
 49
0.0
 49
0.0208333333333333
 49
0.0
 49
0.0
 49
0.0
 49
0.0
 49
1.0
 49
0.0
 49
0.0
 49
0.0
 49
0.0
 49
1.0
175
     0
142
0.0208333333333333
142
0.0
142
0.0
142
0.0
142
0.0
142
0.0208333333333333
142
0.0
142
0.0
142
0.0
142
0.0
142
1.0
142
0.0
142
0.0
142
0.0
142
0.0
142
1.0
179
     0
144
0.0208333333333333
144
0.0
144
0.0
144
0.0
144
0.0
144
0.0208333333333333
144
0.0
144
0.0
144
0.0
144
0.0
144
1.0
144
0.0
144
0.0
144
0.0
144
0.0
144
1.0
147
0.0208333333333333
147
0.0
147
0.0
147
0.0
147
0.0
147
0.0208333333333333
147
0.0
147
0.0
147
0.0
147
0.0
147
1.0
147
0.0
147
0.0
147
0.0
147
0.0
147
1.0
  0
MATERIAL
  5
1A2
102
{ACAD_XDICTIONARY
360
1A3
102
}
102
{ACAD_REACTORS
330
1A1
102
}
330
1A1
100
AcDbMaterial
  1
ByLayer
 72
     0
 43
0.0208333333333333
 43
0.0
 43
0.0
 43
0.0
 43
0.0
 43
0.0208333333333333
 43
0.0
 43
0.0
 43
0.0
 43
0.0
 43
1.0
 43
0.0
 43
0.0
 43
0.0
 43
0.0
 43
1.0
 77
     0
 47
0.0208333333333333
 47
0.0
 47
0.0
 47
0.0
 47
0.0
 47
0.0208333333333333
 47
0.0
 47
0.0
 47
0.0
 47
0.0
 47
1.0
 47
0.0
 47
0.0
 47
0.0
 47
0.0
 47
1.0
171
     0
 49
0.0208333333333333
 49
0.0
 49
0.0
 49
0.0
 49
0.0
 49
0.0208333333333333
 49
0.0
 49
0.0
 49
0.0
 49
0.0
 49
1.0
 49
0.0
 49
0.0
 49
0.0
 49
0.0
 49
1.0
175
     0
142
0.0208333333333333
142
0.0
142
0.0
142
0.0
142
0.0
142
0.0208333333333333
142
0.0
142
0.0
142
0.0
142
0.0
142
1.0
142
0.0
142
0.0
142
0.0
142
0.0
142
1.0
179
     0
144
0.0208333333333333
144
0.0
144
0.0
144
0.0
144
0.0
144
0.0208333333333333
144
0.0
144
0.0
144
0.0
144
0.0
144
1.0
144
0.0
144
0.0
144
0.0
144
0.0
144
1.0
147
0.0208333333333333
147
0.0
147
0.0
147
0.0
147
0.0
147
0.0208333333333333
147
0.0
147
0.0
147
0.0
147
0.0
147
1.0
147
0.0
147
0.0
147
0.0
147
0.0
147
1.0
  0
MATERIAL
  5
1B2
102
{ACAD_XDICTIONARY
360
1B3
102
}
102
{ACAD_REACTORS
330
1A1
102
}
330
1A1
100
AcDbMaterial
  1
Global
 72
     0
 43
0.0208333333333333
 43
0.0
 43
0.0
 43
0.0
 43
0.0
 43
0.0208333333333333
 43
0.0
 43
0.0
 43
0.0
 43
0.0
 43
1.0
 43
0.0
 43
0.0
 43
0.0
 43
0.0
 43
1.0
 77
     0
 47
0.0208333333333333
 47
0.0
 47
0.0
 47
0.0
 47
0.0
 47
0.0208333333333333
 47
0.0
 47
0.0
 47
0.0
 47
0.0
 47
1.0
 47
0.0
 47
0.0
 47
0.0
 47
0.0
 47
1.0
171
     0
 49
0.0208333333333333
 49
0.0
 49
0.0
 49
0.0
 49
0.0
 49
0.0208333333333333
 49
0.0
 49
0.0
 49
0.0
 49
0.0
 49
1.0
 49
0.0
 49
0.0
 49
0.0
 49
0.0
 49
1.0
175
     0
142
0.0208333333333333
142
0.0
142
0.0
142
0.0
142
0.0
142
0.0208333333333333
142
0.0
142
0.0
142
0.0
142
0.0
142
1.0
142
0.0
142
0.0
142
0.0
142
0.0
142
1.0
179
     0
144
0.0208333333333333
144
0.0
144
0.0
144
0.0
144
0.0
144
0.0208333333333333
144
0.0
144
0.0
144
0.0
144
0.0
144
1.0
144
0.0
144
0.0
144
0.0
144
0.0
144
1.0
147
0.0208333333333333
147
0.0
147
0.0
147
0.0
147
0.0
147
0.0208333333333333
147
0.0
147
0.0
147
0.0
147
0.0
147
1.0
147
0.0
147
0.0
147
0.0
147
0.0
147
1.0
  0
MLEADERSTYLE
  5
202
102
{ACAD_REACTORS
330
201
102
}
330
201
100
AcDbMLeaderStyle
170
     2
171
     1
172
     0
 90
        2
 40
0.0
 41
0.0
173
     1
 91
-1056964608
340
1F6
 92
       -2
290
     1
 42
0.09
291
     1
 43
0.36
  3
Standard
 44
0.18
300

342
1F1
174
     1
178
     6
175
     1
176
     0
 93
-1056964608
 45
0.18
292
     0
297
     0
 46
0.18
 94
-1056964608
 47
1.0
 49
1.0
140
1.0
293
     1
141
0.0
294
     1
177
     0
142
1.0
295
     0
296
     0
143
0.125
1001
ACAD_MLEADERVER
1070
     2
  0
MLINESTYLE
  5
1FB
102
{ACAD_REACTORS
330
1FA
102
}
330
1FA
100
AcDbMlineStyle
  2
STANDARD
 70
     0
  3

 62
   256
 51
90.0
 52
90.0
 71
     2
 49
0.5
 62
   256
  6
BYLAYER
 49
-0.5
 62
   256
  6
BYLAYER
  0
ACDBPLACEHOLDER
  5
1A0
102
{ACAD_REACTORS
330
19F
102
}
330
19F
  0
SCALE
  5
1CF
102
{ACAD_REACTORS
330
1CE
102
}
330
1CE
100
AcDbScale
 70
     0
300
1:1
140
1.0
141
1.0
290
     1
  0
SCALE
  5
1D0
102
{ACAD_REACTORS
330
1CE
102
}
330
1CE
100
AcDbScale
 70
     0
300
1:2
140
1.0
141
2.0
290
     0
  0
SCALE
  5
1D1
102
{ACAD_REACTORS
330
1CE
102
}
330
1CE
100
AcDbScale
 70
     0
300
1:4
140
1.0
141
4.0
290
     0
  0
SCALE
  5
1D2
102
{ACAD_REACTORS
330
1CE
102
}
330
1CE
100
AcDbScale
 70
     0
300
1:5
140
1.0
141
5.0
290
     0
  0
SCALE
  5
1D3
102
{ACAD_REACTORS
330
1CE
102
}
330
1CE
100
AcDbScale
 70
     0
300
1:8
140
1.0
141
8.0
290
     0
  0
SCALE
  5
1D4
102
{ACAD_REACTORS
330
1CE
102
}
330
1CE
100
AcDbScale
 70
     0
300
1:10
140
1.0
141
10.0
290
     0
  0
SCALE
  5
1D5
102
{ACAD_REACTORS
330
1CE
102
}
330
1CE
100
AcDbScale
 70
     0
300
1:16
140
1.0
141
16.0
290
     0
  0
SCALE
  5
1D6
102
{ACAD_REACTORS
330
1CE
102
}
330
1CE
100
AcDbScale
 70
     0
300
1:20
140
1.0
141
20.0
290
     0
  0
SCALE
  5
1D7
102
{ACAD_REACTORS
330
1CE
102
}
330
1CE
100
AcDbScale
 70
     0
300
1:30
140
1.0
141
30.0
290
     0
  0
SCALE
  5
1D8
102
{ACAD_REACTORS
330
1CE
102
}
330
1CE
100
AcDbScale
 70
     0
300
1:40
140
1.0
141
40.0
290
     0
  0
SCALE
  5
1D9
102
{ACAD_REACTORS
330
1CE
102
}
330
1CE
100
AcDbScale
 70
     0
300
1:50
140
1.0
141
50.0
290
     0
  0
SCALE
  5
1DA
102
{ACAD_REACTORS
330
1CE
102
}
330
1CE
100
AcDbScale
 70
     0
300
1:100
140
1.0
141
100.0
290
     0
  0
SCALE
  5
1DB
102
{ACAD_REACTORS
330
1CE
102
}
330
1CE
100
AcDbScale
 70
     0
300
2:1
140
2.0
141
1.0
290
     0
  0
SCALE
  5
1DC
102
{ACAD_REACTORS
330
1CE
102
}
330
1CE
100
AcDbScale
 70
     0
300
4:1
140
4.0
141
1.0
290
     0
  0
SCALE
  5
1DD
102
{ACAD_REACTORS
330
1CE
102
}
330
1CE
100
AcDbScale
 70
     0
300
8:1
140
8.0
141
1.0
290
     0
  0
SCALE
  5
1DE
102
{ACAD_REACTORS
330
1CE
102
}
330
1CE
100
AcDbScale
 70
     0
300
10:1
140
10.0
141
1.0
290
     0
  0
SCALE
  5
1DF
102
{ACAD_REACTORS
330
1CE
102
}
330
1CE
100
AcDbScale
 70
     0
300
100:1
140
100.0
141
1.0
290
     0
  0
SCALE
  5
1E0
102
{ACAD_REACTORS
330
1CE
102
}
330
1CE
100
AcDbScale
 70
     0
300
1/128" = 1'-0"
140
0.0078125
141
12.0
290
     0
  0
SCALE
  5
1E1
102
{ACAD_REACTORS
330
1CE
102
}
330
1CE
100
AcDbScale
 70
     0
300
1/64" = 1'-0"
140
0.015625
141
12.0
290
     0
  0
SCALE
  5
1E2
102
{ACAD_REACTORS
330
1CE
102
}
330
1CE
100
AcDbScale
 70
     0
300
1/32" = 1'-0"
140
0.03125
141
12.0
290
     0
  0
SCALE
  5
1E3
102
{ACAD_REACTORS
330
1CE
102
}
330
1CE
100
AcDbScale
 70
     0
300
1/16" = 1'-0"
140
0.0625
141
12.0
290
     0
  0
SCALE
  5
1E4
102
{ACAD_REACTORS
330
1CE
102
}
330
1CE
100
AcDbScale
 70
     0
300
3/32" = 1'-0"
140
0.09375
141
12.0
290
     0
  0
SCALE
  5
1E5
102
{ACAD_REACTORS
330
1CE
102
}
330
1CE
100
AcDbScale
 70
     0
300
1/8" = 1'-0"
140
0.125
141
12.0
290
     0
  0
SCALE
  5
1E6
102
{ACAD_REACTORS
330
1CE
102
}
330
1CE
100
AcDbScale
 70
     0
300
3/16" = 1'-0"
140
0.1875
141
12.0
290
     0
  0
SCALE
  5
1E7
102
{ACAD_REACTORS
330
1CE
102
}
330
1CE
100
AcDbScale
 70
     0
300
1/4" = 1'-0"
140
0.25
141
12.0
290
     0
  0
SCALE
  5
1E8
102
{ACAD_REACTORS
330
1CE
102
}
330
1CE
100
AcDbScale
 70
     0
300
3/8" = 1'-0"
140
0.375
141
12.0
290
     0
  0
SCALE
  5
1E9
102
{ACAD_REACTORS
330
1CE
102
}
330
1CE
100
AcDbScale
 70
     0
300
1/2" = 1'-0"
140
0.5
141
12.0
290
     0
  0
SCALE
  5
1EA
102
{ACAD_REACTORS
330
1CE
102
}
330
1CE
100
AcDbScale
 70
     0
300
3/4" = 1'-0"
140
0.75
141
12.0
290
     0
  0
SCALE
  5
1EB
102
{ACAD_REACTORS
330
1CE
102
}
330
1CE
100
AcDbScale
 70
     0
300
1" = 1'-0"
140
1.0
141
12.0
290
     0
  0
SCALE
  5
1EC
102
{ACAD_REACTORS
330
1CE
102
}
330
1CE
100
AcDbScale
 70
     0
300
1-1/2" = 1'-0"
140
1.5
141
12.0
290
     0
  0
SCALE
  5
1ED
102
{ACAD_REACTORS
330
1CE
102
}
330
1CE
100
AcDbScale
 70
     0
300
3" = 1'-0"
140
3.0
141
12.0
290
     0
  0
SCALE
  5
1EE
102
{ACAD_REACTORS
330
1CE
102
}
330
1CE
100
AcDbScale
 70
     0
300
6" = 1'-0"
140
6.0
141
12.0
290
     0
  0
SCALE
  5
1EF
102
{ACAD_REACTORS
330
1CE
102
}
330
1CE
100
AcDbScale
 70
     0
300
1'-0" = 1'-0"
140
12.0
141
12.0
290
     0
  0
TABLESTYLE
  5
200
102
{ACAD_XDICTIONARY
360
231
102
}
102
{ACAD_REACTORS
330
1FF
102
}
330
1FF
100
AcDbTableStyle
  3
Standard
 70
     0
 71
     0
 40
0.06
 41
0.06
280
     0
281
     0
  7
STANDARD
140
0.18
170
     2
 62
     0
 63
     7
283
     0
274
    -2
284
     1
 64
     0
275
    -2
285
     1
 65
     0
276
    -2
286
     1
 66
     0
277
    -2
287
     1
 67
     0
278
    -2
288
     1
 68
     0
279
    -2
289
     1
 69
     0
  7
STANDARD
140
0.25
170
     5
 62
     0
 63
     7
283
     0
274
    -2
284
     1
 64
     0
275
    -2
285
     1
 65
     0
276
    -2
286
     1
 66
     0
277
    -2
287
     1
 67
     0
278
    -2
288
     1
 68
     0
279
    -2
289
     1
 69
     0
  7
STANDARD
140
0.18
170
     5
 62
     0
 63
     7
283
     0
274
    -2
284
     1
 64
     0
275
    -2
285
     1
 65
     0
276
    -2
286
     1
 66
     0
277
    -2
287
     1
 67
     0
278
    -2
288
     1
 68
     0
279
    -2
289
     1
 69
     0
  0
VISUALSTYLE
  5
1C0
102
{ACAD_XDICTIONARY
360
242
102
}
102
{ACAD_REACTORS
330
1BA
102
}
330
1BA
100
AcDbVisualStyle
  2
2dWireframe
 70
     4
 71
     0
 72
     2
 73
     0
 90
        0
 40
-0.6
 41
-30.0
 62
     5
 63
     7
 74
     1
 91
        4
 64
     7
 65
   257
 75
     1
175
     1
 42
1.0
 92
        0
 66
   257
 43
1.0
 76
     1
 77
     6
 78
     2
 67
     7
 79
     5
170
     0
171
     0
290
     0
174
     0
 93
        1
 44
0.0
173
     0
291
     0
 45
0.0
1001
ACAD
1000
AcDbSavedByObjectVersion
1070
     0
  0
VISUALSTYLE
  5
1C2
102
{ACAD_XDICTIONARY
360
246
102
}
102
{ACAD_REACTORS
330
1BA
102
}
330
1BA
100
AcDbVisualStyle
  2
3D Hidden
 70
     6
 71
     1
 72
     2
 73
     2
 90
        0
 40
-0.6
 41
-30.0
 62
     5
 63
     7
 74
     2
 91
        2
 64
     7
 65
   257
 75
     2
175
     1
 42
179.0
 92
        0
 66
   257
 43
1.0
 76
     1
 77
     6
 78
     2
 67
     7
 79
     3
170
     0
171
     0
290
     0
174
     0
 93
        1
 44
0.0
173
     0
291
     0
 45
0.0
1001
ACAD
1000
AcDbSavedByObjectVersion
1070
     0
  0
VISUALSTYLE
  5
1C1
102
{ACAD_XDICTIONARY
360
244
102
}
102
{ACAD_REACTORS
330
1BA
102
}
330
1BA
100
AcDbVisualStyle
  2
3dWireframe
 70
     5
 71
     0
 72
     2
 73
     0
 90
        0
 40
-0.6
 41
-30.0
 62
     5
 63
     7
 74
     1
 91
        4
 64
     7
 65
   257
 75
     1
175
     1
 42
1.0
 92
        0
 66
   257
 43
1.0
 76
     1
 77
     6
 78
     2
 67
     7
 79
     5
170
     0
171
     0
290
     0
174
     0
 93
        1
 44
0.0
173
     0
291
     0
 45
0.0
1001
ACAD
1000
AcDbSavedByObjectVersion
1070
     0
  0
VISUALSTYLE
  5
1BF
102
{ACAD_XDICTIONARY
360
240
102
}
102
{ACAD_REACTORS
330
1BA
102
}
330
1BA
100
AcDbVisualStyle
  2
Basic
 70
     7
 71
     1
 72
     0
 73
     1
 90
        0
 40
-0.6
 41
-30.0
 62
     5
 63
     7
 74
     0
 91
        4
 64
     7
 65
   257
 75
     1
175
     1
 42
1.0
 92
        8
 66
     7
 43
1.0
 76
     1
 77
     6
 78
     2
 67
     7
 79
     5
170
     0
171
     0
290
     0
174
     0
 93
        1
 44
0.0
173
     0
291
     1
 45
0.0
1001
ACAD
1000
AcDbSavedByObjectVersion
1070
     0
  0
VISUALSTYLE
  5
1C6
102
{ACAD_XDICTIONARY
360
24E
102
}
102
{ACAD_REACTORS
330
1BA
102
}
330
1BA
100
AcDbVisualStyle
  2
Brighten
 70
    12
 71
     2
 72
     2
 73
     0
 90
        0
 40
-0.6
 41
-30.0
 62
     5
 63
     7
 74
     1
 91
        4
 64
     7
 65
   257
 75
     1
175
     1
 42
1.0
 92
        8
 66
     7
 43
1.0
 76
     1
 77
     6
 78
     2
 67
     7
 79
     5
170
     0
171
     0
290
     0
174
     0
 93
        1
 44
50.0
173
     0
291
     1
 45
0.0
1001
ACAD
1000
AcDbSavedByObjectVersion
1070
     0
  0
VISUALSTYLE
  5
1CA
102
{ACAD_XDICTIONARY
360
256
102
}
102
{ACAD_REACTORS
330
1BA
102
}
330
1BA
100
AcDbVisualStyle
  2
ColorChange
 70
    16
 71
     2
 72
     2
 73
     3
 90
        0
 40
-0.6
 41
-30.0
 62
     5
 63
     8
 74
     1
 91
        4
 64
     7
 65
   257
 75
     1
175
     1
 42
1.0
 92
        8
 66
     8
 43
1.0
 76
     1
 77
     6
 78
     2
 67
     7
 79
     5
170
     0
171
     0
290
     0
174
     0
 93
        1
 44
0.0
173
     0
291
     1
 45
0.0
1001
ACAD
1000
AcDbSavedByObjectVersion
1070
     0
  0
VISUALSTYLE
  5
1C3
102
{ACAD_XDICTIONARY
360
248
102
}
102
{ACAD_REACTORS
330
1BA
102
}
330
1BA
100
AcDbVisualStyle
  2
Conceptual
 70
     9
 71
     3
 72
     2
 73
     0
 90
        0
 40
-0.6
 41
-30.0
 62
     5
 63
     7
 74
     2
 91
        2
 64
     7
 65
   257
 75
     1
175
     1
 42
179.0
 92
        8
 66
     7
 43
1.0
 76
     1
 77
     6
 78
     2
 67
     7
 79
     3
170
     0
171
     0
290
     0
174
     0
 93
        1
 44
0.0
173
     0
291
     0
 45
0.0
1001
ACAD
1000
AcDbSavedByObjectVersion
1070
     0
  0
VISUALSTYLE
  5
1C5
102
{ACAD_XDICTIONARY
360
24C
102
}
102
{ACAD_REACTORS
330
1BA
102
}
330
1BA
100
AcDbVisualStyle
  2
Dim
 70
    11
 71
     2
 72
     2
 73
     0
 90
        0
 40
-0.6
 41
-30.0
 62
     5
 63
     7
 74
     1
 91
        4
 64
     7
 65
   257
 75
     1
175
     1
 42
1.0
 92
        8
 66
     7
 43
1.0
 76
     1
 77
     6
 78
     2
 67
     7
 79
     5
170
     0
171
     0
290
     0
174
     0
 93
        1
 44
-50.0
173
     0
291
     1
 45
0.0
1001
ACAD
1000
AcDbSavedByObjectVersion
1070
     0
  0
VISUALSTYLE
  5
1CD
102
{ACAD_XDICTIONARY
360
25C
102
}
102
{ACAD_REACTORS
330
1BA
102
}
330
1BA
100
AcDbVisualStyle
  2
EdgeColorOff
 70
    22
 71
     2
 72
     2
 73
     0
 90
        0
 40
-0.6
 41
-30.0
 62
     5
 63
     7
 74
     1
 91
        4
 64
     7
 65
   257
 75
     1
175
     1
 42
1.0
 92
        8
 66
     7
 43
1.0
 76
     1
 77
     6
 78
     2
 67
     7
 79
     5
170
     0
171
     0
290
     0
174
     0
 93
        1
 44
0.0
173
     0
291
     1
 45
0.0
1001
ACAD
1000
AcDbSavedByObjectVersion
1070
     0
  0
VISUALSTYLE
  5
1C9
102
{ACAD_XDICTIONARY
360
254
102
}
102
{ACAD_REACTORS
330
1BA
102
}
330
1BA
100
AcDbVisualStyle
  2
Facepattern
 70
    15
 71
     2
 72
     2
 73
     0
 90
        0
 40
-0.6
 41
-30.0
 62
     5
 63
     7
 74
     1
 91
        4
 64
     7
 65
   257
 75
     1
175
     1
 42
1.0
 92
        8
 66
     7
 43
1.0
 76
     1
 77
     6
 78
     2
 67
     7
 79
     5
170
     0
171
     0
290
     0
174
     0
 93
        1
 44
0.0
173
     0
291
     1
 45
0.0
1001
ACAD
1000
AcDbSavedByObjectVersion
1070
     0
  0
VISUALSTYLE
  5
1BB
102
{ACAD_XDICTIONARY
360
238
102
}
102
{ACAD_REACTORS
330
1BA
102
}
330
1BA
100
AcDbVisualStyle
  2
Flat
 70
     0
 71
     2
 72
     1
 73
     1
 90
        2
 40
-0.6
 41
30.0
 62
     5
 63
     7
 74
     0
 91
        4
 64
     7
 65
   257
 75
     1
175
     1
 42
1.0
 92
        8
 66
     7
 43
1.0
 76
     1
 77
     6
 78
     2
 67
     7
 79
     5
170
     0
171
     0
290
     0
174
     0
 93
       13
 44
0.0
173
     0
291
     1
 45
0.0
1001
ACAD
1000
AcDbSavedByObjectVersion
1070
     0
  0
VISUALSTYLE
  5
1BC
102
{ACAD_XDICTIONARY
360
23A
102
}
102
{ACAD_REACTORS
330
1BA
102
}
330
1BA
100
AcDbVisualStyle
  2
FlatWithEdges
 70
     1
 71
     2
 72
     1
 73
     1
 90
        2
 40
-0.6
 41
30.0
 62
     5
 63
     7
 74
     1
 91
        4
 64
     7
 65
   257
 75
     1
175
     1
 42
1.0
 92
        0
 66
   257
 43
1.0
 76
     1
 77
     6
 78
     2
 67
     7
 79
     5
170
     0
171
     0
290
     0
174
     0
 93
       13
 44
0.0
173
     0
291
     1
 45
0.0
1001
ACAD
1000
AcDbSavedByObjectVersion
1070
     0
  0
VISUALSTYLE
  5
1BD
102
{ACAD_XDICTIONARY
360
23C
102
}
102
{ACAD_REACTORS
330
1BA
102
}
330
1BA
100
AcDbVisualStyle
  2
Gouraud
 70
     2
 71
     2
 72
     2
 73
     1
 90
        2
 40
-0.6
 41
30.0
 62
     5
 63
     7
 74
     0
 91
        4
 64
     7
 65
   257
 75
     1
175
     1
 42
1.0
 92
        0
 66
     7
 43
1.0
 76
     1
 77
     6
 78
     2
 67
     7
 79
     5
170
     0
171
     0
290
     0
174
     0
 93
       13
 44
0.0
173
     0
291
     1
 45
0.0
1001
ACAD
1000
AcDbSavedByObjectVersion
1070
     0
  0
VISUALSTYLE
  5
1BE
102
{ACAD_XDICTIONARY
360
23E
102
}
102
{ACAD_REACTORS
330
1BA
102
}
330
1BA
100
AcDbVisualStyle
  2
GouraudWithEdges
 70
     3
 71
     2
 72
     2
 73
     1
 90
        2
 40
-0.6
 41
30.0
 62
     5
 63
     7
 74
     1
 91
        4
 64
     7
 65
   257
 75
     1
175
     1
 42
1.0
 92
        0
 66
   257
 43
1.0
 76
     1
 77
     6
 78
     2
 67
     7
 79
     5
170
     0
171
     0
290
     0
174
     0
 93
       13
 44
0.0
173
     0
291
     1
 45
0.0
1001
ACAD
1000
AcDbSavedByObjectVersion
1070
     0
  0
VISUALSTYLE
  5
1CB
102
{ACAD_XDICTIONARY
360
258
102
}
102
{ACAD_REACTORS
330
1BA
102
}
330
1BA
100
AcDbVisualStyle
  2
JitterOff
 70
    20
 71
     2
 72
     2
 73
     0
 90
        0
 40
-0.6
 41
-30.0
 62
     5
 63
     7
 74
     1
 91
        4
 64
     7
 65
   257
 75
     1
175
     1
 42
1.0
 92
       10
 66
     7
 43
1.0
 76
     1
 77
     6
 78
     2
 67
     7
 79
     5
170
     0
171
     0
290
     0
174
     0
 93
        1
 44
0.0
173
     0
291
     1
 45
0.0
1001
ACAD
1000
AcDbSavedByObjectVersion
1070
     0
  0
VISUALSTYLE
  5
1C8
102
{ACAD_XDICTIONARY
360
252
102
}
102
{ACAD_REACTORS
330
1BA
102
}
330
1BA
100
AcDbVisualStyle
  2
Linepattern
 70
    14
 71
     2
 72
     2
 73
     0
 90
        0
 40
-0.6
 41
-30.0
 62
     5
 63
     7
 74
     1
 91
        4
 64
     7
 65
   257
 75
     7
175
     7
 42
1.0
 92
        8
 66
     7
 43
1.0
 76
     1
 77
     6
 78
     2
 67
     7
 79
     5
170
     0
171
     0
290
     0
174
     0
 93
        1
 44
0.0
173
     0
291
     1
 45
0.0
1001
ACAD
1000
AcDbSavedByObjectVersion
1070
     0
  0
VISUALSTYLE
  5
1CC
102
{ACAD_XDICTIONARY
360
25A
102
}
102
{ACAD_REACTORS
330
1BA
102
}
330
1BA
100
AcDbVisualStyle
  2
OverhangOff
 70
    21
 71
     2
 72
     2
 73
     0
 90
        0
 40
-0.6
 41
-30.0
 62
     5
 63
     7
 74
     1
 91
        4
 64
     7
 65
   257
 75
     1
175
     1
 42
1.0
 92
        9
 66
     7
 43
1.0
 76
     1
 77
     6
 78
     2
 67
     7
 79
     5
170
     0
171
     0
290
     0
174
     0
 93
        1
 44
0.0
173
     0
291
     1
 45
0.0
1001
ACAD
1000
AcDbSavedByObjectVersion
1070
     0
  0
VISUALSTYLE
  5
1C4
102
{ACAD_XDICTIONARY
360
24A
102
}
102
{ACAD_REACTORS
330
1BA
102
}
330
1BA
100
AcDbVisualStyle
  2
Realistic
 70
     8
 71
     2
 72
     2
 73
     0
 90
        0
 40
-0.6
 41
-30.0
 62
     5
 63
     7
 74
     1
 91
        0
 64
     7
 65
   257
 75
     1
175
     1
 42
1.0
 92
        8
 66
     8
 43
1.0
 76
     1
 77
     6
 78
     2
 67
     7
 79
     5
170
     0
171
     0
290
     0
174
     0
 93
       13
 44
0.0
173
     0
291
     0
 45
0.0
1001
ACAD
1000
AcDbSavedByObjectVersion
1070
     0
  0
VISUALSTYLE
  5
1C7
102
{ACAD_XDICTIONARY
360
250
102
}
102
{ACAD_REACTORS
330
1BA
102
}
330
1BA
100
AcDbVisualStyle
  2
Thicken
 70
    13
 71
     2
 72
     2
 73
     0
 90
        0
 40
-0.6
 41
-30.0
 62
     5
 63
     7
 74
     1
 91
        4
 64
     7
 65
   257
 75
     1
175
     1
 42
1.0
 92
       12
 66
     7
 43
1.0
 76
     1
 77
     6
 78
     2
 67
     7
 79
     5
170
     0
171
     0
290
     0
174
     0
 93
        1
 44
0.0
173
     0
291
     1
 45
0.0
1001
ACAD
1000
AcDbSavedByObjectVersion
1070
     0
  0
DICTIONARYVAR
  5
22C
102
{ACAD_REACTORS
330
229
102
}
330
229
100
DictionaryVariables
280
     0
  1
1:1
  0
DICTIONARYVAR
  5
22B
102
{ACAD_REACTORS
330
229
102
}
330
229
100
DictionaryVariables
280
     0
  1
STANDARD
  0
DICTIONARYVAR
  5
22A
102
{ACAD_REACTORS
330
229
102
}
330
229
100
DictionaryVariables
280
     0
  1
STANDARD
  0
DICTIONARYVAR
  5
22F
102
{ACAD_REACTORS
330
229
102
}
330
229
100
DictionaryVariables
280
     0
  1
1
  0
DICTIONARYVAR
  5
22E
102
{ACAD_REACTORS
330
229
102
}
330
229
100
DictionaryVariables
280
     0
  1
0
  0
DICTIONARYVAR
  5
22D
102
{ACAD_REACTORS
330
229
102
}
330
229
100
DictionaryVariables
280
     0
  1
127
  0
DICTIONARYVAR
  5
230
102
{ACAD_REACTORS
330
229
102
}
330
229
100
DictionaryVariables
280
     0
  1
2
  0
DICTIONARY
  5
262
330
20A
100
AcDbDictionary
280
     1
281
     1
  3
ACAD_XREC_ROUNDTRIP
360
263
  0
DICTIONARY
  5
260
330
206
100
AcDbDictionary
280
     1
281
     1
  3
ACAD_XREC_ROUNDTRIP
360
261
  0
DICTIONARY
  5
1AB
330
1AA
100
AcDbDictionary
280
     1
281
     1
  3
ACAD_XREC_ROUNDTRIP
360
236
  3
BUMPTILE
360
1AD
  3
DIFFUSETILE
360
1AC
  3
OPACITYTILE
360
1B0
  3
REFLECTIONTILE
360
1AF
  3
REFRACTIONTILE
360
1B1
  3
SPECULARTILE
360
1AE
  0
DICTIONARY
  5
1A3
330
1A2
100
AcDbDictionary
280
     1
281
     1
  3
ACAD_XREC_ROUNDTRIP
360
235
  3
BUMPTILE
360
1A5
  3
DIFFUSETILE
360
1A4
  3
OPACITYTILE
360
1A8
  3
REFLECTIONTILE
360
1A7
  3
REFRACTIONTILE
360
1A9
  3
SPECULARTILE
360
1A6
  0
DICTIONARY
  5
1B3
330
1B2
100
AcDbDictionary
280
     1
281
     1
  3
ACAD_XREC_ROUNDTRIP
360
237
  3
BUMPTILE
360
1B5
  3
DIFFUSETILE
360
1B4
  3
OPACITYTILE
360
1B8
  3
REFLECTIONTILE
360
1B7
  3
REFRACTIONTILE
360
1B9
  3
SPECULARTILE
360
1B6
  0
DICTIONARY
  5
231
330
200
100
AcDbDictionary
280
     1
281
     1
  3
ACAD_ROUNDTRIP_2008_TABLESTYLE_CELLSTYLEMAP
360
232
  3
ACAD_XREC_ROUNDTRIP
360
25E
  0
DICTIONARY
  5
242
330
1C0
100
AcDbDictionary
280
     1
281
     1
  3
ACAD_XREC_ROUNDTRIP
360
243
  0
DICTIONARY
  5
246
330
1C2
100
AcDbDictionary
280
     1
281
     1
  3
ACAD_XREC_ROUNDTRIP
360
247
  0
DICTIONARY
  5
244
330
1C1
100
AcDbDictionary
280
     1
281
     1
  3
ACAD_XREC_ROUNDTRIP
360
245
  0
DICTIONARY
  5
240
330
1BF
100
AcDbDictionary
280
     1
281
     1
  3
ACAD_XREC_ROUNDTRIP
360
241
  0
DICTIONARY
  5
24E
330
1C6
100
AcDbDictionary
280
     1
281
     1
  3
ACAD_XREC_ROUNDTRIP
360
24F
  0
DICTIONARY
  5
256
330
1CA
100
AcDbDictionary
280
     1
281
     1
  3
ACAD_XREC_ROUNDTRIP
360
257
  0
DICTIONARY
  5
248
330
1C3
100
AcDbDictionary
280
     1
281
     1
  3
ACAD_XREC_ROUNDTRIP
360
249
  0
DICTIONARY
  5
24C
330
1C5
100
AcDbDictionary
280
     1
281
     1
  3
ACAD_XREC_ROUNDTRIP
360
24D
  0
DICTIONARY
  5
25C
330
1CD
100
AcDbDictionary
280
     1
281
     1
  3
ACAD_XREC_ROUNDTRIP
360
25D
  0
DICTIONARY
  5
254
330
1C9
100
AcDbDictionary
280
     1
281
     1
  3
ACAD_XREC_ROUNDTRIP
360
255
  0
DICTIONARY
  5
238
330
1BB
100
AcDbDictionary
280
     1
281
     1
  3
ACAD_XREC_ROUNDTRIP
360
239
  0
DICTIONARY
  5
23A
330
1BC
100
AcDbDictionary
280
     1
281
     1
  3
ACAD_XREC_ROUNDTRIP
360
23B
  0
DICTIONARY
  5
23C
330
1BD
100
AcDbDictionary
280
     1
281
     1
  3
ACAD_XREC_ROUNDTRIP
360
23D
  0
DICTIONARY
  5
23E
330
1BE
100
AcDbDictionary
280
     1
281
     1
  3
ACAD_XREC_ROUNDTRIP
360
23F
  0
DICTIONARY
  5
258
330
1CB
100
AcDbDictionary
280
     1
281
     1
  3
ACAD_XREC_ROUNDTRIP
360
259
  0
DICTIONARY
  5
252
330
1C8
100
AcDbDictionary
280
     1
281
     1
  3
ACAD_XREC_ROUNDTRIP
360
253
  0
DICTIONARY
  5
25A
330
1CC
100
AcDbDictionary
280
     1
281
     1
  3
ACAD_XREC_ROUNDTRIP
360
25B
  0
DICTIONARY
  5
24A
330
1C4
100
AcDbDictionary
280
     1
281
     1
  3
ACAD_XREC_ROUNDTRIP
360
24B
  0
DICTIONARY
  5
250
330
1C7
100
AcDbDictionary
280
     1
281
     1
  3
ACAD_XREC_ROUNDTRIP
360
251
  0
XRECORD
  5
263
102
{ACAD_REACTORS
330
262
102
}
330
262
100
AcDbXrecord
280
     1
102
SHADEPLOT
 70
     0
102
SHADEPLOTRESLEVEL
 70
     2
102
SHADEPLOTCUSTOMDPI
 70
   300
  0
XRECORD
  5
261
102
{ACAD_REACTORS
330
260
102
}
330
260
100
AcDbXrecord
280
     1
102
SHADEPLOT
 70
     0
102
SHADEPLOTRESLEVEL
 70
     2
102
SHADEPLOTCUSTOMDPI
 70
   300
  0
XRECORD
  5
236
102
{ACAD_REACTORS
330
1AB
102
}
330
1AB
100
AcDbXrecord
280
     1
102
MATERIAL
148
0.0
149
0.0
149
0.0
 93
        0
 94
      127
282
     0
 72
     0
 77
     0
171
     0
175
     0
179
     0
273
     0
  0
XRECORD
  5
1AD
102
{ACAD_REACTORS
330
1AB
102
}
330
1AB
100
AcDbXrecord
280
     1
270
     1
271
     1
  0
XRECORD
  5
1AC
102
{ACAD_REACTORS
330
1AB
102
}
330
1AB
100
AcDbXrecord
280
     1
270
     1
271
     1
  0
XRECORD
  5
1B0
102
{ACAD_REACTORS
330
1AB
102
}
330
1AB
100
AcDbXrecord
280
     1
270
     1
271
     1
  0
XRECORD
  5
1AF
102
{ACAD_REACTORS
330
1AB
102
}
330
1AB
100
AcDbXrecord
280
     1
270
     1
271
     1
  0
XRECORD
  5
1B1
102
{ACAD_REACTORS
330
1AB
102
}
330
1AB
100
AcDbXrecord
280
     1
270
     1
271
     1
  0
XRECORD
  5
1AE
102
{ACAD_REACTORS
330
1AB
102
}
330
1AB
100
AcDbXrecord
280
     1
270
     1
271
     1
  0
XRECORD
  5
235
102
{ACAD_REACTORS
330
1A3
102
}
330
1A3
100
AcDbXrecord
280
     1
102
MATERIAL
148
0.0
149
0.0
149
0.0
 93
        0
 94
      127
282
     0
 72
     0
 77
     0
171
     0
175
     0
179
     0
273
     0
  0
XRECORD
  5
1A5
102
{ACAD_REACTORS
330
1A3
102
}
330
1A3
100
AcDbXrecord
280
     1
270
     1
271
     1
  0
XRECORD
  5
1A4
102
{ACAD_REACTORS
330
1A3
102
}
330
1A3
100
AcDbXrecord
280
     1
270
     1
271
     1
  0
XRECORD
  5
1A8
102
{ACAD_REACTORS
330
1A3
102
}
330
1A3
100
AcDbXrecord
280
     1
270
     1
271
     1
  0
XRECORD
  5
1A7
102
{ACAD_REACTORS
330
1A3
102
}
330
1A3
100
AcDbXrecord
280
     1
270
     1
271
     1
  0
XRECORD
  5
1A9
102
{ACAD_REACTORS
330
1A3
102
}
330
1A3
100
AcDbXrecord
280
     1
270
     1
271
     1
  0
XRECORD
  5
1A6
102
{ACAD_REACTORS
330
1A3
102
}
330
1A3
100
AcDbXrecord
280
     1
270
     1
271
     1
  0
XRECORD
  5
237
102
{ACAD_REACTORS
330
1B3
102
}
330
1B3
100
AcDbXrecord
280
     1
102
MATERIAL
148
0.0
149
0.0
149
0.0
 93
        0
 94
      127
282
     0
 72
     0
 77
     0
171
     0
175
     0
179
     0
273
     0
  0
XRECORD
  5
1B5
102
{ACAD_REACTORS
330
1B3
102
}
330
1B3
100
AcDbXrecord
280
     1
270
     1
271
     1
  0
XRECORD
  5
1B4
102
{ACAD_REACTORS
330
1B3
102
}
330
1B3
100
AcDbXrecord
280
     1
270
     1
271
     1
  0
XRECORD
  5
1B8
102
{ACAD_REACTORS
330
1B3
102
}
330
1B3
100
AcDbXrecord
280
     1
270
     1
271
     1
  0
XRECORD
  5
1B7
102
{ACAD_REACTORS
330
1B3
102
}
330
1B3
100
AcDbXrecord
280
     1
270
     1
271
     1
  0
XRECORD
  5
1B9
102
{ACAD_REACTORS
330
1B3
102
}
330
1B3
100
AcDbXrecord
280
     1
270
     1
271
     1
  0
XRECORD
  5
1B6
102
{ACAD_REACTORS
330
1B3
102
}
330
1B3
100
AcDbXrecord
280
     1
270
     1
271
     1
  0
CELLSTYLEMAP
  5
232
102
{ACAD_REACTORS
330
231
102
}
330
231
100
AcDbCellStyleMap
 90
        3
300
CELLSTYLE
  1
TABLEFORMAT_BEGIN
 90
        5
170
     1
 91
        0
 92
    32768
 62
   257
 93
        1
300
CONTENTFORMAT
  1
CONTENTFORMAT_BEGIN
 90
        0
 91
        0
 92
      512
 93
        0
300

 40
0.0
140
1.0
 94
        5
 62
     0
340
1F1
144
0.25
309
CONTENTFORMAT_END
171
     0
 94
        0
309
TABLEFORMAT_END
  1
CELLSTYLE_BEGIN
 90
        1
 91
        1
300
_TITLE
309
CELLSTYLE_END
300
CELLSTYLE
  1
TABLEFORMAT_BEGIN
 90
        5
170
     1
 91
        0
 92
        0
 62
   257
 93
        1
300
CONTENTFORMAT
  1
CONTENTFORMAT_BEGIN
 90
        0
 91
        0
 92
      512
 93
        0
300

 40
0.0
140
1.0
 94
        5
 62
     0
340
1F1
144
0.18
309
CONTENTFORMAT_END
171
     0
 94
        0
309
TABLEFORMAT_END
  1
CELLSTYLE_BEGIN
 90
        2
 91
        1
300
_HEADER
309
CELLSTYLE_END
300
CELLSTYLE
  1
TABLEFORMAT_BEGIN
 90
        5
170
     1
 91
        0
 92
        0
 62
   257
 93
        1
300
CONTENTFORMAT
  1
CONTENTFORMAT_BEGIN
 90
        0
 91
        0
 92
      512
 93
        0
300

 40
0.0
140
1.0
 94
        2
 62
     0
340
1F1
144
0.18
309
CONTENTFORMAT_END
171
     0
 94
        0
309
TABLEFORMAT_END
  1
CELLSTYLE_BEGIN
 90
        3
 91
        2
300
_DATA
309
CELLSTYLE_END
  0
XRECORD
  5
25E
102
{ACAD_REACTORS
330
231
102
}
330
231
100
AcDbXrecord
280
     1
102
ACAD_ROUNDTRIP_PRE2007_TABLESTYLE
 90
      512
 91
        0
  1

 92
      512
 93
        0
  2

 94
      512
 95
        0
  3

  0
XRECORD
  5
243
102
{ACAD_REACTORS
330
242
102
}
330
242
100
AcDbXrecord
280
     1
102
RTVSPropertyOp0
 70
     1
102
RTVSPropertyOp1
 70
     1
102
RTVSPropertyOp2
 70
     1
102
RTVSPropertyOp3
 70
     1
102
RTVSPropertyOp4
 70
     1
102
RTVSPropertyOp5
 70
     1
102
RTVSPropertyOp6
 70
     1
102
RTVSPropertyOp7
 70
     1
102
RTVSPropertyOp8
 70
     1
102
RTVSPropertyOp9
 70
     1
102
RTVSPropertyOp10
 70
     1
102
RTVSPropertyOp11
 70
     1
102
RTVSPropertyOp12
 70
     1
102
RTVSPropertyOp13
 70
     1
102
RTVSPropertyOp14
 70
     1
102
RTVSPropertyOp15
 70
     1
102
RTVSPropertyOp16
 70
     1
102
RTVSPropertyOp17
 70
     1
102
RTVSPropertyOp18
 70
     1
102
RTVSPropertyOp19
 70
     1
102
RTVSPropertyOp20
 70
     1
102
RTVSPropertyOp21
 70
     1
102
RTVSPropertyOp22
 70
     1
102
RTVSPropertyOp23
 70
     1
102
RTVSPropertyOp24
 70
     1
102
RTVSPropertyOp25
 70
     1
102
RTVSPropertyOp26
 70
     1
102
RTVSPropertyOp27
 70
     1
  0
XRECORD
  5
247
102
{ACAD_REACTORS
330
246
102
}
330
246
100
AcDbXrecord
280
     1
102
RTVSPropertyOp0
 70
     1
102
RTVSPropertyOp1
 70
     1
102
RTVSPropertyOp2
 70
     1
102
RTVSPropertyOp3
 70
     1
102
RTVSPropertyOp4
 70
     1
102
RTVSPropertyOp5
 70
     1
102
RTVSPropertyOp6
 70
     1
102
RTVSPropertyOp7
 70
     1
102
RTVSPropertyOp8
 70
     1
102
RTVSPropertyOp9
 70
     1
102
RTVSPropertyOp10
 70
     1
102
RTVSPropertyOp11
 70
     1
102
RTVSPropertyOp12
 70
     1
102
RTVSPropertyOp13
 70
     1
102
RTVSPropertyOp14
 70
     1
102
RTVSPropertyOp15
 70
     1
102
RTVSPropertyOp16
 70
     1
102
RTVSPropertyOp17
 70
     1
102
RTVSPropertyOp18
 70
     1
102
RTVSPropertyOp19
 70
     1
102
RTVSPropertyOp20
 70
     1
102
RTVSPropertyOp21
 70
     1
102
RTVSPropertyOp22
 70
     1
102
RTVSPropertyOp23
 70
     1
102
RTVSPropertyOp24
 70
     1
102
RTVSPropertyOp25
 70
     1
102
RTVSPropertyOp26
 70
     1
102
RTVSPropertyOp27
 70
     1
  0
XRECORD
  5
245
102
{ACAD_REACTORS
330
244
102
}
330
244
100
AcDbXrecord
280
     1
102
RTVSPropertyOp0
 70
     1
102
RTVSPropertyOp1
 70
     1
102
RTVSPropertyOp2
 70
     1
102
RTVSPropertyOp3
 70
     1
102
RTVSPropertyOp4
 70
     1
102
RTVSPropertyOp5
 70
     1
102
RTVSPropertyOp6
 70
     1
102
RTVSPropertyOp7
 70
     1
102
RTVSPropertyOp8
 70
     1
102
RTVSPropertyOp9
 70
     1
102
RTVSPropertyOp10
 70
     1
102
RTVSPropertyOp11
 70
     1
102
RTVSPropertyOp12
 70
     1
102
RTVSPropertyOp13
 70
     1
102
RTVSPropertyOp14
 70
     1
102
RTVSPropertyOp15
 70
     1
102
RTVSPropertyOp16
 70
     1
102
RTVSPropertyOp17
 70
     1
102
RTVSPropertyOp18
 70
     1
102
RTVSPropertyOp19
 70
     1
102
RTVSPropertyOp20
 70
     1
102
RTVSPropertyOp21
 70
     1
102
RTVSPropertyOp22
 70
     1
102
RTVSPropertyOp23
 70
     1
102
RTVSPropertyOp24
 70
     1
102
RTVSPropertyOp25
 70
     1
102
RTVSPropertyOp26
 70
     1
102
RTVSPropertyOp27
 70
     1
  0
XRECORD
  5
241
102
{ACAD_REACTORS
330
240
102
}
330
240
100
AcDbXrecord
280
     1
102
RTVSPropertyOp0
 70
     1
102
RTVSPropertyOp1
 70
     1
102
RTVSPropertyOp2
 70
     1
102
RTVSPropertyOp3
 70
     1
102
RTVSPropertyOp4
 70
     1
102
RTVSPropertyOp5
 70
     1
102
RTVSPropertyOp6
 70
     1
102
RTVSPropertyOp7
 70
     1
102
RTVSPropertyOp8
 70
     1
102
RTVSPropertyOp9
 70
     1
102
RTVSPropertyOp10
 70
     1
102
RTVSPropertyOp11
 70
     1
102
RTVSPropertyOp12
 70
     1
102
RTVSPropertyOp13
 70
     1
102
RTVSPropertyOp14
 70
     1
102
RTVSPropertyOp15
 70
     1
102
RTVSPropertyOp16
 70
     1
102
RTVSPropertyOp17
 70
     1
102
RTVSPropertyOp18
 70
     1
102
RTVSPropertyOp19
 70
     1
102
RTVSPropertyOp20
 70
     1
102
RTVSPropertyOp21
 70
     1
102
RTVSPropertyOp22
 70
     1
102
RTVSPropertyOp23
 70
     1
102
RTVSPropertyOp24
 70
     1
102
RTVSPropertyOp25
 70
     1
102
RTVSPropertyOp26
 70
     1
102
RTVSPropertyOp27
 70
     1
  0
XRECORD
  5
24F
102
{ACAD_REACTORS
330
24E
102
}
330
24E
100
AcDbXrecord
280
     1
102
RTVSPropertyOp0
 70
     1
102
RTVSPropertyOp1
 70
     1
102
RTVSPropertyOp2
 70
     1
102
RTVSPropertyOp3
 70
     1
102
RTVSPropertyOp4
 70
     1
102
RTVSPropertyOp5
 70
     1
102
RTVSPropertyOp6
 70
     1
102
RTVSPropertyOp7
 70
     1
102
RTVSPropertyOp8
 70
     1
102
RTVSPropertyOp9
 70
     1
102
RTVSPropertyOp10
 70
     1
102
RTVSPropertyOp11
 70
     1
102
RTVSPropertyOp12
 70
     1
102
RTVSPropertyOp13
 70
     1
102
RTVSPropertyOp14
 70
     1
102
RTVSPropertyOp15
 70
     1
102
RTVSPropertyOp16
 70
     1
102
RTVSPropertyOp17
 70
     1
102
RTVSPropertyOp18
 70
     1
102
RTVSPropertyOp19
 70
     1
102
RTVSPropertyOp20
 70
     1
102
RTVSPropertyOp21
 70
     1
102
RTVSPropertyOp22
 70
     1
102
RTVSPropertyOp23
 70
     1
102
RTVSPropertyOp24
 70
     1
102
RTVSPropertyOp25
 70
     1
102
RTVSPropertyOp26
 70
     1
102
RTVSPropertyOp27
 70
     1
  0
XRECORD
  5
257
102
{ACAD_REACTORS
330
256
102
}
330
256
100
AcDbXrecord
280
     1
102
RTVSPropertyOp0
 70
     1
102
RTVSPropertyOp1
 70
     1
102
RTVSPropertyOp2
 70
     1
102
RTVSPropertyOp3
 70
     1
102
RTVSPropertyOp4
 70
     1
102
RTVSPropertyOp5
 70
     1
102
RTVSPropertyOp6
 70
     1
102
RTVSPropertyOp7
 70
     1
102
RTVSPropertyOp8
 70
     1
102
RTVSPropertyOp9
 70
     1
102
RTVSPropertyOp10
 70
     1
102
RTVSPropertyOp11
 70
     1
102
RTVSPropertyOp12
 70
     1
102
RTVSPropertyOp13
 70
     1
102
RTVSPropertyOp14
 70
     1
102
RTVSPropertyOp15
 70
     1
102
RTVSPropertyOp16
 70
     1
102
RTVSPropertyOp17
 70
     1
102
RTVSPropertyOp18
 70
     1
102
RTVSPropertyOp19
 70
     1
102
RTVSPropertyOp20
 70
     1
102
RTVSPropertyOp21
 70
     1
102
RTVSPropertyOp22
 70
     1
102
RTVSPropertyOp23
 70
     1
102
RTVSPropertyOp24
 70
     1
102
RTVSPropertyOp25
 70
     1
102
RTVSPropertyOp26
 70
     1
102
RTVSPropertyOp27
 70
     1
  0
XRECORD
  5
249
102
{ACAD_REACTORS
330
248
102
}
330
248
100
AcDbXrecord
280
     1
102
RTVSPropertyOp0
 70
     1
102
RTVSPropertyOp1
 70
     1
102
RTVSPropertyOp2
 70
     1
102
RTVSPropertyOp3
 70
     1
102
RTVSPropertyOp4
 70
     1
102
RTVSPropertyOp5
 70
     1
102
RTVSPropertyOp6
 70
     1
102
RTVSPropertyOp7
 70
     1
102
RTVSPropertyOp8
 70
     1
102
RTVSPropertyOp9
 70
     1
102
RTVSPropertyOp10
 70
     1
102
RTVSPropertyOp11
 70
     1
102
RTVSPropertyOp12
 70
     1
102
RTVSPropertyOp13
 70
     1
102
RTVSPropertyOp14
 70
     1
102
RTVSPropertyOp15
 70
     1
102
RTVSPropertyOp16
 70
     1
102
RTVSPropertyOp17
 70
     1
102
RTVSPropertyOp18
 70
     1
102
RTVSPropertyOp19
 70
     1
102
RTVSPropertyOp20
 70
     1
102
RTVSPropertyOp21
 70
     1
102
RTVSPropertyOp22
 70
     1
102
RTVSPropertyOp23
 70
     1
102
RTVSPropertyOp24
 70
     1
102
RTVSPropertyOp25
 70
     1
102
RTVSPropertyOp26
 70
     1
102
RTVSPropertyOp27
 70
     1
  0
XRECORD
  5
24D
102
{ACAD_REACTORS
330
24C
102
}
330
24C
100
AcDbXrecord
280
     1
102
RTVSPropertyOp0
 70
     1
102
RTVSPropertyOp1
 70
     1
102
RTVSPropertyOp2
 70
     1
102
RTVSPropertyOp3
 70
     1
102
RTVSPropertyOp4
 70
     1
102
RTVSPropertyOp5
 70
     1
102
RTVSPropertyOp6
 70
     1
102
RTVSPropertyOp7
 70
     1
102
RTVSPropertyOp8
 70
     1
102
RTVSPropertyOp9
 70
     1
102
RTVSPropertyOp10
 70
     1
102
RTVSPropertyOp11
 70
     1
102
RTVSPropertyOp12
 70
     1
102
RTVSPropertyOp13
 70
     1
102
RTVSPropertyOp14
 70
     1
102
RTVSPropertyOp15
 70
     1
102
RTVSPropertyOp16
 70
     1
102
RTVSPropertyOp17
 70
     1
102
RTVSPropertyOp18
 70
     1
102
RTVSPropertyOp19
 70
     1
102
RTVSPropertyOp20
 70
     1
102
RTVSPropertyOp21
 70
     1
102
RTVSPropertyOp22
 70
     1
102
RTVSPropertyOp23
 70
     1
102
RTVSPropertyOp24
 70
     1
102
RTVSPropertyOp25
 70
     1
102
RTVSPropertyOp26
 70
     1
102
RTVSPropertyOp27
 70
     1
  0
XRECORD
  5
25D
102
{ACAD_REACTORS
330
25C
102
}
330
25C
100
AcDbXrecord
280
     1
102
RTVSPropertyOp0
 70
     0
102
RTVSPropertyOp1
 70
     0
102
RTVSPropertyOp2
 70
     0
102
RTVSPropertyOp3
 70
     0
102
RTVSPropertyOp4
 70
     0
102
RTVSPropertyOp5
 70
     0
102
RTVSPropertyOp6
 70
     0
102
RTVSPropertyOp7
 70
     0
102
RTVSPropertyOp8
 70
     0
102
RTVSPropertyOp9
 70
     0
102
RTVSPropertyOp10
 70
     0
102
RTVSPropertyOp11
 70
     0
102
RTVSPropertyOp12
 70
     0
102
RTVSPropertyOp13
 70
     0
102
RTVSPropertyOp14
 70
     2
102
RTVSPropertyOp15
 70
     0
102
RTVSPropertyOp16
 70
     0
102
RTVSPropertyOp17
 70
     0
102
RTVSPropertyOp18
 70
     0
102
RTVSPropertyOp19
 70
     0
102
RTVSPropertyOp20
 70
     0
102
RTVSPropertyOp21
 70
     0
102
RTVSPropertyOp22
 70
     0
102
RTVSPropertyOp23
 70
     0
102
RTVSPropertyOp24
 70
     0
102
RTVSPropertyOp25
 70
     0
102
RTVSPropertyOp26
 70
     0
102
RTVSPropertyOp27
 70
     0
  0
XRECORD
  5
255
102
{ACAD_REACTORS
330
254
102
}
330
254
100
AcDbXrecord
280
     1
102
RTVSPropertyOp0
 70
     1
102
RTVSPropertyOp1
 70
     1
102
RTVSPropertyOp2
 70
     1
102
RTVSPropertyOp3
 70
     1
102
RTVSPropertyOp4
 70
     1
102
RTVSPropertyOp5
 70
     1
102
RTVSPropertyOp6
 70
     1
102
RTVSPropertyOp7
 70
     1
102
RTVSPropertyOp8
 70
     1
102
RTVSPropertyOp9
 70
     1
102
RTVSPropertyOp10
 70
     1
102
RTVSPropertyOp11
 70
     1
102
RTVSPropertyOp12
 70
     1
102
RTVSPropertyOp13
 70
     1
102
RTVSPropertyOp14
 70
     1
102
RTVSPropertyOp15
 70
     1
102
RTVSPropertyOp16
 70
     1
102
RTVSPropertyOp17
 70
     1
102
RTVSPropertyOp18
 70
     1
102
RTVSPropertyOp19
 70
     1
102
RTVSPropertyOp20
 70
     1
102
RTVSPropertyOp21
 70
     1
102
RTVSPropertyOp22
 70
     1
102
RTVSPropertyOp23
 70
     1
102
RTVSPropertyOp24
 70
     1
102
RTVSPropertyOp25
 70
     1
102
RTVSPropertyOp26
 70
     1
102
RTVSPropertyOp27
 70
     1
  0
XRECORD
  5
239
102
{ACAD_REACTORS
330
238
102
}
330
238
100
AcDbXrecord
280
     1
102
RTVSPropertyOp0
 70
     1
102
RTVSPropertyOp1
 70
     1
102
RTVSPropertyOp2
 70
     1
102
RTVSPropertyOp3
 70
     1
102
RTVSPropertyOp4
 70
     1
102
RTVSPropertyOp5
 70
     1
102
RTVSPropertyOp6
 70
     1
102
RTVSPropertyOp7
 70
     1
102
RTVSPropertyOp8
 70
     1
102
RTVSPropertyOp9
 70
     1
102
RTVSPropertyOp10
 70
     1
102
RTVSPropertyOp11
 70
     1
102
RTVSPropertyOp12
 70
     1
102
RTVSPropertyOp13
 70
     1
102
RTVSPropertyOp14
 70
     1
102
RTVSPropertyOp15
 70
     1
102
RTVSPropertyOp16
 70
     1
102
RTVSPropertyOp17
 70
     1
102
RTVSPropertyOp18
 70
     1
102
RTVSPropertyOp19
 70
     1
102
RTVSPropertyOp20
 70
     1
102
RTVSPropertyOp21
 70
     1
102
RTVSPropertyOp22
 70
     1
102
RTVSPropertyOp23
 70
     1
102
RTVSPropertyOp24
 70
     1
102
RTVSPropertyOp25
 70
     1
102
RTVSPropertyOp26
 70
     1
102
RTVSPropertyOp27
 70
     1
  0
XRECORD
  5
23B
102
{ACAD_REACTORS
330
23A
102
}
330
23A
100
AcDbXrecord
280
     1
102
RTVSPropertyOp0
 70
     1
102
RTVSPropertyOp1
 70
     1
102
RTVSPropertyOp2
 70
     1
102
RTVSPropertyOp3
 70
     1
102
RTVSPropertyOp4
 70
     1
102
RTVSPropertyOp5
 70
     1
102
RTVSPropertyOp6
 70
     1
102
RTVSPropertyOp7
 70
     1
102
RTVSPropertyOp8
 70
     1
102
RTVSPropertyOp9
 70
     1
102
RTVSPropertyOp10
 70
     1
102
RTVSPropertyOp11
 70
     1
102
RTVSPropertyOp12
 70
     1
102
RTVSPropertyOp13
 70
     1
102
RTVSPropertyOp14
 70
     1
102
RTVSPropertyOp15
 70
     1
102
RTVSPropertyOp16
 70
     1
102
RTVSPropertyOp17
 70
     1
102
RTVSPropertyOp18
 70
     1
102
RTVSPropertyOp19
 70
     1
102
RTVSPropertyOp20
 70
     1
102
RTVSPropertyOp21
 70
     1
102
RTVSPropertyOp22
 70
     1
102
RTVSPropertyOp23
 70
     1
102
RTVSPropertyOp24
 70
     1
102
RTVSPropertyOp25
 70
     1
102
RTVSPropertyOp26
 70
     1
102
RTVSPropertyOp27
 70
     1
  0
XRECORD
  5
23D
102
{ACAD_REACTORS
330
23C
102
}
330
23C
100
AcDbXrecord
280
     1
102
RTVSPropertyOp0
 70
     1
102
RTVSPropertyOp1
 70
     1
102
RTVSPropertyOp2
 70
     1
102
RTVSPropertyOp3
 70
     1
102
RTVSPropertyOp4
 70
     1
102
RTVSPropertyOp5
 70
     1
102
RTVSPropertyOp6
 70
     1
102
RTVSPropertyOp7
 70
     1
102
RTVSPropertyOp8
 70
     1
102
RTVSPropertyOp9
 70
     1
102
RTVSPropertyOp10
 70
     1
102
RTVSPropertyOp11
 70
     1
102
RTVSPropertyOp12
 70
     1
102
RTVSPropertyOp13
 70
     1
102
RTVSPropertyOp14
 70
     1
102
RTVSPropertyOp15
 70
     1
102
RTVSPropertyOp16
 70
     1
102
RTVSPropertyOp17
 70
     1
102
RTVSPropertyOp18
 70
     1
102
RTVSPropertyOp19
 70
     1
102
RTVSPropertyOp20
 70
     1
102
RTVSPropertyOp21
 70
     1
102
RTVSPropertyOp22
 70
     1
102
RTVSPropertyOp23
 70
     1
102
RTVSPropertyOp24
 70
     1
102
RTVSPropertyOp25
 70
     1
102
RTVSPropertyOp26
 70
     1
102
RTVSPropertyOp27
 70
     1
  0
XRECORD
  5
23F
102
{ACAD_REACTORS
330
23E
102
}
330
23E
100
AcDbXrecord
280
     1
102
RTVSPropertyOp0
 70
     1
102
RTVSPropertyOp1
 70
     1
102
RTVSPropertyOp2
 70
     1
102
RTVSPropertyOp3
 70
     1
102
RTVSPropertyOp4
 70
     1
102
RTVSPropertyOp5
 70
     1
102
RTVSPropertyOp6
 70
     1
102
RTVSPropertyOp7
 70
     1
102
RTVSPropertyOp8
 70
     1
102
RTVSPropertyOp9
 70
     1
102
RTVSPropertyOp10
 70
     1
102
RTVSPropertyOp11
 70
     1
102
RTVSPropertyOp12
 70
     1
102
RTVSPropertyOp13
 70
     1
102
RTVSPropertyOp14
 70
     1
102
RTVSPropertyOp15
 70
     1
102
RTVSPropertyOp16
 70
     1
102
RTVSPropertyOp17
 70
     1
102
RTVSPropertyOp18
 70
     1
102
RTVSPropertyOp19
 70
     1
102
RTVSPropertyOp20
 70
     1
102
RTVSPropertyOp21
 70
     1
102
RTVSPropertyOp22
 70
     1
102
RTVSPropertyOp23
 70
     1
102
RTVSPropertyOp24
 70
     1
102
RTVSPropertyOp25
 70
     1
102
RTVSPropertyOp26
 70
     1
102
RTVSPropertyOp27
 70
     1
  0
XRECORD
  5
259
102
{ACAD_REACTORS
330
258
102
}
330
258
100
AcDbXrecord
280
     1
102
RTVSPropertyOp0
 70
     0
102
RTVSPropertyOp1
 70
     0
102
RTVSPropertyOp2
 70
     0
102
RTVSPropertyOp3
 70
     0
102
RTVSPropertyOp4
 70
     0
102
RTVSPropertyOp5
 70
     0
102
RTVSPropertyOp6
 70
     0
102
RTVSPropertyOp7
 70
     0
102
RTVSPropertyOp8
 70
     0
102
RTVSPropertyOp9
 70
     0
102
RTVSPropertyOp10
 70
     0
102
RTVSPropertyOp11
 70
     0
102
RTVSPropertyOp12
 70
     0
102
RTVSPropertyOp13
 70
     0
102
RTVSPropertyOp14
 70
     2
102
RTVSPropertyOp15
 70
     0
102
RTVSPropertyOp16
 70
     0
102
RTVSPropertyOp17
 70
     0
102
RTVSPropertyOp18
 70
     0
102
RTVSPropertyOp19
 70
     0
102
RTVSPropertyOp20
 70
     0
102
RTVSPropertyOp21
 70
     0
102
RTVSPropertyOp22
 70
     0
102
RTVSPropertyOp23
 70
     0
102
RTVSPropertyOp24
 70
     0
102
RTVSPropertyOp25
 70
     0
102
RTVSPropertyOp26
 70
     0
102
RTVSPropertyOp27
 70
     0
  0
XRECORD
  5
253
102
{ACAD_REACTORS
330
252
102
}
330
252
100
AcDbXrecord
280
     1
102
RTVSPropertyOp0
 70
     1
102
RTVSPropertyOp1
 70
     1
102
RTVSPropertyOp2
 70
     1
102
RTVSPropertyOp3
 70
     1
102
RTVSPropertyOp4
 70
     1
102
RTVSPropertyOp5
 70
     1
102
RTVSPropertyOp6
 70
     1
102
RTVSPropertyOp7
 70
     1
102
RTVSPropertyOp8
 70
     1
102
RTVSPropertyOp9
 70
     1
102
RTVSPropertyOp10
 70
     1
102
RTVSPropertyOp11
 70
     1
102
RTVSPropertyOp12
 70
     1
102
RTVSPropertyOp13
 70
     1
102
RTVSPropertyOp14
 70
     1
102
RTVSPropertyOp15
 70
     1
102
RTVSPropertyOp16
 70
     1
102
RTVSPropertyOp17
 70
     1
102
RTVSPropertyOp18
 70
     1
102
RTVSPropertyOp19
 70
     1
102
RTVSPropertyOp20
 70
     1
102
RTVSPropertyOp21
 70
     1
102
RTVSPropertyOp22
 70
     1
102
RTVSPropertyOp23
 70
     1
102
RTVSPropertyOp24
 70
     1
102
RTVSPropertyOp25
 70
     1
102
RTVSPropertyOp26
 70
     1
102
RTVSPropertyOp27
 70
     1
  0
XRECORD
  5
25B
102
{ACAD_REACTORS
330
25A
102
}
330
25A
100
AcDbXrecord
280
     1
102
RTVSPropertyOp0
 70
     0
102
RTVSPropertyOp1
 70
     0
102
RTVSPropertyOp2
 70
     0
102
RTVSPropertyOp3
 70
     0
102
RTVSPropertyOp4
 70
     0
102
RTVSPropertyOp5
 70
     0
102
RTVSPropertyOp6
 70
     0
102
RTVSPropertyOp7
 70
     0
102
RTVSPropertyOp8
 70
     0
102
RTVSPropertyOp9
 70
     0
102
RTVSPropertyOp10
 70
     0
102
RTVSPropertyOp11
 70
     0
102
RTVSPropertyOp12
 70
     0
102
RTVSPropertyOp13
 70
     0
102
RTVSPropertyOp14
 70
     2
102
RTVSPropertyOp15
 70
     0
102
RTVSPropertyOp16
 70
     0
102
RTVSPropertyOp17
 70
     0
102
RTVSPropertyOp18
 70
     0
102
RTVSPropertyOp19
 70
     0
102
RTVSPropertyOp20
 70
     0
102
RTVSPropertyOp21
 70
     0
102
RTVSPropertyOp22
 70
     0
102
RTVSPropertyOp23
 70
     0
102
RTVSPropertyOp24
 70
     0
102
RTVSPropertyOp25
 70
     0
102
RTVSPropertyOp26
 70
     0
102
RTVSPropertyOp27
 70
     0
  0
XRECORD
  5
24B
102
{ACAD_REACTORS
330
24A
102
}
330
24A
100
AcDbXrecord
280
     1
102
RTVSPropertyOp0
 70
     1
102
RTVSPropertyOp1
 70
     1
102
RTVSPropertyOp2
 70
     1
102
RTVSPropertyOp3
 70
     1
102
RTVSPropertyOp4
 70
     1
102
RTVSPropertyOp5
 70
     1
102
RTVSPropertyOp6
 70
     1
102
RTVSPropertyOp7
 70
     1
102
RTVSPropertyOp8
 70
     1
102
RTVSPropertyOp9
 70
     1
102
RTVSPropertyOp10
 70
     1
102
RTVSPropertyOp11
 70
     1
102
RTVSPropertyOp12
 70
     1
102
RTVSPropertyOp13
 70
     1
102
RTVSPropertyOp14
 70
     1
102
RTVSPropertyOp15
 70
     1
102
RTVSPropertyOp16
 70
     1
102
RTVSPropertyOp17
 70
     1
102
RTVSPropertyOp18
 70
     1
102
RTVSPropertyOp19
 70
     1
102
RTVSPropertyOp20
 70
     1
102
RTVSPropertyOp21
 70
     1
102
RTVSPropertyOp22
 70
     1
102
RTVSPropertyOp23
 70
     1
102
RTVSPropertyOp24
 70
     1
102
RTVSPropertyOp25
 70
     1
102
RTVSPropertyOp26
 70
     1
102
RTVSPropertyOp27
 70
     1
  0
XRECORD
  5
251
102
{ACAD_REACTORS
330
250
102
}
330
250
100
AcDbXrecord
280
     1
102
RTVSPropertyOp0
 70
     1
102
RTVSPropertyOp1
 70
     1
102
RTVSPropertyOp2
 70
     1
102
RTVSPropertyOp3
 70
     1
102
RTVSPropertyOp4
 70
     1
102
RTVSPropertyOp5
 70
     1
102
RTVSPropertyOp6
 70
     1
102
RTVSPropertyOp7
 70
     1
102
RTVSPropertyOp8
 70
     1
102
RTVSPropertyOp9
 70
     1
102
RTVSPropertyOp10
 70
     1
102
RTVSPropertyOp11
 70
     1
102
RTVSPropertyOp12
 70
     1
102
RTVSPropertyOp13
 70
     1
102
RTVSPropertyOp14
 70
     1
102
RTVSPropertyOp15
 70
     1
102
RTVSPropertyOp16
 70
     1
102
RTVSPropertyOp17
 70
     1
102
RTVSPropertyOp18
 70
     1
102
RTVSPropertyOp19
 70
     1
102
RTVSPropertyOp20
 70
     1
102
RTVSPropertyOp21
 70
     1
102
RTVSPropertyOp22
 70
     1
102
RTVSPropertyOp23
 70
     1
102
RTVSPropertyOp24
 70
     1
102
RTVSPropertyOp25
 70
     1
102
RTVSPropertyOp26
 70
     1
102
RTVSPropertyOp27
 70
     1
  0
ENDSEC
  0
EOF
