  0
SECTION
  2
HEADER
  9
$ACADVER
  1
AC1009
  9
$INSBASE
 10
0.0
 20
0.0
 30
0.0
  9
$EXTMIN
 10
-260.04394330079231
 20
-399.85263204255222
 30
-0.0000000349181948
  9
$EXTMAX
 10
460.0439500065188
 20
670.66615262565836
 30
0.0000000814935747
  9
$LIMMIN
 10
0.0
 20
0.0
  9
$LIMMAX
 10
0.0
 20
0.0
  9
$ORTHOMODE
 70
     0
  9
$REGENMODE
 70
     1
  9
$FILLMODE
 70
     1
  9
$QTEXTMODE
 70
     0
  9
$MIRRTEXT
 70
     1
  9
$DRAGMODE
 70
     2
  9
$LTSCALE
 40
20.32
  9
$OSMODE
 70
   231
  9
$ATTMODE
 70
     1
  9
$TEXTSIZE
 40
0.0
  9
$TRACEWID
 40
1.0
  9
$TEXTSTYLE
  7
STANDARD
  9
$CLAYER
  8
DATA
  9
$CELTYPE
  6
BYLAYER
  9
$CECOLOR
 62
   256
  9
$DIMSCALE
 40
1.0
  9
$DIMASZ
 40
0.18
  9
$DIMEXO
 40
0.0625
  9
$DIMDLI
 40
0.38
  9
$DIMRND
 40
0.0
  9
$DIMDLE
 40
0.0
  9
$DIMEXE
 40
0.18
  9
$DIMTP
 40
0.0
  9
$DIMTM
 40
0.0
  9
$DIMTXT
 40
0.18
  9
$DIMCEN
 40
0.09
  9
$DIMTSZ
 40
0.0
  9
$DIMTOL
 70
     0
  9
$DIMLIM
 70
     0
  9
$DIMTIH
 70
     1
  9
$DIMTOH
 70
     1
  9
$DIMSE1
 70
     0
  9
$DIMSE2
 70
     0
  9
$DIMTAD
 70
     0
  9
$DIMZIN
 70
     0
  9
$DIMBLK
  1

  9
$DIMASO
 70
     1
  9
$DIMSHO
 70
     1
  9
$DIMPOST
  1

  9
$DIMAPOST
  1

  9
$DIMALT
 70
     0
  9
$DIMALTD
 70
     2
  9
$DIMALTF
 40
25.399999999999999
  9
$DIMLFAC
 40
1.0
  9
$DIMTOFL
 70
     0
  9
$DIMTVP
 40
0.0
  9
$DIMTIX
 70
     0
  9
$DIMSOXD
 70
     0
  9
$DIMSAH
 70
     0
  9
$DIMBLK1
  1

  9
$DIMBLK2
  1

  9
$DIMSTYLE
  2
STANDARD
  9
$DIMCLRD
 70
     0
  9
$DIMCLRE
 70
     0
  9
$DIMCLRT
 70
     0
  9
$DIMTFAC
 40
1.0
  9
$DIMGAP
 40
0.09
  9
$LUNITS
 70
     2
  9
$LUPREC
 70
     4
  9
$SKETCHINC
 40
0.1
  9
$FILLETRAD
 40
0.0
  9
$AUNITS
 70
     0
  9
$AUPREC
 70
     0
  9
$MENU
  1
acad
  9
$ELEVATION
 40
0.0
  9
$PELEVATION
 40
0.0
  9
$THICKNESS
 40
0.0
  9
$LIMCHECK
 70
     0
  9
$BLIPMODE
 70
     0
  9
$CHAMFERA
 40
0.0
  9
$CHAMFERB
 40
0.0
  9
$SKPOLY
 70
     0
  9
$TDCREATE
 40
2456059.7234490742
  9
$TDUPDATE
 40
2456059.7570432178
  9
$TDINDWG
 40
0.0005944676
  9
$TDUSRTIMER
 40
0.0005944676
  9
$USRTIMER
 70
     1
  9
$ANGBASE
 50
0.0
  9
$ANGDIR
 70
     0
  9
$PDMODE
 70
     1
  9
$PDSIZE
 40
-2.0
  9
$PLINEWID
 40
0.0
  9
$COORDS
 70
     2
  9
$SPLFRAME
 70
     0
  9
$SPLINETYPE
 70
     6
  9
$SPLINESEGS
 70
     8
  9
$ATTDIA
 70
     0
  9
$ATTREQ
 70
     1
  9
$HANDLING
 70
     1
  9
$HANDSEED
  5
AEC
  9
$SURFTAB1
 70
     6
  9
$SURFTAB2
 70
     6
  9
$SURFTYPE
 70
     6
  9
$SURFU
 70
     6
  9
$SURFV
 70
     6
  9
$UCSNAME
  2

  9
$UCSORG
 10
0.0
 20
0.0
 30
0.0
  9
$UCSXDIR
 10
1.0
 20
0.0
 30
0.0
  9
$UCSYDIR
 10
0.0
 20
1.0
 30
0.0
  9
$PUCSNAME
  2

  9
$PUCSORG
 10
0.0
 20
0.0
 30
0.0
  9
$PUCSXDIR
 10
1.0
 20
0.0
 30
0.0
  9
$PUCSYDIR
 10
0.0
 20
1.0
 30
0.0
  9
$USERI1
 70
     0
  9
$USERI2
 70
     0
  9
$USERI3
 70
     0
  9
$USERI4
 70
     0
  9
$USERI5
 70
     0
  9
$USERR1
 40
0.0
  9
$USERR2
 40
0.0
  9
$USERR3
 40
0.0
  9
$USERR4
 40
0.0
  9
$USERR5
 40
0.0
  9
$WORLDVIEW
 70
     1
  9
$SHADEDGE
 70
     3
  9
$SHADEDIF
 70
    70
  9
$TILEMODE
 70
     1
  9
$MAXACTVP
 70
    64
  9
$PLIMCHECK
 70
     0
  9
$PEXTMIN
 10
1.0000000000000000E+020
 20
1.0000000000000000E+020
 30
1.0000000000000000E+020
  9
$PEXTMAX
 10
-1.0000000000000000E+020
 20
-1.0000000000000000E+020
 30
-1.0000000000000000E+020
  9
$PLIMMIN
 10
0.0
 20
0.0
  9
$PLIMMAX
 10
12.0
 20
9.0
  9
$UNITMODE
 70
     0
  9
$VISRETAIN
 70
     0
  9
$PLINEGEN
 70
     1
  9
$PSLTSCALE
 70
     0
  0
ENDSEC
  0
SECTION
  2
TABLES
  0
TABLE
  2
VPORT
 70
     1
  0
VPORT
  2
*ACTIVE
 70
     0
 10
0.0
 20
0.0
 11
1.0
 21
1.0
 12
100.0000033528631
 22
135.4067602915531
 13
0.0
 23
0.0
 14
1.0
 24
1.0
 15
0.0
 25
0.0
 16
0.0
 26
0.0
 36
1.0
 17
0.0
 27
0.0
 37
0.0
 40
1078.8931167516639
 41
2.1540469973890342
 42
50.0
 43
0.0
 44
0.0
 50
0.0
 51
0.0
 71
     0
 72
  2000
 73
     1
 74
     1
 75
     0
 76
     0
 77
     0
 78
     0
  0
ENDTAB
  0
TABLE
  2
LTYPE
 70
     1
  0
LTYPE
  2
CONTINUOUS
 70
     0
  3
Solid line
 72
    65
 73
     0
 40
0.0
  0
ENDTAB
  0
TABLE
  2
LAYER
 70
     5
  0
LAYER
  2
0
 70
     0
 62
     7
  6
CONTINUOUS
  0
LAYER
  2
DATA
 70
     0
 62
     7
  6
CONTINUOUS
  0
LAYER
  2
HIBINO-BASE
 70
     0
 62
     7
  6
CONTINUOUS
  0
LAYER
  2
SPEC
 70
     0
 62
     7
  6
CONTINUOUS
  0
LAYER
  2
DIMNSIONS
 70
     0
 62
     7
  6
CONTINUOUS
  0
ENDTAB
  0
TABLE
  2
STYLE
 70
     3
  0
STYLE
  2
STANDARD
 70
     0
 40
0.0
 41
1.0
 50
0.0
 71
     0
 42
0.0
  3
txt
  4
BIGFONT.SHX
  0
ENDTAB
  0
TABLE
  2
VIEW
 70
     0
  0
ENDTAB
  0
TABLE
  2
UCS
 70
     0
  0
ENDTAB
  0
TABLE
  2
APPID
 70
     4
  0
APPID
  2
ACAD
 70
     0
  0
APPID
  2
ACADANNOTATIVE
 70
     0
  0
APPID
  2
ACAD_NAV_VCDISPLAY
 70
     0
  0
APPID
  2
ACAD_MLEADERVER
 70
     0
  0
ENDTAB
  0
TABLE
  2
DIMSTYLE
 70
     2
  0
DIMSTYLE
  2
STANDARD
 70
     0
  3

  4

  5

  6

  7

 40
1.0
 41
0.18
 42
0.0625
 43
0.38
 44
0.18
 45
0.0
 46
0.0
 47
0.0
 48
0.0
140
0.18
141
0.09
142
0.0
143
25.399999999999999
144
1.0
145
0.0
146
1.0
147
0.09
 71
     0
 72
     0
 73
     1
 74
     1
 75
     0
 76
     0
 77
     0
 78
     0
170
     0
171
     2
172
     0
173
     0
174
     0
175
     0
176
     0
177
     0
178
     0
  0
ENDTAB
  0
ENDSEC
  0
SECTION
  2
BLOCKS
  0
BLOCK
  8
0
  2
$MODEL_SPACE
 70
     0
 10
0.0
 20
0.0
 30
0.0
  3
$MODEL_SPACE
  1

  0
ENDBLK
  5
8B6
  8
0
  0
BLOCK
 67
     1
  8
0
  2
$PAPER_SPACE
 70
     0
 10
0.0
 20
0.0
 30
0.0
  3
$PAPER_SPACE
  1

  0
ENDBLK
  5
8B2
 67
     1
  8
0
  0
ENDSEC
  0
SECTION
  2
ENTITIES
  0
LINE
  5
2C
  8
HIBINO-BASE
  6
CONTINUOUS
 62
     7
 10
-260.0
 20
670.60094368459761
 30
0.0
 11
460.0
 21
670.60094368459761
 31
0.0
  0
LINE
  5
2D
  8
HIBINO-BASE
  6
CONTINUOUS
 62
     7
 10
460.0
 20
-369.39905631540228
 30
0.0
 11
-260.0
 21
-369.39905631540228
 31
0.0
  0
LINE
  5
2E
  8
HIBINO-BASE
  6
CONTINUOUS
 62
     7
 10
-260.0
 20
-369.39905631540228
 30
0.0
 11
-260.0
 21
670.60094368459761
 31
0.0
  0
LINE
  5
2F
  8
HIBINO-BASE
  6
CONTINUOUS
 62
     7
 10
460.0
 20
670.60094368459761
 30
0.0
 11
460.0
 21
-369.39905631540228
 31
0.0
  0
LINE
  5
30
  8
HIBINO-BASE
  6
CONTINUOUS
 62
     7
 10
100.0
 20
-279.39905631540228
 30
0.0
 11
460.0
 21
-279.39905631540228
 31
0.0
  0
LINE
  5
31
  8
HIBINO-BASE
  6
CONTINUOUS
 62
     7
 10
100.0
 20
-369.39905631540228
 30
0.0
 11
100.0
 21
-279.39905631540228
 31
0.0
  0
TEXT
  5
32
  8
HIBINO-BASE
 62
     7
 10
103.59999999999999
 20
-289.43382964873553
 30
0.0
 40
6.5153645833333309
  1
NOTE
 41
0.7
 11
103.59999999999999
 21
-282.91846506540219
 31
0.0
 73
     3
  0
LINE
  5
33
  8
HIBINO-BASE
  6
CONTINUOUS
 62
     7
 10
240.0
 20
-369.39905631540228
 30
0.0
 11
240.0
 21
-279.39905631540228
 31
0.0
  0
TEXT
  5
34
  8
HIBINO-BASE
 62
     7
 10
243.59999999999999
 20
-289.43382964873553
 30
0.0
 40
6.5153645833333309
  1
TITLE
 41
0.7
 11
243.59999999999999
 21
-282.91846506540219
 31
0.0
 73
     3
  0
LINE
  5
35
  8
HIBINO-BASE
  6
CONTINUOUS
 62
     7
 10
100.0
 20
-329.39905631540228
 30
0.0
 11
460.0
 21
-329.39905631540228
 31
0.0
  0
TEXT
  5
36
  8
HIBINO-BASE
 62
     7
 10
293.60000000000002
 20
-339.20854964873553
 30
0.0
 40
6.5153645833333309
  1
DRAWN
 41
0.7
 11
293.60000000000002
 21
-332.69318506540219
 31
0.0
 73
     3
  0
TEXT
  5
37
  8
HIBINO-BASE
 62
     7
 10
193.59999999999999
 20
-339.20854964873553
 30
0.0
 40
6.5153645833333309
  1
DATE
 41
0.7
 11
193.59999999999999
 21
-332.69318506540219
 31
0.0
 73
     3
  0
TEXT
  5
38
  8
HIBINO-BASE
 62
     7
 10
153.59999999999991
 20
-339.20854964873553
 30
0.0
 40
6.5153645833333309
  1
SCALE
 41
0.7
 11
153.59999999999991
 21
-332.69318506540219
 31
0.0
 73
     3
  0
TEXT
  5
39
  8
HIBINO-BASE
 62
     7
 10
243.59999999999999
 20
-339.20854964873553
 30
0.0
 40
6.5153645833333309
  1
DESIGN
 41
0.7
 11
243.59999999999999
 21
-332.69318506540219
 31
0.0
 73
     3
  0
TEXT
  5
3A
  8
HIBINO-BASE
 62
     7
 10
393.60000000000002
 20
-339.20854964873553
 30
0.0
 40
6.5153645833333309
  1
DRAWING NO.
 41
0.7
 11
393.60000000000002
 21
-332.69318506540219
 31
0.0
 73
     3
  0
TEXT
  5
3B
  8
HIBINO-BASE
 62
     7
 10
343.60000000000002
 20
-339.20854964873553
 30
0.0
 40
6.5153645833333309
  1
CHECK
 41
0.7
 11
343.60000000000002
 21
-332.69318506540219
 31
0.0
 73
     3
  0
LINE
  5
3C
  8
HIBINO-BASE
  6
CONTINUOUS
 62
     7
 10
157.5
 20
-364.39905631540228
 30
0.0
 11
172.5
 21
-349.39905631540222
 31
0.0
  0
TEXT
  5
3D
  8
HIBINO-BASE
 62
     7
 10
155.20236791530141
 20
-353.83482964873559
 30
0.0
 40
6.5153645833333309
  1
1
 41
0.7
 11
155.20236791530141
 21
-347.3194650654022
 31
0.0
 73
     3
  0
LINE
  5
3E
  8
HIBINO-BASE
  6
CONTINUOUS
 62
     7
 10
150.0
 20
-369.39905631540228
 30
0.0
 11
150.0
 21
-329.39905631540228
 31
0.0
  0
LINE
  5
3F
  8
HIBINO-BASE
  6
CONTINUOUS
 62
     7
 10
190.0
 20
-369.39905631540228
 30
0.0
 11
190.0
 21
-329.39905631540228
 31
0.0
  0
LINE
  5
40
  8
HIBINO-BASE
  6
CONTINUOUS
 62
     7
 10
290.0
 20
-329.39905631540228
 30
0.0
 11
290.0
 21
-369.39905631540228
 31
0.0
  0
LINE
  5
41
  8
HIBINO-BASE
  6
CONTINUOUS
 62
     7
 10
390.0
 20
-329.39905631540228
 30
0.0
 11
390.0
 21
-369.39905631540228
 31
0.0
  0
LINE
  5
42
  8
HIBINO-BASE
  6
CONTINUOUS
 62
     7
 10
339.99999999999989
 20
-369.39905631540228
 30
0.0
 11
339.99999999999989
 21
-329.39905631540228
 31
0.0
  0
TEXT
  5
43
  8
HIBINO-BASE
 62
     7
 10
193.42616000000001
 20
-357.94446964873549
 30
0.0
 40
6.5153645833333309
  1
'12.04.
 41
0.7
 11
193.42616000000001
 21
-351.42910506540221
 31
0.0
 73
     3
  0
TEXT
  5
44
  8
HIBINO-BASE
 62
     7
 10
296.0232400441385
 20
-357.94446964873549
 30
0.0
 40
6.5153645833333309
  1
Ootake
 41
0.7
 11
296.0232400441385
 21
-351.42910506540221
 31
0.0
 73
     3
  0
TEXT
  5
45
  8
HIBINO-BASE
 62
     7
 10
115.5333333333334
 20
-361.49505631540228
 30
0.0
 40
13.03072916666666
  1
A4
 41
0.7
 11
115.5333333333334
 21
-348.46432714873572
 31
0.0
 73
     3
  0
TEXT
  5
46
  8
HIBINO-BASE
 62
     7
 10
103.8333333333333
 20
-339.87687631540223
 30
0.0
 40
6.5153645833333309
  1
PAPER SIZE
 41
0.7
 11
103.8333333333333
 21
-333.36151173206889
 31
0.0
 73
     3
  0
TEXT
  5
47
  8
HIBINO-BASE
 62
     7
 10
-248.9614589724392
 20
-395.10001725210731
 30
0.0
 40
14.116623263888879
  1
Hibino-Intersound Corporation
 41
0.7
 11
-248.9614589724392
 21
-380.98339398821838
 31
0.0
 73
     3
  0
TEXT
  5
48
  8
HIBINO-BASE
 62
     7
 10
180.72243872085559
 20
-393.69566423894958
 30
0.0
 40
14.116623263888879
  1
ヒビノインターサウンド株式会社
 41
0.7
 11
180.72243872085559
 21
-379.57904097506071
 31
0.0
 73
     3
  0
TEXT
  5
49
  8
HIBINO-BASE
 62
     7
 10
168.75
 20
-364.94790874044361
 30
0.0
 40
6.5153645833333309
  1
4
 41
0.7
 11
168.75
 21
-358.43254415711021
 31
0.0
 73
     3
  0
LINE
  5
4A
  8
SPEC
  6
CONTINUOUS
 62
     7
 10
-230.0
 20
630.60094368459738
 30
0.0
 11
360.0
 21
630.60094368459738
 31
0.0
  0
LINE
  5
4B
  8
SPEC
  6
CONTINUOUS
 62
     7
 10
-230.0
 20
615.60094368459761
 30
0.0
 11
360.0
 21
615.60094368459761
 31
0.0
  0
LINE
  5
4C
  8
SPEC
  6
CONTINUOUS
 62
     7
 10
-230.0
 20
585.60094368459761
 30
0.0
 11
360.0
 21
585.60094368459761
 31
0.0
  0
LINE
  5
4D
  8
SPEC
  6
CONTINUOUS
 62
     7
 10
-230.0
 20
600.6009436845975
 30
0.0
 11
360.0
 21
600.6009436845975
 31
0.0
  0
LINE
  5
4E
  8
SPEC
  6
CONTINUOUS
 62
     7
 10
-230.0
 20
630.60094368459738
 30
0.0
 11
-230.0
 21
450.60094368459772
 31
0.0
  0
TEXT
  5
4F
  8
SPEC
 62
     7
 10
-225.0
 20
636.1740236845975
 30
0.0
 40
9.7730468750000004
  1
仕様
 41
0.7
 11
-225.0
 21
645.94707055959748
 31
0.0
 73
     3
  0
LINE
  5
50
  8
SPEC
  6
CONTINUOUS
 62
     7
 10
-100.0
 20
630.60094368459738
 30
0.0
 11
-100.0
 21
450.60094368459772
 31
0.0
  0
LINE
  5
51
  8
SPEC
  6
CONTINUOUS
 62
     7
 10
360.0
 20
630.60094368459738
 30
0.0
 11
360.0
 21
450.60094368459772
 31
0.0
  0
LINE
  5
52
  8
SPEC
  6
CONTINUOUS
 62
     7
 10
-230.0
 20
570.60094368459761
 30
0.0
 11
360.0
 21
570.60094368459761
 31
0.0
  0
LINE
  5
53
  8
SPEC
  6
CONTINUOUS
 62
     7
 10
-230.0
 20
555.60094368459772
 30
0.0
 11
360.0
 21
555.60094368459772
 31
0.0
  0
LINE
  5
54
  8
SPEC
  6
CONTINUOUS
 62
     7
 10
-230.0
 20
540.60094368459772
 30
0.0
 11
360.0
 21
540.60094368459772
 31
0.0
  0
LINE
  5
55
  8
SPEC
  6
CONTINUOUS
 62
     7
 10
-230.0
 20
525.60094368459772
 30
0.0
 11
360.0
 21
525.60094368459772
 31
0.0
  0
LINE
  5
56
  8
SPEC
  6
CONTINUOUS
 62
     7
 10
-230.0
 20
510.60094368459772
 30
0.0
 11
360.0
 21
510.60094368459772
 31
0.0
  0
LINE
  5
57
  8
SPEC
  6
CONTINUOUS
 62
     7
 10
-230.0
 20
495.60094368459772
 30
0.0
 11
360.0
 21
495.60094368459772
 31
0.0
  0
LINE
  5
58
  8
SPEC
  6
CONTINUOUS
 62
     7
 10
-230.0
 20
480.60094368459772
 30
0.0
 11
360.0
 21
480.60094368459772
 31
0.0
  0
LINE
  5
59
  8
SPEC
  6
CONTINUOUS
 62
     7
 10
-230.0
 20
465.60094368459772
 30
0.0
 11
360.0
 21
465.60094368459772
 31
0.0
  0
LINE
  5
5A
  8
SPEC
  6
CONTINUOUS
 62
     7
 10
-230.0
 20
450.60094368459772
 30
0.0
 11
360.0
 21
450.60094368459772
 31
0.0
  0
TEXT
  5
5B
  8
SPEC
 62
     7
 10
-226.78391946630649
 20
469.532207665839
 30
0.0
 40
7.6012586805555529
  1
寸法
 41
0.7
 11
-226.78391946630649
 21
477.13346634639453
 31
0.0
 73
     3
  0
TEXT
  5
5C
  8
SPEC
 62
     7
 10
-96.379461800940547
 20
469.15724297428108
 30
0.0
 40
7.6012586805555529
  1
214(W)\U+00D742(H)\U+00D7109(D)mm(突起部含まず）、送受信機共に
 41
0.7
 11
-96.379461800940547
 21
476.75850165483672
 31
0.0
 73
     3
  0
TEXT
  5
5D
  8
SPEC
 62
     7
 10
-96.592435499514693
 20
454.48631464899279
 30
0.0
 40
7.6012586805555529
  1
約450g、送受信機共に
 41
0.7
 11
-96.592435499514693
 21
462.08757332954832
 31
0.0
 73
     3
  0
TEXT
  5
5E
  8
SPEC
 62
     7
 10
-226.6093079998177
 20
454.743361615455
 30
0.0
 40
7.6012586805555529
  1
重量
 41
0.7
 11
-226.6093079998177
 21
462.34462029601048
 31
0.0
 73
     3
  0
TEXT
  5
5F
  8
SPEC
 62
     7
 10
-226.5440979790188
 20
484.93493185360938
 30
0.0
 40
7.6012586805555529
  1
動作温度
 41
0.7
 11
-226.5440979790188
 21
492.53619053416497
 31
0.0
 73
     3
  0
TEXT
  5
60
  8
SPEC
 62
     7
 10
-96.243168859509566
 20
484.0678836577369
 30
0.0
 40
7.6012586805555529
  1
0～40\U+00B0
 41
0.7
 11
-96.243168859509566
 21
491.66914233829249
 31
0.0
 73
     3
  0
TEXT
  5
61
  8
SPEC
 62
     7
 10
-226.6400617693609
 20
499.64007193808777
 30
0.0
 40
7.6012586805555529
  1
消費電力
 41
0.7
 11
-226.6400617693609
 21
507.2413306186433
 31
0.0
 73
     3
  0
TEXT
  5
62
  8
SPEC
 62
     7
 10
-96.951412280677431
 20
499.17746308345249
 30
0.0
 40
7.6012586805555529
  1
10W
 41
0.7
 11
-96.951412280677431
 21
506.77872176400803
 31
0.0
 73
     3
  0
TEXT
  5
63
  8
SPEC
 62
     7
 10
-226.76031052979789
 20
514.42309299308045
 30
0.0
 40
7.6012586805555529
  1
電源
 41
0.7
 11
-226.76031052979789
 21
522.02435167363615
 31
0.0
 73
     3
  0
TEXT
  5
64
  8
SPEC
 62
     7
 10
-96.325970617569268
 20
514.06505179247949
 30
0.0
 40
7.6012586805555529
  1
5V DC
 41
0.7
 11
-96.325970617569268
 21
521.66631047303508
 31
0.0
 73
     3
  0
TEXT
  5
65
  8
SPEC
 62
     7
 10
-228.3623691962041
 20
529.32197569981429
 30
0.0
 40
7.6012586805555529
  1
リンク端子
 41
0.7
 11
-228.3623691962041
 21
536.92323438036999
 31
0.0
 73
     3
  0
TEXT
  5
66
  8
SPEC
 62
     7
 10
-96.351412280677408
 20
529.36017816431456
 30
0.0
 40
7.6012586805555529
  1
RJ-45
 41
0.7
 11
-96.351412280677408
 21
536.96143684487015
 31
0.0
 73
     3
  0
TEXT
  5
67
  8
SPEC
 62
     7
 10
-226.4470370334227
 20
544.45674851796275
 30
0.0
 40
7.6012586805555529
  1
RS-232端子(受信機)
 41
0.7
 11
-226.4470370334227
 21
552.05800719851834
 31
0.0
 73
     3
  0
TEXT
  5
68
  8
SPEC
 62
     7
 10
-226.41035870275439
 20
559.57919247939719
 30
0.0
 40
7.6012586805555529
  1
RS-232端子(送信機)
 41
0.7
 11
-226.41035870275439
 21
567.18045115995267
 31
0.0
 73
     3
  0
TEXT
  5
69
  8
SPEC
 62
     7
 10
-96.420144083596782
 20
559.49271364251263
 30
0.0
 40
7.6012586805555529
  1
D-sub9ピン　メス
 41
0.7
 11
-96.420144083596782
 21
567.09397232306821
 31
0.0
 73
     3
  0
TEXT
  5
6A
  8
SPEC
 62
     7
 10
-226.32029365184849
 20
574.40349442094475
 30
0.0
 40
7.6012586805555529
  1
DVI入出力端子
 41
0.7
 11
-226.32029365184849
 21
582.00475310150034
 31
0.0
 73
     3
  0
TEXT
  5
6B
  8
SPEC
 62
     7
 10
-96.40616848079361
 20
574.49271364251251
 30
0.0
 40
7.6012586805555529
  1
DVI-29pin DVI-Dのみ対応　送受信機共に
 41
0.7
 11
-96.40616848079361
 21
582.09397232306821
 31
0.0
 73
     3
  0
TEXT
  5
6C
  8
SPEC
 62
     7
 10
-226.62559418304639
 20
589.27229245853403
 30
0.0
 40
7.6012586805555529
  1
入力DDC信号
 41
0.7
 11
-226.62559418304639
 21
596.87355113908961
 31
0.0
 73
     3
  0
TEXT
  5
6D
  8
SPEC
 62
     7
 10
-96.374608197414133
 20
589.56951772577577
 30
0.0
 40
7.6012586805555529
  1
5Vp-p(TTL)
 41
0.7
 11
-96.374608197414133
 21
597.17077640633147
 31
0.0
 73
     3
  0
TEXT
  5
6E
  8
SPEC
 62
     7
 10
-226.64091897888869
 20
604.56664499661542
 30
0.0
 40
7.6012586805555529
  1
入力ビデオ信号
 41
0.7
 11
-226.64091897888869
 21
612.16790367717101
 31
0.0
 73
     3
  0
TEXT
  5
6F
  8
SPEC
 62
     7
 10
-96.936955196113928
 20
604.56982222559998
 30
0.0
 40
7.6012586805555529
  1
1.2Vp-p
 41
0.7
 11
-96.936955196113928
 21
612.17108090615557
 31
0.0
 73
     3
  0
TEXT
  5
70
  8
SPEC
 62
     7
 10
-228.23709905791279
 20
619.03795451004225
 30
0.0
 40
7.6012586805555529
  1
ビデオアンプ帯域
 41
0.7
 11
-228.23709905791279
 21
626.63921319059796
 31
0.0
 73
     3
  0
TEXT
  5
71
  8
SPEC
 62
     7
 10
-96.459846613026585
 20
618.87584497781415
 30
0.0
 40
7.6012586805555529
  1
2\U+00D7165MHz
 41
0.7
 11
-96.459846613026585
 21
626.47710365836986
 31
0.0
 73
     3
  0
TEXT
  5
72
  8
SPEC
 62
     7
 10
-96.379908737539367
 20
544.61712720875073
 30
0.0
 40
7.6012586805555529
  1
D-sub9ピン　オス
 41
0.7
 11
-96.379908737539367
 21
552.21838588930632
 31
0.0
 73
     3
  0
TEXT
  5
73
  8
DIMNSIONS
 62
     7
 10
19.999999999999972
 20
-320.32109631540231
 30
0.0
 40
9.7730468750000004
  1
(単位：mm)
 41
0.7
 11
19.999999999999972
 21
-310.54804944040228
 31
0.0
 73
     3
  0
LINE
  5
74
  8
DIMNSIONS
  6
CONTINUOUS
 62
     7
 10
-176.75
 20
156.25
 30
0.0
 11
-201.75
 21
156.25
 31
0.0
  0
LINE
  5
75
  8
DIMNSIONS
  6
CONTINUOUS
 62
     7
 10
-176.75
 20
198.25
 30
0.0
 11
-201.75
 21
198.25
 31
0.0
  0
LINE
  5
76
  8
DIMNSIONS
  6
CONTINUOUS
 62
     7
 10
-193.75
 20
156.25
 30
0.0
 11
-193.75
 21
198.25
 31
0.0
  0
LINE
  5
77
  8
DIMNSIONS
  6
CONTINUOUS
 62
     7
 10
-193.75
 20
156.25
 30
0.0
 11
-196.43015918060101
 21
166.25249023437499
 31
0.0
  0
LINE
  5
78
  8
DIMNSIONS
  6
CONTINUOUS
 62
     7
 10
-193.75
 20
156.25
 30
0.0
 11
-191.06984081939891
 21
166.25249023437499
 31
0.0
  0
LINE
  5
79
  8
DIMNSIONS
  6
CONTINUOUS
 62
     7
 10
-193.75
 20
198.25
 30
0.0
 11
-191.06984081939891
 21
188.24750976562501
 31
0.0
  0
LINE
  5
7A
  8
DIMNSIONS
  6
CONTINUOUS
 62
     7
 10
-193.75
 20
198.25
 30
0.0
 11
-196.43015918060101
 21
188.24750976562501
 31
0.0
  0
TEXT
  5
7B
  8
DIMNSIONS
 62
     7
 10
-197.72555555555539
 20
170.1944444444444
 30
0.0
 40
10.85894097222222
  1
42
 50
90.0
 41
0.7
 11
-208.5844965277777
 21
170.1944444444444
 31
0.0
 73
     3
  0
LINE
  5
7C
  8
DIMNSIONS
  6
CONTINUOUS
 62
     7
 10
-168.75
 20
148.25
 30
0.0
 11
-168.75
 21
123.25
 31
0.0
  0
LINE
  5
7D
  8
DIMNSIONS
  6
CONTINUOUS
 62
     7
 10
45.249999999999993
 20
148.25
 30
0.0
 11
45.249999999999993
 21
123.25
 31
0.0
  0
LINE
  5
7E
  8
DIMNSIONS
  6
CONTINUOUS
 62
     7
 10
-168.75
 20
131.25
 30
0.0
 11
45.249999999999993
 21
131.25
 31
0.0
  0
LINE
  5
7F
  8
DIMNSIONS
  6
CONTINUOUS
 62
     7
 10
-168.75
 20
131.25
 30
0.0
 11
-158.74750976562501
 21
133.93015918060101
 31
0.0
  0
LINE
  5
80
  8
DIMNSIONS
  6
CONTINUOUS
 62
     7
 10
-168.75
 20
131.25
 30
0.0
 11
-158.74750976562501
 21
128.56984081939899
 31
0.0
  0
LINE
  5
81
  8
DIMNSIONS
  6
CONTINUOUS
 62
     7
 10
45.249999999999993
 20
131.25
 30
0.0
 11
35.247509765624983
 21
128.56984081939899
 31
0.0
  0
LINE
  5
82
  8
DIMNSIONS
  6
CONTINUOUS
 62
     7
 10
45.249999999999993
 20
131.25
 30
0.0
 11
35.247509765624983
 21
133.93015918060101
 31
0.0
  0
TEXT
  5
83
  8
DIMNSIONS
 62
     7
 10
-72.333333333333343
 20
135.22555555555559
 30
0.0
 40
10.85894097222222
  1
214
 41
0.7
 11
-72.333333333333343
 21
146.08449652777779
 31
0.0
 73
     3
  0
LINE
  5
84
  8
DIMNSIONS
  6
CONTINUOUS
 62
     7
 10
-176.75
 20
218.75
 30
0.0
 11
-201.75
 21
218.75
 31
0.0
  0
LINE
  5
85
  8
DIMNSIONS
  6
CONTINUOUS
 62
     7
 10
-176.75
 20
327.75
 30
0.0
 11
-201.75
 21
327.75
 31
0.0
  0
LINE
  5
86
  8
DIMNSIONS
  6
CONTINUOUS
 62
     7
 10
-193.75
 20
218.75
 30
0.0
 11
-193.75
 21
327.75
 31
0.0
  0
LINE
  5
87
  8
DIMNSIONS
  6
CONTINUOUS
 62
     7
 10
-193.75
 20
218.75
 30
0.0
 11
-196.43015918060101
 21
228.75249023437499
 31
0.0
  0
LINE
  5
88
  8
DIMNSIONS
  6
CONTINUOUS
 62
     7
 10
-193.75
 20
218.75
 30
0.0
 11
-191.06984081939891
 21
228.75249023437499
 31
0.0
  0
LINE
  5
89
  8
DIMNSIONS
  6
CONTINUOUS
 62
     7
 10
-193.75
 20
327.75
 30
0.0
 11
-191.06984081939891
 21
317.74750976562501
 31
0.0
  0
LINE
  5
8A
  8
DIMNSIONS
  6
CONTINUOUS
 62
     7
 10
-193.75
 20
327.75
 30
0.0
 11
-196.43015918060101
 21
317.74750976562501
 31
0.0
  0
TEXT
  5
8B
  8
DIMNSIONS
 62
     7
 10
-197.72555555555539
 20
262.66666666666669
 30
0.0
 40
10.85894097222222
  1
109
 50
90.0
 41
0.7
 11
-208.5844965277777
 21
262.66666666666669
 31
0.0
 73
     3
  0
LINE
  5
8C
  8
DIMNSIONS
  6
CONTINUOUS
 62
     7
 10
-176.75
 20
327.75
 30
0.0
 11
-201.75
 21
327.75
 31
0.0
  0
LINE
  5
8D
  8
DIMNSIONS
  6
CONTINUOUS
 62
     7
 10
-158.14999999999981
 20
333.75
 30
0.0
 11
-201.75
 21
333.75
 31
0.0
  0
LINE
  5
8E
  8
DIMNSIONS
  6
CONTINUOUS
 62
     7
 10
-193.75
 20
333.75
 30
0.0
 11
-193.75
 21
327.75
 31
0.0
  0
LINE
  5
8F
  8
DIMNSIONS
  6
CONTINUOUS
 62
     7
 10
-193.75
 20
327.75
 30
0.0
 11
-193.75
 21
307.75
 31
0.0
  0
LINE
  5
90
  8
DIMNSIONS
  6
CONTINUOUS
 62
     7
 10
-193.75
 20
327.75
 30
0.0
 11
-191.06984081939891
 21
317.74750976562501
 31
0.0
  0
LINE
  5
91
  8
DIMNSIONS
  6
CONTINUOUS
 62
     7
 10
-193.75
 20
327.75
 30
0.0
 11
-196.43015918060101
 21
317.74750976562501
 31
0.0
  0
LINE
  5
92
  8
DIMNSIONS
  6
CONTINUOUS
 62
     7
 10
-193.75
 20
333.75
 30
0.0
 11
-193.75
 21
350.80555555555571
 31
0.0
  0
LINE
  5
93
  8
DIMNSIONS
  6
CONTINUOUS
 62
     7
 10
-193.75
 20
333.75
 30
0.0
 11
-196.43015918060101
 21
343.75249023437487
 31
0.0
  0
LINE
  5
94
  8
DIMNSIONS
  6
CONTINUOUS
 62
     7
 10
-193.75
 20
333.75
 30
0.0
 11
-191.06984081939891
 21
343.75249023437487
 31
0.0
  0
TEXT
  5
95
  8
DIMNSIONS
 62
     7
 10
-197.72555555555539
 20
343.75
 30
0.0
 40
10.85894097222222
  1
6
 50
90.0
 41
0.7
 11
-208.5844965277777
 21
343.75
 31
0.0
 73
     3
  0
LINE
  5
96
  8
DIMNSIONS
  6
CONTINUOUS
 62
     7
 10
-176.75
 20
-200.0
 30
0.0
 11
-201.75
 21
-200.0
 31
0.0
  0
LINE
  5
97
  8
DIMNSIONS
  6
CONTINUOUS
 62
     7
 10
-176.75
 20
-158.0
 30
0.0
 11
-201.75
 21
-158.0
 31
0.0
  0
LINE
  5
98
  8
DIMNSIONS
  6
CONTINUOUS
 62
     7
 10
-193.75
 20
-200.0
 30
0.0
 11
-193.75
 21
-158.0
 31
0.0
  0
LINE
  5
99
  8
DIMNSIONS
  6
CONTINUOUS
 62
     7
 10
-193.75
 20
-200.0
 30
0.0
 11
-196.43015918060101
 21
-189.99750976562501
 31
0.0
  0
LINE
  5
9A
  8
DIMNSIONS
  6
CONTINUOUS
 62
     7
 10
-193.75
 20
-200.0
 30
0.0
 11
-191.06984081939891
 21
-189.99750976562501
 31
0.0
  0
LINE
  5
9B
  8
DIMNSIONS
  6
CONTINUOUS
 62
     7
 10
-193.75
 20
-158.0
 30
0.0
 11
-191.06984081939891
 21
-168.00249023437499
 31
0.0
  0
LINE
  5
9C
  8
DIMNSIONS
  6
CONTINUOUS
 62
     7
 10
-193.75
 20
-158.0
 30
0.0
 11
-196.43015918060101
 21
-168.00249023437499
 31
0.0
  0
TEXT
  5
9D
  8
DIMNSIONS
 62
     7
 10
-197.72555555555539
 20
-186.0555555555554
 30
0.0
 40
10.85894097222222
  1
42
 50
90.0
 41
0.7
 11
-208.5844965277777
 21
-186.0555555555554
 31
0.0
 73
     3
  0
LINE
  5
9E
  8
DIMNSIONS
  6
CONTINUOUS
 62
     7
 10
-168.75
 20
-208.0
 30
0.0
 11
-168.75
 21
-233.0
 31
0.0
  0
LINE
  5
9F
  8
DIMNSIONS
  6
CONTINUOUS
 62
     7
 10
45.249999999999993
 20
-208.0
 30
0.0
 11
45.249999999999993
 21
-233.0
 31
0.0
  0
LINE
  5
A0
  8
DIMNSIONS
  6
CONTINUOUS
 62
     7
 10
-168.75
 20
-225.0
 30
0.0
 11
45.249999999999993
 21
-225.0
 31
0.0
  0
LINE
  5
A1
  8
DIMNSIONS
  6
CONTINUOUS
 62
     7
 10
-168.75
 20
-225.0
 30
0.0
 11
-158.74750976562501
 21
-222.31984081939899
 31
0.0
  0
LINE
  5
A2
  8
DIMNSIONS
  6
CONTINUOUS
 62
     7
 10
-168.75
 20
-225.0
 30
0.0
 11
-158.74750976562501
 21
-227.68015918060101
 31
0.0
  0
LINE
  5
A3
  8
DIMNSIONS
  6
CONTINUOUS
 62
     7
 10
45.249999999999993
 20
-225.0
 30
0.0
 11
35.247509765624983
 21
-227.68015918060101
 31
0.0
  0
LINE
  5
A4
  8
DIMNSIONS
  6
CONTINUOUS
 62
     7
 10
45.249999999999993
 20
-225.0
 30
0.0
 11
35.247509765624983
 21
-222.31984081939899
 31
0.0
  0
TEXT
  5
A5
  8
DIMNSIONS
 62
     7
 10
-72.333333333333343
 20
-221.02444444444461
 30
0.0
 40
10.85894097222222
  1
214
 41
0.7
 11
-72.333333333333343
 21
-210.1655034722223
 31
0.0
 73
     3
  0
LINE
  5
A6
  8
DIMNSIONS
  6
CONTINUOUS
 62
     7
 10
-176.75
 20
-137.5
 30
0.0
 11
-201.75
 21
-137.5
 31
0.0
  0
LINE
  5
A7
  8
DIMNSIONS
  6
CONTINUOUS
 62
     7
 10
-176.75
 20
-28.5
 30
0.0
 11
-201.75
 21
-28.5
 31
0.0
  0
LINE
  5
A8
  8
DIMNSIONS
  6
CONTINUOUS
 62
     7
 10
-193.75
 20
-137.5
 30
0.0
 11
-193.75
 21
-28.5
 31
0.0
  0
LINE
  5
A9
  8
DIMNSIONS
  6
CONTINUOUS
 62
     7
 10
-193.75
 20
-137.5
 30
0.0
 11
-196.43015918060101
 21
-127.497509765625
 31
0.0
  0
LINE
  5
AA
  8
DIMNSIONS
  6
CONTINUOUS
 62
     7
 10
-193.75
 20
-137.5
 30
0.0
 11
-191.06984081939891
 21
-127.497509765625
 31
0.0
  0
LINE
  5
AB
  8
DIMNSIONS
  6
CONTINUOUS
 62
     7
 10
-193.75
 20
-28.5
 30
0.0
 11
-191.06984081939891
 21
-38.502490234374989
 31
0.0
  0
LINE
  5
AC
  8
DIMNSIONS
  6
CONTINUOUS
 62
     7
 10
-193.75
 20
-28.5
 30
0.0
 11
-196.43015918060101
 21
-38.502490234374989
 31
0.0
  0
TEXT
  5
AD
  8
DIMNSIONS
 62
     7
 10
-197.72555555555539
 20
-93.583333333333314
 30
0.0
 40
10.85894097222222
  1
109
 50
90.0
 41
0.7
 11
-208.5844965277777
 21
-93.583333333333314
 31
0.0
 73
     3
  0
LINE
  5
AE
  8
DIMNSIONS
  6
CONTINUOUS
 62
     7
 10
-176.75
 20
-28.5
 30
0.0
 11
-201.75
 21
-28.5
 31
0.0
  0
LINE
  5
AF
  8
DIMNSIONS
  6
CONTINUOUS
 62
     7
 10
-158.14999999999981
 20
-22.5
 30
0.0
 11
-201.75
 21
-22.5
 31
0.0
  0
LINE
  5
B0
  8
DIMNSIONS
  6
CONTINUOUS
 62
     7
 10
-193.75
 20
-22.5
 30
0.0
 11
-193.75
 21
-28.5
 31
0.0
  0
LINE
  5
B1
  8
DIMNSIONS
  6
CONTINUOUS
 62
     7
 10
-193.75
 20
-28.5
 30
0.0
 11
-193.75
 21
-48.5
 31
0.0
  0
LINE
  5
B2
  8
DIMNSIONS
  6
CONTINUOUS
 62
     7
 10
-193.75
 20
-28.5
 30
0.0
 11
-191.06984081939891
 21
-38.502490234374989
 31
0.0
  0
LINE
  5
B3
  8
DIMNSIONS
  6
CONTINUOUS
 62
     7
 10
-193.75
 20
-28.5
 30
0.0
 11
-196.43015918060101
 21
-38.502490234374989
 31
0.0
  0
LINE
  5
B4
  8
DIMNSIONS
  6
CONTINUOUS
 62
     7
 10
-193.75
 20
-22.5
 30
0.0
 11
-193.75
 21
-5.4444444444444571
 31
0.0
  0
LINE
  5
B5
  8
DIMNSIONS
  6
CONTINUOUS
 62
     7
 10
-193.75
 20
-22.5
 30
0.0
 11
-196.43015918060101
 21
-12.49750976562501
 31
0.0
  0
LINE
  5
B6
  8
DIMNSIONS
  6
CONTINUOUS
 62
     7
 10
-193.75
 20
-22.5
 30
0.0
 11
-191.06984081939891
 21
-12.49750976562501
 31
0.0
  0
TEXT
  5
B7
  8
DIMNSIONS
 62
     7
 10
-197.72555555555539
 20
-12.5
 30
0.0
 40
10.85894097222222
  1
6
 50
90.0
 41
0.7
 11
-208.5844965277777
 21
-12.5
 31
0.0
 73
     3
  0
TEXT
  5
B8
  8
DATA
 62
     7
 10
299.55238842640642
 20
-324.32398664010651
 30
0.0
 40
9.7730468750000004
  1
EXT-DVI-2CAT6DL
 41
0.7
 11
299.55238842640642
 21
-314.55093976510648
 31
0.0
 73
     3
  0
TEXT
  5
B9
  8
DATA
 62
     7
 10
299.85079614213549
 20
-292.961376547481
 30
0.0
 40
9.7730468750000004
  1
Gefen
 41
0.7
 11
299.85079614213549
 21
-283.18832967248107
 31
0.0
 73
     3
  0
TEXT
  5
BA
  8
DATA
 62
     7
 10
291.714489959969
 20
-307.1947817767691
 30
0.0
 40
6.5153748437499992
  1
デュアルリンクDVI延長機
 41
0.7
 11
291.714489959969
 21
-300.6794069330191
 31
0.0
 73
     3
  0
TEXT
  5
BB
  8
DATA
 62
     7
 10
-220.0
 20
-352.44705631540222
 30
0.0
 40
6.5153645833333309
  1
仕様および外観は予告なく変更されることがありますので、ご了承ください。
 41
0.7
 11
-220.0
 21
-345.93169173206888
 31
0.0
 73
     3
  0
LINE
  5
BC
  8
DATA
  6
CONTINUOUS
 62
     7
 10
-168.75
 20
156.25
 30
0.0
 11
-168.75
 21
196.75
 31
0.0
  0
LINE
  5
BD
  8
DATA
  6
CONTINUOUS
 62
     7
 10
45.249999999999993
 20
156.25
 30
0.0
 11
-168.75
 21
156.25
 31
0.0
  0
LINE
  5
BE
  8
DATA
  6
CONTINUOUS
 62
     7
 10
45.249999999999993
 20
196.75
 30
0.0
 11
45.249999999999993
 21
156.25
 31
0.0
  0
LINE
  5
BF
  8
DATA
  6
CONTINUOUS
 62
     7
 10
-167.25
 20
198.25
 30
0.0
 11
43.749999999999993
 21
198.25
 31
0.0
  0
LINE
  5
C0
  8
DATA
  6
CONTINUOUS
 62
     7
 10
-168.75
 20
218.75
 30
0.0
 11
-168.75
 21
327.75
 31
0.0
  0
LINE
  5
C1
  8
DATA
  6
CONTINUOUS
 62
     7
 10
45.249999999999993
 20
218.75
 30
0.0
 11
-168.75
 21
218.75
 31
0.0
  0
LINE
  5
C2
  8
DATA
  6
CONTINUOUS
 62
     7
 10
45.249999999999993
 20
327.75
 30
0.0
 11
45.249999999999993
 21
218.75
 31
0.0
  0
LINE
  5
C3
  8
DATA
  6
CONTINUOUS
 62
     7
 10
-168.75
 20
327.75
 30
0.0
 11
45.249999999999993
 21
327.75
 31
0.0
  0
LINE
  5
C4
  8
DATA
  6
CONTINUOUS
 62
     7
 10
-162.75
 20
152.25
 30
0.0
 11
-163.75
 21
156.25
 31
0.0
  0
LINE
  5
C5
  8
DATA
  6
CONTINUOUS
 62
     7
 10
-152.75
 20
152.25
 30
0.0
 11
-151.75
 21
156.25
 31
0.0
  0
LINE
  5
C6
  8
DATA
  6
CONTINUOUS
 62
     7
 10
-162.75
 20
152.25
 30
0.0
 11
-152.75
 21
152.25
 31
0.0
  0
LINE
  5
C7
  8
DATA
  6
CONTINUOUS
 62
     7
 10
39.249999999999993
 20
152.25
 30
0.0
 11
40.249999999999993
 21
156.25
 31
0.0
  0
LINE
  5
C8
  8
DATA
  6
CONTINUOUS
 62
     7
 10
29.249999999999989
 20
152.25
 30
0.0
 11
28.249999999999989
 21
156.25
 31
0.0
  0
LINE
  5
C9
  8
DATA
  6
CONTINUOUS
 62
     7
 10
39.249999999999993
 20
152.25
 30
0.0
 11
29.249999999999989
 21
152.25
 31
0.0
  0
LINE
  5
CA
  8
DATA
  6
CONTINUOUS
 62
     7
 10
-168.75
 20
392.0
 30
0.0
 11
-168.75
 21
351.5
 31
0.0
  0
LINE
  5
CB
  8
DATA
  6
CONTINUOUS
 62
     7
 10
45.249999999999993
 20
392.0
 30
0.0
 11
-168.75
 21
392.0
 31
0.0
  0
LINE
  5
CC
  8
DATA
  6
CONTINUOUS
 62
     7
 10
45.249999999999993
 20
351.5
 30
0.0
 11
45.249999999999993
 21
392.0
 31
0.0
  0
LINE
  5
CD
  8
DATA
  6
CONTINUOUS
 62
     7
 10
-167.25
 20
350.0
 30
0.0
 11
43.749999999999993
 21
350.0
 31
0.0
  0
LINE
  5
CE
  8
DATA
  6
CONTINUOUS
 62
     7
 10
-162.75
 20
396.0
 30
0.0
 11
-163.75
 21
392.0
 31
0.0
  0
LINE
  5
CF
  8
DATA
  6
CONTINUOUS
 62
     7
 10
-152.75
 20
396.0
 30
0.0
 11
-151.75
 21
392.0
 31
0.0
  0
LINE
  5
D0
  8
DATA
  6
CONTINUOUS
 62
     7
 10
-162.75
 20
396.0
 30
0.0
 11
-152.75
 21
396.0
 31
0.0
  0
LINE
  5
D1
  8
DATA
  6
CONTINUOUS
 62
     7
 10
39.249999999999993
 20
396.0
 30
0.0
 11
40.249999999999993
 21
392.0
 31
0.0
  0
LINE
  5
D2
  8
DATA
  6
CONTINUOUS
 62
     7
 10
29.249999999999989
 20
396.0
 30
0.0
 11
28.249999999999989
 21
392.0
 31
0.0
  0
LINE
  5
D3
  8
DATA
  6
CONTINUOUS
 62
     7
 10
39.249999999999993
 20
396.0
 30
0.0
 11
29.249999999999989
 21
396.0
 31
0.0
  0
CIRCLE
  5
D4
  8
DATA
  6
CONTINUOUS
 62
     7
 10
29.249999999999989
 20
169.25
 30
0.0
 40
1.450000000000002
  0
TEXT
  5
D5
  8
DATA
 62
     7
 10
23.690319694467561
 20
159.12650581934039
 30
0.0
 40
3.7041666666666671
  1
Power
 41
0.7
 11
23.690319694467561
 21
162.8306724860071
 31
0.0
 73
     3
  0
LINE
  5
D6
  8
DATA
  6
CONTINUOUS
 62
     7
 10
45.249999999999993
 20
227.75
 30
0.0
 11
-168.75
 21
227.75
 31
0.0
  0
ARC
  5
D7
  8
DATA
  6
CONTINUOUS
 62
     7
 10
29.249999999999989
 20
218.87117148932251
 30
0.0
 40
1.4499999999999951
 50
184.7936006250232
 51
355.20639937497663
  0
TEXT
  5
D8
  8
DATA
 62
     7
 10
-107.1818346962292
 20
184.8111629174787
 30
0.0
 40
6.5153645833333309
  1
DVI Dual Link over 2CAT6 Extender S
 41
0.7
 11
-107.1818346962292
 21
191.32652750081201
 31
0.0
 73
     3
  0
LINE
  5
D9
  8
DATA
  6
CONTINUOUS
 62
     7
 10
21.249999999699909
 20
384.0
 30
0.0
 11
21.249999999699909
 21
370.70000000000022
 31
0.0
  0
LINE
  5
DA
  8
DATA
  6
CONTINUOUS
 62
     7
 10
5.5499999996999758
 20
384.0
 30
0.0
 11
5.5499999996999758
 21
370.70000000000022
 31
0.0
  0
LINE
  5
DB
  8
DATA
  6
CONTINUOUS
 62
     7
 10
5.5499999996999758
 20
370.70000000000022
 30
0.0
 11
21.249999999699909
 21
370.70000000000022
 31
0.0
  0
LINE
  5
DC
  8
DATA
  6
CONTINUOUS
 62
     7
 10
5.5499999996999758
 20
384.0
 30
0.0
 11
21.249999999699909
 21
384.0
 31
0.0
  0
LINE
  5
DD
  8
DATA
  6
CONTINUOUS
 62
     7
 10
7.2499999996999067
 20
381.0
 30
0.0
 11
19.549999999699981
 21
381.0
 31
0.0
  0
LINE
  5
DE
  8
DATA
  6
CONTINUOUS
 62
     7
 10
7.2499999996999067
 20
381.0
 30
0.0
 11
7.2499999996999067
 21
373.70000000000022
 31
0.0
  0
LINE
  5
DF
  8
DATA
  6
CONTINUOUS
 62
     7
 10
19.549999999699981
 20
381.0
 30
0.0
 11
19.549999999699981
 21
373.70000000000022
 31
0.0
  0
LINE
  5
E0
  8
DATA
  6
CONTINUOUS
 62
     7
 10
11.17499999969997
 20
370.70000000000022
 30
0.0
 11
11.17499999969997
 21
372.20000000000022
 31
0.0
  0
LINE
  5
E1
  8
DATA
  6
CONTINUOUS
 62
     7
 10
15.624999999699909
 20
372.20000000000022
 30
0.0
 11
15.624999999699909
 21
370.70000000000022
 31
0.0
  0
LINE
  5
E2
  8
DATA
  6
CONTINUOUS
 62
     7
 10
10.04999999969997
 20
372.20000000000022
 30
0.0
 11
11.17499999969997
 21
372.20000000000022
 31
0.0
  0
LINE
  5
E3
  8
DATA
  6
CONTINUOUS
 62
     7
 10
15.624999999699909
 20
372.20000000000022
 30
0.0
 11
16.749999999699899
 21
372.20000000000022
 31
0.0
  0
LINE
  5
E4
  8
DATA
  6
CONTINUOUS
 62
     7
 10
7.2499999996999067
 20
373.70000000000022
 30
0.0
 11
10.04999999969997
 21
373.70000000000022
 31
0.0
  0
LINE
  5
E5
  8
DATA
  6
CONTINUOUS
 62
     7
 10
16.749999999699899
 20
373.70000000000022
 30
0.0
 11
19.549999999699981
 21
373.70000000000022
 31
0.0
  0
LINE
  5
E6
  8
DATA
  6
CONTINUOUS
 62
     7
 10
10.04999999969997
 20
372.20000000000022
 30
0.0
 11
10.04999999969997
 21
373.70000000000022
 31
0.0
  0
LINE
  5
E7
  8
DATA
  6
CONTINUOUS
 62
     7
 10
16.749999999699899
 20
373.70000000000022
 30
0.0
 11
16.749999999699899
 21
372.20000000000022
 31
0.0
  0
CIRCLE
  5
E8
  8
DATA
  6
CONTINUOUS
 62
     7
 10
-130.98273625048799
 20
378.00116576047122
 30
0.0
 40
1.17500000000001
  0
POLYLINE
  5
E9
  8
DATA
  6
CONTINUOUS
 62
     7
 66
     1
 10
0.0
 20
0.0
 30
0.0
 70
     1
  0
VERTEX
  5
8D5
  8
DATA
  6
CONTINUOUS
 62
     7
 10
-130.98273625048799
 20
375.30116576047141
 30
0.0
  0
VERTEX
  5
8D6
  8
DATA
  6
CONTINUOUS
 62
     7
 10
-128.64446766027029
 20
376.65116576047137
 30
0.0
  0
VERTEX
  5
8D7
  8
DATA
  6
CONTINUOUS
 62
     7
 10
-128.64446766027029
 20
379.35116576047102
 30
0.0
  0
VERTEX
  5
8D8
  8
DATA
  6
CONTINUOUS
 62
     7
 10
-130.98273625048799
 20
380.70116576047099
 30
0.0
  0
VERTEX
  5
8D9
  8
DATA
  6
CONTINUOUS
 62
     7
 10
-133.321004840706
 20
379.35116576047102
 30
0.0
  0
VERTEX
  5
8DA
  8
DATA
  6
CONTINUOUS
 62
     7
 10
-133.321004840706
 20
376.65116576047137
 30
0.0
  0
SEQEND
  5
8DB
  8
DATA
  6
CONTINUOUS
 62
     7
  0
CIRCLE
  5
F2
  8
DATA
  6
CONTINUOUS
 62
     7
 10
-105.9827362504879
 20
378.00116576047122
 30
0.0
 40
1.1750000000000671
  0
POLYLINE
  5
F3
  8
DATA
  6
CONTINUOUS
 62
     7
 66
     1
 10
0.0
 20
0.0
 30
0.0
 70
     1
  0
VERTEX
  5
8DC
  8
DATA
  6
CONTINUOUS
 62
     7
 10
-105.9827362504879
 20
375.30116576047141
 30
0.0
  0
VERTEX
  5
8DD
  8
DATA
  6
CONTINUOUS
 62
     7
 10
-103.6444676602701
 20
376.65116576047137
 30
0.0
  0
VERTEX
  5
8DE
  8
DATA
  6
CONTINUOUS
 62
     7
 10
-103.6444676602701
 20
379.35116576047102
 30
0.0
  0
VERTEX
  5
8DF
  8
DATA
  6
CONTINUOUS
 62
     7
 10
-105.9827362504879
 20
380.70116576047099
 30
0.0
  0
VERTEX
  5
8E0
  8
DATA
  6
CONTINUOUS
 62
     7
 10
-108.321004840706
 20
379.35116576047102
 30
0.0
  0
VERTEX
  5
8E1
  8
DATA
  6
CONTINUOUS
 62
     7
 10
-108.321004840706
 20
376.65116576047137
 30
0.0
  0
SEQEND
  5
8E2
  8
DATA
  6
CONTINUOUS
 62
     7
  0
LINE
  5
FC
  8
DATA
  6
CONTINUOUS
 62
     7
 10
-124.0844994606767
 20
382.00116576047111
 30
0.0
 11
-112.88097304029949
 21
382.00116576047111
 31
0.0
  0
LINE
  5
FD
  8
DATA
  6
CONTINUOUS
 62
     7
 10
-112.06847304029959
 20
374.00116576047128
 30
0.0
 11
-124.8969994606767
 21
374.00116576047128
 31
0.0
  0
LINE
  5
FE
  8
DATA
  6
CONTINUOUS
 62
     7
 10
-111.49775619304801
 20
380.81729339285408
 30
0.0
 11
-110.68525619304801
 21
375.61729339285438
 31
0.0
  0
LINE
  5
FF
  8
DATA
  6
CONTINUOUS
 62
     7
 10
-126.2802163079283
 20
375.61729339285438
 30
0.0
 11
-125.4677163079283
 21
380.81729339285408
 31
0.0
  0
CIRCLE
  5
100
  8
DATA
  6
CONTINUOUS
 62
     7
 10
-118.4561064800132
 20
376.36485758931769
 30
0.0
 40
0.5
  0
ARC
  5
101
  8
DATA
  6
CONTINUOUS
 62
     7
 10
-112.06847304029959
 20
375.40116576047137
 30
0.0
 40
1.399999999999977
 50
270.0
 51
8.8806591505205574
  0
ARC
  5
102
  8
DATA
  6
CONTINUOUS
 62
     7
 10
-124.8969994606767
 20
375.40116576047137
 30
0.0
 40
1.400000000000019
 50
171.1193408494795
 51
270.0
  0
ARC
  5
103
  8
DATA
  6
CONTINUOUS
 62
     7
 10
-112.88097304029949
 20
380.60116576047102
 30
0.0
 40
1.4000000000000281
 50
8.8806591505228312
 51
90.0
  0
ARC
  5
104
  8
DATA
  6
CONTINUOUS
 62
     7
 10
-124.0844994606767
 20
380.60116576047102
 30
0.0
 40
1.400000000000146
 50
90.0
 51
171.11934084947711
  0
CIRCLE
  5
105
  8
DATA
  6
CONTINUOUS
 62
     7
 10
-115.9561064800132
 20
376.36485758931769
 30
0.0
 40
0.5
  0
CIRCLE
  5
106
  8
DATA
  6
CONTINUOUS
 62
     7
 10
-113.4561064800132
 20
376.36485758931769
 30
0.0
 40
0.5
  0
CIRCLE
  5
107
  8
DATA
  6
CONTINUOUS
 62
     7
 10
-120.9561064800132
 20
376.36485758931769
 30
0.0
 40
0.5
  0
CIRCLE
  5
108
  8
DATA
  6
CONTINUOUS
 62
     7
 10
-123.4561064800132
 20
376.36485758931769
 30
0.0
 40
0.5
  0
CIRCLE
  5
109
  8
DATA
  6
CONTINUOUS
 62
     7
 10
-117.2605953039419
 20
379.98337800807991
 30
0.0
 40
0.5
  0
CIRCLE
  5
10A
  8
DATA
  6
CONTINUOUS
 62
     7
 10
-114.7605953039419
 20
379.98337800807991
 30
0.0
 40
0.5
  0
CIRCLE
  5
10B
  8
DATA
  6
CONTINUOUS
 62
     7
 10
-119.7605953039419
 20
379.98337800807991
 30
0.0
 40
0.5
  0
CIRCLE
  5
10C
  8
DATA
  6
CONTINUOUS
 62
     7
 10
-122.2605953039419
 20
379.98337800807991
 30
0.0
 40
0.5
  0
CIRCLE
  5
10D
  8
DATA
  6
CONTINUOUS
 62
     7
 10
-14.85899494018865
 20
380.07499999988511
 30
0.0
 40
1.1750000000000951
  0
POLYLINE
  5
10E
  8
DATA
  6
CONTINUOUS
 62
     7
 66
     1
 10
0.0
 20
0.0
 30
0.0
 70
     1
  0
VERTEX
  5
8E3
  8
DATA
  6
CONTINUOUS
 62
     7
 10
-14.85899494018865
 20
377.37499999988512
 30
0.0
  0
VERTEX
  5
8E4
  8
DATA
  6
CONTINUOUS
 62
     7
 10
-12.52072634997073
 20
378.72499999988497
 30
0.0
  0
VERTEX
  5
8E5
  8
DATA
  6
CONTINUOUS
 62
     7
 10
-12.52072634997073
 20
381.42499999988502
 30
0.0
  0
VERTEX
  5
8E6
  8
DATA
  6
CONTINUOUS
 62
     7
 10
-14.85899494018865
 20
382.77499999988493
 30
0.0
  0
VERTEX
  5
8E7
  8
DATA
  6
CONTINUOUS
 62
     7
 10
-17.197263530406829
 20
381.42499999988502
 30
0.0
  0
VERTEX
  5
8E8
  8
DATA
  6
CONTINUOUS
 62
     7
 10
-17.197263530406829
 20
378.72499999988497
 30
0.0
  0
SEQEND
  5
8E9
  8
DATA
  6
CONTINUOUS
 62
     7
  0
CIRCLE
  5
117
  8
DATA
  6
CONTINUOUS
 62
     7
 10
-47.358994940189113
 20
380.07499999988511
 30
0.0
 40
1.1750000000000671
  0
POLYLINE
  5
118
  8
DATA
  6
CONTINUOUS
 62
     7
 66
     1
 10
0.0
 20
0.0
 30
0.0
 70
     1
  0
VERTEX
  5
8EA
  8
DATA
  6
CONTINUOUS
 62
     7
 10
-47.358994940189113
 20
377.37499999988512
 30
0.0
  0
VERTEX
  5
8EB
  8
DATA
  6
CONTINUOUS
 62
     7
 10
-45.02072634997117
 20
378.72499999988497
 30
0.0
  0
VERTEX
  5
8EC
  8
DATA
  6
CONTINUOUS
 62
     7
 10
-45.02072634997117
 20
381.42499999988502
 30
0.0
  0
VERTEX
  5
8ED
  8
DATA
  6
CONTINUOUS
 62
     7
 10
-47.358994940189113
 20
382.77499999988493
 30
0.0
  0
VERTEX
  5
8EE
  8
DATA
  6
CONTINUOUS
 62
     7
 10
-49.697263530407142
 20
381.42499999988502
 30
0.0
  0
VERTEX
  5
8EF
  8
DATA
  6
CONTINUOUS
 62
     7
 10
-49.697263530407142
 20
378.72499999988497
 30
0.0
  0
SEQEND
  5
8F0
  8
DATA
  6
CONTINUOUS
 62
     7
  0
LINE
  5
121
  8
DATA
  6
CONTINUOUS
 62
     7
 10
-20.159090052997339
 20
376.1499999998851
 30
0.0
 11
-42.05889982738092
 21
376.1499999998851
 31
0.0
  0
LINE
  5
122
  8
DATA
  6
CONTINUOUS
 62
     7
 10
-41.499982629928638
 20
383.99999999988501
 30
0.0
 11
-20.718007250449649
 21
383.99999999988501
 31
0.0
  0
POLYLINE
  5
123
  8
DATA
  6
CONTINUOUS
 62
     7
 66
     1
 10
0.0
 20
0.0
 30
0.0
 70
     1
  0
VERTEX
  5
8F1
  8
DATA
  6
CONTINUOUS
 62
     7
 10
-21.638928769009858
 20
380.83999999988509
 30
0.0
  0
VERTEX
  5
8F2
  8
DATA
  6
CONTINUOUS
 62
     7
 10
-20.108928769009839
 20
380.83999999988509
 30
0.0
  0
VERTEX
  5
8F3
  8
DATA
  6
CONTINUOUS
 62
     7
 10
-20.108928769009839
 20
379.30999999988512
 30
0.0
  0
VERTEX
  5
8F4
  8
DATA
  6
CONTINUOUS
 62
     7
 10
-21.638928769009858
 20
379.30999999988512
 30
0.0
  0
SEQEND
  5
8F5
  8
DATA
  6
CONTINUOUS
 62
     7
  0
POLYLINE
  5
12A
  8
DATA
  6
CONTINUOUS
 62
     7
 66
     1
 10
0.0
 20
0.0
 30
0.0
 70
     1
  0
VERTEX
  5
8F6
  8
DATA
  6
CONTINUOUS
 62
     7
 10
-23.638928769009841
 20
380.83999999988509
 30
0.0
  0
VERTEX
  5
8F7
  8
DATA
  6
CONTINUOUS
 62
     7
 10
-22.108928769009861
 20
380.83999999988509
 30
0.0
  0
VERTEX
  5
8F8
  8
DATA
  6
CONTINUOUS
 62
     7
 10
-22.108928769009861
 20
379.30999999988512
 30
0.0
  0
VERTEX
  5
8F9
  8
DATA
  6
CONTINUOUS
 62
     7
 10
-23.638928769009841
 20
379.30999999988512
 30
0.0
  0
SEQEND
  5
8FA
  8
DATA
  6
CONTINUOUS
 62
     7
  0
POLYLINE
  5
131
  8
DATA
  6
CONTINUOUS
 62
     7
 66
     1
 10
0.0
 20
0.0
 30
0.0
 70
     1
  0
VERTEX
  5
8FB
  8
DATA
  6
CONTINUOUS
 62
     7
 10
-25.638928769009841
 20
380.83999999988509
 30
0.0
  0
VERTEX
  5
8FC
  8
DATA
  6
CONTINUOUS
 62
     7
 10
-24.108928769009839
 20
380.83999999988509
 30
0.0
  0
VERTEX
  5
8FD
  8
DATA
  6
CONTINUOUS
 62
     7
 10
-24.108928769009839
 20
379.30999999988512
 30
0.0
  0
VERTEX
  5
8FE
  8
DATA
  6
CONTINUOUS
 62
     7
 10
-25.638928769009841
 20
379.30999999988512
 30
0.0
  0
SEQEND
  5
8FF
  8
DATA
  6
CONTINUOUS
 62
     7
  0
POLYLINE
  5
138
  8
DATA
  6
CONTINUOUS
 62
     7
 66
     1
 10
0.0
 20
0.0
 30
0.0
 70
     1
  0
VERTEX
  5
900
  8
DATA
  6
CONTINUOUS
 62
     7
 10
-27.638928769009841
 20
380.83999999988509
 30
0.0
  0
VERTEX
  5
901
  8
DATA
  6
CONTINUOUS
 62
     7
 10
-26.108928769009839
 20
380.83999999988509
 30
0.0
  0
VERTEX
  5
902
  8
DATA
  6
CONTINUOUS
 62
     7
 10
-26.108928769009839
 20
379.30999999988512
 30
0.0
  0
VERTEX
  5
903
  8
DATA
  6
CONTINUOUS
 62
     7
 10
-27.638928769009841
 20
379.30999999988512
 30
0.0
  0
SEQEND
  5
904
  8
DATA
  6
CONTINUOUS
 62
     7
  0
POLYLINE
  5
13F
  8
DATA
  6
CONTINUOUS
 62
     7
 66
     1
 10
0.0
 20
0.0
 30
0.0
 70
     1
  0
VERTEX
  5
905
  8
DATA
  6
CONTINUOUS
 62
     7
 10
-29.638928769009841
 20
380.83999999988509
 30
0.0
  0
VERTEX
  5
906
  8
DATA
  6
CONTINUOUS
 62
     7
 10
-28.108928769009839
 20
380.83999999988509
 30
0.0
  0
VERTEX
  5
907
  8
DATA
  6
CONTINUOUS
 62
     7
 10
-28.108928769009839
 20
379.30999999988512
 30
0.0
  0
VERTEX
  5
908
  8
DATA
  6
CONTINUOUS
 62
     7
 10
-29.638928769009841
 20
379.30999999988512
 30
0.0
  0
SEQEND
  5
909
  8
DATA
  6
CONTINUOUS
 62
     7
  0
POLYLINE
  5
146
  8
DATA
  6
CONTINUOUS
 62
     7
 66
     1
 10
0.0
 20
0.0
 30
0.0
 70
     1
  0
VERTEX
  5
90A
  8
DATA
  6
CONTINUOUS
 62
     7
 10
-31.638928769009841
 20
380.83999999988509
 30
0.0
  0
VERTEX
  5
90B
  8
DATA
  6
CONTINUOUS
 62
     7
 10
-30.108928769009839
 20
380.83999999988509
 30
0.0
  0
VERTEX
  5
90C
  8
DATA
  6
CONTINUOUS
 62
     7
 10
-30.108928769009839
 20
379.30999999988512
 30
0.0
  0
VERTEX
  5
90D
  8
DATA
  6
CONTINUOUS
 62
     7
 10
-31.638928769009841
 20
379.30999999988512
 30
0.0
  0
SEQEND
  5
90E
  8
DATA
  6
CONTINUOUS
 62
     7
  0
POLYLINE
  5
14D
  8
DATA
  6
CONTINUOUS
 62
     7
 66
     1
 10
0.0
 20
0.0
 30
0.0
 70
     1
  0
VERTEX
  5
90F
  8
DATA
  6
CONTINUOUS
 62
     7
 10
-33.638928769009837
 20
380.83999999988509
 30
0.0
  0
VERTEX
  5
910
  8
DATA
  6
CONTINUOUS
 62
     7
 10
-32.10892876900985
 20
380.83999999988509
 30
0.0
  0
VERTEX
  5
911
  8
DATA
  6
CONTINUOUS
 62
     7
 10
-32.10892876900985
 20
379.30999999988512
 30
0.0
  0
VERTEX
  5
912
  8
DATA
  6
CONTINUOUS
 62
     7
 10
-33.638928769009837
 20
379.30999999988512
 30
0.0
  0
SEQEND
  5
913
  8
DATA
  6
CONTINUOUS
 62
     7
  0
POLYLINE
  5
154
  8
DATA
  6
CONTINUOUS
 62
     7
 66
     1
 10
0.0
 20
0.0
 30
0.0
 70
     1
  0
VERTEX
  5
914
  8
DATA
  6
CONTINUOUS
 62
     7
 10
-35.638928769009851
 20
380.83999999988509
 30
0.0
  0
VERTEX
  5
915
  8
DATA
  6
CONTINUOUS
 62
     7
 10
-34.108928769009843
 20
380.83999999988509
 30
0.0
  0
VERTEX
  5
916
  8
DATA
  6
CONTINUOUS
 62
     7
 10
-34.108928769009843
 20
379.30999999988512
 30
0.0
  0
VERTEX
  5
917
  8
DATA
  6
CONTINUOUS
 62
     7
 10
-35.638928769009851
 20
379.30999999988512
 30
0.0
  0
SEQEND
  5
918
  8
DATA
  6
CONTINUOUS
 62
     7
  0
POLYLINE
  5
15B
  8
DATA
  6
CONTINUOUS
 62
     7
 66
     1
 10
0.0
 20
0.0
 30
0.0
 70
     1
  0
VERTEX
  5
919
  8
DATA
  6
CONTINUOUS
 62
     7
 10
-21.638928769009858
 20
378.83999999988492
 30
0.0
  0
VERTEX
  5
91A
  8
DATA
  6
CONTINUOUS
 62
     7
 10
-20.108928769009839
 20
378.83999999988492
 30
0.0
  0
VERTEX
  5
91B
  8
DATA
  6
CONTINUOUS
 62
     7
 10
-20.108928769009839
 20
377.30999999988512
 30
0.0
  0
VERTEX
  5
91C
  8
DATA
  6
CONTINUOUS
 62
     7
 10
-21.638928769009858
 20
377.30999999988512
 30
0.0
  0
SEQEND
  5
91D
  8
DATA
  6
CONTINUOUS
 62
     7
  0
POLYLINE
  5
162
  8
DATA
  6
CONTINUOUS
 62
     7
 66
     1
 10
0.0
 20
0.0
 30
0.0
 70
     1
  0
VERTEX
  5
91E
  8
DATA
  6
CONTINUOUS
 62
     7
 10
-23.638928769009841
 20
378.83999999988492
 30
0.0
  0
VERTEX
  5
91F
  8
DATA
  6
CONTINUOUS
 62
     7
 10
-22.108928769009861
 20
378.83999999988492
 30
0.0
  0
VERTEX
  5
920
  8
DATA
  6
CONTINUOUS
 62
     7
 10
-22.108928769009861
 20
377.30999999988512
 30
0.0
  0
VERTEX
  5
921
  8
DATA
  6
CONTINUOUS
 62
     7
 10
-23.638928769009841
 20
377.30999999988512
 30
0.0
  0
SEQEND
  5
922
  8
DATA
  6
CONTINUOUS
 62
     7
  0
POLYLINE
  5
169
  8
DATA
  6
CONTINUOUS
 62
     7
 66
     1
 10
0.0
 20
0.0
 30
0.0
 70
     1
  0
VERTEX
  5
923
  8
DATA
  6
CONTINUOUS
 62
     7
 10
-25.638928769009841
 20
378.83999999988492
 30
0.0
  0
VERTEX
  5
924
  8
DATA
  6
CONTINUOUS
 62
     7
 10
-24.108928769009839
 20
378.83999999988492
 30
0.0
  0
VERTEX
  5
925
  8
DATA
  6
CONTINUOUS
 62
     7
 10
-24.108928769009839
 20
377.30999999988512
 30
0.0
  0
VERTEX
  5
926
  8
DATA
  6
CONTINUOUS
 62
     7
 10
-25.638928769009841
 20
377.30999999988512
 30
0.0
  0
SEQEND
  5
927
  8
DATA
  6
CONTINUOUS
 62
     7
  0
POLYLINE
  5
170
  8
DATA
  6
CONTINUOUS
 62
     7
 66
     1
 10
0.0
 20
0.0
 30
0.0
 70
     1
  0
VERTEX
  5
928
  8
DATA
  6
CONTINUOUS
 62
     7
 10
-27.638928769009841
 20
378.83999999988492
 30
0.0
  0
VERTEX
  5
929
  8
DATA
  6
CONTINUOUS
 62
     7
 10
-26.108928769009839
 20
378.83999999988492
 30
0.0
  0
VERTEX
  5
92A
  8
DATA
  6
CONTINUOUS
 62
     7
 10
-26.108928769009839
 20
377.30999999988512
 30
0.0
  0
VERTEX
  5
92B
  8
DATA
  6
CONTINUOUS
 62
     7
 10
-27.638928769009841
 20
377.30999999988512
 30
0.0
  0
SEQEND
  5
92C
  8
DATA
  6
CONTINUOUS
 62
     7
  0
POLYLINE
  5
177
  8
DATA
  6
CONTINUOUS
 62
     7
 66
     1
 10
0.0
 20
0.0
 30
0.0
 70
     1
  0
VERTEX
  5
92D
  8
DATA
  6
CONTINUOUS
 62
     7
 10
-29.638928769009841
 20
378.83999999988492
 30
0.0
  0
VERTEX
  5
92E
  8
DATA
  6
CONTINUOUS
 62
     7
 10
-28.108928769009839
 20
378.83999999988492
 30
0.0
  0
VERTEX
  5
92F
  8
DATA
  6
CONTINUOUS
 62
     7
 10
-28.108928769009839
 20
377.30999999988512
 30
0.0
  0
VERTEX
  5
930
  8
DATA
  6
CONTINUOUS
 62
     7
 10
-29.638928769009841
 20
377.30999999988512
 30
0.0
  0
SEQEND
  5
931
  8
DATA
  6
CONTINUOUS
 62
     7
  0
POLYLINE
  5
17E
  8
DATA
  6
CONTINUOUS
 62
     7
 66
     1
 10
0.0
 20
0.0
 30
0.0
 70
     1
  0
VERTEX
  5
932
  8
DATA
  6
CONTINUOUS
 62
     7
 10
-31.638928769009841
 20
378.83999999988492
 30
0.0
  0
VERTEX
  5
933
  8
DATA
  6
CONTINUOUS
 62
     7
 10
-30.108928769009839
 20
378.83999999988492
 30
0.0
  0
VERTEX
  5
934
  8
DATA
  6
CONTINUOUS
 62
     7
 10
-30.108928769009839
 20
377.30999999988512
 30
0.0
  0
VERTEX
  5
935
  8
DATA
  6
CONTINUOUS
 62
     7
 10
-31.638928769009841
 20
377.30999999988512
 30
0.0
  0
SEQEND
  5
936
  8
DATA
  6
CONTINUOUS
 62
     7
  0
POLYLINE
  5
185
  8
DATA
  6
CONTINUOUS
 62
     7
 66
     1
 10
0.0
 20
0.0
 30
0.0
 70
     1
  0
VERTEX
  5
937
  8
DATA
  6
CONTINUOUS
 62
     7
 10
-33.638928769009837
 20
378.83999999988492
 30
0.0
  0
VERTEX
  5
938
  8
DATA
  6
CONTINUOUS
 62
     7
 10
-32.10892876900985
 20
378.83999999988492
 30
0.0
  0
VERTEX
  5
939
  8
DATA
  6
CONTINUOUS
 62
     7
 10
-32.10892876900985
 20
377.30999999988512
 30
0.0
  0
VERTEX
  5
93A
  8
DATA
  6
CONTINUOUS
 62
     7
 10
-33.638928769009837
 20
377.30999999988512
 30
0.0
  0
SEQEND
  5
93B
  8
DATA
  6
CONTINUOUS
 62
     7
  0
POLYLINE
  5
18C
  8
DATA
  6
CONTINUOUS
 62
     7
 66
     1
 10
0.0
 20
0.0
 30
0.0
 70
     1
  0
VERTEX
  5
93C
  8
DATA
  6
CONTINUOUS
 62
     7
 10
-35.638928769009851
 20
378.83999999988492
 30
0.0
  0
VERTEX
  5
93D
  8
DATA
  6
CONTINUOUS
 62
     7
 10
-34.108928769009843
 20
378.83999999988492
 30
0.0
  0
VERTEX
  5
93E
  8
DATA
  6
CONTINUOUS
 62
     7
 10
-34.108928769009843
 20
377.30999999988512
 30
0.0
  0
VERTEX
  5
93F
  8
DATA
  6
CONTINUOUS
 62
     7
 10
-35.638928769009851
 20
377.30999999988512
 30
0.0
  0
SEQEND
  5
940
  8
DATA
  6
CONTINUOUS
 62
     7
  0
POLYLINE
  5
193
  8
DATA
  6
CONTINUOUS
 62
     7
 66
     1
 10
0.0
 20
0.0
 30
0.0
 70
     1
  0
VERTEX
  5
941
  8
DATA
  6
CONTINUOUS
 62
     7
 10
-21.638928769009858
 20
382.83999999988492
 30
0.0
  0
VERTEX
  5
942
  8
DATA
  6
CONTINUOUS
 62
     7
 10
-20.108928769009839
 20
382.83999999988492
 30
0.0
  0
VERTEX
  5
943
  8
DATA
  6
CONTINUOUS
 62
     7
 10
-20.108928769009839
 20
381.30999999988512
 30
0.0
  0
VERTEX
  5
944
  8
DATA
  6
CONTINUOUS
 62
     7
 10
-21.638928769009858
 20
381.30999999988512
 30
0.0
  0
SEQEND
  5
945
  8
DATA
  6
CONTINUOUS
 62
     7
  0
POLYLINE
  5
19A
  8
DATA
  6
CONTINUOUS
 62
     7
 66
     1
 10
0.0
 20
0.0
 30
0.0
 70
     1
  0
VERTEX
  5
946
  8
DATA
  6
CONTINUOUS
 62
     7
 10
-23.638928769009841
 20
382.83999999988492
 30
0.0
  0
VERTEX
  5
947
  8
DATA
  6
CONTINUOUS
 62
     7
 10
-22.108928769009861
 20
382.83999999988492
 30
0.0
  0
VERTEX
  5
948
  8
DATA
  6
CONTINUOUS
 62
     7
 10
-22.108928769009861
 20
381.30999999988512
 30
0.0
  0
VERTEX
  5
949
  8
DATA
  6
CONTINUOUS
 62
     7
 10
-23.638928769009841
 20
381.30999999988512
 30
0.0
  0
SEQEND
  5
94A
  8
DATA
  6
CONTINUOUS
 62
     7
  0
POLYLINE
  5
1A1
  8
DATA
  6
CONTINUOUS
 62
     7
 66
     1
 10
0.0
 20
0.0
 30
0.0
 70
     1
  0
VERTEX
  5
94B
  8
DATA
  6
CONTINUOUS
 62
     7
 10
-25.638928769009841
 20
382.83999999988492
 30
0.0
  0
VERTEX
  5
94C
  8
DATA
  6
CONTINUOUS
 62
     7
 10
-24.108928769009839
 20
382.83999999988492
 30
0.0
  0
VERTEX
  5
94D
  8
DATA
  6
CONTINUOUS
 62
     7
 10
-24.108928769009839
 20
381.30999999988512
 30
0.0
  0
VERTEX
  5
94E
  8
DATA
  6
CONTINUOUS
 62
     7
 10
-25.638928769009841
 20
381.30999999988512
 30
0.0
  0
SEQEND
  5
94F
  8
DATA
  6
CONTINUOUS
 62
     7
  0
POLYLINE
  5
1A8
  8
DATA
  6
CONTINUOUS
 62
     7
 66
     1
 10
0.0
 20
0.0
 30
0.0
 70
     1
  0
VERTEX
  5
950
  8
DATA
  6
CONTINUOUS
 62
     7
 10
-27.638928769009841
 20
382.83999999988492
 30
0.0
  0
VERTEX
  5
951
  8
DATA
  6
CONTINUOUS
 62
     7
 10
-26.108928769009839
 20
382.83999999988492
 30
0.0
  0
VERTEX
  5
952
  8
DATA
  6
CONTINUOUS
 62
     7
 10
-26.108928769009839
 20
381.30999999988512
 30
0.0
  0
VERTEX
  5
953
  8
DATA
  6
CONTINUOUS
 62
     7
 10
-27.638928769009841
 20
381.30999999988512
 30
0.0
  0
SEQEND
  5
954
  8
DATA
  6
CONTINUOUS
 62
     7
  0
POLYLINE
  5
1AF
  8
DATA
  6
CONTINUOUS
 62
     7
 66
     1
 10
0.0
 20
0.0
 30
0.0
 70
     1
  0
VERTEX
  5
955
  8
DATA
  6
CONTINUOUS
 62
     7
 10
-29.638928769009841
 20
382.83999999988492
 30
0.0
  0
VERTEX
  5
956
  8
DATA
  6
CONTINUOUS
 62
     7
 10
-28.108928769009839
 20
382.83999999988492
 30
0.0
  0
VERTEX
  5
957
  8
DATA
  6
CONTINUOUS
 62
     7
 10
-28.108928769009839
 20
381.30999999988512
 30
0.0
  0
VERTEX
  5
958
  8
DATA
  6
CONTINUOUS
 62
     7
 10
-29.638928769009841
 20
381.30999999988512
 30
0.0
  0
SEQEND
  5
959
  8
DATA
  6
CONTINUOUS
 62
     7
  0
POLYLINE
  5
1B6
  8
DATA
  6
CONTINUOUS
 62
     7
 66
     1
 10
0.0
 20
0.0
 30
0.0
 70
     1
  0
VERTEX
  5
95A
  8
DATA
  6
CONTINUOUS
 62
     7
 10
-31.638928769009841
 20
382.83999999988492
 30
0.0
  0
VERTEX
  5
95B
  8
DATA
  6
CONTINUOUS
 62
     7
 10
-30.108928769009839
 20
382.83999999988492
 30
0.0
  0
VERTEX
  5
95C
  8
DATA
  6
CONTINUOUS
 62
     7
 10
-30.108928769009839
 20
381.30999999988512
 30
0.0
  0
VERTEX
  5
95D
  8
DATA
  6
CONTINUOUS
 62
     7
 10
-31.638928769009841
 20
381.30999999988512
 30
0.0
  0
SEQEND
  5
95E
  8
DATA
  6
CONTINUOUS
 62
     7
  0
POLYLINE
  5
1BD
  8
DATA
  6
CONTINUOUS
 62
     7
 66
     1
 10
0.0
 20
0.0
 30
0.0
 70
     1
  0
VERTEX
  5
95F
  8
DATA
  6
CONTINUOUS
 62
     7
 10
-33.638928769009837
 20
382.83999999988492
 30
0.0
  0
VERTEX
  5
960
  8
DATA
  6
CONTINUOUS
 62
     7
 10
-32.10892876900985
 20
382.83999999988492
 30
0.0
  0
VERTEX
  5
961
  8
DATA
  6
CONTINUOUS
 62
     7
 10
-32.10892876900985
 20
381.30999999988512
 30
0.0
  0
VERTEX
  5
962
  8
DATA
  6
CONTINUOUS
 62
     7
 10
-33.638928769009837
 20
381.30999999988512
 30
0.0
  0
SEQEND
  5
963
  8
DATA
  6
CONTINUOUS
 62
     7
  0
POLYLINE
  5
1C4
  8
DATA
  6
CONTINUOUS
 62
     7
 66
     1
 10
0.0
 20
0.0
 30
0.0
 70
     1
  0
VERTEX
  5
964
  8
DATA
  6
CONTINUOUS
 62
     7
 10
-35.638928769009851
 20
382.83999999988492
 30
0.0
  0
VERTEX
  5
965
  8
DATA
  6
CONTINUOUS
 62
     7
 10
-34.108928769009843
 20
382.83999999988492
 30
0.0
  0
VERTEX
  5
966
  8
DATA
  6
CONTINUOUS
 62
     7
 10
-34.108928769009843
 20
381.30999999988512
 30
0.0
  0
VERTEX
  5
967
  8
DATA
  6
CONTINUOUS
 62
     7
 10
-35.638928769009851
 20
381.30999999988512
 30
0.0
  0
SEQEND
  5
968
  8
DATA
  6
CONTINUOUS
 62
     7
  0
POLYLINE
  5
1CB
  8
DATA
  6
CONTINUOUS
 62
     7
 66
     1
 10
0.0
 20
0.0
 30
0.0
  0
VERTEX
  5
969
  8
DATA
  6
CONTINUOUS
 62
     7
 10
-39.65899494018926
 20
379.67499999988502
 30
0.0
  0
VERTEX
  5
96A
  8
DATA
  6
CONTINUOUS
 62
     7
 10
-41.758994940189247
 20
379.67499999988502
 30
0.0
  0
VERTEX
  5
96B
  8
DATA
  6
CONTINUOUS
 62
     7
 10
-41.758994940189247
 20
380.47499999988497
 30
0.0
  0
VERTEX
  5
96C
  8
DATA
  6
CONTINUOUS
 62
     7
 10
-39.65899494018926
 20
380.47499999988497
 30
0.0
  0
SEQEND
  5
96D
  8
DATA
  6
CONTINUOUS
 62
     7
  0
POLYLINE
  5
1D2
  8
DATA
  6
CONTINUOUS
 62
     7
 66
     1
 10
0.0
 20
0.0
 30
0.0
  0
VERTEX
  5
96E
  8
DATA
  6
CONTINUOUS
 62
     7
 10
-38.858994940189248
 20
380.47499999988497
 30
0.0
  0
VERTEX
  5
96F
  8
DATA
  6
CONTINUOUS
 62
     7
 10
-36.758994940189233
 20
380.47499999988497
 30
0.0
  0
VERTEX
  5
970
  8
DATA
  6
CONTINUOUS
 62
     7
 10
-36.758994940189233
 20
379.67499999988502
 30
0.0
  0
VERTEX
  5
971
  8
DATA
  6
CONTINUOUS
 62
     7
 10
-38.858994940189248
 20
379.67499999988502
 30
0.0
  0
SEQEND
  5
972
  8
DATA
  6
CONTINUOUS
 62
     7
  0
POLYLINE
  5
1D9
  8
DATA
  6
CONTINUOUS
 62
     7
 66
     1
 10
0.0
 20
0.0
 30
0.0
  0
VERTEX
  5
973
  8
DATA
  6
CONTINUOUS
 62
     7
 10
-39.65899494018926
 20
380.47499999988497
 30
0.0
  0
VERTEX
  5
974
  8
DATA
  6
CONTINUOUS
 62
     7
 10
-39.65899494018926
 20
382.57499999988511
 30
0.0
  0
VERTEX
  5
975
  8
DATA
  6
CONTINUOUS
 62
     7
 10
-38.858994940189248
 20
382.57499999988511
 30
0.0
  0
VERTEX
  5
976
  8
DATA
  6
CONTINUOUS
 62
     7
 10
-38.858994940189248
 20
380.47499999988497
 30
0.0
  0
SEQEND
  5
977
  8
DATA
  6
CONTINUOUS
 62
     7
  0
POLYLINE
  5
1E0
  8
DATA
  6
CONTINUOUS
 62
     7
 66
     1
 10
0.0
 20
0.0
 30
0.0
  0
VERTEX
  5
978
  8
DATA
  6
CONTINUOUS
 62
     7
 10
-38.858994940189248
 20
379.67499999988502
 30
0.0
  0
VERTEX
  5
979
  8
DATA
  6
CONTINUOUS
 62
     7
 10
-38.858994940189248
 20
377.57499999988511
 30
0.0
  0
VERTEX
  5
97A
  8
DATA
  6
CONTINUOUS
 62
     7
 10
-39.65899494018926
 20
377.57499999988511
 30
0.0
  0
VERTEX
  5
97B
  8
DATA
  6
CONTINUOUS
 62
     7
 10
-39.65899494018926
 20
379.67499999988502
 30
0.0
  0
SEQEND
  5
97C
  8
DATA
  6
CONTINUOUS
 62
     7
  0
POLYLINE
  5
1E7
  8
DATA
  6
CONTINUOUS
 62
     7
 66
     1
 10
0.0
 20
0.0
 30
0.0
 70
     1
  0
VERTEX
  5
97D
  8
DATA
  6
CONTINUOUS
 62
     7
 10
-38.39871050971751
 20
379.31557218923513
 30
0.0
  0
VERTEX
  5
97E
  8
DATA
  6
CONTINUOUS
 62
     7
 10
-37.39871050971751
 20
379.31557218923513
 30
0.0
  0
VERTEX
  5
97F
  8
DATA
  6
CONTINUOUS
 62
     7
 10
-37.39871050971751
 20
378.31557218923513
 30
0.0
  0
VERTEX
  5
980
  8
DATA
  6
CONTINUOUS
 62
     7
 10
-38.39871050971751
 20
378.31557218923513
 30
0.0
  0
SEQEND
  5
981
  8
DATA
  6
CONTINUOUS
 62
     7
  0
POLYLINE
  5
1EE
  8
DATA
  6
CONTINUOUS
 62
     7
 66
     1
 10
0.0
 20
0.0
 30
0.0
 70
     1
  0
VERTEX
  5
982
  8
DATA
  6
CONTINUOUS
 62
     7
 10
-41.119279370660983
 20
379.31557218923513
 30
0.0
  0
VERTEX
  5
983
  8
DATA
  6
CONTINUOUS
 62
     7
 10
-40.119279370660962
 20
379.31557218923513
 30
0.0
  0
VERTEX
  5
984
  8
DATA
  6
CONTINUOUS
 62
     7
 10
-40.119279370660962
 20
378.31557218923513
 30
0.0
  0
VERTEX
  5
985
  8
DATA
  6
CONTINUOUS
 62
     7
 10
-41.119279370660983
 20
378.31557218923513
 30
0.0
  0
SEQEND
  5
986
  8
DATA
  6
CONTINUOUS
 62
     7
  0
POLYLINE
  5
1F5
  8
DATA
  6
CONTINUOUS
 62
     7
 66
     1
 10
0.0
 20
0.0
 30
0.0
 70
     1
  0
VERTEX
  5
987
  8
DATA
  6
CONTINUOUS
 62
     7
 10
-38.39871050971751
 20
381.83442781053498
 30
0.0
  0
VERTEX
  5
988
  8
DATA
  6
CONTINUOUS
 62
     7
 10
-37.39871050971751
 20
381.83442781053498
 30
0.0
  0
VERTEX
  5
989
  8
DATA
  6
CONTINUOUS
 62
     7
 10
-37.39871050971751
 20
380.83442781053498
 30
0.0
  0
VERTEX
  5
98A
  8
DATA
  6
CONTINUOUS
 62
     7
 10
-38.39871050971751
 20
380.83442781053498
 30
0.0
  0
SEQEND
  5
98B
  8
DATA
  6
CONTINUOUS
 62
     7
  0
POLYLINE
  5
1FC
  8
DATA
  6
CONTINUOUS
 62
     7
 66
     1
 10
0.0
 20
0.0
 30
0.0
 70
     1
  0
VERTEX
  5
98C
  8
DATA
  6
CONTINUOUS
 62
     7
 10
-41.119279370660983
 20
381.83442781053498
 30
0.0
  0
VERTEX
  5
98D
  8
DATA
  6
CONTINUOUS
 62
     7
 10
-40.119279370660962
 20
381.83442781053498
 30
0.0
  0
VERTEX
  5
98E
  8
DATA
  6
CONTINUOUS
 62
     7
 10
-40.119279370660962
 20
380.83442781053498
 30
0.0
  0
VERTEX
  5
98F
  8
DATA
  6
CONTINUOUS
 62
     7
 10
-41.119279370660983
 20
380.83442781053498
 30
0.0
  0
SEQEND
  5
990
  8
DATA
  6
CONTINUOUS
 62
     7
  0
LINE
  5
203
  8
DATA
  6
CONTINUOUS
 62
     7
 10
-19.16362312224188
 20
377.24510830537122
 30
0.0
 11
-19.7225403196942
 21
383.09510830537141
 31
0.0
  0
LINE
  5
204
  8
DATA
  6
CONTINUOUS
 62
     7
 10
-43.054366758136311
 20
377.24510830537122
 30
0.0
 11
-42.495449560684037
 21
383.09510830537118
 31
0.0
  0
ARC
  5
205
  8
DATA
  6
CONTINUOUS
 62
     7
 10
-20.159090052997339
 20
377.14999999988481
 30
0.0
 40
0.9999999999999715
 50
270.0
 51
5.4575534851070957
  0
ARC
  5
206
  8
DATA
  6
CONTINUOUS
 62
     7
 10
-42.058899827380962
 20
377.1499999998851
 30
0.0
 40
0.9999999999999728
 50
174.5424465148939
 51
270.00000000000159
  0
ARC
  5
207
  8
DATA
  6
CONTINUOUS
 62
     7
 10
-20.718007250449681
 20
382.99999999988489
 30
0.0
 40
1.000000000000087
 50
5.4575534851070913
 51
89.99999999999838
  0
ARC
  5
208
  8
DATA
  6
CONTINUOUS
 62
     7
 10
-41.499982629928638
 20
382.99999999988489
 30
0.0
 40
1.0
 50
90.0
 51
174.54244651489569
  0
TEXT
  5
209
  8
DATA
 62
     7
 10
-21.81093592660109
 20
389.63107584354373
 30
0.0
 40
3.121945529513888
  1
DVI DL In 
 50
180.0
 41
0.7
 11
-21.81093592660109
 21
386.5091303140299
 31
0.0
 73
     3
  0
TEXT
  5
20A
  8
DATA
 62
     7
 10
18.616254049010529
 20
389.63107584354373
 30
0.0
 40
3.121945529513888
  1
LINK 1 
 50
180.0
 41
0.7
 11
18.616254049010529
 21
386.5091303140299
 31
0.0
 73
     3
  0
TEXT
  5
20B
  8
DATA
 62
     7
 10
18.616254049010529
 20
367.24976235803149
 30
0.0
 40
3.121945529513888
  1
CAT-6 
 50
180.0
 41
0.7
 11
18.616254049010529
 21
364.12781682851761
 31
0.0
 73
     3
  0
LINE
  5
20C
  8
DATA
  6
CONTINUOUS
 62
     7
 10
-66.750000000300091
 20
384.0
 30
0.0
 11
-66.750000000300091
 21
370.70000000000022
 31
0.0
  0
LINE
  5
20D
  8
DATA
  6
CONTINUOUS
 62
     7
 10
-82.450000000299994
 20
384.0
 30
0.0
 11
-82.450000000299994
 21
370.70000000000022
 31
0.0
  0
LINE
  5
20E
  8
DATA
  6
CONTINUOUS
 62
     7
 10
-82.450000000299994
 20
370.70000000000022
 30
0.0
 11
-66.750000000300091
 21
370.70000000000022
 31
0.0
  0
LINE
  5
20F
  8
DATA
  6
CONTINUOUS
 62
     7
 10
-82.450000000299994
 20
384.0
 30
0.0
 11
-66.750000000300091
 21
384.0
 31
0.0
  0
LINE
  5
210
  8
DATA
  6
CONTINUOUS
 62
     7
 10
-80.750000000300091
 20
381.0
 30
0.0
 11
-68.450000000300022
 21
381.0
 31
0.0
  0
LINE
  5
211
  8
DATA
  6
CONTINUOUS
 62
     7
 10
-80.750000000300091
 20
381.0
 30
0.0
 11
-80.750000000300091
 21
373.70000000000022
 31
0.0
  0
LINE
  5
212
  8
DATA
  6
CONTINUOUS
 62
     7
 10
-68.450000000300022
 20
381.0
 30
0.0
 11
-68.450000000300022
 21
373.70000000000022
 31
0.0
  0
LINE
  5
213
  8
DATA
  6
CONTINUOUS
 62
     7
 10
-76.825000000300022
 20
370.70000000000022
 30
0.0
 11
-76.825000000300022
 21
372.20000000000022
 31
0.0
  0
LINE
  5
214
  8
DATA
  6
CONTINUOUS
 62
     7
 10
-72.375000000300091
 20
372.20000000000022
 30
0.0
 11
-72.375000000300091
 21
370.70000000000022
 31
0.0
  0
LINE
  5
215
  8
DATA
  6
CONTINUOUS
 62
     7
 10
-77.950000000300022
 20
372.20000000000022
 30
0.0
 11
-76.825000000300022
 21
372.20000000000022
 31
0.0
  0
LINE
  5
216
  8
DATA
  6
CONTINUOUS
 62
     7
 10
-72.375000000300091
 20
372.20000000000022
 30
0.0
 11
-71.250000000300091
 21
372.20000000000022
 31
0.0
  0
LINE
  5
217
  8
DATA
  6
CONTINUOUS
 62
     7
 10
-80.750000000300091
 20
373.70000000000022
 30
0.0
 11
-77.950000000300022
 21
373.70000000000022
 31
0.0
  0
LINE
  5
218
  8
DATA
  6
CONTINUOUS
 62
     7
 10
-71.250000000300091
 20
373.70000000000022
 30
0.0
 11
-68.450000000300022
 21
373.70000000000022
 31
0.0
  0
LINE
  5
219
  8
DATA
  6
CONTINUOUS
 62
     7
 10
-77.950000000300022
 20
372.20000000000022
 30
0.0
 11
-77.950000000300022
 21
373.70000000000022
 31
0.0
  0
LINE
  5
21A
  8
DATA
  6
CONTINUOUS
 62
     7
 10
-71.250000000300091
 20
373.70000000000022
 30
0.0
 11
-71.250000000300091
 21
372.20000000000022
 31
0.0
  0
TEXT
  5
21B
  8
DATA
 62
     7
 10
-69.383745950989479
 20
389.63107584354373
 30
0.0
 40
3.121945529513888
  1
LINK 2
 50
180.0
 41
0.7
 11
-69.383745950989479
 21
386.5091303140299
 31
0.0
 73
     3
  0
TEXT
  5
21C
  8
DATA
 62
     7
 10
-69.383745950989479
 20
367.24976235803149
 30
0.0
 40
3.121945529513888
  1
CAT-6 
 50
180.0
 41
0.7
 11
-69.383745950989479
 21
364.12781682851761
 31
0.0
 73
     3
  0
TEXT
  5
21D
  8
DATA
 62
     7
 10
-109.77668149103781
 20
389.63107584354373
 30
0.0
 40
3.121945529513888
  1
RS232 In
 50
180.0
 41
0.7
 11
-109.77668149103781
 21
386.5091303140299
 31
0.0
 73
     3
  0
CIRCLE
  5
21E
  8
DATA
  6
CONTINUOUS
 62
     7
 10
-146.25
 20
375.5
 30
0.0
 40
3.9000000000000039
  0
POLYLINE
  5
21F
  8
DATA
  6
CONTINUOUS
 62
     7
 66
     1
 10
0.0
 20
0.0
 30
0.0
 70
     1
  0
VERTEX
  5
991
  8
DATA
  6
CONTINUOUS
 62
     7
 10
-145.88
 20
380.48629120689941
 30
0.0
  0
VERTEX
  5
992
  8
DATA
  6
CONTINUOUS
 62
     7
 10
-150.3832548558419
 20
378.31357500284997
 30
0.0
  0
VERTEX
  5
993
  8
DATA
  6
CONTINUOUS
 62
     7
 10
-150.7532548558419
 20
373.32728379595062
 30
0.0
  0
VERTEX
  5
994
  8
DATA
  6
CONTINUOUS
 62
     7
 10
-146.62
 20
370.51370879310059
 30
0.0
  0
VERTEX
  5
995
  8
DATA
  6
CONTINUOUS
 62
     7
 10
-142.11674514415819
 20
372.68642499715003
 30
0.0
  0
VERTEX
  5
996
  8
DATA
  6
CONTINUOUS
 62
     7
 10
-141.7467451441581
 20
377.67271620404938
 30
0.0
  0
SEQEND
  5
997
  8
DATA
  6
CONTINUOUS
 62
     7
  0
CIRCLE
  5
228
  8
DATA
  6
CONTINUOUS
 62
     7
 10
-146.25
 20
375.5
 30
0.0
 40
1.0
  0
TEXT
  5
229
  8
DATA
 62
     7
 10
-141.1156929454157
 20
389.63107584354373
 30
0.0
 40
3.121945529513888
  1
5V DC
 50
180.0
 41
0.7
 11
-141.1156929454157
 21
386.5091303140299
 31
0.0
 73
     3
  0
ARC
  5
22A
  8
DATA
  6
CONTINUOUS
 62
     7
 10
-167.25
 20
196.75
 30
0.0
 40
1.5
 50
90.0
 51
180.0
  0
ARC
  5
22B
  8
DATA
  6
CONTINUOUS
 62
     7
 10
43.749999999999993
 20
196.75
 30
0.0
 40
1.5
 50
0.0
 51
90.0
  0
ARC
  5
22C
  8
DATA
  6
CONTINUOUS
 62
     7
 10
-167.25
 20
351.5
 30
0.0
 40
1.5
 50
180.0
 51
270.0
  0
ARC
  5
22D
  8
DATA
  6
CONTINUOUS
 62
     7
 10
43.749999999999993
 20
351.5
 30
0.0
 40
1.5
 50
270.0
 51
0.0
  0
LINE
  5
22E
  8
DATA
  6
CONTINUOUS
 62
     7
 10
75.0
 20
157.75
 30
0.0
 11
75.0
 21
196.75
 31
0.0
  0
LINE
  5
22F
  8
DATA
  6
CONTINUOUS
 62
     7
 10
182.5
 20
156.25
 30
0.0
 11
76.5
 21
156.25
 31
0.0
  0
LINE
  5
230
  8
DATA
  6
CONTINUOUS
 62
     7
 10
184.0
 20
196.75
 30
0.0
 11
184.0
 21
157.75
 31
0.0
  0
LINE
  5
231
  8
DATA
  6
CONTINUOUS
 62
     7
 10
76.5
 20
198.25
 30
0.0
 11
182.5
 21
198.25
 31
0.0
  0
CIRCLE
  5
232
  8
DATA
  6
CONTINUOUS
 62
     7
 10
84.0
 20
166.25
 30
0.0
 40
2.5
  0
LINE
  5
233
  8
DATA
  6
CONTINUOUS
 62
     7
 10
82.75
 20
166.25
 30
0.0
 11
85.25
 21
166.25
 31
0.0
  0
LINE
  5
234
  8
DATA
  6
CONTINUOUS
 62
     7
 10
84.0
 20
165.0
 30
0.0
 11
84.0
 21
167.5
 31
0.0
  0
CIRCLE
  5
235
  8
DATA
  6
CONTINUOUS
 62
     7
 10
165.0
 20
166.25
 30
0.0
 40
2.5
  0
LINE
  5
236
  8
DATA
  6
CONTINUOUS
 62
     7
 10
163.75
 20
166.25
 30
0.0
 11
166.25
 21
166.25
 31
0.0
  0
LINE
  5
237
  8
DATA
  6
CONTINUOUS
 62
     7
 10
165.0
 20
165.0
 30
0.0
 11
165.0
 21
167.5
 31
0.0
  0
LINE
  5
238
  8
DATA
  6
CONTINUOUS
 62
     7
 10
84.0
 20
156.25
 30
0.0
 11
84.0
 21
157.25
 31
0.0
  0
LINE
  5
239
  8
DATA
  6
CONTINUOUS
 62
     7
 10
84.0
 20
197.25
 30
0.0
 11
84.0
 21
198.25
 31
0.0
  0
LINE
  5
23A
  8
DATA
  6
CONTINUOUS
 62
     7
 10
76.0
 20
158.75
 30
0.0
 11
76.0
 21
195.75
 31
0.0
  0
LINE
  5
23B
  8
DATA
  6
CONTINUOUS
 62
     7
 10
84.0
 20
197.25
 30
0.0
 11
77.5
 21
197.25
 31
0.0
  0
LINE
  5
23C
  8
DATA
  6
CONTINUOUS
 62
     7
 10
84.0
 20
157.25
 30
0.0
 11
77.5
 21
157.25
 31
0.0
  0
ARC
  5
23D
  8
DATA
  6
CONTINUOUS
 62
     7
 10
77.5
 20
195.75
 30
0.0
 40
1.5
 50
90.0
 51
180.0
  0
ARC
  5
23E
  8
DATA
  6
CONTINUOUS
 62
     7
 10
76.5
 20
196.75
 30
0.0
 40
1.5
 50
90.0
 51
180.0
  0
ARC
  5
23F
  8
DATA
  6
CONTINUOUS
 62
     7
 10
77.5
 20
158.75
 30
0.0
 40
1.5
 50
180.0
 51
270.0
  0
ARC
  5
240
  8
DATA
  6
CONTINUOUS
 62
     7
 10
76.5
 20
157.75
 30
0.0
 40
1.5
 50
180.0
 51
270.0
  0
LINE
  5
241
  8
DATA
  6
CONTINUOUS
 62
     7
 10
183.0
 20
197.25
 30
0.0
 11
183.0
 21
158.75
 31
0.0
  0
LINE
  5
242
  8
DATA
  6
CONTINUOUS
 62
     7
 10
173.0
 20
157.25
 30
0.0
 11
173.0
 21
156.25
 31
0.0
  0
LINE
  5
243
  8
DATA
  6
CONTINUOUS
 62
     7
 10
173.0
 20
157.25
 30
0.0
 11
181.5
 21
157.25
 31
0.0
  0
ARC
  5
244
  8
DATA
  6
CONTINUOUS
 62
     7
 10
181.5
 20
158.75
 30
0.0
 40
1.5
 50
270.0
 51
0.0
  0
ARC
  5
245
  8
DATA
  6
CONTINUOUS
 62
     7
 10
182.5
 20
157.75
 30
0.0
 40
1.5
 50
270.0
 51
0.0
  0
ARC
  5
246
  8
DATA
  6
CONTINUOUS
 62
     7
 10
182.5
 20
196.75
 30
0.0
 40
1.5
 50
0.0
 51
90.0
  0
LINE
  5
247
  8
DATA
  6
CONTINUOUS
 62
     7
 10
89.999999999999986
 20
152.25
 30
0.0
 11
90.999999999999986
 21
156.25
 31
0.0
  0
LINE
  5
248
  8
DATA
  6
CONTINUOUS
 62
     7
 10
79.999999999999986
 20
152.25
 30
0.0
 11
78.999999999999986
 21
156.25
 31
0.0
  0
LINE
  5
249
  8
DATA
  6
CONTINUOUS
 62
     7
 10
89.999999999999986
 20
152.25
 30
0.0
 11
79.999999999999986
 21
152.25
 31
0.0
  0
LINE
  5
24A
  8
DATA
  6
CONTINUOUS
 62
     7
 10
168.0
 20
152.25
 30
0.0
 11
169.0
 21
156.25
 31
0.0
  0
LINE
  5
24B
  8
DATA
  6
CONTINUOUS
 62
     7
 10
158.0
 20
152.25
 30
0.0
 11
157.0
 21
156.25
 31
0.0
  0
LINE
  5
24C
  8
DATA
  6
CONTINUOUS
 62
     7
 10
168.0
 20
152.25
 30
0.0
 11
158.0
 21
152.25
 31
0.0
  0
ARC
  5
24D
  8
DATA
  6
CONTINUOUS
 62
     7
 10
75.356720053556572
 20
169.25
 30
0.0
 40
1.4499999999999811
 50
104.24175583994101
 51
255.7582441600596
  0
LINE
  5
24E
  8
DATA
  6
CONTINUOUS
 62
     7
 10
5.5499999996999758
 20
328.05000000000001
 30
0.0
 11
5.5499999996999758
 21
327.75
 31
0.0
  0
LINE
  5
24F
  8
DATA
  6
CONTINUOUS
 62
     7
 10
21.249999999699909
 20
328.05000000000001
 30
0.0
 11
21.249999999699909
 21
327.75
 31
0.0
  0
LINE
  5
250
  8
DATA
  6
CONTINUOUS
 62
     7
 10
2.6000000000000081
 20
327.75
 30
0.0
 11
25.300000000000001
 21
327.75
 31
0.0
  0
LINE
  5
251
  8
DATA
  6
CONTINUOUS
 62
     7
 10
5.5499999996999758
 20
328.05000000000001
 30
0.0
 11
21.249999999699909
 21
328.05000000000001
 31
0.0
  0
LINE
  5
252
  8
DATA
  6
CONTINUOUS
 62
     7
 10
-12.52072634997073
 20
332.75
 30
0.0
 11
-17.197263530406829
 21
332.75
 31
0.0
  0
LINE
  5
253
  8
DATA
  6
CONTINUOUS
 62
     7
 10
-19.163616464998071
 20
332.75
 30
0.0
 11
-43.052260849559012
 21
332.75
 31
0.0
  0
LINE
  5
254
  8
DATA
  6
CONTINUOUS
 62
     7
 10
-45.02072634997117
 20
332.75
 30
0.0
 11
-49.697263530407142
 21
332.75
 31
0.0
  0
LINE
  5
255
  8
DATA
  6
CONTINUOUS
 62
     7
 10
-49.697263530407142
 20
332.75
 30
0.0
 11
-49.697263530407142
 21
327.75
 31
0.0
  0
LINE
  5
256
  8
DATA
  6
CONTINUOUS
 62
     7
 10
-45.02072634997117
 20
332.75
 30
0.0
 11
-45.02072634997117
 21
327.75
 31
0.0
  0
LINE
  5
257
  8
DATA
  6
CONTINUOUS
 62
     7
 10
-17.197263530406829
 20
332.75
 30
0.0
 11
-17.197263530406829
 21
327.75
 31
0.0
  0
LINE
  5
258
  8
DATA
  6
CONTINUOUS
 62
     7
 10
-12.52072634997073
 20
332.75
 30
0.0
 11
-12.52072634997073
 21
327.75
 31
0.0
  0
LINE
  5
259
  8
DATA
  6
CONTINUOUS
 62
     7
 10
-43.052260849559012
 20
332.75
 30
0.0
 11
-43.052260849559012
 21
327.75
 31
0.0
  0
LINE
  5
25A
  8
DATA
  6
CONTINUOUS
 62
     7
 10
-19.163616464998071
 20
332.75
 30
0.0
 11
-19.163616464998071
 21
327.75
 31
0.0
  0
LINE
  5
25B
  8
DATA
  6
CONTINUOUS
 62
     7
 10
-82.450000000299994
 20
328.05000000000001
 30
0.0
 11
-82.450000000299994
 21
327.75
 31
0.0
  0
LINE
  5
25C
  8
DATA
  6
CONTINUOUS
 62
     7
 10
-66.750000000300091
 20
328.05000000000001
 30
0.0
 11
-66.750000000300091
 21
327.75
 31
0.0
  0
LINE
  5
25D
  8
DATA
  6
CONTINUOUS
 62
     7
 10
-85.399999999999963
 20
327.75
 30
0.0
 11
-62.700000000000003
 21
327.75
 31
0.0
  0
LINE
  5
25E
  8
DATA
  6
CONTINUOUS
 62
     7
 10
-82.450000000299994
 20
328.05000000000001
 30
0.0
 11
-66.750000000300091
 21
328.05000000000001
 31
0.0
  0
LINE
  5
25F
  8
DATA
  6
CONTINUOUS
 62
     7
 10
-133.321004840706
 20
332.75
 30
0.0
 11
-128.64446766027029
 21
332.75
 31
0.0
  0
LINE
  5
260
  8
DATA
  6
CONTINUOUS
 62
     7
 10
-126.2868864724956
 20
332.75
 30
0.0
 11
-110.68400626052011
 21
332.75
 31
0.0
  0
LINE
  5
261
  8
DATA
  6
CONTINUOUS
 62
     7
 10
-108.321004840706
 20
332.75
 30
0.0
 11
-103.6444676602701
 21
332.75
 31
0.0
  0
LINE
  5
262
  8
DATA
  6
CONTINUOUS
 62
     7
 10
-133.321004840706
 20
332.75
 30
0.0
 11
-133.321004840706
 21
327.75
 31
0.0
  0
LINE
  5
263
  8
DATA
  6
CONTINUOUS
 62
     7
 10
-128.64446766027029
 20
332.75
 30
0.0
 11
-128.64446766027029
 21
327.75
 31
0.0
  0
LINE
  5
264
  8
DATA
  6
CONTINUOUS
 62
     7
 10
-108.321004840706
 20
332.75
 30
0.0
 11
-108.321004840706
 21
327.75
 31
0.0
  0
LINE
  5
265
  8
DATA
  6
CONTINUOUS
 62
     7
 10
-103.6444676602701
 20
332.75
 30
0.0
 11
-103.6444676602701
 21
327.75
 31
0.0
  0
LINE
  5
266
  8
DATA
  6
CONTINUOUS
 62
     7
 10
-126.2868864724956
 20
332.75
 30
0.0
 11
-126.2868864724956
 21
327.75
 31
0.0
  0
LINE
  5
267
  8
DATA
  6
CONTINUOUS
 62
     7
 10
-110.68400626052011
 20
332.75
 30
0.0
 11
-110.68400626052011
 21
327.75
 31
0.0
  0
LINE
  5
268
  8
DATA
  6
CONTINUOUS
 62
     7
 10
-150.7532548558419
 20
329.75
 30
0.0
 11
-150.7532548558419
 21
327.75
 31
0.0
  0
LINE
  5
269
  8
DATA
  6
CONTINUOUS
 62
     7
 10
-150.15000000000001
 20
333.75
 30
0.0
 11
-150.15000000000001
 21
329.75
 31
0.0
  0
LINE
  5
26A
  8
DATA
  6
CONTINUOUS
 62
     7
 10
-142.34999999999999
 20
333.75
 30
0.0
 11
-142.34999999999999
 21
329.75
 31
0.0
  0
LINE
  5
26B
  8
DATA
  6
CONTINUOUS
 62
     7
 10
-141.7467451441581
 20
329.75
 30
0.0
 11
-141.7467451441581
 21
327.75
 31
0.0
  0
LINE
  5
26C
  8
DATA
  6
CONTINUOUS
 62
     7
 10
-150.7532548558419
 20
329.75
 30
0.0
 11
-141.7467451441581
 21
329.75
 31
0.0
  0
LINE
  5
26D
  8
DATA
  6
CONTINUOUS
 62
     7
 10
-150.15000000000001
 20
333.75
 30
0.0
 11
-142.34999999999999
 21
333.75
 31
0.0
  0
LINE
  5
26E
  8
DATA
  6
CONTINUOUS
 62
     7
 10
-146.25
 20
329.75
 30
0.0
 11
-146.25
 21
327.75
 31
0.0
  0
LINE
  5
26F
  8
DATA
  6
CONTINUOUS
 62
     7
 10
189.0
 20
164.25
 30
0.0
 11
184.0
 21
164.25
 31
0.0
  0
LINE
  5
270
  8
DATA
  6
CONTINUOUS
 62
     7
 10
189.0
 20
171.94999999999999
 30
0.0
 11
184.30000000000001
 21
171.94999999999999
 31
0.0
  0
LINE
  5
271
  8
DATA
  6
CONTINUOUS
 62
     7
 10
184.0
 20
162.0604298603923
 30
0.0
 11
184.0
 21
177.3148011285142
 31
0.0
  0
LINE
  5
272
  8
DATA
  6
CONTINUOUS
 62
     7
 10
189.0
 20
164.25
 30
0.0
 11
189.0
 21
171.94999999999999
 31
0.0
  0
LINE
  5
273
  8
DATA
  6
CONTINUOUS
 62
     7
 10
189.0
 20
168.09999999999999
 30
0.0
 11
184.30000000000001
 21
168.09999999999999
 31
0.0
  0
LINE
  5
274
  8
DATA
  6
CONTINUOUS
 62
     7
 10
189.0
 20
165.69999999999999
 30
0.0
 11
184.30000000000001
 21
165.69999999999999
 31
0.0
  0
LINE
  5
275
  8
DATA
  6
CONTINUOUS
 62
     7
 10
184.30000000000001
 20
170.5
 30
0.0
 11
189.0
 21
170.5
 31
0.0
  0
LINE
  5
276
  8
DATA
  6
CONTINUOUS
 62
     7
 10
184.30000000000001
 20
177.55000000000001
 30
0.0
 11
184.0
 21
177.55000000000001
 31
0.0
  0
LINE
  5
277
  8
DATA
  6
CONTINUOUS
 62
     7
 10
184.30000000000001
 20
164.25
 30
0.0
 11
184.30000000000001
 21
177.55000000000001
 31
0.0
  0
LINE
  5
278
  8
DATA
  6
CONTINUOUS
 62
     7
 10
191.80000000000001
 20
169.75
 30
0.0
 11
189.0
 21
169.75
 31
0.0
  0
LINE
  5
279
  8
DATA
  6
CONTINUOUS
 62
     7
 10
191.80000000000001
 20
175.75
 30
0.0
 11
191.80000000000001
 21
169.75
 31
0.0
  0
LINE
  5
27A
  8
DATA
  6
CONTINUOUS
 62
     7
 10
184.0
 20
175.75
 30
0.0
 11
191.80000000000001
 21
175.75
 31
0.0
  0
LINE
  5
27B
  8
DATA
  6
CONTINUOUS
 62
     7
 10
-168.75
 20
-200.0
 30
0.0
 11
-168.75
 21
-159.5
 31
0.0
  0
LINE
  5
27C
  8
DATA
  6
CONTINUOUS
 62
     7
 10
45.249999999999993
 20
-200.0
 30
0.0
 11
-168.75
 21
-200.0
 31
0.0
  0
LINE
  5
27D
  8
DATA
  6
CONTINUOUS
 62
     7
 10
45.249999999999993
 20
-159.5
 30
0.0
 11
45.249999999999993
 21
-200.0
 31
0.0
  0
LINE
  5
27E
  8
DATA
  6
CONTINUOUS
 62
     7
 10
-167.25
 20
-158.0
 30
0.0
 11
43.749999999999993
 21
-158.0
 31
0.0
  0
LINE
  5
27F
  8
DATA
  6
CONTINUOUS
 62
     7
 10
-168.75
 20
-137.5
 30
0.0
 11
-168.75
 21
-28.5
 31
0.0
  0
LINE
  5
280
  8
DATA
  6
CONTINUOUS
 62
     7
 10
45.249999999999993
 20
-137.5
 30
0.0
 11
-168.75
 21
-137.5
 31
0.0
  0
LINE
  5
281
  8
DATA
  6
CONTINUOUS
 62
     7
 10
45.249999999999993
 20
-28.5
 30
0.0
 11
45.249999999999993
 21
-137.5
 31
0.0
  0
LINE
  5
282
  8
DATA
  6
CONTINUOUS
 62
     7
 10
-168.75
 20
-28.5
 30
0.0
 11
45.249999999999993
 21
-28.5
 31
0.0
  0
LINE
  5
283
  8
DATA
  6
CONTINUOUS
 62
     7
 10
-162.75
 20
-204.0
 30
0.0
 11
-163.75
 21
-200.0
 31
0.0
  0
LINE
  5
284
  8
DATA
  6
CONTINUOUS
 62
     7
 10
-152.75
 20
-204.0
 30
0.0
 11
-151.75
 21
-200.0
 31
0.0
  0
LINE
  5
285
  8
DATA
  6
CONTINUOUS
 62
     7
 10
-162.75
 20
-204.0
 30
0.0
 11
-152.75
 21
-204.0
 31
0.0
  0
LINE
  5
286
  8
DATA
  6
CONTINUOUS
 62
     7
 10
39.249999999999993
 20
-204.0
 30
0.0
 11
40.249999999999993
 21
-200.0
 31
0.0
  0
LINE
  5
287
  8
DATA
  6
CONTINUOUS
 62
     7
 10
29.249999999999989
 20
-204.0
 30
0.0
 11
28.249999999999989
 21
-200.0
 31
0.0
  0
LINE
  5
288
  8
DATA
  6
CONTINUOUS
 62
     7
 10
39.249999999999993
 20
-204.0
 30
0.0
 11
29.249999999999989
 21
-204.0
 31
0.0
  0
LINE
  5
289
  8
DATA
  6
CONTINUOUS
 62
     7
 10
-168.75
 20
35.75
 30
0.0
 11
-168.75
 21
-4.75
 31
0.0
  0
LINE
  5
28A
  8
DATA
  6
CONTINUOUS
 62
     7
 10
45.249999999999993
 20
35.75
 30
0.0
 11
-168.75
 21
35.75
 31
0.0
  0
LINE
  5
28B
  8
DATA
  6
CONTINUOUS
 62
     7
 10
45.249999999999993
 20
-4.75
 30
0.0
 11
45.249999999999993
 21
35.75
 31
0.0
  0
LINE
  5
28C
  8
DATA
  6
CONTINUOUS
 62
     7
 10
-167.25
 20
-6.25
 30
0.0
 11
43.749999999999993
 21
-6.25
 31
0.0
  0
LINE
  5
28D
  8
DATA
  6
CONTINUOUS
 62
     7
 10
-162.75
 20
39.75
 30
0.0
 11
-163.75
 21
35.75
 31
0.0
  0
LINE
  5
28E
  8
DATA
  6
CONTINUOUS
 62
     7
 10
-152.75
 20
39.75
 30
0.0
 11
-151.75
 21
35.75
 31
0.0
  0
LINE
  5
28F
  8
DATA
  6
CONTINUOUS
 62
     7
 10
-162.75
 20
39.75
 30
0.0
 11
-152.75
 21
39.75
 31
0.0
  0
LINE
  5
290
  8
DATA
  6
CONTINUOUS
 62
     7
 10
39.249999999999993
 20
39.75
 30
0.0
 11
40.249999999999993
 21
35.75
 31
0.0
  0
LINE
  5
291
  8
DATA
  6
CONTINUOUS
 62
     7
 10
29.249999999999989
 20
39.75
 30
0.0
 11
28.249999999999989
 21
35.75
 31
0.0
  0
LINE
  5
292
  8
DATA
  6
CONTINUOUS
 62
     7
 10
39.249999999999993
 20
39.75
 30
0.0
 11
29.249999999999989
 21
39.75
 31
0.0
  0
CIRCLE
  5
293
  8
DATA
  6
CONTINUOUS
 62
     7
 10
29.249999999999989
 20
-187.0
 30
0.0
 40
1.450000000000002
  0
TEXT
  5
294
  8
DATA
 62
     7
 10
25.41223330931194
 20
-197.59287117575559
 30
0.0
 40
2.963333333333332
  1
Power
 41
0.7
 11
25.41223330931194
 21
-194.62953784242231
 31
0.0
 73
     3
  0
LINE
  5
295
  8
DATA
  6
CONTINUOUS
 62
     7
 10
45.249999999999993
 20
-128.5
 30
0.0
 11
-168.75
 21
-128.5
 31
0.0
  0
ARC
  5
296
  8
DATA
  6
CONTINUOUS
 62
     7
 10
29.249999999999989
 20
-137.37882851067749
 30
0.0
 40
1.4499999999999951
 50
184.7936006250232
 51
355.20639937497663
  0
TEXT
  5
297
  8
DATA
 62
     7
 10
-107.1818346962292
 20
-171.4388370825213
 30
0.0
 40
6.5153645833333309
  1
DVI Dual Link over 2CAT6 Extender R
 41
0.7
 11
-107.1818346962292
 21
-164.92347249918799
 31
0.0
 73
     3
  0
LINE
  5
298
  8
DATA
  6
CONTINUOUS
 62
     7
 10
21.249999999699909
 20
27.75
 30
0.0
 11
21.249999999699909
 21
14.45000000000004
 31
0.0
  0
LINE
  5
299
  8
DATA
  6
CONTINUOUS
 62
     7
 10
5.5499999996999758
 20
27.75
 30
0.0
 11
5.5499999996999758
 21
14.45000000000004
 31
0.0
  0
LINE
  5
29A
  8
DATA
  6
CONTINUOUS
 62
     7
 10
5.5499999996999758
 20
14.45000000000004
 30
0.0
 11
21.249999999699909
 21
14.45000000000004
 31
0.0
  0
LINE
  5
29B
  8
DATA
  6
CONTINUOUS
 62
     7
 10
5.5499999996999758
 20
27.75
 30
0.0
 11
21.249999999699909
 21
27.75
 31
0.0
  0
LINE
  5
29C
  8
DATA
  6
CONTINUOUS
 62
     7
 10
7.2499999996999067
 20
24.750000000000028
 30
0.0
 11
19.549999999699981
 21
24.750000000000028
 31
0.0
  0
LINE
  5
29D
  8
DATA
  6
CONTINUOUS
 62
     7
 10
7.2499999996999067
 20
24.750000000000028
 30
0.0
 11
7.2499999996999067
 21
17.450000000000038
 31
0.0
  0
LINE
  5
29E
  8
DATA
  6
CONTINUOUS
 62
     7
 10
19.549999999699981
 20
24.750000000000028
 30
0.0
 11
19.549999999699981
 21
17.450000000000038
 31
0.0
  0
LINE
  5
29F
  8
DATA
  6
CONTINUOUS
 62
     7
 10
11.17499999969997
 20
14.45000000000004
 30
0.0
 11
11.17499999969997
 21
15.95000000000004
 31
0.0
  0
LINE
  5
2A0
  8
DATA
  6
CONTINUOUS
 62
     7
 10
15.624999999699909
 20
15.95000000000004
 30
0.0
 11
15.624999999699909
 21
14.45000000000004
 31
0.0
  0
LINE
  5
2A1
  8
DATA
  6
CONTINUOUS
 62
     7
 10
10.04999999969997
 20
15.95000000000004
 30
0.0
 11
11.17499999969997
 21
15.95000000000004
 31
0.0
  0
LINE
  5
2A2
  8
DATA
  6
CONTINUOUS
 62
     7
 10
15.624999999699909
 20
15.95000000000004
 30
0.0
 11
16.749999999699899
 21
15.95000000000004
 31
0.0
  0
LINE
  5
2A3
  8
DATA
  6
CONTINUOUS
 62
     7
 10
7.2499999996999067
 20
17.450000000000038
 30
0.0
 11
10.04999999969997
 21
17.450000000000038
 31
0.0
  0
LINE
  5
2A4
  8
DATA
  6
CONTINUOUS
 62
     7
 10
16.749999999699899
 20
17.450000000000038
 30
0.0
 11
19.549999999699981
 21
17.450000000000038
 31
0.0
  0
LINE
  5
2A5
  8
DATA
  6
CONTINUOUS
 62
     7
 10
10.04999999969997
 20
15.95000000000004
 30
0.0
 11
10.04999999969997
 21
17.450000000000038
 31
0.0
  0
LINE
  5
2A6
  8
DATA
  6
CONTINUOUS
 62
     7
 10
16.749999999699899
 20
17.450000000000038
 30
0.0
 11
16.749999999699899
 21
15.95000000000004
 31
0.0
  0
CIRCLE
  5
2A7
  8
DATA
  6
CONTINUOUS
 62
     7
 10
-130.98273625048799
 20
21.751165760471221
 30
0.0
 40
1.17500000000001
  0
POLYLINE
  5
2A8
  8
DATA
  6
CONTINUOUS
 62
     7
 66
     1
 10
0.0
 20
0.0
 30
0.0
 70
     1
  0
VERTEX
  5
998
  8
DATA
  6
CONTINUOUS
 62
     7
 10
-130.98273625048799
 20
19.051165760471399
 30
0.0
  0
VERTEX
  5
999
  8
DATA
  6
CONTINUOUS
 62
     7
 10
-128.64446766027029
 20
20.401165760471368
 30
0.0
  0
VERTEX
  5
99A
  8
DATA
  6
CONTINUOUS
 62
     7
 10
-128.64446766027029
 20
23.101165760471019
 30
0.0
  0
VERTEX
  5
99B
  8
DATA
  6
CONTINUOUS
 62
     7
 10
-130.98273625048799
 20
24.451165760470978
 30
0.0
  0
VERTEX
  5
99C
  8
DATA
  6
CONTINUOUS
 62
     7
 10
-133.321004840706
 20
23.101165760471019
 30
0.0
  0
VERTEX
  5
99D
  8
DATA
  6
CONTINUOUS
 62
     7
 10
-133.321004840706
 20
20.401165760471368
 30
0.0
  0
SEQEND
  5
99E
  8
DATA
  6
CONTINUOUS
 62
     7
  0
CIRCLE
  5
2B1
  8
DATA
  6
CONTINUOUS
 62
     7
 10
-105.9827362504879
 20
21.751165760471221
 30
0.0
 40
1.1750000000000671
  0
POLYLINE
  5
2B2
  8
DATA
  6
CONTINUOUS
 62
     7
 66
     1
 10
0.0
 20
0.0
 30
0.0
 70
     1
  0
VERTEX
  5
99F
  8
DATA
  6
CONTINUOUS
 62
     7
 10
-105.9827362504879
 20
19.051165760471399
 30
0.0
  0
VERTEX
  5
9A0
  8
DATA
  6
CONTINUOUS
 62
     7
 10
-103.6444676602701
 20
20.401165760471368
 30
0.0
  0
VERTEX
  5
9A1
  8
DATA
  6
CONTINUOUS
 62
     7
 10
-103.6444676602701
 20
23.101165760471019
 30
0.0
  0
VERTEX
  5
9A2
  8
DATA
  6
CONTINUOUS
 62
     7
 10
-105.9827362504879
 20
24.451165760470978
 30
0.0
  0
VERTEX
  5
9A3
  8
DATA
  6
CONTINUOUS
 62
     7
 10
-108.321004840706
 20
23.101165760471019
 30
0.0
  0
VERTEX
  5
9A4
  8
DATA
  6
CONTINUOUS
 62
     7
 10
-108.321004840706
 20
20.401165760471368
 30
0.0
  0
SEQEND
  5
9A5
  8
DATA
  6
CONTINUOUS
 62
     7
  0
LINE
  5
2BB
  8
DATA
  6
CONTINUOUS
 62
     7
 10
-124.0844994606767
 20
25.75116576047111
 30
0.0
 11
-112.88097304029949
 21
25.75116576047111
 31
0.0
  0
LINE
  5
2BC
  8
DATA
  6
CONTINUOUS
 62
     7
 10
-112.06847304029959
 20
17.751165760471391
 30
0.0
 11
-124.8969994606767
 21
17.751165760471391
 31
0.0
  0
LINE
  5
2BD
  8
DATA
  6
CONTINUOUS
 62
     7
 10
-111.49775619304801
 20
24.56729339285409
 30
0.0
 11
-110.68525619304801
 21
19.367293392854432
 31
0.0
  0
LINE
  5
2BE
  8
DATA
  6
CONTINUOUS
 62
     7
 10
-126.2802163079283
 20
19.367293392854432
 30
0.0
 11
-125.4677163079283
 21
24.56729339285409
 31
0.0
  0
CIRCLE
  5
2BF
  8
DATA
  6
CONTINUOUS
 62
     7
 10
-118.4561064800132
 20
20.11485758931769
 30
0.0
 40
0.5
  0
ARC
  5
2C0
  8
DATA
  6
CONTINUOUS
 62
     7
 10
-112.06847304029959
 20
19.151165760471368
 30
0.0
 40
1.399999999999977
 50
270.0
 51
8.8806591505205574
  0
ARC
  5
2C1
  8
DATA
  6
CONTINUOUS
 62
     7
 10
-124.8969994606767
 20
19.151165760471368
 30
0.0
 40
1.400000000000019
 50
171.1193408494795
 51
270.0
  0
ARC
  5
2C2
  8
DATA
  6
CONTINUOUS
 62
     7
 10
-112.88097304029949
 20
24.351165760470959
 30
0.0
 40
1.4000000000000281
 50
8.8806591505228312
 51
90.0
  0
ARC
  5
2C3
  8
DATA
  6
CONTINUOUS
 62
     7
 10
-124.0844994606767
 20
24.351165760470959
 30
0.0
 40
1.400000000000146
 50
90.0
 51
171.11934084947711
  0
CIRCLE
  5
2C4
  8
DATA
  6
CONTINUOUS
 62
     7
 10
-115.9561064800132
 20
20.11485758931769
 30
0.0
 40
0.5
  0
CIRCLE
  5
2C5
  8
DATA
  6
CONTINUOUS
 62
     7
 10
-113.4561064800132
 20
20.11485758931769
 30
0.0
 40
0.5
  0
CIRCLE
  5
2C6
  8
DATA
  6
CONTINUOUS
 62
     7
 10
-120.9561064800132
 20
20.11485758931769
 30
0.0
 40
0.5
  0
CIRCLE
  5
2C7
  8
DATA
  6
CONTINUOUS
 62
     7
 10
-123.4561064800132
 20
20.11485758931769
 30
0.0
 40
0.5
  0
CIRCLE
  5
2C8
  8
DATA
  6
CONTINUOUS
 62
     7
 10
-117.2605953039419
 20
23.73337800808002
 30
0.0
 40
0.5
  0
CIRCLE
  5
2C9
  8
DATA
  6
CONTINUOUS
 62
     7
 10
-114.7605953039419
 20
23.73337800808002
 30
0.0
 40
0.5
  0
CIRCLE
  5
2CA
  8
DATA
  6
CONTINUOUS
 62
     7
 10
-119.7605953039419
 20
23.73337800808002
 30
0.0
 40
0.5
  0
CIRCLE
  5
2CB
  8
DATA
  6
CONTINUOUS
 62
     7
 10
-122.2605953039419
 20
23.73337800808002
 30
0.0
 40
0.5
  0
CIRCLE
  5
2CC
  8
DATA
  6
CONTINUOUS
 62
     7
 10
-14.85899494018865
 20
23.824999999885112
 30
0.0
 40
1.1750000000000951
  0
POLYLINE
  5
2CD
  8
DATA
  6
CONTINUOUS
 62
     7
 66
     1
 10
0.0
 20
0.0
 30
0.0
 70
     1
  0
VERTEX
  5
9A6
  8
DATA
  6
CONTINUOUS
 62
     7
 10
-14.85899494018865
 20
21.124999999885119
 30
0.0
  0
VERTEX
  5
9A7
  8
DATA
  6
CONTINUOUS
 62
     7
 10
-12.52072634997073
 20
22.474999999885121
 30
0.0
  0
VERTEX
  5
9A8
  8
DATA
  6
CONTINUOUS
 62
     7
 10
-12.52072634997073
 20
25.17499999988511
 30
0.0
  0
VERTEX
  5
9A9
  8
DATA
  6
CONTINUOUS
 62
     7
 10
-14.85899494018865
 20
26.524999999885068
 30
0.0
  0
VERTEX
  5
9AA
  8
DATA
  6
CONTINUOUS
 62
     7
 10
-17.197263530406829
 20
25.17499999988511
 30
0.0
  0
VERTEX
  5
9AB
  8
DATA
  6
CONTINUOUS
 62
     7
 10
-17.197263530406829
 20
22.474999999885121
 30
0.0
  0
SEQEND
  5
9AC
  8
DATA
  6
CONTINUOUS
 62
     7
  0
CIRCLE
  5
2D6
  8
DATA
  6
CONTINUOUS
 62
     7
 10
-47.358994940189113
 20
23.824999999885112
 30
0.0
 40
1.1750000000000671
  0
POLYLINE
  5
2D7
  8
DATA
  6
CONTINUOUS
 62
     7
 66
     1
 10
0.0
 20
0.0
 30
0.0
 70
     1
  0
VERTEX
  5
9AD
  8
DATA
  6
CONTINUOUS
 62
     7
 10
-47.358994940189113
 20
21.124999999885119
 30
0.0
  0
VERTEX
  5
9AE
  8
DATA
  6
CONTINUOUS
 62
     7
 10
-45.02072634997117
 20
22.474999999885121
 30
0.0
  0
VERTEX
  5
9AF
  8
DATA
  6
CONTINUOUS
 62
     7
 10
-45.02072634997117
 20
25.17499999988511
 30
0.0
  0
VERTEX
  5
9B0
  8
DATA
  6
CONTINUOUS
 62
     7
 10
-47.358994940189113
 20
26.524999999885068
 30
0.0
  0
VERTEX
  5
9B1
  8
DATA
  6
CONTINUOUS
 62
     7
 10
-49.697263530407142
 20
25.17499999988511
 30
0.0
  0
VERTEX
  5
9B2
  8
DATA
  6
CONTINUOUS
 62
     7
 10
-49.697263530407142
 20
22.474999999885121
 30
0.0
  0
SEQEND
  5
9B3
  8
DATA
  6
CONTINUOUS
 62
     7
  0
LINE
  5
2E0
  8
DATA
  6
CONTINUOUS
 62
     7
 10
-20.159090052997339
 20
19.89999999988509
 30
0.0
 11
-42.05889982738092
 21
19.89999999988509
 31
0.0
  0
LINE
  5
2E1
  8
DATA
  6
CONTINUOUS
 62
     7
 10
-41.499982629928638
 20
27.749999999885091
 30
0.0
 11
-20.718007250449649
 21
27.749999999885091
 31
0.0
  0
POLYLINE
  5
2E2
  8
DATA
  6
CONTINUOUS
 62
     7
 66
     1
 10
0.0
 20
0.0
 30
0.0
 70
     1
  0
VERTEX
  5
9B4
  8
DATA
  6
CONTINUOUS
 62
     7
 10
-21.638928769009858
 20
24.589999999885091
 30
0.0
  0
VERTEX
  5
9B5
  8
DATA
  6
CONTINUOUS
 62
     7
 10
-20.108928769009839
 20
24.589999999885091
 30
0.0
  0
VERTEX
  5
9B6
  8
DATA
  6
CONTINUOUS
 62
     7
 10
-20.108928769009839
 20
23.059999999885122
 30
0.0
  0
VERTEX
  5
9B7
  8
DATA
  6
CONTINUOUS
 62
     7
 10
-21.638928769009858
 20
23.059999999885122
 30
0.0
  0
SEQEND
  5
9B8
  8
DATA
  6
CONTINUOUS
 62
     7
  0
POLYLINE
  5
2E9
  8
DATA
  6
CONTINUOUS
 62
     7
 66
     1
 10
0.0
 20
0.0
 30
0.0
 70
     1
  0
VERTEX
  5
9B9
  8
DATA
  6
CONTINUOUS
 62
     7
 10
-23.638928769009841
 20
24.589999999885091
 30
0.0
  0
VERTEX
  5
9BA
  8
DATA
  6
CONTINUOUS
 62
     7
 10
-22.108928769009861
 20
24.589999999885091
 30
0.0
  0
VERTEX
  5
9BB
  8
DATA
  6
CONTINUOUS
 62
     7
 10
-22.108928769009861
 20
23.059999999885122
 30
0.0
  0
VERTEX
  5
9BC
  8
DATA
  6
CONTINUOUS
 62
     7
 10
-23.638928769009841
 20
23.059999999885122
 30
0.0
  0
SEQEND
  5
9BD
  8
DATA
  6
CONTINUOUS
 62
     7
  0
POLYLINE
  5
2F0
  8
DATA
  6
CONTINUOUS
 62
     7
 66
     1
 10
0.0
 20
0.0
 30
0.0
 70
     1
  0
VERTEX
  5
9BE
  8
DATA
  6
CONTINUOUS
 62
     7
 10
-25.638928769009841
 20
24.589999999885091
 30
0.0
  0
VERTEX
  5
9BF
  8
DATA
  6
CONTINUOUS
 62
     7
 10
-24.108928769009839
 20
24.589999999885091
 30
0.0
  0
VERTEX
  5
9C0
  8
DATA
  6
CONTINUOUS
 62
     7
 10
-24.108928769009839
 20
23.059999999885122
 30
0.0
  0
VERTEX
  5
9C1
  8
DATA
  6
CONTINUOUS
 62
     7
 10
-25.638928769009841
 20
23.059999999885122
 30
0.0
  0
SEQEND
  5
9C2
  8
DATA
  6
CONTINUOUS
 62
     7
  0
POLYLINE
  5
2F7
  8
DATA
  6
CONTINUOUS
 62
     7
 66
     1
 10
0.0
 20
0.0
 30
0.0
 70
     1
  0
VERTEX
  5
9C3
  8
DATA
  6
CONTINUOUS
 62
     7
 10
-27.638928769009841
 20
24.589999999885091
 30
0.0
  0
VERTEX
  5
9C4
  8
DATA
  6
CONTINUOUS
 62
     7
 10
-26.108928769009839
 20
24.589999999885091
 30
0.0
  0
VERTEX
  5
9C5
  8
DATA
  6
CONTINUOUS
 62
     7
 10
-26.108928769009839
 20
23.059999999885122
 30
0.0
  0
VERTEX
  5
9C6
  8
DATA
  6
CONTINUOUS
 62
     7
 10
-27.638928769009841
 20
23.059999999885122
 30
0.0
  0
SEQEND
  5
9C7
  8
DATA
  6
CONTINUOUS
 62
     7
  0
POLYLINE
  5
2FE
  8
DATA
  6
CONTINUOUS
 62
     7
 66
     1
 10
0.0
 20
0.0
 30
0.0
 70
     1
  0
VERTEX
  5
9C8
  8
DATA
  6
CONTINUOUS
 62
     7
 10
-29.638928769009841
 20
24.589999999885091
 30
0.0
  0
VERTEX
  5
9C9
  8
DATA
  6
CONTINUOUS
 62
     7
 10
-28.108928769009839
 20
24.589999999885091
 30
0.0
  0
VERTEX
  5
9CA
  8
DATA
  6
CONTINUOUS
 62
     7
 10
-28.108928769009839
 20
23.059999999885122
 30
0.0
  0
VERTEX
  5
9CB
  8
DATA
  6
CONTINUOUS
 62
     7
 10
-29.638928769009841
 20
23.059999999885122
 30
0.0
  0
SEQEND
  5
9CC
  8
DATA
  6
CONTINUOUS
 62
     7
  0
POLYLINE
  5
305
  8
DATA
  6
CONTINUOUS
 62
     7
 66
     1
 10
0.0
 20
0.0
 30
0.0
 70
     1
  0
VERTEX
  5
9CD
  8
DATA
  6
CONTINUOUS
 62
     7
 10
-31.638928769009841
 20
24.589999999885091
 30
0.0
  0
VERTEX
  5
9CE
  8
DATA
  6
CONTINUOUS
 62
     7
 10
-30.108928769009839
 20
24.589999999885091
 30
0.0
  0
VERTEX
  5
9CF
  8
DATA
  6
CONTINUOUS
 62
     7
 10
-30.108928769009839
 20
23.059999999885122
 30
0.0
  0
VERTEX
  5
9D0
  8
DATA
  6
CONTINUOUS
 62
     7
 10
-31.638928769009841
 20
23.059999999885122
 30
0.0
  0
SEQEND
  5
9D1
  8
DATA
  6
CONTINUOUS
 62
     7
  0
POLYLINE
  5
30C
  8
DATA
  6
CONTINUOUS
 62
     7
 66
     1
 10
0.0
 20
0.0
 30
0.0
 70
     1
  0
VERTEX
  5
9D2
  8
DATA
  6
CONTINUOUS
 62
     7
 10
-33.638928769009837
 20
24.589999999885091
 30
0.0
  0
VERTEX
  5
9D3
  8
DATA
  6
CONTINUOUS
 62
     7
 10
-32.10892876900985
 20
24.589999999885091
 30
0.0
  0
VERTEX
  5
9D4
  8
DATA
  6
CONTINUOUS
 62
     7
 10
-32.10892876900985
 20
23.059999999885122
 30
0.0
  0
VERTEX
  5
9D5
  8
DATA
  6
CONTINUOUS
 62
     7
 10
-33.638928769009837
 20
23.059999999885122
 30
0.0
  0
SEQEND
  5
9D6
  8
DATA
  6
CONTINUOUS
 62
     7
  0
POLYLINE
  5
313
  8
DATA
  6
CONTINUOUS
 62
     7
 66
     1
 10
0.0
 20
0.0
 30
0.0
 70
     1
  0
VERTEX
  5
9D7
  8
DATA
  6
CONTINUOUS
 62
     7
 10
-35.638928769009851
 20
24.589999999885091
 30
0.0
  0
VERTEX
  5
9D8
  8
DATA
  6
CONTINUOUS
 62
     7
 10
-34.108928769009843
 20
24.589999999885091
 30
0.0
  0
VERTEX
  5
9D9
  8
DATA
  6
CONTINUOUS
 62
     7
 10
-34.108928769009843
 20
23.059999999885122
 30
0.0
  0
VERTEX
  5
9DA
  8
DATA
  6
CONTINUOUS
 62
     7
 10
-35.638928769009851
 20
23.059999999885122
 30
0.0
  0
SEQEND
  5
9DB
  8
DATA
  6
CONTINUOUS
 62
     7
  0
POLYLINE
  5
31A
  8
DATA
  6
CONTINUOUS
 62
     7
 66
     1
 10
0.0
 20
0.0
 30
0.0
 70
     1
  0
VERTEX
  5
9DC
  8
DATA
  6
CONTINUOUS
 62
     7
 10
-21.638928769009858
 20
22.589999999885091
 30
0.0
  0
VERTEX
  5
9DD
  8
DATA
  6
CONTINUOUS
 62
     7
 10
-20.108928769009839
 20
22.589999999885091
 30
0.0
  0
VERTEX
  5
9DE
  8
DATA
  6
CONTINUOUS
 62
     7
 10
-20.108928769009839
 20
21.059999999885122
 30
0.0
  0
VERTEX
  5
9DF
  8
DATA
  6
CONTINUOUS
 62
     7
 10
-21.638928769009858
 20
21.059999999885122
 30
0.0
  0
SEQEND
  5
9E0
  8
DATA
  6
CONTINUOUS
 62
     7
  0
POLYLINE
  5
321
  8
DATA
  6
CONTINUOUS
 62
     7
 66
     1
 10
0.0
 20
0.0
 30
0.0
 70
     1
  0
VERTEX
  5
9E1
  8
DATA
  6
CONTINUOUS
 62
     7
 10
-23.638928769009841
 20
22.589999999885091
 30
0.0
  0
VERTEX
  5
9E2
  8
DATA
  6
CONTINUOUS
 62
     7
 10
-22.108928769009861
 20
22.589999999885091
 30
0.0
  0
VERTEX
  5
9E3
  8
DATA
  6
CONTINUOUS
 62
     7
 10
-22.108928769009861
 20
21.059999999885122
 30
0.0
  0
VERTEX
  5
9E4
  8
DATA
  6
CONTINUOUS
 62
     7
 10
-23.638928769009841
 20
21.059999999885122
 30
0.0
  0
SEQEND
  5
9E5
  8
DATA
  6
CONTINUOUS
 62
     7
  0
POLYLINE
  5
328
  8
DATA
  6
CONTINUOUS
 62
     7
 66
     1
 10
0.0
 20
0.0
 30
0.0
 70
     1
  0
VERTEX
  5
9E6
  8
DATA
  6
CONTINUOUS
 62
     7
 10
-25.638928769009841
 20
22.589999999885091
 30
0.0
  0
VERTEX
  5
9E7
  8
DATA
  6
CONTINUOUS
 62
     7
 10
-24.108928769009839
 20
22.589999999885091
 30
0.0
  0
VERTEX
  5
9E8
  8
DATA
  6
CONTINUOUS
 62
     7
 10
-24.108928769009839
 20
21.059999999885122
 30
0.0
  0
VERTEX
  5
9E9
  8
DATA
  6
CONTINUOUS
 62
     7
 10
-25.638928769009841
 20
21.059999999885122
 30
0.0
  0
SEQEND
  5
9EA
  8
DATA
  6
CONTINUOUS
 62
     7
  0
POLYLINE
  5
32F
  8
DATA
  6
CONTINUOUS
 62
     7
 66
     1
 10
0.0
 20
0.0
 30
0.0
 70
     1
  0
VERTEX
  5
9EB
  8
DATA
  6
CONTINUOUS
 62
     7
 10
-27.638928769009841
 20
22.589999999885091
 30
0.0
  0
VERTEX
  5
9EC
  8
DATA
  6
CONTINUOUS
 62
     7
 10
-26.108928769009839
 20
22.589999999885091
 30
0.0
  0
VERTEX
  5
9ED
  8
DATA
  6
CONTINUOUS
 62
     7
 10
-26.108928769009839
 20
21.059999999885122
 30
0.0
  0
VERTEX
  5
9EE
  8
DATA
  6
CONTINUOUS
 62
     7
 10
-27.638928769009841
 20
21.059999999885122
 30
0.0
  0
SEQEND
  5
9EF
  8
DATA
  6
CONTINUOUS
 62
     7
  0
POLYLINE
  5
336
  8
DATA
  6
CONTINUOUS
 62
     7
 66
     1
 10
0.0
 20
0.0
 30
0.0
 70
     1
  0
VERTEX
  5
9F0
  8
DATA
  6
CONTINUOUS
 62
     7
 10
-29.638928769009841
 20
22.589999999885091
 30
0.0
  0
VERTEX
  5
9F1
  8
DATA
  6
CONTINUOUS
 62
     7
 10
-28.108928769009839
 20
22.589999999885091
 30
0.0
  0
VERTEX
  5
9F2
  8
DATA
  6
CONTINUOUS
 62
     7
 10
-28.108928769009839
 20
21.059999999885122
 30
0.0
  0
VERTEX
  5
9F3
  8
DATA
  6
CONTINUOUS
 62
     7
 10
-29.638928769009841
 20
21.059999999885122
 30
0.0
  0
SEQEND
  5
9F4
  8
DATA
  6
CONTINUOUS
 62
     7
  0
POLYLINE
  5
33D
  8
DATA
  6
CONTINUOUS
 62
     7
 66
     1
 10
0.0
 20
0.0
 30
0.0
 70
     1
  0
VERTEX
  5
9F5
  8
DATA
  6
CONTINUOUS
 62
     7
 10
-31.638928769009841
 20
22.589999999885091
 30
0.0
  0
VERTEX
  5
9F6
  8
DATA
  6
CONTINUOUS
 62
     7
 10
-30.108928769009839
 20
22.589999999885091
 30
0.0
  0
VERTEX
  5
9F7
  8
DATA
  6
CONTINUOUS
 62
     7
 10
-30.108928769009839
 20
21.059999999885122
 30
0.0
  0
VERTEX
  5
9F8
  8
DATA
  6
CONTINUOUS
 62
     7
 10
-31.638928769009841
 20
21.059999999885122
 30
0.0
  0
SEQEND
  5
9F9
  8
DATA
  6
CONTINUOUS
 62
     7
  0
POLYLINE
  5
344
  8
DATA
  6
CONTINUOUS
 62
     7
 66
     1
 10
0.0
 20
0.0
 30
0.0
 70
     1
  0
VERTEX
  5
9FA
  8
DATA
  6
CONTINUOUS
 62
     7
 10
-33.638928769009837
 20
22.589999999885091
 30
0.0
  0
VERTEX
  5
9FB
  8
DATA
  6
CONTINUOUS
 62
     7
 10
-32.10892876900985
 20
22.589999999885091
 30
0.0
  0
VERTEX
  5
9FC
  8
DATA
  6
CONTINUOUS
 62
     7
 10
-32.10892876900985
 20
21.059999999885122
 30
0.0
  0
VERTEX
  5
9FD
  8
DATA
  6
CONTINUOUS
 62
     7
 10
-33.638928769009837
 20
21.059999999885122
 30
0.0
  0
SEQEND
  5
9FE
  8
DATA
  6
CONTINUOUS
 62
     7
  0
POLYLINE
  5
34B
  8
DATA
  6
CONTINUOUS
 62
     7
 66
     1
 10
0.0
 20
0.0
 30
0.0
 70
     1
  0
VERTEX
  5
9FF
  8
DATA
  6
CONTINUOUS
 62
     7
 10
-35.638928769009851
 20
22.589999999885091
 30
0.0
  0
VERTEX
  5
A00
  8
DATA
  6
CONTINUOUS
 62
     7
 10
-34.108928769009843
 20
22.589999999885091
 30
0.0
  0
VERTEX
  5
A01
  8
DATA
  6
CONTINUOUS
 62
     7
 10
-34.108928769009843
 20
21.059999999885122
 30
0.0
  0
VERTEX
  5
A02
  8
DATA
  6
CONTINUOUS
 62
     7
 10
-35.638928769009851
 20
21.059999999885122
 30
0.0
  0
SEQEND
  5
A03
  8
DATA
  6
CONTINUOUS
 62
     7
  0
POLYLINE
  5
352
  8
DATA
  6
CONTINUOUS
 62
     7
 66
     1
 10
0.0
 20
0.0
 30
0.0
 70
     1
  0
VERTEX
  5
A04
  8
DATA
  6
CONTINUOUS
 62
     7
 10
-21.638928769009858
 20
26.58999999988513
 30
0.0
  0
VERTEX
  5
A05
  8
DATA
  6
CONTINUOUS
 62
     7
 10
-20.108928769009839
 20
26.58999999988513
 30
0.0
  0
VERTEX
  5
A06
  8
DATA
  6
CONTINUOUS
 62
     7
 10
-20.108928769009839
 20
25.059999999885122
 30
0.0
  0
VERTEX
  5
A07
  8
DATA
  6
CONTINUOUS
 62
     7
 10
-21.638928769009858
 20
25.059999999885122
 30
0.0
  0
SEQEND
  5
A08
  8
DATA
  6
CONTINUOUS
 62
     7
  0
POLYLINE
  5
359
  8
DATA
  6
CONTINUOUS
 62
     7
 66
     1
 10
0.0
 20
0.0
 30
0.0
 70
     1
  0
VERTEX
  5
A09
  8
DATA
  6
CONTINUOUS
 62
     7
 10
-23.638928769009841
 20
26.58999999988513
 30
0.0
  0
VERTEX
  5
A0A
  8
DATA
  6
CONTINUOUS
 62
     7
 10
-22.108928769009861
 20
26.58999999988513
 30
0.0
  0
VERTEX
  5
A0B
  8
DATA
  6
CONTINUOUS
 62
     7
 10
-22.108928769009861
 20
25.059999999885122
 30
0.0
  0
VERTEX
  5
A0C
  8
DATA
  6
CONTINUOUS
 62
     7
 10
-23.638928769009841
 20
25.059999999885122
 30
0.0
  0
SEQEND
  5
A0D
  8
DATA
  6
CONTINUOUS
 62
     7
  0
POLYLINE
  5
360
  8
DATA
  6
CONTINUOUS
 62
     7
 66
     1
 10
0.0
 20
0.0
 30
0.0
 70
     1
  0
VERTEX
  5
A0E
  8
DATA
  6
CONTINUOUS
 62
     7
 10
-25.638928769009841
 20
26.58999999988513
 30
0.0
  0
VERTEX
  5
A0F
  8
DATA
  6
CONTINUOUS
 62
     7
 10
-24.108928769009839
 20
26.58999999988513
 30
0.0
  0
VERTEX
  5
A10
  8
DATA
  6
CONTINUOUS
 62
     7
 10
-24.108928769009839
 20
25.059999999885122
 30
0.0
  0
VERTEX
  5
A11
  8
DATA
  6
CONTINUOUS
 62
     7
 10
-25.638928769009841
 20
25.059999999885122
 30
0.0
  0
SEQEND
  5
A12
  8
DATA
  6
CONTINUOUS
 62
     7
  0
POLYLINE
  5
367
  8
DATA
  6
CONTINUOUS
 62
     7
 66
     1
 10
0.0
 20
0.0
 30
0.0
 70
     1
  0
VERTEX
  5
A13
  8
DATA
  6
CONTINUOUS
 62
     7
 10
-27.638928769009841
 20
26.58999999988513
 30
0.0
  0
VERTEX
  5
A14
  8
DATA
  6
CONTINUOUS
 62
     7
 10
-26.108928769009839
 20
26.58999999988513
 30
0.0
  0
VERTEX
  5
A15
  8
DATA
  6
CONTINUOUS
 62
     7
 10
-26.108928769009839
 20
25.059999999885122
 30
0.0
  0
VERTEX
  5
A16
  8
DATA
  6
CONTINUOUS
 62
     7
 10
-27.638928769009841
 20
25.059999999885122
 30
0.0
  0
SEQEND
  5
A17
  8
DATA
  6
CONTINUOUS
 62
     7
  0
POLYLINE
  5
36E
  8
DATA
  6
CONTINUOUS
 62
     7
 66
     1
 10
0.0
 20
0.0
 30
0.0
 70
     1
  0
VERTEX
  5
A18
  8
DATA
  6
CONTINUOUS
 62
     7
 10
-29.638928769009841
 20
26.58999999988513
 30
0.0
  0
VERTEX
  5
A19
  8
DATA
  6
CONTINUOUS
 62
     7
 10
-28.108928769009839
 20
26.58999999988513
 30
0.0
  0
VERTEX
  5
A1A
  8
DATA
  6
CONTINUOUS
 62
     7
 10
-28.108928769009839
 20
25.059999999885122
 30
0.0
  0
VERTEX
  5
A1B
  8
DATA
  6
CONTINUOUS
 62
     7
 10
-29.638928769009841
 20
25.059999999885122
 30
0.0
  0
SEQEND
  5
A1C
  8
DATA
  6
CONTINUOUS
 62
     7
  0
POLYLINE
  5
375
  8
DATA
  6
CONTINUOUS
 62
     7
 66
     1
 10
0.0
 20
0.0
 30
0.0
 70
     1
  0
VERTEX
  5
A1D
  8
DATA
  6
CONTINUOUS
 62
     7
 10
-31.638928769009841
 20
26.58999999988513
 30
0.0
  0
VERTEX
  5
A1E
  8
DATA
  6
CONTINUOUS
 62
     7
 10
-30.108928769009839
 20
26.58999999988513
 30
0.0
  0
VERTEX
  5
A1F
  8
DATA
  6
CONTINUOUS
 62
     7
 10
-30.108928769009839
 20
25.059999999885122
 30
0.0
  0
VERTEX
  5
A20
  8
DATA
  6
CONTINUOUS
 62
     7
 10
-31.638928769009841
 20
25.059999999885122
 30
0.0
  0
SEQEND
  5
A21
  8
DATA
  6
CONTINUOUS
 62
     7
  0
POLYLINE
  5
37C
  8
DATA
  6
CONTINUOUS
 62
     7
 66
     1
 10
0.0
 20
0.0
 30
0.0
 70
     1
  0
VERTEX
  5
A22
  8
DATA
  6
CONTINUOUS
 62
     7
 10
-33.638928769009837
 20
26.58999999988513
 30
0.0
  0
VERTEX
  5
A23
  8
DATA
  6
CONTINUOUS
 62
     7
 10
-32.10892876900985
 20
26.58999999988513
 30
0.0
  0
VERTEX
  5
A24
  8
DATA
  6
CONTINUOUS
 62
     7
 10
-32.10892876900985
 20
25.059999999885122
 30
0.0
  0
VERTEX
  5
A25
  8
DATA
  6
CONTINUOUS
 62
     7
 10
-33.638928769009837
 20
25.059999999885122
 30
0.0
  0
SEQEND
  5
A26
  8
DATA
  6
CONTINUOUS
 62
     7
  0
POLYLINE
  5
383
  8
DATA
  6
CONTINUOUS
 62
     7
 66
     1
 10
0.0
 20
0.0
 30
0.0
 70
     1
  0
VERTEX
  5
A27
  8
DATA
  6
CONTINUOUS
 62
     7
 10
-35.638928769009851
 20
26.58999999988513
 30
0.0
  0
VERTEX
  5
A28
  8
DATA
  6
CONTINUOUS
 62
     7
 10
-34.108928769009843
 20
26.58999999988513
 30
0.0
  0
VERTEX
  5
A29
  8
DATA
  6
CONTINUOUS
 62
     7
 10
-34.108928769009843
 20
25.059999999885122
 30
0.0
  0
VERTEX
  5
A2A
  8
DATA
  6
CONTINUOUS
 62
     7
 10
-35.638928769009851
 20
25.059999999885122
 30
0.0
  0
SEQEND
  5
A2B
  8
DATA
  6
CONTINUOUS
 62
     7
  0
POLYLINE
  5
38A
  8
DATA
  6
CONTINUOUS
 62
     7
 66
     1
 10
0.0
 20
0.0
 30
0.0
  0
VERTEX
  5
A2C
  8
DATA
  6
CONTINUOUS
 62
     7
 10
-39.65899494018926
 20
23.42499999988511
 30
0.0
  0
VERTEX
  5
A2D
  8
DATA
  6
CONTINUOUS
 62
     7
 10
-41.758994940189247
 20
23.42499999988511
 30
0.0
  0
VERTEX
  5
A2E
  8
DATA
  6
CONTINUOUS
 62
     7
 10
-41.758994940189247
 20
24.224999999885121
 30
0.0
  0
VERTEX
  5
A2F
  8
DATA
  6
CONTINUOUS
 62
     7
 10
-39.65899494018926
 20
24.224999999885121
 30
0.0
  0
SEQEND
  5
A30
  8
DATA
  6
CONTINUOUS
 62
     7
  0
POLYLINE
  5
391
  8
DATA
  6
CONTINUOUS
 62
     7
 66
     1
 10
0.0
 20
0.0
 30
0.0
  0
VERTEX
  5
A31
  8
DATA
  6
CONTINUOUS
 62
     7
 10
-38.858994940189248
 20
24.224999999885121
 30
0.0
  0
VERTEX
  5
A32
  8
DATA
  6
CONTINUOUS
 62
     7
 10
-36.758994940189233
 20
24.224999999885121
 30
0.0
  0
VERTEX
  5
A33
  8
DATA
  6
CONTINUOUS
 62
     7
 10
-36.758994940189233
 20
23.42499999988511
 30
0.0
  0
VERTEX
  5
A34
  8
DATA
  6
CONTINUOUS
 62
     7
 10
-38.858994940189248
 20
23.42499999988511
 30
0.0
  0
SEQEND
  5
A35
  8
DATA
  6
CONTINUOUS
 62
     7
  0
POLYLINE
  5
398
  8
DATA
  6
CONTINUOUS
 62
     7
 66
     1
 10
0.0
 20
0.0
 30
0.0
  0
VERTEX
  5
A36
  8
DATA
  6
CONTINUOUS
 62
     7
 10
-39.65899494018926
 20
24.224999999885121
 30
0.0
  0
VERTEX
  5
A37
  8
DATA
  6
CONTINUOUS
 62
     7
 10
-39.65899494018926
 20
26.324999999885112
 30
0.0
  0
VERTEX
  5
A38
  8
DATA
  6
CONTINUOUS
 62
     7
 10
-38.858994940189248
 20
26.324999999885112
 30
0.0
  0
VERTEX
  5
A39
  8
DATA
  6
CONTINUOUS
 62
     7
 10
-38.858994940189248
 20
24.224999999885121
 30
0.0
  0
SEQEND
  5
A3A
  8
DATA
  6
CONTINUOUS
 62
     7
  0
POLYLINE
  5
39F
  8
DATA
  6
CONTINUOUS
 62
     7
 66
     1
 10
0.0
 20
0.0
 30
0.0
  0
VERTEX
  5
A3B
  8
DATA
  6
CONTINUOUS
 62
     7
 10
-38.858994940189248
 20
23.42499999988511
 30
0.0
  0
VERTEX
  5
A3C
  8
DATA
  6
CONTINUOUS
 62
     7
 10
-38.858994940189248
 20
21.324999999885112
 30
0.0
  0
VERTEX
  5
A3D
  8
DATA
  6
CONTINUOUS
 62
     7
 10
-39.65899494018926
 20
21.324999999885112
 30
0.0
  0
VERTEX
  5
A3E
  8
DATA
  6
CONTINUOUS
 62
     7
 10
-39.65899494018926
 20
23.42499999988511
 30
0.0
  0
SEQEND
  5
A3F
  8
DATA
  6
CONTINUOUS
 62
     7
  0
POLYLINE
  5
3A6
  8
DATA
  6
CONTINUOUS
 62
     7
 66
     1
 10
0.0
 20
0.0
 30
0.0
 70
     1
  0
VERTEX
  5
A40
  8
DATA
  6
CONTINUOUS
 62
     7
 10
-38.39871050971751
 20
23.065572189235191
 30
0.0
  0
VERTEX
  5
A41
  8
DATA
  6
CONTINUOUS
 62
     7
 10
-37.39871050971751
 20
23.065572189235191
 30
0.0
  0
VERTEX
  5
A42
  8
DATA
  6
CONTINUOUS
 62
     7
 10
-37.39871050971751
 20
22.06557218923518
 30
0.0
  0
VERTEX
  5
A43
  8
DATA
  6
CONTINUOUS
 62
     7
 10
-38.39871050971751
 20
22.06557218923518
 30
0.0
  0
SEQEND
  5
A44
  8
DATA
  6
CONTINUOUS
 62
     7
  0
POLYLINE
  5
3AD
  8
DATA
  6
CONTINUOUS
 62
     7
 66
     1
 10
0.0
 20
0.0
 30
0.0
 70
     1
  0
VERTEX
  5
A45
  8
DATA
  6
CONTINUOUS
 62
     7
 10
-41.119279370660983
 20
23.065572189235191
 30
0.0
  0
VERTEX
  5
A46
  8
DATA
  6
CONTINUOUS
 62
     7
 10
-40.119279370660962
 20
23.065572189235191
 30
0.0
  0
VERTEX
  5
A47
  8
DATA
  6
CONTINUOUS
 62
     7
 10
-40.119279370660962
 20
22.06557218923518
 30
0.0
  0
VERTEX
  5
A48
  8
DATA
  6
CONTINUOUS
 62
     7
 10
-41.119279370660983
 20
22.06557218923518
 30
0.0
  0
SEQEND
  5
A49
  8
DATA
  6
CONTINUOUS
 62
     7
  0
POLYLINE
  5
3B4
  8
DATA
  6
CONTINUOUS
 62
     7
 66
     1
 10
0.0
 20
0.0
 30
0.0
 70
     1
  0
VERTEX
  5
A4A
  8
DATA
  6
CONTINUOUS
 62
     7
 10
-38.39871050971751
 20
25.58442781053504
 30
0.0
  0
VERTEX
  5
A4B
  8
DATA
  6
CONTINUOUS
 62
     7
 10
-37.39871050971751
 20
25.58442781053504
 30
0.0
  0
VERTEX
  5
A4C
  8
DATA
  6
CONTINUOUS
 62
     7
 10
-37.39871050971751
 20
24.58442781053504
 30
0.0
  0
VERTEX
  5
A4D
  8
DATA
  6
CONTINUOUS
 62
     7
 10
-38.39871050971751
 20
24.58442781053504
 30
0.0
  0
SEQEND
  5
A4E
  8
DATA
  6
CONTINUOUS
 62
     7
  0
POLYLINE
  5
3BB
  8
DATA
  6
CONTINUOUS
 62
     7
 66
     1
 10
0.0
 20
0.0
 30
0.0
 70
     1
  0
VERTEX
  5
A4F
  8
DATA
  6
CONTINUOUS
 62
     7
 10
-41.119279370660983
 20
25.58442781053504
 30
0.0
  0
VERTEX
  5
A50
  8
DATA
  6
CONTINUOUS
 62
     7
 10
-40.119279370660962
 20
25.58442781053504
 30
0.0
  0
VERTEX
  5
A51
  8
DATA
  6
CONTINUOUS
 62
     7
 10
-40.119279370660962
 20
24.58442781053504
 30
0.0
  0
VERTEX
  5
A52
  8
DATA
  6
CONTINUOUS
 62
     7
 10
-41.119279370660983
 20
24.58442781053504
 30
0.0
  0
SEQEND
  5
A53
  8
DATA
  6
CONTINUOUS
 62
     7
  0
LINE
  5
3C2
  8
DATA
  6
CONTINUOUS
 62
     7
 10
-19.16362312224188
 20
20.995108305371311
 30
0.0
 11
-19.7225403196942
 21
26.84510830537133
 31
0.0
  0
LINE
  5
3C3
  8
DATA
  6
CONTINUOUS
 62
     7
 10
-43.054366758136311
 20
20.995108305371311
 30
0.0
 11
-42.495449560684037
 21
26.845108305371269
 31
0.0
  0
ARC
  5
3C4
  8
DATA
  6
CONTINUOUS
 62
     7
 10
-20.159090052997339
 20
20.899999999885061
 30
0.0
 40
0.9999999999999715
 50
270.0
 51
5.4575534851070957
  0
ARC
  5
3C5
  8
DATA
  6
CONTINUOUS
 62
     7
 10
-42.058899827380962
 20
20.89999999988509
 30
0.0
 40
0.9999999999999728
 50
174.5424465148939
 51
270.00000000000159
  0
ARC
  5
3C6
  8
DATA
  6
CONTINUOUS
 62
     7
 10
-20.718007250449681
 20
26.749999999885091
 30
0.0
 40
1.000000000000087
 50
5.4575534851070913
 51
89.99999999999838
  0
ARC
  5
3C7
  8
DATA
  6
CONTINUOUS
 62
     7
 10
-41.499982629928638
 20
26.749999999885091
 30
0.0
 40
1.0
 50
90.0
 51
174.54244651489569
  0
TEXT
  5
3C8
  8
DATA
 62
     7
 10
-21.81093592660109
 20
33.381075843543812
 30
0.0
 40
3.121945529513888
  1
DVI DL Out 
 50
180.0
 41
0.7
 11
-21.81093592660109
 21
30.259130314029921
 31
0.0
 73
     3
  0
TEXT
  5
3C9
  8
DATA
 62
     7
 10
18.616254049010529
 20
33.381075843543812
 30
0.0
 40
3.121945529513888
  1
LINK 1 
 50
180.0
 41
0.7
 11
18.616254049010529
 21
30.259130314029921
 31
0.0
 73
     3
  0
TEXT
  5
3CA
  8
DATA
 62
     7
 10
18.616254049010529
 20
10.999762358031409
 30
0.0
 40
3.121945529513888
  1
CAT-6 
 50
180.0
 41
0.7
 11
18.616254049010529
 21
7.8778168285175232
 31
0.0
 73
     3
  0
LINE
  5
3CB
  8
DATA
  6
CONTINUOUS
 62
     7
 10
-66.750000000300091
 20
27.75
 30
0.0
 11
-66.750000000300091
 21
14.45000000000004
 31
0.0
  0
LINE
  5
3CC
  8
DATA
  6
CONTINUOUS
 62
     7
 10
-82.450000000299994
 20
27.75
 30
0.0
 11
-82.450000000299994
 21
14.45000000000004
 31
0.0
  0
LINE
  5
3CD
  8
DATA
  6
CONTINUOUS
 62
     7
 10
-82.450000000299994
 20
14.45000000000004
 30
0.0
 11
-66.750000000300091
 21
14.45000000000004
 31
0.0
  0
LINE
  5
3CE
  8
DATA
  6
CONTINUOUS
 62
     7
 10
-82.450000000299994
 20
27.75
 30
0.0
 11
-66.750000000300091
 21
27.75
 31
0.0
  0
LINE
  5
3CF
  8
DATA
  6
CONTINUOUS
 62
     7
 10
-80.750000000300091
 20
24.750000000000028
 30
0.0
 11
-68.450000000300022
 21
24.750000000000028
 31
0.0
  0
LINE
  5
3D0
  8
DATA
  6
CONTINUOUS
 62
     7
 10
-80.750000000300091
 20
24.750000000000028
 30
0.0
 11
-80.750000000300091
 21
17.450000000000038
 31
0.0
  0
LINE
  5
3D1
  8
DATA
  6
CONTINUOUS
 62
     7
 10
-68.450000000300022
 20
24.750000000000028
 30
0.0
 11
-68.450000000300022
 21
17.450000000000038
 31
0.0
  0
LINE
  5
3D2
  8
DATA
  6
CONTINUOUS
 62
     7
 10
-76.825000000300022
 20
14.45000000000004
 30
0.0
 11
-76.825000000300022
 21
15.95000000000004
 31
0.0
  0
LINE
  5
3D3
  8
DATA
  6
CONTINUOUS
 62
     7
 10
-72.375000000300091
 20
15.95000000000004
 30
0.0
 11
-72.375000000300091
 21
14.45000000000004
 31
0.0
  0
LINE
  5
3D4
  8
DATA
  6
CONTINUOUS
 62
     7
 10
-77.950000000300022
 20
15.95000000000004
 30
0.0
 11
-76.825000000300022
 21
15.95000000000004
 31
0.0
  0
LINE
  5
3D5
  8
DATA
  6
CONTINUOUS
 62
     7
 10
-72.375000000300091
 20
15.95000000000004
 30
0.0
 11
-71.250000000300091
 21
15.95000000000004
 31
0.0
  0
LINE
  5
3D6
  8
DATA
  6
CONTINUOUS
 62
     7
 10
-80.750000000300091
 20
17.450000000000038
 30
0.0
 11
-77.950000000300022
 21
17.450000000000038
 31
0.0
  0
LINE
  5
3D7
  8
DATA
  6
CONTINUOUS
 62
     7
 10
-71.250000000300091
 20
17.450000000000038
 30
0.0
 11
-68.450000000300022
 21
17.450000000000038
 31
0.0
  0
LINE
  5
3D8
  8
DATA
  6
CONTINUOUS
 62
     7
 10
-77.950000000300022
 20
15.95000000000004
 30
0.0
 11
-77.950000000300022
 21
17.450000000000038
 31
0.0
  0
LINE
  5
3D9
  8
DATA
  6
CONTINUOUS
 62
     7
 10
-71.250000000300091
 20
17.450000000000038
 30
0.0
 11
-71.250000000300091
 21
15.95000000000004
 31
0.0
  0
TEXT
  5
3DA
  8
DATA
 62
     7
 10
-69.383745950989479
 20
33.381075843543812
 30
0.0
 40
3.121945529513888
  1
LINK 2
 50
180.0
 41
0.7
 11
-69.383745950989479
 21
30.259130314029921
 31
0.0
 73
     3
  0
TEXT
  5
3DB
  8
DATA
 62
     7
 10
-69.383745950989479
 20
10.999762358031409
 30
0.0
 40
3.121945529513888
  1
CAT-6 
 50
180.0
 41
0.7
 11
-69.383745950989479
 21
7.8778168285175232
 31
0.0
 73
     3
  0
TEXT
  5
3DC
  8
DATA
 62
     7
 10
-109.77668149103781
 20
33.381075843543812
 30
0.0
 40
3.121945529513888
  1
RS232 Out
 50
180.0
 41
0.7
 11
-109.77668149103781
 21
30.259130314029921
 31
0.0
 73
     3
  0
CIRCLE
  5
3DD
  8
DATA
  6
CONTINUOUS
 62
     7
 10
-146.25
 20
19.25
 30
0.0
 40
3.9000000000000039
  0
POLYLINE
  5
3DE
  8
DATA
  6
CONTINUOUS
 62
     7
 66
     1
 10
0.0
 20
0.0
 30
0.0
 70
     1
  0
VERTEX
  5
A54
  8
DATA
  6
CONTINUOUS
 62
     7
 10
-145.88
 20
24.236291206899409
 30
0.0
  0
VERTEX
  5
A55
  8
DATA
  6
CONTINUOUS
 62
     7
 10
-150.3832548558419
 20
22.063575002849969
 30
0.0
  0
VERTEX
  5
A56
  8
DATA
  6
CONTINUOUS
 62
     7
 10
-150.7532548558419
 20
17.07728379595056
 30
0.0
  0
VERTEX
  5
A57
  8
DATA
  6
CONTINUOUS
 62
     7
 10
-146.62
 20
14.263708793100591
 30
0.0
  0
VERTEX
  5
A58
  8
DATA
  6
CONTINUOUS
 62
     7
 10
-142.11674514415819
 20
16.43642499715002
 30
0.0
  0
VERTEX
  5
A59
  8
DATA
  6
CONTINUOUS
 62
     7
 10
-141.7467451441581
 20
21.42271620404944
 30
0.0
  0
SEQEND
  5
A5A
  8
DATA
  6
CONTINUOUS
 62
     7
  0
CIRCLE
  5
3E7
  8
DATA
  6
CONTINUOUS
 62
     7
 10
-146.25
 20
19.25
 30
0.0
 40
1.0
  0
TEXT
  5
3E8
  8
DATA
 62
     7
 10
-141.1156929454157
 20
33.381075843543812
 30
0.0
 40
3.121945529513888
  1
5V DC
 50
180.0
 41
0.7
 11
-141.1156929454157
 21
30.259130314029921
 31
0.0
 73
     3
  0
ARC
  5
3E9
  8
DATA
  6
CONTINUOUS
 62
     7
 10
-167.25
 20
-159.5
 30
0.0
 40
1.5
 50
90.0
 51
180.0
  0
ARC
  5
3EA
  8
DATA
  6
CONTINUOUS
 62
     7
 10
43.749999999999993
 20
-159.5
 30
0.0
 40
1.5
 50
0.0
 51
90.0
  0
ARC
  5
3EB
  8
DATA
  6
CONTINUOUS
 62
     7
 10
-167.25
 20
-4.75
 30
0.0
 40
1.5
 50
180.0
 51
270.0
  0
ARC
  5
3EC
  8
DATA
  6
CONTINUOUS
 62
     7
 10
43.749999999999993
 20
-4.75
 30
0.0
 40
1.5
 50
270.0
 51
0.0
  0
LINE
  5
3ED
  8
DATA
  6
CONTINUOUS
 62
     7
 10
75.0
 20
-198.5
 30
0.0
 11
75.0
 21
-159.5
 31
0.0
  0
LINE
  5
3EE
  8
DATA
  6
CONTINUOUS
 62
     7
 10
182.5
 20
-200.0
 30
0.0
 11
76.5
 21
-200.0
 31
0.0
  0
LINE
  5
3EF
  8
DATA
  6
CONTINUOUS
 62
     7
 10
184.0
 20
-159.5
 30
0.0
 11
184.0
 21
-198.5
 31
0.0
  0
LINE
  5
3F0
  8
DATA
  6
CONTINUOUS
 62
     7
 10
76.5
 20
-158.0
 30
0.0
 11
182.5
 21
-158.0
 31
0.0
  0
CIRCLE
  5
3F1
  8
DATA
  6
CONTINUOUS
 62
     7
 10
84.0
 20
-190.0
 30
0.0
 40
2.5
  0
LINE
  5
3F2
  8
DATA
  6
CONTINUOUS
 62
     7
 10
82.75
 20
-190.0
 30
0.0
 11
85.25
 21
-190.0
 31
0.0
  0
LINE
  5
3F3
  8
DATA
  6
CONTINUOUS
 62
     7
 10
84.0
 20
-191.25
 30
0.0
 11
84.0
 21
-188.75
 31
0.0
  0
CIRCLE
  5
3F4
  8
DATA
  6
CONTINUOUS
 62
     7
 10
165.0
 20
-190.0
 30
0.0
 40
2.5
  0
LINE
  5
3F5
  8
DATA
  6
CONTINUOUS
 62
     7
 10
163.75
 20
-190.0
 30
0.0
 11
166.25
 21
-190.0
 31
0.0
  0
LINE
  5
3F6
  8
DATA
  6
CONTINUOUS
 62
     7
 10
165.0
 20
-191.25
 30
0.0
 11
165.0
 21
-188.75
 31
0.0
  0
LINE
  5
3F7
  8
DATA
  6
CONTINUOUS
 62
     7
 10
84.0
 20
-200.0
 30
0.0
 11
84.0
 21
-199.0
 31
0.0
  0
LINE
  5
3F8
  8
DATA
  6
CONTINUOUS
 62
     7
 10
84.0
 20
-159.0
 30
0.0
 11
84.0
 21
-158.0
 31
0.0
  0
LINE
  5
3F9
  8
DATA
  6
CONTINUOUS
 62
     7
 10
76.0
 20
-197.5
 30
0.0
 11
76.0
 21
-160.5
 31
0.0
  0
LINE
  5
3FA
  8
DATA
  6
CONTINUOUS
 62
     7
 10
84.0
 20
-159.0
 30
0.0
 11
77.5
 21
-159.0
 31
0.0
  0
LINE
  5
3FB
  8
DATA
  6
CONTINUOUS
 62
     7
 10
84.0
 20
-199.0
 30
0.0
 11
77.5
 21
-199.0
 31
0.0
  0
ARC
  5
3FC
  8
DATA
  6
CONTINUOUS
 62
     7
 10
77.5
 20
-160.5
 30
0.0
 40
1.5
 50
90.0
 51
180.0
  0
ARC
  5
3FD
  8
DATA
  6
CONTINUOUS
 62
     7
 10
76.5
 20
-159.5
 30
0.0
 40
1.5
 50
90.0
 51
180.0
  0
ARC
  5
3FE
  8
DATA
  6
CONTINUOUS
 62
     7
 10
77.5
 20
-197.5
 30
0.0
 40
1.5
 50
180.0
 51
270.0
  0
ARC
  5
3FF
  8
DATA
  6
CONTINUOUS
 62
     7
 10
76.5
 20
-198.5
 30
0.0
 40
1.5
 50
180.0
 51
270.0
  0
LINE
  5
400
  8
DATA
  6
CONTINUOUS
 62
     7
 10
183.0
 20
-159.0
 30
0.0
 11
183.0
 21
-197.5
 31
0.0
  0
LINE
  5
401
  8
DATA
  6
CONTINUOUS
 62
     7
 10
173.0
 20
-199.0
 30
0.0
 11
173.0
 21
-200.0
 31
0.0
  0
LINE
  5
402
  8
DATA
  6
CONTINUOUS
 62
     7
 10
173.0
 20
-199.0
 30
0.0
 11
181.5
 21
-199.0
 31
0.0
  0
ARC
  5
403
  8
DATA
  6
CONTINUOUS
 62
     7
 10
181.5
 20
-197.5
 30
0.0
 40
1.5
 50
270.0
 51
0.0
  0
ARC
  5
404
  8
DATA
  6
CONTINUOUS
 62
     7
 10
182.5
 20
-198.5
 30
0.0
 40
1.5
 50
270.0
 51
0.0
  0
ARC
  5
405
  8
DATA
  6
CONTINUOUS
 62
     7
 10
182.5
 20
-159.5
 30
0.0
 40
1.5
 50
0.0
 51
90.0
  0
LINE
  5
406
  8
DATA
  6
CONTINUOUS
 62
     7
 10
89.999999999999986
 20
-204.0
 30
0.0
 11
90.999999999999986
 21
-200.0
 31
0.0
  0
LINE
  5
407
  8
DATA
  6
CONTINUOUS
 62
     7
 10
79.999999999999986
 20
-204.0
 30
0.0
 11
78.999999999999986
 21
-200.0
 31
0.0
  0
LINE
  5
408
  8
DATA
  6
CONTINUOUS
 62
     7
 10
89.999999999999986
 20
-204.0
 30
0.0
 11
79.999999999999986
 21
-204.0
 31
0.0
  0
LINE
  5
409
  8
DATA
  6
CONTINUOUS
 62
     7
 10
168.0
 20
-204.0
 30
0.0
 11
169.0
 21
-200.0
 31
0.0
  0
LINE
  5
40A
  8
DATA
  6
CONTINUOUS
 62
     7
 10
158.0
 20
-204.0
 30
0.0
 11
157.0
 21
-200.0
 31
0.0
  0
LINE
  5
40B
  8
DATA
  6
CONTINUOUS
 62
     7
 10
168.0
 20
-204.0
 30
0.0
 11
158.0
 21
-204.0
 31
0.0
  0
ARC
  5
40C
  8
DATA
  6
CONTINUOUS
 62
     7
 10
75.356720053556572
 20
-187.0
 30
0.0
 40
1.4499999999999811
 50
104.24175583994101
 51
255.7582441600596
  0
LINE
  5
40D
  8
DATA
  6
CONTINUOUS
 62
     7
 10
5.5499999996999758
 20
-28.199999999999989
 30
0.0
 11
5.5499999996999758
 21
-28.5
 31
0.0
  0
LINE
  5
40E
  8
DATA
  6
CONTINUOUS
 62
     7
 10
21.249999999699909
 20
-28.199999999999989
 30
0.0
 11
21.249999999699909
 21
-28.5
 31
0.0
  0
LINE
  5
40F
  8
DATA
  6
CONTINUOUS
 62
     7
 10
2.6000000000000081
 20
-28.5
 30
0.0
 11
25.300000000000001
 21
-28.5
 31
0.0
  0
LINE
  5
410
  8
DATA
  6
CONTINUOUS
 62
     7
 10
5.5499999996999758
 20
-28.199999999999989
 30
0.0
 11
21.249999999699909
 21
-28.199999999999989
 31
0.0
  0
LINE
  5
411
  8
DATA
  6
CONTINUOUS
 62
     7
 10
-12.52072634997073
 20
-23.5
 30
0.0
 11
-17.197263530406829
 21
-23.5
 31
0.0
  0
LINE
  5
412
  8
DATA
  6
CONTINUOUS
 62
     7
 10
-19.163616464998071
 20
-23.5
 30
0.0
 11
-43.052260849559012
 21
-23.5
 31
0.0
  0
LINE
  5
413
  8
DATA
  6
CONTINUOUS
 62
     7
 10
-45.02072634997117
 20
-23.5
 30
0.0
 11
-49.697263530407142
 21
-23.5
 31
0.0
  0
LINE
  5
414
  8
DATA
  6
CONTINUOUS
 62
     7
 10
-49.697263530407142
 20
-23.5
 30
0.0
 11
-49.697263530407142
 21
-28.5
 31
0.0
  0
LINE
  5
415
  8
DATA
  6
CONTINUOUS
 62
     7
 10
-45.02072634997117
 20
-23.5
 30
0.0
 11
-45.02072634997117
 21
-28.5
 31
0.0
  0
LINE
  5
416
  8
DATA
  6
CONTINUOUS
 62
     7
 10
-17.197263530406829
 20
-23.5
 30
0.0
 11
-17.197263530406829
 21
-28.5
 31
0.0
  0
LINE
  5
417
  8
DATA
  6
CONTINUOUS
 62
     7
 10
-12.52072634997073
 20
-23.5
 30
0.0
 11
-12.52072634997073
 21
-28.5
 31
0.0
  0
LINE
  5
418
  8
DATA
  6
CONTINUOUS
 62
     7
 10
-43.052260849559012
 20
-23.5
 30
0.0
 11
-43.052260849559012
 21
-28.5
 31
0.0
  0
LINE
  5
419
  8
DATA
  6
CONTINUOUS
 62
     7
 10
-19.163616464998071
 20
-23.5
 30
0.0
 11
-19.163616464998071
 21
-28.5
 31
0.0
  0
LINE
  5
41A
  8
DATA
  6
CONTINUOUS
 62
     7
 10
-82.450000000299994
 20
-28.199999999999989
 30
0.0
 11
-82.450000000299994
 21
-28.5
 31
0.0
  0
LINE
  5
41B
  8
DATA
  6
CONTINUOUS
 62
     7
 10
-66.750000000300091
 20
-28.199999999999989
 30
0.0
 11
-66.750000000300091
 21
-28.5
 31
0.0
  0
LINE
  5
41C
  8
DATA
  6
CONTINUOUS
 62
     7
 10
-85.399999999999963
 20
-28.5
 30
0.0
 11
-62.700000000000003
 21
-28.5
 31
0.0
  0
LINE
  5
41D
  8
DATA
  6
CONTINUOUS
 62
     7
 10
-82.450000000299994
 20
-28.199999999999989
 30
0.0
 11
-66.750000000300091
 21
-28.199999999999989
 31
0.0
  0
LINE
  5
41E
  8
DATA
  6
CONTINUOUS
 62
     7
 10
-133.321004840706
 20
-23.5
 30
0.0
 11
-128.64446766027029
 21
-23.5
 31
0.0
  0
LINE
  5
41F
  8
DATA
  6
CONTINUOUS
 62
     7
 10
-126.2868864724956
 20
-23.5
 30
0.0
 11
-110.68400626052011
 21
-23.5
 31
0.0
  0
LINE
  5
420
  8
DATA
  6
CONTINUOUS
 62
     7
 10
-108.321004840706
 20
-23.5
 30
0.0
 11
-103.6444676602701
 21
-23.5
 31
0.0
  0
LINE
  5
421
  8
DATA
  6
CONTINUOUS
 62
     7
 10
-133.321004840706
 20
-23.5
 30
0.0
 11
-133.321004840706
 21
-28.5
 31
0.0
  0
LINE
  5
422
  8
DATA
  6
CONTINUOUS
 62
     7
 10
-128.64446766027029
 20
-23.5
 30
0.0
 11
-128.64446766027029
 21
-28.5
 31
0.0
  0
LINE
  5
423
  8
DATA
  6
CONTINUOUS
 62
     7
 10
-108.321004840706
 20
-23.5
 30
0.0
 11
-108.321004840706
 21
-28.5
 31
0.0
  0
LINE
  5
424
  8
DATA
  6
CONTINUOUS
 62
     7
 10
-103.6444676602701
 20
-23.5
 30
0.0
 11
-103.6444676602701
 21
-28.5
 31
0.0
  0
LINE
  5
425
  8
DATA
  6
CONTINUOUS
 62
     7
 10
-126.2868864724956
 20
-23.5
 30
0.0
 11
-126.2868864724956
 21
-28.5
 31
0.0
  0
LINE
  5
426
  8
DATA
  6
CONTINUOUS
 62
     7
 10
-110.68400626052011
 20
-23.5
 30
0.0
 11
-110.68400626052011
 21
-28.5
 31
0.0
  0
LINE
  5
427
  8
DATA
  6
CONTINUOUS
 62
     7
 10
-150.7532548558419
 20
-26.5
 30
0.0
 11
-150.7532548558419
 21
-28.5
 31
0.0
  0
LINE
  5
428
  8
DATA
  6
CONTINUOUS
 62
     7
 10
-150.15000000000001
 20
-22.5
 30
0.0
 11
-150.15000000000001
 21
-26.5
 31
0.0
  0
LINE
  5
429
  8
DATA
  6
CONTINUOUS
 62
     7
 10
-142.34999999999999
 20
-22.5
 30
0.0
 11
-142.34999999999999
 21
-26.5
 31
0.0
  0
LINE
  5
42A
  8
DATA
  6
CONTINUOUS
 62
     7
 10
-141.7467451441581
 20
-26.5
 30
0.0
 11
-141.7467451441581
 21
-28.5
 31
0.0
  0
LINE
  5
42B
  8
DATA
  6
CONTINUOUS
 62
     7
 10
-150.7532548558419
 20
-26.5
 30
0.0
 11
-141.7467451441581
 21
-26.5
 31
0.0
  0
LINE
  5
42C
  8
DATA
  6
CONTINUOUS
 62
     7
 10
-150.15000000000001
 20
-22.5
 30
0.0
 11
-142.34999999999999
 21
-22.5
 31
0.0
  0
LINE
  5
42D
  8
DATA
  6
CONTINUOUS
 62
     7
 10
-146.25
 20
-26.5
 30
0.0
 11
-146.25
 21
-28.5
 31
0.0
  0
LINE
  5
42E
  8
DATA
  6
CONTINUOUS
 62
     7
 10
189.0
 20
-192.0
 30
0.0
 11
184.0
 21
-192.0
 31
0.0
  0
LINE
  5
42F
  8
DATA
  6
CONTINUOUS
 62
     7
 10
189.0
 20
-184.30000000000001
 30
0.0
 11
184.30000000000001
 21
-184.30000000000001
 31
0.0
  0
LINE
  5
430
  8
DATA
  6
CONTINUOUS
 62
     7
 10
184.0
 20
-194.1895701396077
 30
0.0
 11
184.0
 21
-178.9351988714858
 31
0.0
  0
LINE
  5
431
  8
DATA
  6
CONTINUOUS
 62
     7
 10
189.0
 20
-192.0
 30
0.0
 11
189.0
 21
-184.30000000000001
 31
0.0
  0
LINE
  5
432
  8
DATA
  6
CONTINUOUS
 62
     7
 10
189.0
 20
-188.15000000000001
 30
0.0
 11
184.30000000000001
 21
-188.15000000000001
 31
0.0
  0
LINE
  5
433
  8
DATA
  6
CONTINUOUS
 62
     7
 10
189.0
 20
-190.55000000000001
 30
0.0
 11
184.30000000000001
 21
-190.55000000000001
 31
0.0
  0
LINE
  5
434
  8
DATA
  6
CONTINUOUS
 62
     7
 10
184.30000000000001
 20
-185.75
 30
0.0
 11
189.0
 21
-185.75
 31
0.0
  0
LINE
  5
435
  8
DATA
  6
CONTINUOUS
 62
     7
 10
184.30000000000001
 20
-178.69999999999999
 30
0.0
 11
184.0
 21
-178.69999999999999
 31
0.0
  0
LINE
  5
436
  8
DATA
  6
CONTINUOUS
 62
     7
 10
184.30000000000001
 20
-192.0
 30
0.0
 11
184.30000000000001
 21
-178.69999999999999
 31
0.0
  0
LINE
  5
437
  8
DATA
  6
CONTINUOUS
 62
     7
 10
191.80000000000001
 20
-186.5
 30
0.0
 11
189.0
 21
-186.5
 31
0.0
  0
LINE
  5
438
  8
DATA
  6
CONTINUOUS
 62
     7
 10
191.80000000000001
 20
-180.5
 30
0.0
 11
191.80000000000001
 21
-186.5
 31
0.0
  0
LINE
  5
439
  8
DATA
  6
CONTINUOUS
 62
     7
 10
184.0
 20
-180.5
 30
0.0
 11
191.80000000000001
 21
-180.5
 31
0.0
  0
TEXT
  5
43A
  8
DATA
 62
     7
 10
-153.64607766772599
 20
97.639689424845585
 30
0.0
 40
10.85894097222222
  1
EXT-DVI-2CAT6DLS(センダー）
 41
0.7
 11
-153.64607766772599
 21
108.4986303970678
 31
0.0
 73
     3
  0
LINE
  5
43B
  8
DATA
  6
CONTINUOUS
 62
     7
 10
-260.0
 20
62.5
 30
0.0
 11
460.0
 21
62.5
 31
0.0
  0
POLYLINE
  5
43C
  8
DATA
  6
CONTINUOUS
 62
     7
 66
     1
 10
0.0
 20
0.0
 30
0.0
 70
     1
  0
VERTEX
  5
A5B
  8
DATA
  6
CONTINUOUS
 62
     7
 10
-4.7500000000000142
 20
-182.0
 30
0.0
  0
VERTEX
  5
A5C
  8
DATA
  6
CONTINUOUS
 62
     7
 10
5.249999999999984
 20
-182.0
 30
0.0
  0
VERTEX
  5
A5D
  8
DATA
  6
CONTINUOUS
 62
     7
 10
5.249999999999984
 20
-192.0
 30
0.0
  0
VERTEX
  5
A5E
  8
DATA
  6
CONTINUOUS
 62
     7
 10
-4.7500000000000142
 20
-192.0
 30
0.0
  0
SEQEND
  5
A5F
  8
DATA
  6
CONTINUOUS
 62
     7
  0
CIRCLE
  5
443
  8
DATA
  6
CONTINUOUS
 62
     7
 10
0.2499999999999716
 20
-187.0
 30
0.0
 40
1.675000000000006
  0
TEXT
  5
444
  8
DATA
 62
     7
 10
-1.534783122762178
 20
-197.5928711757557
 30
0.0
 40
2.6061458333333318
  1
EQ
 41
0.7
 11
-1.534783122762178
 21
-194.9867253424224
 31
0.0
 73
     3
  0
LINE
  5
445
  8
DATA
  6
CONTINUOUS
 62
     7
 10
0.3867341293497049
 20
-188.66940970940871
 30
0.0
 11
-0.4662896251231672
 21
-185.4858817176528
 31
0.0
  0
LINE
  5
446
  8
DATA
  6
CONTINUOUS
 62
     7
 10
0.1132658706502667
 20
-185.33059029059129
 30
0.0
 11
0.9662896251231387
 21
-188.51411828234711
 31
0.0
  0
TEXT
  5
447
  8
DATA
 62
     7
 10
-0.0569842722035788
 20
-184.83610929809339
 30
0.0
 40
1.085894097222222
  1
2
 41
0.7
 11
-0.0569842722035787
 21
-183.7502152008712
 31
0.0
 73
     3
  0
TEXT
  5
448
  8
DATA
 62
     7
 10
0.6354882153849959
 20
-189.39199999999991
 30
0.0
 40
1.085894097222222
  1
6
 50
180.0
 41
0.7
 11
0.6354882153849957
 21
-190.47789409722211
 31
0.0
 73
     3
  0
TEXT
  5
449
  8
DATA
 62
     7
 10
-2.6729836828408362
 20
-187.55410204602279
 30
0.0
 40
1.085894097222222
  1
0
 41
0.7
 11
-2.6729836828408362
 21
-186.4682079488006
 31
0.0
 73
     3
  0
TEXT
  5
44A
  8
DATA
 62
     7
 10
2.5323626001324722
 20
-186.64250453254411
 30
0.0
 40
1.085894097222222
  1
4
 50
270.0
 41
0.7
 11
3.6182566973546941
 21
-186.64250453254411
 31
0.0
 73
     3
  0
TEXT
  5
44B
  8
DATA
 62
     7
 10
-1.7783825433269831
 20
-185.53733695936859
 30
0.0
 40
1.2347222222222221
  1
1
 41
0.7
 11
-1.7783825433269831
 21
-184.3026147371464
 31
0.0
 73
     3
  0
TEXT
  5
44C
  8
DATA
 62
     7
 10
1.7346011395138561
 20
-185.5730090650882
 30
0.0
 40
1.085894097222222
  1
3
 41
0.7
 11
1.7346011395138561
 21
-184.48711496786601
 31
0.0
 73
     3
  0
TEXT
  5
44D
  8
DATA
 62
     7
 10
-1.227707704776051
 20
-188.74200353932179
 30
0.0
 40
1.085894097222222
  1
7
 50
150.0
 41
0.7
 11
-1.7706547533871611
 21
-189.68241541333589
 31
0.0
 73
     3
  0
TEXT
  5
44E
  8
DATA
 62
     7
 10
2.1837073506017619
 20
-188.5240882383672
 30
0.0
 40
1.085894097222222
  1
5
 50
220.0
 41
0.7
 11
2.881706621727957
 21
-189.35593137736001
 31
0.0
 73
     3
  0
TEXT
  5
44F
  8
DATA
 62
     7
 10
-159.89953323074181
 20
-257.06684204901359
 30
0.0
 40
10.85894097222222
  1
EXT-DVI-2CAT6DLR(レシーバー）
 41
0.7
 11
-159.89953323074181
 21
-246.20790107679139
 31
0.0
 73
     3
  0
LINE
  5
450
  8
DATA
  6
CONTINUOUS
 62
     7
 10
307.7499999996208
 20
218.75
 30
0.0
 11
307.7499999996208
 21
327.75
 31
0.0
  0
LINE
  5
451
  8
DATA
  6
CONTINUOUS
 62
     7
 10
93.749999999621195
 20
218.75
 30
0.0
 11
307.7499999996208
 21
218.75
 31
0.0
  0
LINE
  5
452
  8
DATA
  6
CONTINUOUS
 62
     7
 10
93.749999999621195
 20
327.75
 30
0.0
 11
93.749999999621195
 21
218.75
 31
0.0
  0
LINE
  5
453
  8
DATA
  6
CONTINUOUS
 62
     7
 10
307.7499999996208
 20
327.75
 30
0.0
 11
93.749999999621195
 21
327.75
 31
0.0
  0
ARC
  5
454
  8
DATA
  6
CONTINUOUS
 62
     7
 10
109.7499999996212
 20
218.87117148932251
 30
0.0
 40
1.4499999999999951
 50
184.7936006250232
 51
355.20639937497663
  0
LINE
  5
455
  8
DATA
  6
CONTINUOUS
 62
     7
 10
133.449999999921
 20
328.05000000000001
 30
0.0
 11
133.449999999921
 21
327.75
 31
0.0
  0
LINE
  5
456
  8
DATA
  6
CONTINUOUS
 62
     7
 10
117.7499999999213
 20
328.05000000000001
 30
0.0
 11
117.7499999999213
 21
327.75
 31
0.0
  0
LINE
  5
457
  8
DATA
  6
CONTINUOUS
 62
     7
 10
136.399999999621
 20
327.75
 30
0.0
 11
113.6999999996212
 21
327.75
 31
0.0
  0
LINE
  5
458
  8
DATA
  6
CONTINUOUS
 62
     7
 10
133.449999999921
 20
328.05000000000001
 30
0.0
 11
117.7499999999213
 21
328.05000000000001
 31
0.0
  0
LINE
  5
459
  8
DATA
  6
CONTINUOUS
 62
     7
 10
151.52072634959151
 20
332.75
 30
0.0
 11
156.19726353002761
 21
332.75
 31
0.0
  0
LINE
  5
45A
  8
DATA
  6
CONTINUOUS
 62
     7
 10
158.1636164646188
 20
332.75
 30
0.0
 11
182.05226084917959
 21
332.75
 31
0.0
  0
LINE
  5
45B
  8
DATA
  6
CONTINUOUS
 62
     7
 10
184.02072634959191
 20
332.75
 30
0.0
 11
188.6972635300279
 21
332.75
 31
0.0
  0
LINE
  5
45C
  8
DATA
  6
CONTINUOUS
 62
     7
 10
188.6972635300279
 20
332.75
 30
0.0
 11
188.6972635300279
 21
327.75
 31
0.0
  0
LINE
  5
45D
  8
DATA
  6
CONTINUOUS
 62
     7
 10
184.02072634959191
 20
332.75
 30
0.0
 11
184.02072634959191
 21
327.75
 31
0.0
  0
LINE
  5
45E
  8
DATA
  6
CONTINUOUS
 62
     7
 10
156.19726353002761
 20
332.75
 30
0.0
 11
156.19726353002761
 21
327.75
 31
0.0
  0
LINE
  5
45F
  8
DATA
  6
CONTINUOUS
 62
     7
 10
151.52072634959151
 20
332.75
 30
0.0
 11
151.52072634959151
 21
327.75
 31
0.0
  0
LINE
  5
460
  8
DATA
  6
CONTINUOUS
 62
     7
 10
182.05226084917959
 20
332.75
 30
0.0
 11
182.05226084917959
 21
327.75
 31
0.0
  0
LINE
  5
461
  8
DATA
  6
CONTINUOUS
 62
     7
 10
158.1636164646188
 20
332.75
 30
0.0
 11
158.1636164646188
 21
327.75
 31
0.0
  0
LINE
  5
462
  8
DATA
  6
CONTINUOUS
 62
     7
 10
221.44999999992081
 20
328.05000000000001
 30
0.0
 11
221.44999999992081
 21
327.75
 31
0.0
  0
LINE
  5
463
  8
DATA
  6
CONTINUOUS
 62
     7
 10
205.7499999999209
 20
328.05000000000001
 30
0.0
 11
205.7499999999209
 21
327.75
 31
0.0
  0
LINE
  5
464
  8
DATA
  6
CONTINUOUS
 62
     7
 10
224.39999999962089
 20
327.75
 30
0.0
 11
201.69999999962079
 21
327.75
 31
0.0
  0
LINE
  5
465
  8
DATA
  6
CONTINUOUS
 62
     7
 10
221.44999999992081
 20
328.05000000000001
 30
0.0
 11
205.7499999999209
 21
328.05000000000001
 31
0.0
  0
LINE
  5
466
  8
DATA
  6
CONTINUOUS
 62
     7
 10
272.32100484032679
 20
332.75
 30
0.0
 11
267.64446765989101
 21
332.75
 31
0.0
  0
LINE
  5
467
  8
DATA
  6
CONTINUOUS
 62
     7
 10
265.28688647211641
 20
332.75
 30
0.0
 11
249.6840062601409
 21
332.75
 31
0.0
  0
LINE
  5
468
  8
DATA
  6
CONTINUOUS
 62
     7
 10
247.32100484032679
 20
332.75
 30
0.0
 11
242.64446765989081
 21
332.75
 31
0.0
  0
LINE
  5
469
  8
DATA
  6
CONTINUOUS
 62
     7
 10
272.32100484032679
 20
332.75
 30
0.0
 11
272.32100484032679
 21
327.75
 31
0.0
  0
LINE
  5
46A
  8
DATA
  6
CONTINUOUS
 62
     7
 10
267.64446765989101
 20
332.75
 30
0.0
 11
267.64446765989101
 21
327.75
 31
0.0
  0
LINE
  5
46B
  8
DATA
  6
CONTINUOUS
 62
     7
 10
247.32100484032679
 20
332.75
 30
0.0
 11
247.32100484032679
 21
327.75
 31
0.0
  0
LINE
  5
46C
  8
DATA
  6
CONTINUOUS
 62
     7
 10
242.64446765989081
 20
332.75
 30
0.0
 11
242.64446765989081
 21
327.75
 31
0.0
  0
LINE
  5
46D
  8
DATA
  6
CONTINUOUS
 62
     7
 10
265.28688647211641
 20
332.75
 30
0.0
 11
265.28688647211641
 21
327.75
 31
0.0
  0
LINE
  5
46E
  8
DATA
  6
CONTINUOUS
 62
     7
 10
249.6840062601409
 20
332.75
 30
0.0
 11
249.6840062601409
 21
327.75
 31
0.0
  0
LINE
  5
46F
  8
DATA
  6
CONTINUOUS
 62
     7
 10
289.75325485546279
 20
329.75
 30
0.0
 11
289.75325485546279
 21
327.75
 31
0.0
  0
LINE
  5
470
  8
DATA
  6
CONTINUOUS
 62
     7
 10
289.14999999962077
 20
333.75
 30
0.0
 11
289.14999999962077
 21
329.75
 31
0.0
  0
LINE
  5
471
  8
DATA
  6
CONTINUOUS
 62
     7
 10
281.34999999962082
 20
333.75
 30
0.0
 11
281.34999999962082
 21
329.75
 31
0.0
  0
LINE
  5
472
  8
DATA
  6
CONTINUOUS
 62
     7
 10
280.74674514377892
 20
329.75
 30
0.0
 11
280.74674514377892
 21
327.75
 31
0.0
  0
LINE
  5
473
  8
DATA
  6
CONTINUOUS
 62
     7
 10
289.75325485546279
 20
329.75
 30
0.0
 11
280.74674514377892
 21
329.75
 31
0.0
  0
LINE
  5
474
  8
DATA
  6
CONTINUOUS
 62
     7
 10
289.14999999962077
 20
333.75
 30
0.0
 11
281.34999999962082
 21
333.75
 31
0.0
  0
LINE
  5
475
  8
DATA
  6
CONTINUOUS
 62
     7
 10
285.2499999996208
 20
329.75
 30
0.0
 11
285.2499999996208
 21
327.75
 31
0.0
  0
LINE
  5
476
  8
DATA
  6
CONTINUOUS
 62
     7
 10
307.7499999996208
 20
-137.5
 30
0.0
 11
307.7499999996208
 21
-28.5
 31
0.0
  0
LINE
  5
477
  8
DATA
  6
CONTINUOUS
 62
     7
 10
93.749999999621195
 20
-137.5
 30
0.0
 11
307.7499999996208
 21
-137.5
 31
0.0
  0
LINE
  5
478
  8
DATA
  6
CONTINUOUS
 62
     7
 10
93.749999999621195
 20
-28.5
 30
0.0
 11
93.749999999621195
 21
-137.5
 31
0.0
  0
LINE
  5
479
  8
DATA
  6
CONTINUOUS
 62
     7
 10
307.7499999996208
 20
-28.5
 30
0.0
 11
93.749999999621195
 21
-28.5
 31
0.0
  0
ARC
  5
47A
  8
DATA
  6
CONTINUOUS
 62
     7
 10
109.7499999996212
 20
-137.37882851067749
 30
0.0
 40
1.4499999999999951
 50
184.7936006250232
 51
355.20639937497663
  0
LINE
  5
47B
  8
DATA
  6
CONTINUOUS
 62
     7
 10
133.449999999921
 20
-28.199999999999989
 30
0.0
 11
133.449999999921
 21
-28.5
 31
0.0
  0
LINE
  5
47C
  8
DATA
  6
CONTINUOUS
 62
     7
 10
117.7499999999213
 20
-28.199999999999989
 30
0.0
 11
117.7499999999213
 21
-28.5
 31
0.0
  0
LINE
  5
47D
  8
DATA
  6
CONTINUOUS
 62
     7
 10
136.399999999621
 20
-28.5
 30
0.0
 11
113.6999999996212
 21
-28.5
 31
0.0
  0
LINE
  5
47E
  8
DATA
  6
CONTINUOUS
 62
     7
 10
133.449999999921
 20
-28.199999999999989
 30
0.0
 11
117.7499999999213
 21
-28.199999999999989
 31
0.0
  0
LINE
  5
47F
  8
DATA
  6
CONTINUOUS
 62
     7
 10
151.52072634959151
 20
-23.5
 30
0.0
 11
156.19726353002761
 21
-23.5
 31
0.0
  0
LINE
  5
480
  8
DATA
  6
CONTINUOUS
 62
     7
 10
158.1636164646188
 20
-23.5
 30
0.0
 11
182.05226084917959
 21
-23.5
 31
0.0
  0
LINE
  5
481
  8
DATA
  6
CONTINUOUS
 62
     7
 10
184.02072634959191
 20
-23.5
 30
0.0
 11
188.6972635300279
 21
-23.5
 31
0.0
  0
LINE
  5
482
  8
DATA
  6
CONTINUOUS
 62
     7
 10
188.6972635300279
 20
-23.5
 30
0.0
 11
188.6972635300279
 21
-28.5
 31
0.0
  0
LINE
  5
483
  8
DATA
  6
CONTINUOUS
 62
     7
 10
184.02072634959191
 20
-23.5
 30
0.0
 11
184.02072634959191
 21
-28.5
 31
0.0
  0
LINE
  5
484
  8
DATA
  6
CONTINUOUS
 62
     7
 10
156.19726353002761
 20
-23.5
 30
0.0
 11
156.19726353002761
 21
-28.5
 31
0.0
  0
LINE
  5
485
  8
DATA
  6
CONTINUOUS
 62
     7
 10
151.52072634959151
 20
-23.5
 30
0.0
 11
151.52072634959151
 21
-28.5
 31
0.0
  0
LINE
  5
486
  8
DATA
  6
CONTINUOUS
 62
     7
 10
182.05226084917959
 20
-23.5
 30
0.0
 11
182.05226084917959
 21
-28.5
 31
0.0
  0
LINE
  5
487
  8
DATA
  6
CONTINUOUS
 62
     7
 10
158.1636164646188
 20
-23.5
 30
0.0
 11
158.1636164646188
 21
-28.5
 31
0.0
  0
LINE
  5
488
  8
DATA
  6
CONTINUOUS
 62
     7
 10
221.44999999992081
 20
-28.199999999999989
 30
0.0
 11
221.44999999992081
 21
-28.5
 31
0.0
  0
LINE
  5
489
  8
DATA
  6
CONTINUOUS
 62
     7
 10
205.7499999999209
 20
-28.199999999999989
 30
0.0
 11
205.7499999999209
 21
-28.5
 31
0.0
  0
LINE
  5
48A
  8
DATA
  6
CONTINUOUS
 62
     7
 10
224.39999999962089
 20
-28.5
 30
0.0
 11
201.69999999962079
 21
-28.5
 31
0.0
  0
LINE
  5
48B
  8
DATA
  6
CONTINUOUS
 62
     7
 10
221.44999999992081
 20
-28.199999999999989
 30
0.0
 11
205.7499999999209
 21
-28.199999999999989
 31
0.0
  0
LINE
  5
48C
  8
DATA
  6
CONTINUOUS
 62
     7
 10
272.32100484032679
 20
-23.5
 30
0.0
 11
267.64446765989101
 21
-23.5
 31
0.0
  0
LINE
  5
48D
  8
DATA
  6
CONTINUOUS
 62
     7
 10
265.28688647211641
 20
-23.5
 30
0.0
 11
249.6840062601409
 21
-23.5
 31
0.0
  0
LINE
  5
48E
  8
DATA
  6
CONTINUOUS
 62
     7
 10
247.32100484032679
 20
-23.5
 30
0.0
 11
242.64446765989081
 21
-23.5
 31
0.0
  0
LINE
  5
48F
  8
DATA
  6
CONTINUOUS
 62
     7
 10
272.32100484032679
 20
-23.5
 30
0.0
 11
272.32100484032679
 21
-28.5
 31
0.0
  0
LINE
  5
490
  8
DATA
  6
CONTINUOUS
 62
     7
 10
267.64446765989101
 20
-23.5
 30
0.0
 11
267.64446765989101
 21
-28.5
 31
0.0
  0
LINE
  5
491
  8
DATA
  6
CONTINUOUS
 62
     7
 10
247.32100484032679
 20
-23.5
 30
0.0
 11
247.32100484032679
 21
-28.5
 31
0.0
  0
LINE
  5
492
  8
DATA
  6
CONTINUOUS
 62
     7
 10
242.64446765989081
 20
-23.5
 30
0.0
 11
242.64446765989081
 21
-28.5
 31
0.0
  0
LINE
  5
493
  8
DATA
  6
CONTINUOUS
 62
     7
 10
265.28688647211641
 20
-23.5
 30
0.0
 11
265.28688647211641
 21
-28.5
 31
0.0
  0
LINE
  5
494
  8
DATA
  6
CONTINUOUS
 62
     7
 10
249.6840062601409
 20
-23.5
 30
0.0
 11
249.6840062601409
 21
-28.5
 31
0.0
  0
LINE
  5
495
  8
DATA
  6
CONTINUOUS
 62
     7
 10
289.75325485546279
 20
-26.5
 30
0.0
 11
289.75325485546279
 21
-28.5
 31
0.0
  0
LINE
  5
496
  8
DATA
  6
CONTINUOUS
 62
     7
 10
289.14999999962077
 20
-22.5
 30
0.0
 11
289.14999999962077
 21
-26.5
 31
0.0
  0
LINE
  5
497
  8
DATA
  6
CONTINUOUS
 62
     7
 10
281.34999999962082
 20
-22.5
 30
0.0
 11
281.34999999962082
 21
-26.5
 31
0.0
  0
LINE
  5
498
  8
DATA
  6
CONTINUOUS
 62
     7
 10
280.74674514377892
 20
-26.5
 30
0.0
 11
280.74674514377892
 21
-28.5
 31
0.0
  0
LINE
  5
499
  8
DATA
  6
CONTINUOUS
 62
     7
 10
289.75325485546279
 20
-26.5
 30
0.0
 11
280.74674514377892
 21
-26.5
 31
0.0
  0
LINE
  5
49A
  8
DATA
  6
CONTINUOUS
 62
     7
 10
289.14999999962077
 20
-22.5
 30
0.0
 11
281.34999999962082
 21
-22.5
 31
0.0
  0
LINE
  5
49B
  8
DATA
  6
CONTINUOUS
 62
     7
 10
285.2499999996208
 20
-26.5
 30
0.0
 11
285.2499999996208
 21
-28.5
 31
0.0
  0
LINE
  5
49C
  8
DATA
  6
CONTINUOUS
 62
     7
 10
94.749999999621195
 20
315.75
 30
0.0
 11
94.749999999621195
 21
225.75
 31
0.0
  0
LINE
  5
49D
  8
DATA
  6
CONTINUOUS
 62
     7
 10
94.749999999621195
 20
-40.499999999999993
 30
0.0
 11
94.749999999621195
 21
-130.5
 31
0.0
  0
LINE
  5
49E
  8
DATA
  6
CONTINUOUS
 62
     7
 10
306.7499999996208
 20
225.75
 30
0.0
 11
306.7499999996208
 21
315.75
 31
0.0
  0
LINE
  5
49F
  8
DATA
  6
CONTINUOUS
 62
     7
 10
306.7499999996208
 20
-130.5
 30
0.0
 11
306.7499999996208
 21
-40.499999999999993
 31
0.0
  0
LINE
  5
4A0
  8
DATA
  6
CONTINUOUS
 62
     7
 10
93.749999999621195
 20
225.75
 30
0.0
 11
94.749999999621195
 21
225.75
 31
0.0
  0
LINE
  5
4A1
  8
DATA
  6
CONTINUOUS
 62
     7
 10
306.7499999996208
 20
225.75
 30
0.0
 11
307.7499999996208
 21
225.75
 31
0.0
  0
LINE
  5
4A2
  8
DATA
  6
CONTINUOUS
 62
     7
 10
93.749999999621195
 20
-130.5
 30
0.0
 11
94.749999999621195
 21
-130.5
 31
0.0
  0
LINE
  5
4A3
  8
DATA
  6
CONTINUOUS
 62
     7
 10
306.7499999996208
 20
-130.5
 30
0.0
 11
307.7499999996208
 21
-130.5
 31
0.0
  0
LINE
  5
4A4
  8
DATA
  6
CONTINUOUS
 62
     7
 10
307.7499999996208
 20
315.75
 30
0.0
 11
93.749999999621195
 21
315.75
 31
0.0
  0
LINE
  5
4A5
  8
DATA
  6
CONTINUOUS
 62
     7
 10
307.7499999996208
 20
-40.499999999999993
 30
0.0
 11
93.749999999621195
 21
-40.499999999999993
 31
0.0
  0
CIRCLE
  5
4A6
  8
DATA
  6
CONTINUOUS
 62
     7
 10
200.749999999621
 20
-35.5
 30
0.0
 40
2.5
  0
LINE
  5
4A7
  8
DATA
  6
CONTINUOUS
 62
     7
 10
199.499999999621
 20
-35.5
 30
0.0
 11
201.99999999962111
 21
-35.5
 31
0.0
  0
LINE
  5
4A8
  8
DATA
  6
CONTINUOUS
 62
     7
 10
200.749999999621
 20
-36.75
 30
0.0
 11
200.749999999621
 21
-34.25
 31
0.0
  0
CIRCLE
  5
4A9
  8
DATA
  6
CONTINUOUS
 62
     7
 10
200.749999999621
 20
320.75
 30
0.0
 40
2.5
  0
LINE
  5
4AA
  8
DATA
  6
CONTINUOUS
 62
     7
 10
199.499999999621
 20
320.75
 30
0.0
 11
201.99999999962111
 21
320.75
 31
0.0
  0
LINE
  5
4AB
  8
DATA
  6
CONTINUOUS
 62
     7
 10
200.749999999621
 20
319.5
 30
0.0
 11
200.749999999621
 21
322.0
 31
0.0
  0
CIRCLE
  5
4AC
  8
DATA
  6
CONTINUOUS
 62
     7
 10
110.749999999621
 20
-35.5
 30
0.0
 40
2.5
  0
LINE
  5
4AD
  8
DATA
  6
CONTINUOUS
 62
     7
 10
109.499999999621
 20
-35.5
 30
0.0
 11
111.999999999621
 21
-35.5
 31
0.0
  0
LINE
  5
4AE
  8
DATA
  6
CONTINUOUS
 62
     7
 10
110.749999999621
 20
-36.75
 30
0.0
 11
110.749999999621
 21
-34.25
 31
0.0
  0
CIRCLE
  5
4AF
  8
DATA
  6
CONTINUOUS
 62
     7
 10
110.749999999621
 20
320.75
 30
0.0
 40
2.5
  0
LINE
  5
4B0
  8
DATA
  6
CONTINUOUS
 62
     7
 10
109.499999999621
 20
320.75
 30
0.0
 11
111.999999999621
 21
320.75
 31
0.0
  0
LINE
  5
4B1
  8
DATA
  6
CONTINUOUS
 62
     7
 10
110.749999999621
 20
319.5
 30
0.0
 11
110.749999999621
 21
322.0
 31
0.0
  0
CIRCLE
  5
4B2
  8
DATA
  6
CONTINUOUS
 62
     7
 10
290.74999999962102
 20
-35.5
 30
0.0
 40
2.5
  0
LINE
  5
4B3
  8
DATA
  6
CONTINUOUS
 62
     7
 10
289.49999999962102
 20
-35.5
 30
0.0
 11
291.99999999962102
 21
-35.5
 31
0.0
  0
LINE
  5
4B4
  8
DATA
  6
CONTINUOUS
 62
     7
 10
290.74999999962102
 20
-36.75
 30
0.0
 11
290.74999999962102
 21
-34.25
 31
0.0
  0
CIRCLE
  5
4B5
  8
DATA
  6
CONTINUOUS
 62
     7
 10
290.74999999962102
 20
320.75
 30
0.0
 40
2.5
  0
LINE
  5
4B6
  8
DATA
  6
CONTINUOUS
 62
     7
 10
289.49999999962102
 20
320.75
 30
0.0
 11
291.99999999962102
 21
320.75
 31
0.0
  0
LINE
  5
4B7
  8
DATA
  6
CONTINUOUS
 62
     7
 10
290.74999999962102
 20
319.5
 30
0.0
 11
290.74999999962102
 21
322.0
 31
0.0
  0
CIRCLE
  5
4B8
  8
DATA
  6
CONTINUOUS
 62
     7
 10
165.0
 20
272.75
 30
0.0
 40
1.5
  0
CIRCLE
  5
4B9
  8
DATA
  6
CONTINUOUS
 62
     7
 10
235.0
 20
272.75
 30
0.0
 40
1.5
  0
CIRCLE
  5
4BA
  8
DATA
  6
CONTINUOUS
 62
     7
 10
165.0
 20
-83.499999999999986
 30
0.0
 40
1.5
  0
CIRCLE
  5
4BB
  8
DATA
  6
CONTINUOUS
 62
     7
 10
235.0
 20
-83.499999999999986
 30
0.0
 40
1.5
  0
LINE
  5
4BC
  8
DATA
  6
CONTINUOUS
 62
     7
 10
347.42613020926882
 20
226.7192228380006
 30
0.0
 11
347.42613020926882
 21
157.41922283800071
 31
0.0
  0
LINE
  5
4BD
  8
DATA
  6
CONTINUOUS
 62
     7
 10
388.6761302092695
 20
226.7192228380006
 30
0.0
 11
388.6761302092695
 21
157.41922283800071
 31
0.0
  0
LINE
  5
4BE
  8
DATA
  6
CONTINUOUS
 62
     7
 10
347.42613020926882
 20
157.41922283800071
 30
0.0
 11
388.6761302092695
 21
157.41922283800071
 31
0.0
  0
LINE
  5
4BF
  8
DATA
  6
CONTINUOUS
 62
     7
 10
347.42613020926882
 20
226.7192228380006
 30
0.0
 11
388.6761302092695
 21
226.7192228380006
 31
0.0
  0
POLYLINE
  5
4C0
  8
DATA
  6
CONTINUOUS
 62
     7
 66
     1
 10
0.0
 20
0.0
 30
0.0
 70
     1
  0
VERTEX
  5
A60
  8
DATA
  6
CONTINUOUS
 62
     7
 10
362.93892447179201
 20
188.21922283800041
 30
0.0
  0
VERTEX
  5
A61
  8
DATA
  6
CONTINUOUS
 62
     7
 10
368.98892447179202
 20
188.21922283800041
 30
0.0
  0
VERTEX
  5
A62
  8
DATA
  6
CONTINUOUS
 62
     7
 10
368.98892447179202
 20
182.16922283800039
 30
0.0
  0
VERTEX
  5
A63
  8
DATA
  6
CONTINUOUS
 62
     7
 10
362.93892447179201
 20
182.16922283800039
 30
0.0
  0
SEQEND
  5
A64
  8
DATA
  6
CONTINUOUS
 62
     7
  0
POLYLINE
  5
4C7
  8
DATA
  6
CONTINUOUS
 62
     7
 66
     1
 10
0.0
 20
0.0
 30
0.0
 70
     1
  0
VERTEX
  5
A65
  8
DATA
  6
CONTINUOUS
 62
     7
 10
362.93892447179201
 20
174.4692228380006
 30
0.0
  0
VERTEX
  5
A66
  8
DATA
  6
CONTINUOUS
 62
     7
 10
368.98892447179202
 20
174.4692228380006
 30
0.0
  0
VERTEX
  5
A67
  8
DATA
  6
CONTINUOUS
 62
     7
 10
368.98892447179202
 20
168.41922283800059
 30
0.0
  0
VERTEX
  5
A68
  8
DATA
  6
CONTINUOUS
 62
     7
 10
362.93892447179201
 20
168.41922283800059
 30
0.0
  0
SEQEND
  5
A69
  8
DATA
  6
CONTINUOUS
 62
     7
  0
LINE
  5
4CE
  8
DATA
  6
CONTINUOUS
 62
     7
 10
375.86392447179202
 20
168.41922283800059
 30
0.0
 11
375.86392447179202
 21
174.4692228380006
 31
0.0
  0
LINE
  5
4CF
  8
DATA
  6
CONTINUOUS
 62
     7
 10
375.86392447179202
 20
182.16922283800039
 30
0.0
 11
375.86392447179202
 21
188.21922283800041
 31
0.0
  0
LINE
  5
4D0
  8
DATA
  6
CONTINUOUS
 62
     7
 10
368.98892447179207
 20
168.41922283800059
 30
0.0
 11
375.86392447179202
 21
168.41922283800059
 31
0.0
  0
LINE
  5
4D1
  8
DATA
  6
CONTINUOUS
 62
     7
 10
368.98892447179207
 20
174.4692228380006
 30
0.0
 11
375.86392447179202
 21
174.4692228380006
 31
0.0
  0
LINE
  5
4D2
  8
DATA
  6
CONTINUOUS
 62
     7
 10
368.98892447179207
 20
182.16922283800039
 30
0.0
 11
375.86392447179202
 21
182.16922283800039
 31
0.0
  0
LINE
  5
4D3
  8
DATA
  6
CONTINUOUS
 62
     7
 10
368.98892447179207
 20
188.21922283800041
 30
0.0
 11
375.86392447179202
 21
188.21922283800041
 31
0.0
  0
POLYLINE
  5
4D4
  8
DATA
  6
CONTINUOUS
 62
     7
 66
     1
 10
0.0
 20
0.0
 30
0.0
 70
     1
  0
VERTEX
  5
A6A
  8
DATA
  6
CONTINUOUS
 62
     7
 10
362.93892447179201
 20
201.96922283800069
 30
0.0
  0
VERTEX
  5
A6B
  8
DATA
  6
CONTINUOUS
 62
     7
 10
368.98892447179202
 20
201.96922283800069
 30
0.0
  0
VERTEX
  5
A6C
  8
DATA
  6
CONTINUOUS
 62
     7
 10
368.98892447179202
 20
195.91922283800051
 30
0.0
  0
VERTEX
  5
A6D
  8
DATA
  6
CONTINUOUS
 62
     7
 10
362.93892447179201
 20
195.91922283800051
 30
0.0
  0
SEQEND
  5
A6E
  8
DATA
  6
CONTINUOUS
 62
     7
  0
POLYLINE
  5
4DB
  8
DATA
  6
CONTINUOUS
 62
     7
 66
     1
 10
0.0
 20
0.0
 30
0.0
 70
     1
  0
VERTEX
  5
A6F
  8
DATA
  6
CONTINUOUS
 62
     7
 10
362.93892447179201
 20
215.71922283800069
 30
0.0
  0
VERTEX
  5
A70
  8
DATA
  6
CONTINUOUS
 62
     7
 10
368.98892447179202
 20
215.71922283800069
 30
0.0
  0
VERTEX
  5
A71
  8
DATA
  6
CONTINUOUS
 62
     7
 10
368.98892447179202
 20
209.66922283800059
 30
0.0
  0
VERTEX
  5
A72
  8
DATA
  6
CONTINUOUS
 62
     7
 10
362.93892447179201
 20
209.66922283800059
 30
0.0
  0
SEQEND
  5
A73
  8
DATA
  6
CONTINUOUS
 62
     7
  0
LINE
  5
4E2
  8
DATA
  6
CONTINUOUS
 62
     7
 10
375.86392447179202
 20
215.7192228380006
 30
0.0
 11
375.86392447179202
 21
209.66922283800059
 31
0.0
  0
LINE
  5
4E3
  8
DATA
  6
CONTINUOUS
 62
     7
 10
375.86392447179202
 20
201.9692228380006
 30
0.0
 11
375.86392447179202
 21
195.91922283800039
 31
0.0
  0
LINE
  5
4E4
  8
DATA
  6
CONTINUOUS
 62
     7
 10
368.98892447179207
 20
215.7192228380006
 30
0.0
 11
375.86392447179202
 21
215.7192228380006
 31
0.0
  0
LINE
  5
4E5
  8
DATA
  6
CONTINUOUS
 62
     7
 10
368.98892447179207
 20
209.66922283800059
 30
0.0
 11
375.86392447179202
 21
209.66922283800059
 31
0.0
  0
LINE
  5
4E6
  8
DATA
  6
CONTINUOUS
 62
     7
 10
368.98892447179207
 20
201.9692228380006
 30
0.0
 11
375.86392447179202
 21
201.9692228380006
 31
0.0
  0
LINE
  5
4E7
  8
DATA
  6
CONTINUOUS
 62
     7
 10
368.98892447179207
 20
195.91922283800039
 30
0.0
 11
375.86392447179202
 21
195.91922283800039
 31
0.0
  0
TEXT
  5
4E8
  8
DATA
 62
     7
 10
352.1335842331348
 20
215.2975561714245
 30
0.0
 40
7.1669010416666659
  1
1
 50
270.0
 41
0.7
 11
359.30048527480147
 21
215.2975561714245
 31
0.0
 73
     3
  0
TEXT
  5
4E9
  8
DATA
 62
     7
 10
352.1335842331348
 20
201.5475561714245
 30
0.0
 40
7.1669010416666659
  1
2
 50
270.0
 41
0.7
 11
359.30048527480147
 21
201.5475561714245
 31
0.0
 73
     3
  0
TEXT
  5
4EA
  8
DATA
 62
     7
 10
352.1335842331348
 20
187.7975561714245
 30
0.0
 40
7.1669010416666659
  1
3
 50
270.0
 41
0.7
 11
359.30048527480147
 21
187.7975561714245
 31
0.0
 73
     3
  0
TEXT
  5
4EB
  8
DATA
 62
     7
 10
352.1335842331348
 20
174.0475561714245
 30
0.0
 40
7.1669010416666659
  1
4
 50
270.0
 41
0.7
 11
359.30048527480147
 21
174.0475561714245
 31
0.0
 73
     3
  0
TEXT
  5
4EC
  8
DATA
 62
     7
 10
379.42369573352818
 20
210.3604619343399
 30
0.0
 40
7.1669010416666659
  1
ON
 50
270.0
 41
0.7
 11
386.59059677519491
 21
210.3604619343399
 31
0.0
 73
     3
  0
TEXT
  5
4ED
  8
DATA
 62
     7
 10
288.95475727465492
 20
135.4161443131926
 30
0.0
 40
10.85894097222222
  1
ディツプスイッチ拡大図
 41
0.7
 11
288.95475727465492
 21
146.2750852854148
 31
0.0
 73
     3
  0
LINE
  5
4EE
  8
DATA
  6
CONTINUOUS
 62
     7
 10
113.7562116567956
 20
271.3542701803562
 30
0.0
 11
113.7562116567956
 21
258.75427018035612
 31
0.0
  0
LINE
  5
4EF
  8
DATA
  6
CONTINUOUS
 62
     7
 10
121.2562116567956
 20
271.3542701803562
 30
0.0
 11
121.2562116567956
 21
258.75427018035612
 31
0.0
  0
LINE
  5
4F0
  8
DATA
  6
CONTINUOUS
 62
     7
 10
113.7562116567956
 20
258.75427018035612
 30
0.0
 11
121.2562116567956
 21
258.75427018035612
 31
0.0
  0
LINE
  5
4F1
  8
DATA
  6
CONTINUOUS
 62
     7
 10
113.7562116567956
 20
271.3542701803562
 30
0.0
 11
121.2562116567956
 21
271.3542701803562
 31
0.0
  0
POLYLINE
  5
4F2
  8
DATA
  6
CONTINUOUS
 62
     7
 66
     1
 10
0.0
 20
0.0
 30
0.0
 70
     1
  0
VERTEX
  5
A74
  8
DATA
  6
CONTINUOUS
 62
     7
 10
116.57671970452699
 20
264.3542701803562
 30
0.0
  0
VERTEX
  5
A75
  8
DATA
  6
CONTINUOUS
 62
     7
 10
117.6767197045269
 20
264.3542701803562
 30
0.0
  0
VERTEX
  5
A76
  8
DATA
  6
CONTINUOUS
 62
     7
 10
117.6767197045269
 20
263.25427018035612
 30
0.0
  0
VERTEX
  5
A77
  8
DATA
  6
CONTINUOUS
 62
     7
 10
116.57671970452699
 20
263.25427018035612
 30
0.0
  0
SEQEND
  5
A78
  8
DATA
  6
CONTINUOUS
 62
     7
  0
POLYLINE
  5
4F9
  8
DATA
  6
CONTINUOUS
 62
     7
 66
     1
 10
0.0
 20
0.0
 30
0.0
 70
     1
  0
VERTEX
  5
A79
  8
DATA
  6
CONTINUOUS
 62
     7
 10
116.57671970452699
 20
261.8542701803562
 30
0.0
  0
VERTEX
  5
A7A
  8
DATA
  6
CONTINUOUS
 62
     7
 10
117.6767197045269
 20
261.8542701803562
 30
0.0
  0
VERTEX
  5
A7B
  8
DATA
  6
CONTINUOUS
 62
     7
 10
117.6767197045269
 20
260.75427018035612
 30
0.0
  0
VERTEX
  5
A7C
  8
DATA
  6
CONTINUOUS
 62
     7
 10
116.57671970452699
 20
260.75427018035612
 30
0.0
  0
SEQEND
  5
A7D
  8
DATA
  6
CONTINUOUS
 62
     7
  0
LINE
  5
500
  8
DATA
  6
CONTINUOUS
 62
     7
 10
118.9267197045269
 20
260.75427018035612
 30
0.0
 11
118.9267197045269
 21
261.8542701803562
 31
0.0
  0
LINE
  5
501
  8
DATA
  6
CONTINUOUS
 62
     7
 10
118.9267197045269
 20
263.25427018035612
 30
0.0
 11
118.9267197045269
 21
264.3542701803562
 31
0.0
  0
LINE
  5
502
  8
DATA
  6
CONTINUOUS
 62
     7
 10
117.676719704527
 20
260.75427018035612
 30
0.0
 11
118.9267197045269
 21
260.75427018035612
 31
0.0
  0
LINE
  5
503
  8
DATA
  6
CONTINUOUS
 62
     7
 10
117.676719704527
 20
261.8542701803562
 30
0.0
 11
118.9267197045269
 21
261.8542701803562
 31
0.0
  0
LINE
  5
504
  8
DATA
  6
CONTINUOUS
 62
     7
 10
117.676719704527
 20
263.25427018035612
 30
0.0
 11
118.9267197045269
 21
263.25427018035612
 31
0.0
  0
LINE
  5
505
  8
DATA
  6
CONTINUOUS
 62
     7
 10
117.676719704527
 20
264.3542701803562
 30
0.0
 11
118.9267197045269
 21
264.3542701803562
 31
0.0
  0
POLYLINE
  5
506
  8
DATA
  6
CONTINUOUS
 62
     7
 66
     1
 10
0.0
 20
0.0
 30
0.0
 70
     1
  0
VERTEX
  5
A7E
  8
DATA
  6
CONTINUOUS
 62
     7
 10
116.57671970452699
 20
266.85427018035631
 30
0.0
  0
VERTEX
  5
A7F
  8
DATA
  6
CONTINUOUS
 62
     7
 10
117.6767197045269
 20
266.85427018035631
 30
0.0
  0
VERTEX
  5
A80
  8
DATA
  6
CONTINUOUS
 62
     7
 10
117.6767197045269
 20
265.75427018035612
 30
0.0
  0
VERTEX
  5
A81
  8
DATA
  6
CONTINUOUS
 62
     7
 10
116.57671970452699
 20
265.75427018035612
 30
0.0
  0
SEQEND
  5
A82
  8
DATA
  6
CONTINUOUS
 62
     7
  0
POLYLINE
  5
50D
  8
DATA
  6
CONTINUOUS
 62
     7
 66
     1
 10
0.0
 20
0.0
 30
0.0
 70
     1
  0
VERTEX
  5
A83
  8
DATA
  6
CONTINUOUS
 62
     7
 10
116.57671970452699
 20
269.35427018035631
 30
0.0
  0
VERTEX
  5
A84
  8
DATA
  6
CONTINUOUS
 62
     7
 10
117.6767197045269
 20
269.35427018035631
 30
0.0
  0
VERTEX
  5
A85
  8
DATA
  6
CONTINUOUS
 62
     7
 10
117.6767197045269
 20
268.25427018035612
 30
0.0
  0
VERTEX
  5
A86
  8
DATA
  6
CONTINUOUS
 62
     7
 10
116.57671970452699
 20
268.25427018035612
 30
0.0
  0
SEQEND
  5
A87
  8
DATA
  6
CONTINUOUS
 62
     7
  0
LINE
  5
514
  8
DATA
  6
CONTINUOUS
 62
     7
 10
118.9267197045269
 20
269.3542701803562
 30
0.0
 11
118.9267197045269
 21
268.25427018035612
 31
0.0
  0
LINE
  5
515
  8
DATA
  6
CONTINUOUS
 62
     7
 10
118.9267197045269
 20
266.8542701803562
 30
0.0
 11
118.9267197045269
 21
265.75427018035612
 31
0.0
  0
LINE
  5
516
  8
DATA
  6
CONTINUOUS
 62
     7
 10
117.676719704527
 20
269.3542701803562
 30
0.0
 11
118.9267197045269
 21
269.3542701803562
 31
0.0
  0
LINE
  5
517
  8
DATA
  6
CONTINUOUS
 62
     7
 10
117.676719704527
 20
268.25427018035612
 30
0.0
 11
118.9267197045269
 21
268.25427018035612
 31
0.0
  0
LINE
  5
518
  8
DATA
  6
CONTINUOUS
 62
     7
 10
117.676719704527
 20
266.8542701803562
 30
0.0
 11
118.9267197045269
 21
266.8542701803562
 31
0.0
  0
LINE
  5
519
  8
DATA
  6
CONTINUOUS
 62
     7
 10
117.676719704527
 20
265.75427018035612
 30
0.0
 11
118.9267197045269
 21
265.75427018035612
 31
0.0
  0
TEXT
  5
51A
  8
DATA
 62
     7
 10
114.6121123884075
 20
269.27760351370603
 30
0.0
 40
1.303072916666665
  1
1
 50
270.0
 41
0.7
 11
115.9151853050742
 21
269.27760351370603
 31
0.0
 73
     3
  0
TEXT
  5
51B
  8
DATA
 62
     7
 10
114.6121123884075
 20
266.77760351370603
 30
0.0
 40
1.303072916666665
  1
2
 50
270.0
 41
0.7
 11
115.9151853050742
 21
266.77760351370603
 31
0.0
 73
     3
  0
TEXT
  5
51C
  8
DATA
 62
     7
 10
114.6121123884075
 20
264.27760351370603
 30
0.0
 40
1.303072916666665
  1
3
 50
270.0
 41
0.7
 11
115.9151853050742
 21
264.27760351370603
 31
0.0
 73
     3
  0
TEXT
  5
51D
  8
DATA
 62
     7
 10
114.6121123884075
 20
261.77760351370603
 30
0.0
 40
1.303072916666665
  1
4
 50
270.0
 41
0.7
 11
115.9151853050742
 21
261.77760351370603
 31
0.0
 73
     3
  0
TEXT
  5
51E
  8
DATA
 62
     7
 10
119.57395084302441
 20
268.37995001605429
 30
0.0
 40
1.303072916666665
  1
ON
 50
270.0
 41
0.7
 11
120.8770237596911
 21
268.37995001605429
 31
0.0
 73
     3
  0
LINE
  5
51F
  8
DATA
  6
CONTINUOUS
 62
     7
 10
113.7562116567956
 20
-84.895729819643819
 30
0.0
 11
113.7562116567956
 21
-97.495729819643842
 31
0.0
  0
LINE
  5
520
  8
DATA
  6
CONTINUOUS
 62
     7
 10
121.2562116567956
 20
-84.895729819643819
 30
0.0
 11
121.2562116567956
 21
-97.495729819643842
 31
0.0
  0
LINE
  5
521
  8
DATA
  6
CONTINUOUS
 62
     7
 10
113.7562116567956
 20
-97.495729819643842
 30
0.0
 11
121.2562116567956
 21
-97.495729819643842
 31
0.0
  0
LINE
  5
522
  8
DATA
  6
CONTINUOUS
 62
     7
 10
113.7562116567956
 20
-84.895729819643819
 30
0.0
 11
121.2562116567956
 21
-84.895729819643819
 31
0.0
  0
POLYLINE
  5
523
  8
DATA
  6
CONTINUOUS
 62
     7
 66
     1
 10
0.0
 20
0.0
 30
0.0
 70
     1
  0
VERTEX
  5
A88
  8
DATA
  6
CONTINUOUS
 62
     7
 10
116.57671970452699
 20
-91.895729819643805
 30
0.0
  0
VERTEX
  5
A89
  8
DATA
  6
CONTINUOUS
 62
     7
 10
117.6767197045269
 20
-91.895729819643805
 30
0.0
  0
VERTEX
  5
A8A
  8
DATA
  6
CONTINUOUS
 62
     7
 10
117.6767197045269
 20
-92.995729819643827
 30
0.0
  0
VERTEX
  5
A8B
  8
DATA
  6
CONTINUOUS
 62
     7
 10
116.57671970452699
 20
-92.995729819643827
 30
0.0
  0
SEQEND
  5
A8C
  8
DATA
  6
CONTINUOUS
 62
     7
  0
POLYLINE
  5
52A
  8
DATA
  6
CONTINUOUS
 62
     7
 66
     1
 10
0.0
 20
0.0
 30
0.0
 70
     1
  0
VERTEX
  5
A8D
  8
DATA
  6
CONTINUOUS
 62
     7
 10
116.57671970452699
 20
-94.395729819643805
 30
0.0
  0
VERTEX
  5
A8E
  8
DATA
  6
CONTINUOUS
 62
     7
 10
117.6767197045269
 20
-94.395729819643805
 30
0.0
  0
VERTEX
  5
A8F
  8
DATA
  6
CONTINUOUS
 62
     7
 10
117.6767197045269
 20
-95.495729819643827
 30
0.0
  0
VERTEX
  5
A90
  8
DATA
  6
CONTINUOUS
 62
     7
 10
116.57671970452699
 20
-95.495729819643827
 30
0.0
  0
SEQEND
  5
A91
  8
DATA
  6
CONTINUOUS
 62
     7
  0
LINE
  5
531
  8
DATA
  6
CONTINUOUS
 62
     7
 10
118.9267197045269
 20
-95.495729819643827
 30
0.0
 11
118.9267197045269
 21
-94.395729819643805
 31
0.0
  0
LINE
  5
532
  8
DATA
  6
CONTINUOUS
 62
     7
 10
118.9267197045269
 20
-92.995729819643827
 30
0.0
 11
118.9267197045269
 21
-91.895729819643805
 31
0.0
  0
LINE
  5
533
  8
DATA
  6
CONTINUOUS
 62
     7
 10
117.676719704527
 20
-95.495729819643827
 30
0.0
 11
118.9267197045269
 21
-95.495729819643827
 31
0.0
  0
LINE
  5
534
  8
DATA
  6
CONTINUOUS
 62
     7
 10
117.676719704527
 20
-94.395729819643805
 30
0.0
 11
118.9267197045269
 21
-94.395729819643805
 31
0.0
  0
LINE
  5
535
  8
DATA
  6
CONTINUOUS
 62
     7
 10
117.676719704527
 20
-92.995729819643827
 30
0.0
 11
118.9267197045269
 21
-92.995729819643827
 31
0.0
  0
LINE
  5
536
  8
DATA
  6
CONTINUOUS
 62
     7
 10
117.676719704527
 20
-91.895729819643805
 30
0.0
 11
118.9267197045269
 21
-91.895729819643805
 31
0.0
  0
POLYLINE
  5
537
  8
DATA
  6
CONTINUOUS
 62
     7
 66
     1
 10
0.0
 20
0.0
 30
0.0
 70
     1
  0
VERTEX
  5
A92
  8
DATA
  6
CONTINUOUS
 62
     7
 10
116.57671970452699
 20
-89.395729819643719
 30
0.0
  0
VERTEX
  5
A93
  8
DATA
  6
CONTINUOUS
 62
     7
 10
117.6767197045269
 20
-89.395729819643719
 30
0.0
  0
VERTEX
  5
A94
  8
DATA
  6
CONTINUOUS
 62
     7
 10
117.6767197045269
 20
-90.495729819643714
 30
0.0
  0
VERTEX
  5
A95
  8
DATA
  6
CONTINUOUS
 62
     7
 10
116.57671970452699
 20
-90.495729819643714
 30
0.0
  0
SEQEND
  5
A96
  8
DATA
  6
CONTINUOUS
 62
     7
  0
POLYLINE
  5
53E
  8
DATA
  6
CONTINUOUS
 62
     7
 66
     1
 10
0.0
 20
0.0
 30
0.0
 70
     1
  0
VERTEX
  5
A97
  8
DATA
  6
CONTINUOUS
 62
     7
 10
116.57671970452699
 20
-86.895729819643719
 30
0.0
  0
VERTEX
  5
A98
  8
DATA
  6
CONTINUOUS
 62
     7
 10
117.6767197045269
 20
-86.895729819643719
 30
0.0
  0
VERTEX
  5
A99
  8
DATA
  6
CONTINUOUS
 62
     7
 10
117.6767197045269
 20
-87.995729819643714
 30
0.0
  0
VERTEX
  5
A9A
  8
DATA
  6
CONTINUOUS
 62
     7
 10
116.57671970452699
 20
-87.995729819643714
 30
0.0
  0
SEQEND
  5
A9B
  8
DATA
  6
CONTINUOUS
 62
     7
  0
LINE
  5
545
  8
DATA
  6
CONTINUOUS
 62
     7
 10
118.9267197045269
 20
-86.895729819643805
 30
0.0
 11
118.9267197045269
 21
-87.995729819643827
 31
0.0
  0
LINE
  5
546
  8
DATA
  6
CONTINUOUS
 62
     7
 10
118.9267197045269
 20
-89.395729819643805
 30
0.0
 11
118.9267197045269
 21
-90.495729819643827
 31
0.0
  0
LINE
  5
547
  8
DATA
  6
CONTINUOUS
 62
     7
 10
117.676719704527
 20
-86.895729819643805
 30
0.0
 11
118.9267197045269
 21
-86.895729819643805
 31
0.0
  0
LINE
  5
548
  8
DATA
  6
CONTINUOUS
 62
     7
 10
117.676719704527
 20
-87.995729819643827
 30
0.0
 11
118.9267197045269
 21
-87.995729819643827
 31
0.0
  0
LINE
  5
549
  8
DATA
  6
CONTINUOUS
 62
     7
 10
117.676719704527
 20
-89.395729819643805
 30
0.0
 11
118.9267197045269
 21
-89.395729819643805
 31
0.0
  0
LINE
  5
54A
  8
DATA
  6
CONTINUOUS
 62
     7
 10
117.676719704527
 20
-90.495729819643827
 30
0.0
 11
118.9267197045269
 21
-90.495729819643827
 31
0.0
  0
TEXT
  5
54B
  8
DATA
 62
     7
 10
114.6121123884075
 20
-86.972396486294002
 30
0.0
 40
1.303072916666665
  1
1
 50
270.0
 41
0.7
 11
115.9151853050742
 21
-86.972396486294002
 31
0.0
 73
     3
  0
TEXT
  5
54C
  8
DATA
 62
     7
 10
114.6121123884075
 20
-89.472396486294002
 30
0.0
 40
1.303072916666665
  1
2
 50
270.0
 41
0.7
 11
115.9151853050742
 21
-89.472396486294002
 31
0.0
 73
     3
  0
TEXT
  5
54D
  8
DATA
 62
     7
 10
114.6121123884075
 20
-91.972396486294002
 30
0.0
 40
1.303072916666665
  1
3
 50
270.0
 41
0.7
 11
115.9151853050742
 21
-91.972396486294002
 31
0.0
 73
     3
  0
TEXT
  5
54E
  8
DATA
 62
     7
 10
114.6121123884075
 20
-94.472396486294002
 30
0.0
 40
1.303072916666665
  1
4
 50
270.0
 41
0.7
 11
115.9151853050742
 21
-94.472396486294002
 31
0.0
 73
     3
  0
TEXT
  5
54F
  8
DATA
 62
     7
 10
119.57395084302441
 20
-87.87004998394579
 30
0.0
 40
1.303072916666665
  1
ON
 50
270.0
 41
0.7
 11
120.8770237596911
 21
-87.87004998394579
 31
0.0
 73
     3
  0
LINE
  5
550
  8
DATA
  6
CONTINUOUS
 62
     7
 10
347.42613020926882
 20
-129.5307771619994
 30
0.0
 11
347.42613020926882
 21
-198.83077716199929
 31
0.0
  0
LINE
  5
551
  8
DATA
  6
CONTINUOUS
 62
     7
 10
388.6761302092695
 20
-129.5307771619994
 30
0.0
 11
388.6761302092695
 21
-198.83077716199929
 31
0.0
  0
LINE
  5
552
  8
DATA
  6
CONTINUOUS
 62
     7
 10
347.42613020926882
 20
-198.83077716199929
 30
0.0
 11
388.6761302092695
 21
-198.83077716199929
 31
0.0
  0
LINE
  5
553
  8
DATA
  6
CONTINUOUS
 62
     7
 10
347.42613020926882
 20
-129.5307771619994
 30
0.0
 11
388.6761302092695
 21
-129.5307771619994
 31
0.0
  0
POLYLINE
  5
554
  8
DATA
  6
CONTINUOUS
 62
     7
 66
     1
 10
0.0
 20
0.0
 30
0.0
 70
     1
  0
VERTEX
  5
A9C
  8
DATA
  6
CONTINUOUS
 62
     7
 10
362.93892447179201
 20
-168.03077716199951
 30
0.0
  0
VERTEX
  5
A9D
  8
DATA
  6
CONTINUOUS
 62
     7
 10
368.98892447179202
 20
-168.03077716199951
 30
0.0
  0
VERTEX
  5
A9E
  8
DATA
  6
CONTINUOUS
 62
     7
 10
368.98892447179202
 20
-174.08077716199941
 30
0.0
  0
VERTEX
  5
A9F
  8
DATA
  6
CONTINUOUS
 62
     7
 10
362.93892447179201
 20
-174.08077716199941
 30
0.0
  0
SEQEND
  5
AA0
  8
DATA
  6
CONTINUOUS
 62
     7
  0
POLYLINE
  5
55B
  8
DATA
  6
CONTINUOUS
 62
     7
 66
     1
 10
0.0
 20
0.0
 30
0.0
 70
     1
  0
VERTEX
  5
AA1
  8
DATA
  6
CONTINUOUS
 62
     7
 10
362.93892447179201
 20
-181.78077716199931
 30
0.0
  0
VERTEX
  5
AA2
  8
DATA
  6
CONTINUOUS
 62
     7
 10
368.98892447179202
 20
-181.78077716199931
 30
0.0
  0
VERTEX
  5
AA3
  8
DATA
  6
CONTINUOUS
 62
     7
 10
368.98892447179202
 20
-187.83077716199941
 30
0.0
  0
VERTEX
  5
AA4
  8
DATA
  6
CONTINUOUS
 62
     7
 10
362.93892447179201
 20
-187.83077716199941
 30
0.0
  0
SEQEND
  5
AA5
  8
DATA
  6
CONTINUOUS
 62
     7
  0
LINE
  5
562
  8
DATA
  6
CONTINUOUS
 62
     7
 10
375.86392447179202
 20
-187.83077716199941
 30
0.0
 11
375.86392447179202
 21
-181.78077716199931
 31
0.0
  0
LINE
  5
563
  8
DATA
  6
CONTINUOUS
 62
     7
 10
375.86392447179202
 20
-174.08077716199941
 30
0.0
 11
375.86392447179202
 21
-168.03077716199951
 31
0.0
  0
LINE
  5
564
  8
DATA
  6
CONTINUOUS
 62
     7
 10
368.98892447179207
 20
-187.83077716199941
 30
0.0
 11
375.86392447179202
 21
-187.83077716199941
 31
0.0
  0
LINE
  5
565
  8
DATA
  6
CONTINUOUS
 62
     7
 10
368.98892447179207
 20
-181.78077716199931
 30
0.0
 11
375.86392447179202
 21
-181.78077716199931
 31
0.0
  0
LINE
  5
566
  8
DATA
  6
CONTINUOUS
 62
     7
 10
368.98892447179207
 20
-174.08077716199941
 30
0.0
 11
375.86392447179202
 21
-174.08077716199941
 31
0.0
  0
LINE
  5
567
  8
DATA
  6
CONTINUOUS
 62
     7
 10
368.98892447179207
 20
-168.03077716199951
 30
0.0
 11
375.86392447179202
 21
-168.03077716199951
 31
0.0
  0
POLYLINE
  5
568
  8
DATA
  6
CONTINUOUS
 62
     7
 66
     1
 10
0.0
 20
0.0
 30
0.0
 70
     1
  0
VERTEX
  5
AA6
  8
DATA
  6
CONTINUOUS
 62
     7
 10
362.93892447179201
 20
-154.28077716199931
 30
0.0
  0
VERTEX
  5
AA7
  8
DATA
  6
CONTINUOUS
 62
     7
 10
368.98892447179202
 20
-154.28077716199931
 30
0.0
  0
VERTEX
  5
AA8
  8
DATA
  6
CONTINUOUS
 62
     7
 10
368.98892447179202
 20
-160.33077716199929
 30
0.0
  0
VERTEX
  5
AA9
  8
DATA
  6
CONTINUOUS
 62
     7
 10
362.93892447179201
 20
-160.33077716199929
 30
0.0
  0
SEQEND
  5
AAA
  8
DATA
  6
CONTINUOUS
 62
     7
  0
POLYLINE
  5
56F
  8
DATA
  6
CONTINUOUS
 62
     7
 66
     1
 10
0.0
 20
0.0
 30
0.0
 70
     1
  0
VERTEX
  5
AAB
  8
DATA
  6
CONTINUOUS
 62
     7
 10
362.93892447179201
 20
-140.53077716199931
 30
0.0
  0
VERTEX
  5
AAC
  8
DATA
  6
CONTINUOUS
 62
     7
 10
368.98892447179202
 20
-140.53077716199931
 30
0.0
  0
VERTEX
  5
AAD
  8
DATA
  6
CONTINUOUS
 62
     7
 10
368.98892447179202
 20
-146.58077716199929
 30
0.0
  0
VERTEX
  5
AAE
  8
DATA
  6
CONTINUOUS
 62
     7
 10
362.93892447179201
 20
-146.58077716199929
 30
0.0
  0
SEQEND
  5
AAF
  8
DATA
  6
CONTINUOUS
 62
     7
  0
LINE
  5
576
  8
DATA
  6
CONTINUOUS
 62
     7
 10
375.86392447179202
 20
-140.5307771619994
 30
0.0
 11
375.86392447179202
 21
-146.58077716199941
 31
0.0
  0
LINE
  5
577
  8
DATA
  6
CONTINUOUS
 62
     7
 10
375.86392447179202
 20
-154.28077716199931
 30
0.0
 11
375.86392447179202
 21
-160.33077716199941
 31
0.0
  0
LINE
  5
578
  8
DATA
  6
CONTINUOUS
 62
     7
 10
368.98892447179207
 20
-140.5307771619994
 30
0.0
 11
375.86392447179202
 21
-140.5307771619994
 31
0.0
  0
LINE
  5
579
  8
DATA
  6
CONTINUOUS
 62
     7
 10
368.98892447179207
 20
-146.58077716199941
 30
0.0
 11
375.86392447179202
 21
-146.58077716199941
 31
0.0
  0
LINE
  5
57A
  8
DATA
  6
CONTINUOUS
 62
     7
 10
368.98892447179207
 20
-154.28077716199931
 30
0.0
 11
375.86392447179202
 21
-154.28077716199931
 31
0.0
  0
LINE
  5
57B
  8
DATA
  6
CONTINUOUS
 62
     7
 10
368.98892447179207
 20
-160.33077716199941
 30
0.0
 11
375.86392447179202
 21
-160.33077716199941
 31
0.0
  0
TEXT
  5
57C
  8
DATA
 62
     7
 10
352.1335842331348
 20
-140.9524438285755
 30
0.0
 40
7.1669010416666659
  1
1
 50
270.0
 41
0.7
 11
359.30048527480147
 21
-140.9524438285755
 31
0.0
 73
     3
  0
TEXT
  5
57D
  8
DATA
 62
     7
 10
352.1335842331348
 20
-154.7024438285755
 30
0.0
 40
7.1669010416666659
  1
2
 50
270.0
 41
0.7
 11
359.30048527480147
 21
-154.7024438285755
 31
0.0
 73
     3
  0
TEXT
  5
57E
  8
DATA
 62
     7
 10
352.1335842331348
 20
-168.4524438285755
 30
0.0
 40
7.1669010416666659
  1
3
 50
270.0
 41
0.7
 11
359.30048527480147
 21
-168.4524438285755
 31
0.0
 73
     3
  0
TEXT
  5
57F
  8
DATA
 62
     7
 10
352.1335842331348
 20
-182.20244382857541
 30
0.0
 40
7.1669010416666659
  1
4
 50
270.0
 41
0.7
 11
359.30048527480147
 21
-182.20244382857541
 31
0.0
 73
     3
  0
TEXT
  5
580
  8
DATA
 62
     7
 10
379.42369573352818
 20
-145.8895380656601
 30
0.0
 40
7.1669010416666659
  1
ON
 50
270.0
 41
0.7
 11
386.59059677519491
 21
-145.8895380656601
 31
0.0
 73
     3
  0
TEXT
  5
581
  8
DATA
 62
     7
 10
288.57607944860268
 20
-220.56335966599551
 30
0.0
 40
10.85894097222222
  1
ディツプスイッチ拡大図
 41
0.7
 11
288.57607944860268
 21
-209.70441869377331
 31
0.0
 73
     3
  0
CIRCLE
  5
582
  8
DATA
  6
CONTINUOUS
 62
     7
 10
104.7499999996212
 20
306.75
 30
0.0
 40
6.0
  0
CIRCLE
  5
583
  8
DATA
  6
CONTINUOUS
 62
     7
 10
104.7499999996212
 20
306.75
 30
0.0
 40
5.0
  0
CIRCLE
  5
584
  8
DATA
  6
CONTINUOUS
 62
     7
 10
296.7499999996208
 20
306.75
 30
0.0
 40
6.0
  0
CIRCLE
  5
585
  8
DATA
  6
CONTINUOUS
 62
     7
 10
296.7499999996208
 20
306.75
 30
0.0
 40
5.0
  0
CIRCLE
  5
586
  8
DATA
  6
CONTINUOUS
 62
     7
 10
296.7499999996208
 20
228.75
 30
0.0
 40
6.0
  0
CIRCLE
  5
587
  8
DATA
  6
CONTINUOUS
 62
     7
 10
296.7499999996208
 20
228.75
 30
0.0
 40
5.0
  0
CIRCLE
  5
588
  8
DATA
  6
CONTINUOUS
 62
     7
 10
104.7499999996212
 20
228.75
 30
0.0
 40
6.0
  0
CIRCLE
  5
589
  8
DATA
  6
CONTINUOUS
 62
     7
 10
104.7499999996212
 20
228.75
 30
0.0
 40
5.0
  0
CIRCLE
  5
58A
  8
DATA
  6
CONTINUOUS
 62
     7
 10
104.7499999996212
 20
-49.5
 30
0.0
 40
6.0
  0
CIRCLE
  5
58B
  8
DATA
  6
CONTINUOUS
 62
     7
 10
104.7499999996212
 20
-49.5
 30
0.0
 40
5.0
  0
CIRCLE
  5
58C
  8
DATA
  6
CONTINUOUS
 62
     7
 10
296.7499999996208
 20
-49.5
 30
0.0
 40
6.0
  0
CIRCLE
  5
58D
  8
DATA
  6
CONTINUOUS
 62
     7
 10
296.7499999996208
 20
-49.5
 30
0.0
 40
5.0
  0
CIRCLE
  5
58E
  8
DATA
  6
CONTINUOUS
 62
     7
 10
296.7499999996208
 20
-127.5
 30
0.0
 40
6.0
  0
CIRCLE
  5
58F
  8
DATA
  6
CONTINUOUS
 62
     7
 10
296.7499999996208
 20
-127.5
 30
0.0
 40
5.0
  0
CIRCLE
  5
590
  8
DATA
  6
CONTINUOUS
 62
     7
 10
104.7499999996212
 20
-127.5
 30
0.0
 40
6.0
  0
CIRCLE
  5
591
  8
DATA
  6
CONTINUOUS
 62
     7
 10
104.7499999996212
 20
-127.5
 30
0.0
 40
5.0
  0
LINE
  5
592
  8
DATA
  6
CONTINUOUS
 62
     7
 10
287.5
 20
131.25
 30
0.0
 11
450.0
 21
131.25
 31
0.0
  0
LINE
  5
593
  8
DATA
  6
CONTINUOUS
 62
     7
 10
287.5
 20
-225.0
 30
0.0
 11
450.0
 21
-225.0
 31
0.0
  0
LINE
  5
594
  8
DATA
  6
CONTINUOUS
 62
     7
 10
-162.5
 20
93.75
 30
0.0
 11
37.5
 21
93.75
 31
0.0
  0
LINE
  5
595
  8
DATA
  6
CONTINUOUS
 62
     7
 10
-164.26568915279859
 20
-262.5
 30
0.0
 11
41.984310847200831
 21
-262.5
 31
0.0
  0
ENDSEC
  0
EOF
