  0
SECTION
  2
HEADER
  9
$ACADVER
  1
AC1009
  9
$INSBASE
 10
0.0
 20
0.0
 30
0.0
  9
$EXTMIN
 10
-80.010985489947416
 20
-131.67677505465531
 30
-0.0015258207003583
  9
$EXTMAX
 10
280.01098716632811
 20
403.54994963264153
 30
0.0000000349246037
  9
$LIMMIN
 10
0.0
 20
0.0
  9
$LIMMAX
 10
0.0
 20
0.0
  9
$ORTHOMODE
 70
     0
  9
$REGENMODE
 70
     1
  9
$FILLMODE
 70
     1
  9
$QTEXTMODE
 70
     0
  9
$MIRRTEXT
 70
     1
  9
$DRAGMODE
 70
     2
  9
$LTSCALE
 40
10.16
  9
$OSMODE
 70
   231
  9
$ATTMODE
 70
     1
  9
$TEXTSIZE
 40
0.0
  9
$TRACEWID
 40
1.0
  9
$TEXTSTYLE
  7
STANDARD
  9
$CLAYER
  8
DATA
  9
$CELTYPE
  6
BYLAYER
  9
$CECOLOR
 62
   256
  9
$DIMSCALE
 40
1.0
  9
$DIMASZ
 40
0.18
  9
$DIMEXO
 40
0.0625
  9
$DIMDLI
 40
0.38
  9
$DIMRND
 40
0.0
  9
$DIMDLE
 40
0.0
  9
$DIMEXE
 40
0.18
  9
$DIMTP
 40
0.0
  9
$DIMTM
 40
0.0
  9
$DIMTXT
 40
0.18
  9
$DIMCEN
 40
0.09
  9
$DIMTSZ
 40
0.0
  9
$DIMTOL
 70
     0
  9
$DIMLIM
 70
     0
  9
$DIMTIH
 70
     1
  9
$DIMTOH
 70
     1
  9
$DIMSE1
 70
     0
  9
$DIMSE2
 70
     0
  9
$DIMTAD
 70
     0
  9
$DIMZIN
 70
     0
  9
$DIMBLK
  1

  9
$DIMASO
 70
     1
  9
$DIMSHO
 70
     1
  9
$DIMPOST
  1

  9
$DIMAPOST
  1

  9
$DIMALT
 70
     0
  9
$DIMALTD
 70
     2
  9
$DIMALTF
 40
25.399999999999999
  9
$DIMLFAC
 40
1.0
  9
$DIMTOFL
 70
     0
  9
$DIMTVP
 40
0.0
  9
$DIMTIX
 70
     0
  9
$DIMSOXD
 70
     0
  9
$DIMSAH
 70
     0
  9
$DIMBLK1
  1

  9
$DIMBLK2
  1

  9
$DIMSTYLE
  2
STANDARD
  9
$DIMCLRD
 70
     0
  9
$DIMCLRE
 70
     0
  9
$DIMCLRT
 70
     0
  9
$DIMTFAC
 40
1.0
  9
$DIMGAP
 40
0.09
  9
$LUNITS
 70
     2
  9
$LUPREC
 70
     4
  9
$SKETCHINC
 40
0.1
  9
$FILLETRAD
 40
0.0
  9
$AUNITS
 70
     0
  9
$AUPREC
 70
     0
  9
$MENU
  1
acad
  9
$ELEVATION
 40
0.0
  9
$PELEVATION
 40
0.0
  9
$THICKNESS
 40
0.0
  9
$LIMCHECK
 70
     0
  9
$BLIPMODE
 70
     0
  9
$CHAMFERA
 40
0.0
  9
$CHAMFERB
 40
0.0
  9
$SKPOLY
 70
     0
  9
$TDCREATE
 40
2455615.6578124999
  9
$TDUPDATE
 40
2455615.6614507991
  9
$TDINDWG
 40
0.0002941088
  9
$TDUSRTIMER
 40
0.0002939236
  9
$USRTIMER
 70
     1
  9
$ANGBASE
 50
0.0
  9
$ANGDIR
 70
     0
  9
$PDMODE
 70
     1
  9
$PDSIZE
 40
-2.0
  9
$PLINEWID
 40
0.0
  9
$COORDS
 70
     1
  9
$SPLFRAME
 70
     0
  9
$SPLINETYPE
 70
     6
  9
$SPLINESEGS
 70
     8
  9
$ATTDIA
 70
     0
  9
$ATTREQ
 70
     1
  9
$HANDLING
 70
     1
  9
$HANDSEED
  5
46E
  9
$SURFTAB1
 70
     6
  9
$SURFTAB2
 70
     6
  9
$SURFTYPE
 70
     6
  9
$SURFU
 70
     6
  9
$SURFV
 70
     6
  9
$UCSNAME
  2

  9
$UCSORG
 10
0.0
 20
0.0
 30
0.0
  9
$UCSXDIR
 10
1.0
 20
0.0
 30
0.0
  9
$UCSYDIR
 10
0.0
 20
1.0
 30
0.0
  9
$PUCSNAME
  2

  9
$PUCSORG
 10
0.0
 20
0.0
 30
0.0
  9
$PUCSXDIR
 10
1.0
 20
0.0
 30
0.0
  9
$PUCSYDIR
 10
0.0
 20
1.0
 30
0.0
  9
$USERI1
 70
     0
  9
$USERI2
 70
     0
  9
$USERI3
 70
     0
  9
$USERI4
 70
     0
  9
$USERI5
 70
     0
  9
$USERR1
 40
0.0
  9
$USERR2
 40
0.0
  9
$USERR3
 40
0.0
  9
$USERR4
 40
0.0
  9
$USERR5
 40
0.0
  9
$WORLDVIEW
 70
     1
  9
$SHADEDGE
 70
     3
  9
$SHADEDIF
 70
    70
  9
$TILEMODE
 70
     1
  9
$MAXACTVP
 70
    64
  9
$PLIMCHECK
 70
     0
  9
$PEXTMIN
 10
1.0000000000000000E+020
 20
1.0000000000000000E+020
 30
1.0000000000000000E+020
  9
$PEXTMAX
 10
-1.0000000000000000E+020
 20
-1.0000000000000000E+020
 30
-1.0000000000000000E+020
  9
$PLIMMIN
 10
0.0
 20
0.0
  9
$PLIMMAX
 10
12.0
 20
9.0
  9
$UNITMODE
 70
     0
  9
$VISRETAIN
 70
     0
  9
$PLINEGEN
 70
     1
  9
$PSLTSCALE
 70
     0
  0
ENDSEC
  0
SECTION
  2
TABLES
  0
TABLE
  2
VPORT
 70
     1
  0
VPORT
  2
*ACTIVE
 70
     0
 10
0.0
 20
0.0
 11
1.0
 21
1.0
 12
100.0000008381904
 22
135.93658728899311
 13
0.0
 23
0.0
 14
1.0
 24
1.0
 15
0.0
 25
0.0
 16
0.0
 26
0.0
 36
1.0
 17
0.0
 27
0.0
 37
0.0
 40
539.16704413284754
 41
1.9619164619164611
 42
50.0
 43
0.0
 44
0.0
 50
0.0
 51
0.0
 71
     0
 72
  2000
 73
     1
 74
     1
 75
     0
 76
     0
 77
     0
 78
     0
  0
ENDTAB
  0
TABLE
  2
LTYPE
 70
    11
  0
LTYPE
  2
CONTINUOUS
 70
     0
  3
Solid line
 72
    65
 73
     0
 40
0.0
  0
ENDTAB
  0
TABLE
  2
LAYER
 70
     6
  0
LAYER
  2
0
 70
     0
 62
     7
  6
CONTINUOUS
  0
LAYER
  2
DATA
 70
     0
 62
     7
  6
CONTINUOUS
  0
LAYER
  2
HIBINO-BASE
 70
     0
 62
     7
  6
CONTINUOUS
  0
LAYER
  2
SPEC
 70
     0
 62
     7
  6
CONTINUOUS
  0
LAYER
  2
DIMNSIONS
 70
     0
 62
     7
  6
CONTINUOUS
  0
ENDTAB
  0
TABLE
  2
STYLE
 70
     3
  0
STYLE
  2
STANDARD
 70
     0
 40
0.0
 41
1.0
 50
0.0
 71
     0
 42
0.0
  3
txt
  4
BIGFONT.SHX
  0
ENDTAB
  0
TABLE
  2
VIEW
 70
     0
  0
ENDTAB
  0
TABLE
  2
UCS
 70
     0
  0
ENDTAB
  0
TABLE
  2
APPID
 70
     3
  0
APPID
  2
ACAD
 70
     0
  0
APPID
  2
ACADANNOTATIVE
 70
     0
  0
APPID
  2
ACAD_MLEADERVER
 70
     0
  0
ENDTAB
  0
TABLE
  2
DIMSTYLE
 70
     2
  0
DIMSTYLE
  2
STANDARD
 70
     0
  3

  4

  5

  6

  7

 40
1.0
 41
0.18
 42
0.0625
 43
0.38
 44
0.18
 45
0.0
 46
0.0
 47
0.0
 48
0.0
140
0.18
141
0.09
142
0.0
143
25.399999999999999
144
1.0
145
0.0
146
1.0
147
0.09
 71
     0
 72
     0
 73
     1
 74
     1
 75
     0
 76
     0
 77
     0
 78
     0
170
     0
171
     2
172
     0
173
     0
174
     0
175
     0
176
     0
177
     0
178
     0
  0
ENDTAB
  0
ENDSEC
  0
SECTION
  2
BLOCKS
  0
BLOCK
  8
0
  2
$MODEL_SPACE
 70
     0
 10
0.0
 20
0.0
 30
0.0
  3
$MODEL_SPACE
  1

  0
ENDBLK
  5
2EE
  8
0
  0
BLOCK
 67
     1
  8
0
  2
$PAPER_SPACE
 70
     0
 10
0.0
 20
0.0
 30
0.0
  3
$PAPER_SPACE
  1

  0
ENDBLK
  5
2EA
 67
     1
  8
0
  0
ENDSEC
  0
SECTION
  2
ENTITIES
  0
LINE
  5
2D
  8
HIBINO-BASE
  6
CONTINUOUS
 62
     7
 10
-79.999999999999986
 20
403.53364789486591
 30
0.0
 11
279.99999999999989
 21
403.53364789486591
 31
0.0
  0
LINE
  5
2E
  8
HIBINO-BASE
  6
CONTINUOUS
 62
     7
 10
279.99999999999989
 20
-116.46635210513411
 30
0.0
 11
-79.999999999999986
 21
-116.46635210513411
 31
0.0
  0
LINE
  5
2F
  8
HIBINO-BASE
  6
CONTINUOUS
 62
     7
 10
-79.999999999999986
 20
-116.46635210513411
 30
0.0
 11
-79.999999999999986
 21
403.53364789486591
 31
0.0
  0
LINE
  5
30
  8
HIBINO-BASE
  6
CONTINUOUS
 62
     7
 10
279.99999999999989
 20
403.53364789486591
 30
0.0
 11
279.99999999999989
 21
-116.46635210513411
 31
0.0
  0
LINE
  5
31
  8
HIBINO-BASE
  6
CONTINUOUS
 62
     7
 10
100.0
 20
-71.466352105134064
 30
0.0
 11
279.99999999999989
 21
-71.466352105134064
 31
0.0
  0
LINE
  5
32
  8
HIBINO-BASE
  6
CONTINUOUS
 62
     7
 10
100.0
 20
-116.46635210513411
 30
0.0
 11
100.0
 21
-71.466352105134064
 31
0.0
  0
TEXT
  5
33
  8
HIBINO-BASE
 62
     7
 10
101.8
 20
-76.483738771800731
 30
0.0
 40
3.2576822916666659
  1
NOTE
 41
0.7
 11
101.8
 21
-73.226056480134062
 31
0.0
 73
     3
  0
LINE
  5
34
  8
HIBINO-BASE
  6
CONTINUOUS
 62
     7
 10
170.0
 20
-116.46635210513411
 30
0.0
 11
170.0
 21
-71.466352105134064
 31
0.0
  0
TEXT
  5
35
  8
HIBINO-BASE
 62
     7
 10
171.7999999999999
 20
-76.483738771800731
 30
0.0
 40
3.2576822916666659
  1
TITLE
 41
0.7
 11
171.7999999999999
 21
-73.226056480134062
 31
0.0
 73
     3
  0
LINE
  5
36
  8
HIBINO-BASE
  6
CONTINUOUS
 62
     7
 10
100.0
 20
-96.466352105134064
 30
0.0
 11
279.99999999999989
 21
-96.466352105134064
 31
0.0
  0
TEXT
  5
37
  8
HIBINO-BASE
 62
     7
 10
196.80000000000001
 20
-101.3710987718007
 30
0.0
 40
3.2576822916666659
  1
DRAWN
 41
0.7
 11
196.80000000000001
 21
-98.113416480134106
 31
0.0
 73
     3
  0
TEXT
  5
38
  8
HIBINO-BASE
 62
     7
 10
146.7999999999999
 20
-101.3710987718007
 30
0.0
 40
3.2576822916666659
  1
DATE
 41
0.7
 11
146.7999999999999
 21
-98.113416480134106
 31
0.0
 73
     3
  0
TEXT
  5
39
  8
HIBINO-BASE
 62
     7
 10
126.8
 20
-101.3710987718007
 30
0.0
 40
3.2576822916666659
  1
SCALE
 41
0.7
 11
126.8
 21
-98.113416480134106
 31
0.0
 73
     3
  0
TEXT
  5
3A
  8
HIBINO-BASE
 62
     7
 10
171.7999999999999
 20
-101.3710987718007
 30
0.0
 40
3.2576822916666659
  1
DESIGN
 41
0.7
 11
171.7999999999999
 21
-98.113416480134106
 31
0.0
 73
     3
  0
TEXT
  5
3B
  8
HIBINO-BASE
 62
     7
 10
246.7999999999999
 20
-101.3710987718007
 30
0.0
 40
3.2576822916666659
  1
DRAWING NO.
 41
0.7
 11
246.7999999999999
 21
-98.113416480134106
 31
0.0
 73
     3
  0
TEXT
  5
3C
  8
HIBINO-BASE
 62
     7
 10
221.7999999999999
 20
-101.3710987718007
 30
0.0
 40
3.2576822916666659
  1
CHECK
 41
0.7
 11
221.7999999999999
 21
-98.113416480134106
 31
0.0
 73
     3
  0
LINE
  5
3D
  8
HIBINO-BASE
  6
CONTINUOUS
 62
     7
 10
128.74999999999989
 20
-113.96635210513411
 30
0.0
 11
136.25
 21
-106.46635210513401
 31
0.0
  0
TEXT
  5
3E
  8
HIBINO-BASE
 62
     7
 10
127.5
 20
-108.68423877180069
 30
0.0
 40
3.2576822916666659
  1
1
 41
0.7
 11
127.5
 21
-105.4265564801341
 31
0.0
 73
     3
  0
LINE
  5
3F
  8
HIBINO-BASE
  6
CONTINUOUS
 62
     7
 10
125.0
 20
-116.46635210513411
 30
0.0
 11
125.0
 21
-96.466352105134064
 31
0.0
  0
LINE
  5
40
  8
HIBINO-BASE
  6
CONTINUOUS
 62
     7
 10
145.0
 20
-116.46635210513411
 30
0.0
 11
145.0
 21
-96.466352105134064
 31
0.0
  0
LINE
  5
41
  8
HIBINO-BASE
  6
CONTINUOUS
 62
     7
 10
195.0
 20
-96.466352105134064
 30
0.0
 11
195.0
 21
-116.46635210513411
 31
0.0
  0
LINE
  5
42
  8
HIBINO-BASE
  6
CONTINUOUS
 62
     7
 10
245.0
 20
-96.466352105134064
 30
0.0
 11
245.0
 21
-116.46635210513411
 31
0.0
  0
LINE
  5
43
  8
HIBINO-BASE
  6
CONTINUOUS
 62
     7
 10
220.0
 20
-116.46635210513411
 30
0.0
 11
220.0
 21
-96.466352105134064
 31
0.0
  0
TEXT
  5
44
  8
HIBINO-BASE
 62
     7
 10
146.71307999999999
 20
-110.7390587718007
 30
0.0
 40
3.2576822916666659
  1
'11.02.
 41
0.7
 11
146.71307999999999
 21
-107.4813764801341
 31
0.0
 73
     3
  0
TEXT
  5
45
  8
HIBINO-BASE
 62
     7
 10
135.0
 20
-112.43423877180069
 30
0.0
 40
3.2576822916666659
  1
2
 41
0.7
 11
135.0
 21
-109.1765564801341
 31
0.0
 73
     3
  0
TEXT
  5
46
  8
HIBINO-BASE
 62
     7
 10
198.0116200220692
 20
-110.7390587718007
 30
0.0
 40
3.2576822916666659
  1
T.Ootake
 41
0.7
 11
198.0116200220692
 21
-107.4813764801341
 31
0.0
 73
     3
  0
TEXT
  5
47
  8
HIBINO-BASE
 62
     7
 10
107.76666666666659
 20
-112.51435210513399
 30
0.0
 40
6.5153645833333318
  1
A4
 41
0.7
 11
107.76666666666659
 21
-105.9989875218007
 31
0.0
 73
     3
  0
TEXT
  5
48
  8
HIBINO-BASE
 62
     7
 10
101.9166666666666
 20
-101.7052621051341
 30
0.0
 40
3.2576822916666659
  1
PAPER SIZE
 41
0.7
 11
101.9166666666666
 21
-98.447579813467414
 31
0.0
 73
     3
  0
TEXT
  5
49
  8
HIBINO-BASE
 62
     7
 10
-74.48072948621963
 20
-129.31683257348661
 30
0.0
 40
7.0583116319444441
  1
Hibino-Intersound Corporation
 41
0.7
 11
-74.48072948621963
 21
-122.2585209415421
 31
0.0
 73
     3
  0
TEXT
  5
4A
  8
HIBINO-BASE
 62
     7
 10
140.36121936042781
 20
-128.61465606690771
 30
0.0
 40
7.0583116319444441
  1
ヒビノインターサウンド株式会社
 41
0.7
 11
140.36121936042781
 21
-121.55634443496329
 31
0.0
 73
     3
  0
LINE
  5
4B
  8
SPEC
  6
CONTINUOUS
 62
     7
 10
-64.999999999999986
 20
383.53364789486602
 30
0.0
 11
230.0
 21
383.53364789486602
 31
0.0
  0
LINE
  5
4C
  8
SPEC
  6
CONTINUOUS
 62
     7
 10
-64.999999999999986
 20
376.03364789486591
 30
0.0
 11
230.0
 21
376.03364789486591
 31
0.0
  0
LINE
  5
4D
  8
SPEC
  6
CONTINUOUS
 62
     7
 10
-64.999999999999986
 20
361.03364789486602
 30
0.0
 11
230.0
 21
361.03364789486602
 31
0.0
  0
LINE
  5
4E
  8
SPEC
  6
CONTINUOUS
 62
     7
 10
-64.999999999999986
 20
368.53364789486602
 30
0.0
 11
230.0
 21
368.53364789486602
 31
0.0
  0
LINE
  5
4F
  8
SPEC
  6
CONTINUOUS
 62
     7
 10
-64.999999999999986
 20
383.53364789486602
 30
0.0
 11
-64.999999999999986
 21
308.53364789486602
 31
0.0
  0
TEXT
  5
50
  8
SPEC
 62
     7
 10
-62.5
 20
386.32018789486591
 30
0.0
 40
4.8865234375000002
  1
仕様
 41
0.7
 11
-62.5
 21
391.2067113323659
 31
0.0
 73
     3
  0
LINE
  5
51
  8
SPEC
  6
CONTINUOUS
 62
     7
 10
230.0
 20
383.53364789486602
 30
0.0
 11
230.0
 21
308.53364789486602
 31
0.0
  0
LINE
  5
52
  8
SPEC
  6
CONTINUOUS
 62
     7
 10
-64.999999999999986
 20
353.53364789486602
 30
0.0
 11
230.0
 21
353.53364789486602
 31
0.0
  0
LINE
  5
53
  8
SPEC
  6
CONTINUOUS
 62
     7
 10
-64.999999999999986
 20
346.03364789486602
 30
0.0
 11
230.0
 21
346.03364789486602
 31
0.0
  0
LINE
  5
54
  8
SPEC
  6
CONTINUOUS
 62
     7
 10
-64.999999999999986
 20
338.53364789486591
 30
0.0
 11
230.0
 21
338.53364789486591
 31
0.0
  0
LINE
  5
55
  8
SPEC
  6
CONTINUOUS
 62
     7
 10
-64.999999999999986
 20
331.03364789486602
 30
0.0
 11
230.0
 21
331.03364789486602
 31
0.0
  0
LINE
  5
56
  8
SPEC
  6
CONTINUOUS
 62
     7
 10
-64.999999999999986
 20
323.53364789486602
 30
0.0
 11
230.0
 21
323.53364789486602
 31
0.0
  0
LINE
  5
57
  8
SPEC
  6
CONTINUOUS
 62
     7
 10
-64.999999999999986
 20
316.03364789486602
 30
0.0
 11
230.0
 21
316.03364789486602
 31
0.0
  0
TEXT
  5
58
  8
SPEC
 62
     7
 10
-63.369800755580819
 20
317.97835974975652
 30
0.0
 40
3.8006293402777769
  1
寸法
 41
0.7
 11
-63.369800755580819
 21
321.77898909003432
 31
0.0
 73
     3
  0
TEXT
  5
59
  8
SPEC
 62
     7
 10
14.842301512634281
 20
317.86421190603988
 30
0.0
 40
3.8006293402777769
  1
83(W)\U+00D729(H)\U+00D796(D)mm(突起部含まず）
 41
0.7
 11
14.842301512634281
 21
321.66484124631768
 31
0.0
 73
     3
  0
TEXT
  5
5A
  8
SPEC
 62
     7
 10
14.75005867525422
 20
310.69000146741809
 30
0.0
 40
3.8006293402777769
  1
約160g
 41
0.7
 11
14.75005867525422
 21
314.49063080769588
 31
0.0
 73
     3
  0
TEXT
  5
5B
  8
SPEC
 62
     7
 10
-63.22115947140712
 20
310.57976885627693
 30
0.0
 40
3.8006293402777769
  1
重量
 41
0.7
 11
-63.22115947140712
 21
314.38039819655472
 31
0.0
 73
     3
  0
TEXT
  5
5C
  8
SPEC
 62
     7
 10
-63.353922136849853
 20
333.12036634970087
 30
0.0
 40
3.8006293402777769
  1
電源
 41
0.7
 11
-63.353922136849853
 21
336.92099568997872
 31
0.0
 73
     3
  0
TEXT
  5
5D
  8
SPEC
 62
     7
 10
14.839339442900791
 20
332.77169699418209
 30
0.0
 40
3.8006293402777769
  1
5V DC
 41
0.7
 11
14.839339442900791
 21
336.57232633445989
 31
0.0
 73
     3
  0
TEXT
  5
5E
  8
SPEC
 62
     7
 10
-63.286829618550243
 20
325.66833928819699
 30
0.0
 40
3.8006293402777769
  1
消費電力
 41
0.7
 11
-63.286829618550243
 21
329.46896862847478
 31
0.0
 73
     3
  0
TEXT
  5
5F
  8
SPEC
 62
     7
 10
14.77478296456294
 20
325.45625967463121
 30
0.0
 40
3.8006293402777769
  1
2.5W(最大)
 41
0.7
 11
14.77478296456294
 21
329.25688901490901
 31
0.0
 73
     3
  0
TEXT
  5
60
  8
SPEC
 62
     7
 10
-63.869149433434913
 20
377.55137407280557
 30
0.0
 40
3.8006293402777769
  1
ビデオアンプ帯域
 41
0.7
 11
-63.869149433434913
 21
381.35200341308342
 31
0.0
 73
     3
  0
TEXT
  5
61
  8
SPEC
 62
     7
 10
14.55072032906817
 20
377.83205732561942
 30
0.0
 40
3.8006293402777769
  1
165MHz
 41
0.7
 11
14.55072032906817
 21
381.63268666589721
 31
0.0
 73
     3
  0
TEXT
  5
62
  8
SPEC
 62
     7
 10
-63.277400952967739
 20
370.24438325959551
 30
0.0
 40
3.8006293402777769
  1
入力DDC信号
 41
0.7
 11
-63.277400952967739
 21
374.0450125998733
 31
0.0
 73
     3
  0
TEXT
  5
63
  8
SPEC
 62
     7
 10
14.86735392893223
 20
370.34970147071567
 30
0.0
 40
3.8006293402777769
  1
5Vp-p(TTL)
 41
0.7
 11
14.86735392893223
 21
374.15033081099352
 31
0.0
 73
     3
  0
TEXT
  5
64
  8
SPEC
 62
     7
 10
-63.180422031095858
 20
348.09394353571003
 30
0.0
 40
3.8006293402777769
  1
VG入出力端子
 41
0.7
 11
-63.180422031095858
 21
351.89457287598782
 31
0.0
 73
     3
  0
TEXT
  5
65
  8
SPEC
 62
     7
 10
14.910873869662661
 20
347.93798679762119
 30
0.0
 40
3.8006293402777769
  1
HD-15、female
 41
0.7
 11
14.910873869662661
 21
351.73861613789887
 31
0.0
 73
     3
  0
LINE
  5
66
  8
SPEC
  6
CONTINUOUS
 62
     7
 10
13.000000000000011
 20
383.53364789486602
 30
0.0
 11
13.000000000000011
 21
308.53364789486602
 31
0.0
  0
TEXT
  5
67
  8
SPEC
 62
     7
 10
-63.277400952967739
 20
362.84622666852471
 30
0.0
 40
3.8006293402777769
  1
入力ビデオ信号
 41
0.7
 11
-63.277400952967739
 21
366.64685600880262
 31
0.0
 73
     3
  0
TEXT
  5
68
  8
SPEC
 62
     7
 10
14.86735392893223
 20
362.84970147071579
 30
0.0
 40
3.8006293402777769
  1
1.2Vp-p
 41
0.7
 11
14.86735392893223
 21
366.65033081099352
 31
0.0
 73
     3
  0
TEXT
  5
69
  8
SPEC
 62
     7
 10
-63.180422031095858
 20
355.59394353571003
 30
0.0
 40
3.8006293402777769
  1
DVI入出力端子
 41
0.7
 11
-63.180422031095858
 21
359.39457287598771
 31
0.0
 73
     3
  0
TEXT
  5
6A
  8
SPEC
 62
     7
 10
14.910873869662661
 20
355.43798679762108
 30
0.0
 40
3.8006293402777769
  1
DVI-I(29pin)female(digital only)
 41
0.7
 11
14.910873869662661
 21
359.23861613789899
 31
0.0
 73
     3
  0
TEXT
  5
6B
  8
SPEC
 62
     7
 10
-63.353922136849853
 20
340.62036634970087
 30
0.0
 40
3.8006293402777769
  1
動作温度
 41
0.7
 11
-63.353922136849853
 21
344.42099568997872
 31
0.0
 73
     3
  0
TEXT
  5
6C
  8
SPEC
 62
     7
 10
14.839339442900791
 20
340.27169699418198
 30
0.0
 40
3.8006293402777769
  1
0～40℃
 41
0.7
 11
14.839339442900791
 21
344.07232633445977
 31
0.0
 73
     3
  0
LINE
  5
6D
  8
SPEC
  6
CONTINUOUS
 62
     7
 10
-64.999999999999986
 20
308.53364789486602
 30
0.0
 11
230.0
 21
308.53364789486602
 31
0.0
  0
TEXT
  5
6E
  8
DIMNSIONS
 62
     7
 10
60.0
 20
-91.927372105134054
 30
0.0
 40
4.8865234375000002
  1
(単位：mm)
 41
0.7
 11
60.0
 21
-87.040848667634066
 31
0.0
 73
     3
  0
LINE
  5
6F
  8
DIMNSIONS
  6
CONTINUOUS
 62
     7
 10
-4.0000000000000142
 20
0.0
 30
0.0
 11
-22.750000000000011
 21
0.0
 31
0.0
  0
LINE
  5
70
  8
DIMNSIONS
  6
CONTINUOUS
 62
     7
 10
-4.0000000000000142
 20
29.0
 30
0.0
 11
-22.750000000000011
 21
29.0
 31
0.0
  0
LINE
  5
71
  8
DIMNSIONS
  6
CONTINUOUS
 62
     7
 10
-18.750000000000011
 20
0.0
 30
0.0
 11
-18.750000000000011
 21
29.0
 31
0.0
  0
LINE
  5
72
  8
DIMNSIONS
  6
CONTINUOUS
 62
     7
 10
-18.750000000000011
 20
0.0
 30
0.0
 11
-20.090079590300501
 21
5.0012451171874943
 31
0.0
  0
LINE
  5
73
  8
DIMNSIONS
  6
CONTINUOUS
 62
     7
 10
-18.750000000000011
 20
0.0
 30
0.0
 11
-17.409920409699531
 21
5.0012451171874943
 31
0.0
  0
LINE
  5
74
  8
DIMNSIONS
  6
CONTINUOUS
 62
     7
 10
-18.750000000000011
 20
29.0
 30
0.0
 11
-17.409920409699531
 21
23.998754882812509
 31
0.0
  0
LINE
  5
75
  8
DIMNSIONS
  6
CONTINUOUS
 62
     7
 10
-18.750000000000011
 20
29.0
 30
0.0
 11
-20.090079590300501
 21
23.998754882812509
 31
0.0
  0
TEXT
  5
76
  8
DIMNSIONS
 62
     7
 10
-20.737777777777769
 20
10.97222222222222
 30
0.0
 40
5.4294704861111107
  1
29
 50
90.0
 41
0.7
 11
-26.16724826388889
 21
10.97222222222222
 31
0.0
 73
     3
  0
LINE
  5
77
  8
DIMNSIONS
  6
CONTINUOUS
 62
     7
 10
0.0000004168050793
 20
-1.9987087915138479
 30
0.0
 11
0.0000004168050793
 21
-22.75
 31
0.0
  0
LINE
  5
78
  8
DIMNSIONS
  6
CONTINUOUS
 62
     7
 10
83.0
 20
-2.0
 30
0.0
 11
83.0
 21
-22.75
 31
0.0
  0
LINE
  5
79
  8
DIMNSIONS
  6
CONTINUOUS
 62
     7
 10
0.0000004168050793
 20
-18.75
 30
0.0
 11
83.0
 21
-18.75
 31
0.0
  0
LINE
  5
7A
  8
DIMNSIONS
  6
CONTINUOUS
 62
     7
 10
0.0000004168050793
 20
-18.75
 30
0.0
 11
5.0012455339925728
 21
-17.409920409699499
 31
0.0
  0
LINE
  5
7B
  8
DIMNSIONS
  6
CONTINUOUS
 62
     7
 10
0.0000004168050793
 20
-18.75
 30
0.0
 11
5.0012455339925728
 21
-20.090079590300491
 31
0.0
  0
LINE
  5
7C
  8
DIMNSIONS
  6
CONTINUOUS
 62
     7
 10
83.0
 20
-18.75
 30
0.0
 11
77.998754882812506
 21
-20.090079590300491
 31
0.0
  0
LINE
  5
7D
  8
DIMNSIONS
  6
CONTINUOUS
 62
     7
 10
83.0
 20
-18.75
 30
0.0
 11
77.998754882812506
 21
-17.409920409699499
 31
0.0
  0
TEXT
  5
7E
  8
DIMNSIONS
 62
     7
 10
37.972222430624761
 20
-16.762222222222238
 30
0.0
 40
5.4294704861111107
  1
83
 41
0.7
 11
37.972222430624761
 21
-11.332751736111129
 31
0.0
 73
     3
  0
LINE
  5
7F
  8
DIMNSIONS
  6
CONTINUOUS
 62
     7
 10
-4.0
 20
56.25
 30
0.0
 11
-22.75
 21
56.25
 31
0.0
  0
LINE
  5
80
  8
DIMNSIONS
  6
CONTINUOUS
 62
     7
 10
-4.0
 20
152.25
 30
0.0
 11
-22.75
 21
152.25
 31
0.0
  0
LINE
  5
81
  8
DIMNSIONS
  6
CONTINUOUS
 62
     7
 10
-18.75
 20
56.25
 30
0.0
 11
-18.75
 21
152.25
 31
0.0
  0
LINE
  5
82
  8
DIMNSIONS
  6
CONTINUOUS
 62
     7
 10
-18.75
 20
56.25
 30
0.0
 11
-20.090079590300491
 21
61.25124511718748
 31
0.0
  0
LINE
  5
83
  8
DIMNSIONS
  6
CONTINUOUS
 62
     7
 10
-18.75
 20
56.25
 30
0.0
 11
-17.409920409699499
 21
61.25124511718748
 31
0.0
  0
LINE
  5
84
  8
DIMNSIONS
  6
CONTINUOUS
 62
     7
 10
-18.75
 20
152.25
 30
0.0
 11
-17.409920409699499
 21
147.24875488281251
 31
0.0
  0
LINE
  5
85
  8
DIMNSIONS
  6
CONTINUOUS
 62
     7
 10
-18.75
 20
152.25
 30
0.0
 11
-20.090079590300491
 21
147.24875488281251
 31
0.0
  0
TEXT
  5
86
  8
DIMNSIONS
 62
     7
 10
-20.737777777777769
 20
100.7222222222222
 30
0.0
 40
5.4294704861111107
  1
96
 50
90.0
 41
0.7
 11
-26.167248263888879
 21
100.7222222222222
 31
0.0
 73
     3
  0
LINE
  5
87
  8
DIMNSIONS
  6
CONTINUOUS
 62
     7
 10
8.5605378647869657
 20
51.249999999673058
 30
0.0
 11
-22.75
 21
51.249999999673058
 31
0.0
  0
LINE
  5
88
  8
DIMNSIONS
  6
CONTINUOUS
 62
     7
 10
-4.0
 20
56.25
 30
0.0
 11
-22.75
 21
56.25
 31
0.0
  0
LINE
  5
89
  8
DIMNSIONS
  6
CONTINUOUS
 62
     7
 10
-18.75
 20
56.25
 30
0.0
 11
-18.75
 21
51.249999999673058
 31
0.0
  0
LINE
  5
8A
  8
DIMNSIONS
  6
CONTINUOUS
 62
     7
 10
-18.75
 20
51.249999999673058
 30
0.0
 11
-18.75
 21
40.222222222222229
 31
0.0
  0
LINE
  5
8B
  8
DIMNSIONS
  6
CONTINUOUS
 62
     7
 10
-18.75
 20
51.249999999673058
 30
0.0
 11
-17.409920409699499
 21
46.248754882485571
 31
0.0
  0
LINE
  5
8C
  8
DIMNSIONS
  6
CONTINUOUS
 62
     7
 10
-18.75
 20
51.249999999673058
 30
0.0
 11
-20.090079590300491
 21
46.248754882485571
 31
0.0
  0
LINE
  5
8D
  8
DIMNSIONS
  6
CONTINUOUS
 62
     7
 10
-18.75
 20
56.25
 30
0.0
 11
-18.75
 21
66.25
 31
0.0
  0
LINE
  5
8E
  8
DIMNSIONS
  6
CONTINUOUS
 62
     7
 10
-18.75
 20
56.25
 30
0.0
 11
-20.090079590300491
 21
61.25124511718748
 31
0.0
  0
LINE
  5
8F
  8
DIMNSIONS
  6
CONTINUOUS
 62
     7
 10
-18.75
 20
56.25
 30
0.0
 11
-17.409920409699499
 21
61.25124511718748
 31
0.0
  0
TEXT
  5
90
  8
DIMNSIONS
 62
     7
 10
-20.737777777777769
 20
40.222222222222229
 30
0.0
 40
5.4294704861111107
  1
5
 50
90.0
 41
0.7
 11
-26.167248263888879
 21
40.222222222222229
 31
0.0
 73
     3
  0
LINE
  5
91
  8
DIMNSIONS
  6
CONTINUOUS
 62
     7
 10
-4.0
 20
152.25
 30
0.0
 11
-22.75
 21
152.25
 31
0.0
  0
LINE
  5
92
  8
DIMNSIONS
  6
CONTINUOUS
 62
     7
 10
36.657817873292402
 20
157.25
 30
0.0
 11
-22.75
 21
157.25
 31
0.0
  0
LINE
  5
93
  8
DIMNSIONS
  6
CONTINUOUS
 62
     7
 10
-18.75
 20
157.25
 30
0.0
 11
-18.75
 21
152.25
 31
0.0
  0
LINE
  5
94
  8
DIMNSIONS
  6
CONTINUOUS
 62
     7
 10
-18.75
 20
152.25
 30
0.0
 11
-18.75
 21
142.25
 31
0.0
  0
LINE
  5
95
  8
DIMNSIONS
  6
CONTINUOUS
 62
     7
 10
-18.75
 20
152.25
 30
0.0
 11
-17.409920409699499
 21
147.24875488281251
 31
0.0
  0
LINE
  5
96
  8
DIMNSIONS
  6
CONTINUOUS
 62
     7
 10
-18.75
 20
152.25
 30
0.0
 11
-20.090079590300491
 21
147.24875488281251
 31
0.0
  0
LINE
  5
97
  8
DIMNSIONS
  6
CONTINUOUS
 62
     7
 10
-18.75
 20
157.25
 30
0.0
 11
-18.75
 21
166.02777777777769
 31
0.0
  0
LINE
  5
98
  8
DIMNSIONS
  6
CONTINUOUS
 62
     7
 10
-18.75
 20
157.25
 30
0.0
 11
-20.090079590300491
 21
162.25124511718741
 31
0.0
  0
LINE
  5
99
  8
DIMNSIONS
  6
CONTINUOUS
 62
     7
 10
-18.75
 20
157.25
 30
0.0
 11
-17.409920409699499
 21
162.25124511718741
 31
0.0
  0
TEXT
  5
9A
  8
DIMNSIONS
 62
     7
 10
-20.737777777777769
 20
162.5
 30
0.0
 40
5.4294704861111107
  1
5
 50
90.0
 41
0.7
 11
-26.167248263888879
 21
162.5
 31
0.0
 73
     3
  0
LINE
  5
9B
  8
DIMNSIONS
  6
CONTINUOUS
 62
     7
 10
2.1599999999999961
 20
-3.0
 30
0.0
 11
-22.75
 21
-3.0
 31
0.0
  0
LINE
  5
9C
  8
DIMNSIONS
  6
CONTINUOUS
 62
     7
 10
-2.0000000000000142
 20
0.0
 30
0.0
 11
-22.75
 21
0.0
 31
0.0
  0
LINE
  5
9D
  8
DIMNSIONS
  6
CONTINUOUS
 62
     7
 10
-18.75
 20
0.0
 30
0.0
 11
-18.75
 21
-3.0
 31
0.0
  0
LINE
  5
9E
  8
DIMNSIONS
  6
CONTINUOUS
 62
     7
 10
-18.75
 20
-3.0
 30
0.0
 11
-18.75
 21
-16.027777777777771
 31
0.0
  0
LINE
  5
9F
  8
DIMNSIONS
  6
CONTINUOUS
 62
     7
 10
-18.75
 20
-3.0
 30
0.0
 11
-17.409920409699499
 21
-8.0012451171874943
 31
0.0
  0
LINE
  5
A0
  8
DIMNSIONS
  6
CONTINUOUS
 62
     7
 10
-18.75
 20
-3.0
 30
0.0
 11
-20.090079590300491
 21
-8.0012451171874943
 31
0.0
  0
LINE
  5
A1
  8
DIMNSIONS
  6
CONTINUOUS
 62
     7
 10
-18.75
 20
0.0
 30
0.0
 11
-18.75
 21
10.0
 31
0.0
  0
LINE
  5
A2
  8
DIMNSIONS
  6
CONTINUOUS
 62
     7
 10
-18.75
 20
0.0
 30
0.0
 11
-20.090079590300491
 21
5.0012451171874943
 31
0.0
  0
LINE
  5
A3
  8
DIMNSIONS
  6
CONTINUOUS
 62
     7
 10
-18.75
 20
0.0
 30
0.0
 11
-17.409920409699499
 21
5.0012451171874943
 31
0.0
  0
TEXT
  5
A4
  8
DIMNSIONS
 62
     7
 10
-20.737777777777769
 20
-16.027777777777771
 30
0.0
 40
5.4294704861111107
  1
3
 50
90.0
 41
0.7
 11
-26.167248263888879
 21
-16.027777777777771
 31
0.0
 73
     3
  0
TEXT
  5
A5
  8
DATA
 62
     7
 10
200.0
 20
-94.590885151037554
 30
0.0
 40
4.8865234375000002
  1
EXT-DVI-2-VGAN
 41
0.7
 11
200.0
 21
-89.704361713537565
 31
0.0
 73
     3
  0
TEXT
  5
A6
  8
DATA
 62
     7
 10
200.0
 20
-78.804611251066731
 30
0.0
 40
4.8865234375000002
  1
Gefen
 41
0.7
 11
200.0
 21
-73.918087813566714
 31
0.0
 73
     3
  0
TEXT
  5
A7
  8
DATA
 62
     7
 10
195.1146350206337
 20
-86.25943798300456
 30
0.0
 40
3.257687421875
  1
DVI to VGA変換機
 41
0.7
 11
195.1146350206337
 21
-83.001750561129555
 31
0.0
 73
     3
  0
TEXT
  5
A8
  8
DATA
 62
     7
 10
-60.0
 20
-107.99035210513409
 30
0.0
 40
3.2576822916666659
  1
仕様および外観は予告なく変更されることがありますので、ご了承ください。
 41
0.7
 11
-60.0
 21
-104.7326698134674
 31
0.0
 73
     3
  0
CIRCLE
  5
A9
  8
DATA
  6
CONTINUOUS
 62
     7
 10
15.037160131828781
 20
12.803011611474121
 30
0.0
 40
1.175000000000096
  0
POLYLINE
  5
AA
  8
DATA
  6
CONTINUOUS
 62
     7
 66
     1
 10
0.0
 20
0.0
 30
0.0
 70
     1
  0
VERTEX
  5
31B
  8
DATA
  6
CONTINUOUS
 62
     7
 10
15.037160131828781
 20
15.503011611474101
 30
0.0
  0
VERTEX
  5
31C
  8
DATA
  6
CONTINUOUS
 62
     7
 10
12.698891541610861
 20
14.15301161147411
 30
0.0
  0
VERTEX
  5
31D
  8
DATA
  6
CONTINUOUS
 62
     7
 10
12.698891541610861
 20
11.453011611474119
 30
0.0
  0
VERTEX
  5
31E
  8
DATA
  6
CONTINUOUS
 62
     7
 10
15.037160131828781
 20
10.103011611474161
 30
0.0
  0
VERTEX
  5
31F
  8
DATA
  6
CONTINUOUS
 62
     7
 10
17.375428722046959
 20
11.453011611474119
 30
0.0
  0
VERTEX
  5
320
  8
DATA
  6
CONTINUOUS
 62
     7
 10
17.375428722046959
 20
14.15301161147411
 30
0.0
  0
SEQEND
  5
321
  8
DATA
  6
CONTINUOUS
 62
     7
  0
CIRCLE
  5
B3
  8
DATA
  6
CONTINUOUS
 62
     7
 10
47.537160131829197
 20
12.803011611474121
 30
0.0
 40
1.175000000000068
  0
POLYLINE
  5
B4
  8
DATA
  6
CONTINUOUS
 62
     7
 66
     1
 10
0.0
 20
0.0
 30
0.0
 70
     1
  0
VERTEX
  5
322
  8
DATA
  6
CONTINUOUS
 62
     7
 10
47.537160131829197
 20
15.503011611474101
 30
0.0
  0
VERTEX
  5
323
  8
DATA
  6
CONTINUOUS
 62
     7
 10
45.198891541611282
 20
14.15301161147411
 30
0.0
  0
VERTEX
  5
324
  8
DATA
  6
CONTINUOUS
 62
     7
 10
45.198891541611282
 20
11.453011611474119
 30
0.0
  0
VERTEX
  5
325
  8
DATA
  6
CONTINUOUS
 62
     7
 10
47.537160131829197
 20
10.103011611474161
 30
0.0
  0
VERTEX
  5
326
  8
DATA
  6
CONTINUOUS
 62
     7
 10
49.875428722047239
 20
11.453011611474119
 30
0.0
  0
VERTEX
  5
327
  8
DATA
  6
CONTINUOUS
 62
     7
 10
49.875428722047239
 20
14.15301161147411
 30
0.0
  0
SEQEND
  5
328
  8
DATA
  6
CONTINUOUS
 62
     7
  0
LINE
  5
BD
  8
DATA
  6
CONTINUOUS
 62
     7
 10
20.337255244637479
 20
16.72801161147413
 30
0.0
 11
42.237065019021017
 21
16.72801161147413
 31
0.0
  0
LINE
  5
BE
  8
DATA
  6
CONTINUOUS
 62
     7
 10
41.67814782156875
 20
8.8780116114741361
 30
0.0
 11
20.896172442089771
 21
8.8780116114741361
 31
0.0
  0
POLYLINE
  5
BF
  8
DATA
  6
CONTINUOUS
 62
     7
 66
     1
 10
0.0
 20
0.0
 30
0.0
 70
     1
  0
VERTEX
  5
329
  8
DATA
  6
CONTINUOUS
 62
     7
 10
20.287093960649969
 20
13.568011611474111
 30
0.0
  0
VERTEX
  5
32A
  8
DATA
  6
CONTINUOUS
 62
     7
 10
21.817093960649999
 20
13.568011611474111
 30
0.0
  0
VERTEX
  5
32B
  8
DATA
  6
CONTINUOUS
 62
     7
 10
21.817093960649999
 20
12.038011611474129
 30
0.0
  0
VERTEX
  5
32C
  8
DATA
  6
CONTINUOUS
 62
     7
 10
20.287093960649969
 20
12.038011611474129
 30
0.0
  0
SEQEND
  5
32D
  8
DATA
  6
CONTINUOUS
 62
     7
  0
POLYLINE
  5
C6
  8
DATA
  6
CONTINUOUS
 62
     7
 66
     1
 10
0.0
 20
0.0
 30
0.0
 70
     1
  0
VERTEX
  5
32E
  8
DATA
  6
CONTINUOUS
 62
     7
 10
22.287093960650001
 20
13.568011611474111
 30
0.0
  0
VERTEX
  5
32F
  8
DATA
  6
CONTINUOUS
 62
     7
 10
23.81709396064997
 20
13.568011611474111
 30
0.0
  0
VERTEX
  5
330
  8
DATA
  6
CONTINUOUS
 62
     7
 10
23.81709396064997
 20
12.038011611474129
 30
0.0
  0
VERTEX
  5
331
  8
DATA
  6
CONTINUOUS
 62
     7
 10
22.287093960650001
 20
12.038011611474129
 30
0.0
  0
SEQEND
  5
332
  8
DATA
  6
CONTINUOUS
 62
     7
  0
POLYLINE
  5
CD
  8
DATA
  6
CONTINUOUS
 62
     7
 66
     1
 10
0.0
 20
0.0
 30
0.0
 70
     1
  0
VERTEX
  5
333
  8
DATA
  6
CONTINUOUS
 62
     7
 10
24.287093960649969
 20
13.568011611474111
 30
0.0
  0
VERTEX
  5
334
  8
DATA
  6
CONTINUOUS
 62
     7
 10
25.81709396064997
 20
13.568011611474111
 30
0.0
  0
VERTEX
  5
335
  8
DATA
  6
CONTINUOUS
 62
     7
 10
25.81709396064997
 20
12.038011611474129
 30
0.0
  0
VERTEX
  5
336
  8
DATA
  6
CONTINUOUS
 62
     7
 10
24.287093960649969
 20
12.038011611474129
 30
0.0
  0
SEQEND
  5
337
  8
DATA
  6
CONTINUOUS
 62
     7
  0
POLYLINE
  5
D4
  8
DATA
  6
CONTINUOUS
 62
     7
 66
     1
 10
0.0
 20
0.0
 30
0.0
 70
     1
  0
VERTEX
  5
338
  8
DATA
  6
CONTINUOUS
 62
     7
 10
26.287093960649969
 20
13.568011611474111
 30
0.0
  0
VERTEX
  5
339
  8
DATA
  6
CONTINUOUS
 62
     7
 10
27.81709396064997
 20
13.568011611474111
 30
0.0
  0
VERTEX
  5
33A
  8
DATA
  6
CONTINUOUS
 62
     7
 10
27.81709396064997
 20
12.038011611474129
 30
0.0
  0
VERTEX
  5
33B
  8
DATA
  6
CONTINUOUS
 62
     7
 10
26.287093960649969
 20
12.038011611474129
 30
0.0
  0
SEQEND
  5
33C
  8
DATA
  6
CONTINUOUS
 62
     7
  0
POLYLINE
  5
DB
  8
DATA
  6
CONTINUOUS
 62
     7
 66
     1
 10
0.0
 20
0.0
 30
0.0
 70
     1
  0
VERTEX
  5
33D
  8
DATA
  6
CONTINUOUS
 62
     7
 10
28.287093960649969
 20
13.568011611474111
 30
0.0
  0
VERTEX
  5
33E
  8
DATA
  6
CONTINUOUS
 62
     7
 10
29.81709396064997
 20
13.568011611474111
 30
0.0
  0
VERTEX
  5
33F
  8
DATA
  6
CONTINUOUS
 62
     7
 10
29.81709396064997
 20
12.038011611474129
 30
0.0
  0
VERTEX
  5
340
  8
DATA
  6
CONTINUOUS
 62
     7
 10
28.287093960649969
 20
12.038011611474129
 30
0.0
  0
SEQEND
  5
341
  8
DATA
  6
CONTINUOUS
 62
     7
  0
POLYLINE
  5
E2
  8
DATA
  6
CONTINUOUS
 62
     7
 66
     1
 10
0.0
 20
0.0
 30
0.0
 70
     1
  0
VERTEX
  5
342
  8
DATA
  6
CONTINUOUS
 62
     7
 10
30.287093960649969
 20
13.568011611474111
 30
0.0
  0
VERTEX
  5
343
  8
DATA
  6
CONTINUOUS
 62
     7
 10
31.81709396064997
 20
13.568011611474111
 30
0.0
  0
VERTEX
  5
344
  8
DATA
  6
CONTINUOUS
 62
     7
 10
31.81709396064997
 20
12.038011611474129
 30
0.0
  0
VERTEX
  5
345
  8
DATA
  6
CONTINUOUS
 62
     7
 10
30.287093960649969
 20
12.038011611474129
 30
0.0
  0
SEQEND
  5
346
  8
DATA
  6
CONTINUOUS
 62
     7
  0
POLYLINE
  5
E9
  8
DATA
  6
CONTINUOUS
 62
     7
 66
     1
 10
0.0
 20
0.0
 30
0.0
 70
     1
  0
VERTEX
  5
347
  8
DATA
  6
CONTINUOUS
 62
     7
 10
32.287093960649969
 20
13.568011611474111
 30
0.0
  0
VERTEX
  5
348
  8
DATA
  6
CONTINUOUS
 62
     7
 10
33.81709396064997
 20
13.568011611474111
 30
0.0
  0
VERTEX
  5
349
  8
DATA
  6
CONTINUOUS
 62
     7
 10
33.81709396064997
 20
12.038011611474129
 30
0.0
  0
VERTEX
  5
34A
  8
DATA
  6
CONTINUOUS
 62
     7
 10
32.287093960649969
 20
12.038011611474129
 30
0.0
  0
SEQEND
  5
34B
  8
DATA
  6
CONTINUOUS
 62
     7
  0
POLYLINE
  5
F0
  8
DATA
  6
CONTINUOUS
 62
     7
 66
     1
 10
0.0
 20
0.0
 30
0.0
 70
     1
  0
VERTEX
  5
34C
  8
DATA
  6
CONTINUOUS
 62
     7
 10
34.287093960649969
 20
13.568011611474111
 30
0.0
  0
VERTEX
  5
34D
  8
DATA
  6
CONTINUOUS
 62
     7
 10
35.81709396064997
 20
13.568011611474111
 30
0.0
  0
VERTEX
  5
34E
  8
DATA
  6
CONTINUOUS
 62
     7
 10
35.81709396064997
 20
12.038011611474129
 30
0.0
  0
VERTEX
  5
34F
  8
DATA
  6
CONTINUOUS
 62
     7
 10
34.287093960649969
 20
12.038011611474129
 30
0.0
  0
SEQEND
  5
350
  8
DATA
  6
CONTINUOUS
 62
     7
  0
POLYLINE
  5
F7
  8
DATA
  6
CONTINUOUS
 62
     7
 66
     1
 10
0.0
 20
0.0
 30
0.0
 70
     1
  0
VERTEX
  5
351
  8
DATA
  6
CONTINUOUS
 62
     7
 10
20.287093960649969
 20
15.568011611474111
 30
0.0
  0
VERTEX
  5
352
  8
DATA
  6
CONTINUOUS
 62
     7
 10
21.817093960649999
 20
15.568011611474111
 30
0.0
  0
VERTEX
  5
353
  8
DATA
  6
CONTINUOUS
 62
     7
 10
21.817093960649999
 20
14.038011611474129
 30
0.0
  0
VERTEX
  5
354
  8
DATA
  6
CONTINUOUS
 62
     7
 10
20.287093960649969
 20
14.038011611474129
 30
0.0
  0
SEQEND
  5
355
  8
DATA
  6
CONTINUOUS
 62
     7
  0
POLYLINE
  5
FE
  8
DATA
  6
CONTINUOUS
 62
     7
 66
     1
 10
0.0
 20
0.0
 30
0.0
 70
     1
  0
VERTEX
  5
356
  8
DATA
  6
CONTINUOUS
 62
     7
 10
22.287093960650001
 20
15.568011611474111
 30
0.0
  0
VERTEX
  5
357
  8
DATA
  6
CONTINUOUS
 62
     7
 10
23.81709396064997
 20
15.568011611474111
 30
0.0
  0
VERTEX
  5
358
  8
DATA
  6
CONTINUOUS
 62
     7
 10
23.81709396064997
 20
14.038011611474129
 30
0.0
  0
VERTEX
  5
359
  8
DATA
  6
CONTINUOUS
 62
     7
 10
22.287093960650001
 20
14.038011611474129
 30
0.0
  0
SEQEND
  5
35A
  8
DATA
  6
CONTINUOUS
 62
     7
  0
POLYLINE
  5
105
  8
DATA
  6
CONTINUOUS
 62
     7
 66
     1
 10
0.0
 20
0.0
 30
0.0
 70
     1
  0
VERTEX
  5
35B
  8
DATA
  6
CONTINUOUS
 62
     7
 10
24.287093960649969
 20
15.568011611474111
 30
0.0
  0
VERTEX
  5
35C
  8
DATA
  6
CONTINUOUS
 62
     7
 10
25.81709396064997
 20
15.568011611474111
 30
0.0
  0
VERTEX
  5
35D
  8
DATA
  6
CONTINUOUS
 62
     7
 10
25.81709396064997
 20
14.038011611474129
 30
0.0
  0
VERTEX
  5
35E
  8
DATA
  6
CONTINUOUS
 62
     7
 10
24.287093960649969
 20
14.038011611474129
 30
0.0
  0
SEQEND
  5
35F
  8
DATA
  6
CONTINUOUS
 62
     7
  0
POLYLINE
  5
10C
  8
DATA
  6
CONTINUOUS
 62
     7
 66
     1
 10
0.0
 20
0.0
 30
0.0
 70
     1
  0
VERTEX
  5
360
  8
DATA
  6
CONTINUOUS
 62
     7
 10
26.287093960649969
 20
15.568011611474111
 30
0.0
  0
VERTEX
  5
361
  8
DATA
  6
CONTINUOUS
 62
     7
 10
27.81709396064997
 20
15.568011611474111
 30
0.0
  0
VERTEX
  5
362
  8
DATA
  6
CONTINUOUS
 62
     7
 10
27.81709396064997
 20
14.038011611474129
 30
0.0
  0
VERTEX
  5
363
  8
DATA
  6
CONTINUOUS
 62
     7
 10
26.287093960649969
 20
14.038011611474129
 30
0.0
  0
SEQEND
  5
364
  8
DATA
  6
CONTINUOUS
 62
     7
  0
POLYLINE
  5
113
  8
DATA
  6
CONTINUOUS
 62
     7
 66
     1
 10
0.0
 20
0.0
 30
0.0
 70
     1
  0
VERTEX
  5
365
  8
DATA
  6
CONTINUOUS
 62
     7
 10
28.287093960649969
 20
15.568011611474111
 30
0.0
  0
VERTEX
  5
366
  8
DATA
  6
CONTINUOUS
 62
     7
 10
29.81709396064997
 20
15.568011611474111
 30
0.0
  0
VERTEX
  5
367
  8
DATA
  6
CONTINUOUS
 62
     7
 10
29.81709396064997
 20
14.038011611474129
 30
0.0
  0
VERTEX
  5
368
  8
DATA
  6
CONTINUOUS
 62
     7
 10
28.287093960649969
 20
14.038011611474129
 30
0.0
  0
SEQEND
  5
369
  8
DATA
  6
CONTINUOUS
 62
     7
  0
POLYLINE
  5
11A
  8
DATA
  6
CONTINUOUS
 62
     7
 66
     1
 10
0.0
 20
0.0
 30
0.0
 70
     1
  0
VERTEX
  5
36A
  8
DATA
  6
CONTINUOUS
 62
     7
 10
30.287093960649969
 20
15.568011611474111
 30
0.0
  0
VERTEX
  5
36B
  8
DATA
  6
CONTINUOUS
 62
     7
 10
31.81709396064997
 20
15.568011611474111
 30
0.0
  0
VERTEX
  5
36C
  8
DATA
  6
CONTINUOUS
 62
     7
 10
31.81709396064997
 20
14.038011611474129
 30
0.0
  0
VERTEX
  5
36D
  8
DATA
  6
CONTINUOUS
 62
     7
 10
30.287093960649969
 20
14.038011611474129
 30
0.0
  0
SEQEND
  5
36E
  8
DATA
  6
CONTINUOUS
 62
     7
  0
POLYLINE
  5
121
  8
DATA
  6
CONTINUOUS
 62
     7
 66
     1
 10
0.0
 20
0.0
 30
0.0
 70
     1
  0
VERTEX
  5
36F
  8
DATA
  6
CONTINUOUS
 62
     7
 10
32.287093960649969
 20
15.568011611474111
 30
0.0
  0
VERTEX
  5
370
  8
DATA
  6
CONTINUOUS
 62
     7
 10
33.81709396064997
 20
15.568011611474111
 30
0.0
  0
VERTEX
  5
371
  8
DATA
  6
CONTINUOUS
 62
     7
 10
33.81709396064997
 20
14.038011611474129
 30
0.0
  0
VERTEX
  5
372
  8
DATA
  6
CONTINUOUS
 62
     7
 10
32.287093960649969
 20
14.038011611474129
 30
0.0
  0
SEQEND
  5
373
  8
DATA
  6
CONTINUOUS
 62
     7
  0
POLYLINE
  5
128
  8
DATA
  6
CONTINUOUS
 62
     7
 66
     1
 10
0.0
 20
0.0
 30
0.0
 70
     1
  0
VERTEX
  5
374
  8
DATA
  6
CONTINUOUS
 62
     7
 10
34.287093960649969
 20
15.568011611474111
 30
0.0
  0
VERTEX
  5
375
  8
DATA
  6
CONTINUOUS
 62
     7
 10
35.81709396064997
 20
15.568011611474111
 30
0.0
  0
VERTEX
  5
376
  8
DATA
  6
CONTINUOUS
 62
     7
 10
35.81709396064997
 20
14.038011611474129
 30
0.0
  0
VERTEX
  5
377
  8
DATA
  6
CONTINUOUS
 62
     7
 10
34.287093960649969
 20
14.038011611474129
 30
0.0
  0
SEQEND
  5
378
  8
DATA
  6
CONTINUOUS
 62
     7
  0
POLYLINE
  5
12F
  8
DATA
  6
CONTINUOUS
 62
     7
 66
     1
 10
0.0
 20
0.0
 30
0.0
 70
     1
  0
VERTEX
  5
379
  8
DATA
  6
CONTINUOUS
 62
     7
 10
20.287093960649969
 20
11.5680116114741
 30
0.0
  0
VERTEX
  5
37A
  8
DATA
  6
CONTINUOUS
 62
     7
 10
21.817093960649999
 20
11.5680116114741
 30
0.0
  0
VERTEX
  5
37B
  8
DATA
  6
CONTINUOUS
 62
     7
 10
21.817093960649999
 20
10.038011611474101
 30
0.0
  0
VERTEX
  5
37C
  8
DATA
  6
CONTINUOUS
 62
     7
 10
20.287093960649969
 20
10.038011611474101
 30
0.0
  0
SEQEND
  5
37D
  8
DATA
  6
CONTINUOUS
 62
     7
  0
POLYLINE
  5
136
  8
DATA
  6
CONTINUOUS
 62
     7
 66
     1
 10
0.0
 20
0.0
 30
0.0
 70
     1
  0
VERTEX
  5
37E
  8
DATA
  6
CONTINUOUS
 62
     7
 10
22.287093960650001
 20
11.5680116114741
 30
0.0
  0
VERTEX
  5
37F
  8
DATA
  6
CONTINUOUS
 62
     7
 10
23.81709396064997
 20
11.5680116114741
 30
0.0
  0
VERTEX
  5
380
  8
DATA
  6
CONTINUOUS
 62
     7
 10
23.81709396064997
 20
10.038011611474101
 30
0.0
  0
VERTEX
  5
381
  8
DATA
  6
CONTINUOUS
 62
     7
 10
22.287093960650001
 20
10.038011611474101
 30
0.0
  0
SEQEND
  5
382
  8
DATA
  6
CONTINUOUS
 62
     7
  0
POLYLINE
  5
13D
  8
DATA
  6
CONTINUOUS
 62
     7
 66
     1
 10
0.0
 20
0.0
 30
0.0
 70
     1
  0
VERTEX
  5
383
  8
DATA
  6
CONTINUOUS
 62
     7
 10
24.287093960649969
 20
11.5680116114741
 30
0.0
  0
VERTEX
  5
384
  8
DATA
  6
CONTINUOUS
 62
     7
 10
25.81709396064997
 20
11.5680116114741
 30
0.0
  0
VERTEX
  5
385
  8
DATA
  6
CONTINUOUS
 62
     7
 10
25.81709396064997
 20
10.038011611474101
 30
0.0
  0
VERTEX
  5
386
  8
DATA
  6
CONTINUOUS
 62
     7
 10
24.287093960649969
 20
10.038011611474101
 30
0.0
  0
SEQEND
  5
387
  8
DATA
  6
CONTINUOUS
 62
     7
  0
POLYLINE
  5
144
  8
DATA
  6
CONTINUOUS
 62
     7
 66
     1
 10
0.0
 20
0.0
 30
0.0
 70
     1
  0
VERTEX
  5
388
  8
DATA
  6
CONTINUOUS
 62
     7
 10
26.287093960649969
 20
11.5680116114741
 30
0.0
  0
VERTEX
  5
389
  8
DATA
  6
CONTINUOUS
 62
     7
 10
27.81709396064997
 20
11.5680116114741
 30
0.0
  0
VERTEX
  5
38A
  8
DATA
  6
CONTINUOUS
 62
     7
 10
27.81709396064997
 20
10.038011611474101
 30
0.0
  0
VERTEX
  5
38B
  8
DATA
  6
CONTINUOUS
 62
     7
 10
26.287093960649969
 20
10.038011611474101
 30
0.0
  0
SEQEND
  5
38C
  8
DATA
  6
CONTINUOUS
 62
     7
  0
POLYLINE
  5
14B
  8
DATA
  6
CONTINUOUS
 62
     7
 66
     1
 10
0.0
 20
0.0
 30
0.0
 70
     1
  0
VERTEX
  5
38D
  8
DATA
  6
CONTINUOUS
 62
     7
 10
28.287093960649969
 20
11.5680116114741
 30
0.0
  0
VERTEX
  5
38E
  8
DATA
  6
CONTINUOUS
 62
     7
 10
29.81709396064997
 20
11.5680116114741
 30
0.0
  0
VERTEX
  5
38F
  8
DATA
  6
CONTINUOUS
 62
     7
 10
29.81709396064997
 20
10.038011611474101
 30
0.0
  0
VERTEX
  5
390
  8
DATA
  6
CONTINUOUS
 62
     7
 10
28.287093960649969
 20
10.038011611474101
 30
0.0
  0
SEQEND
  5
391
  8
DATA
  6
CONTINUOUS
 62
     7
  0
POLYLINE
  5
152
  8
DATA
  6
CONTINUOUS
 62
     7
 66
     1
 10
0.0
 20
0.0
 30
0.0
 70
     1
  0
VERTEX
  5
392
  8
DATA
  6
CONTINUOUS
 62
     7
 10
30.287093960649969
 20
11.5680116114741
 30
0.0
  0
VERTEX
  5
393
  8
DATA
  6
CONTINUOUS
 62
     7
 10
31.81709396064997
 20
11.5680116114741
 30
0.0
  0
VERTEX
  5
394
  8
DATA
  6
CONTINUOUS
 62
     7
 10
31.81709396064997
 20
10.038011611474101
 30
0.0
  0
VERTEX
  5
395
  8
DATA
  6
CONTINUOUS
 62
     7
 10
30.287093960649969
 20
10.038011611474101
 30
0.0
  0
SEQEND
  5
396
  8
DATA
  6
CONTINUOUS
 62
     7
  0
POLYLINE
  5
159
  8
DATA
  6
CONTINUOUS
 62
     7
 66
     1
 10
0.0
 20
0.0
 30
0.0
 70
     1
  0
VERTEX
  5
397
  8
DATA
  6
CONTINUOUS
 62
     7
 10
32.287093960649969
 20
11.5680116114741
 30
0.0
  0
VERTEX
  5
398
  8
DATA
  6
CONTINUOUS
 62
     7
 10
33.81709396064997
 20
11.5680116114741
 30
0.0
  0
VERTEX
  5
399
  8
DATA
  6
CONTINUOUS
 62
     7
 10
33.81709396064997
 20
10.038011611474101
 30
0.0
  0
VERTEX
  5
39A
  8
DATA
  6
CONTINUOUS
 62
     7
 10
32.287093960649969
 20
10.038011611474101
 30
0.0
  0
SEQEND
  5
39B
  8
DATA
  6
CONTINUOUS
 62
     7
  0
POLYLINE
  5
160
  8
DATA
  6
CONTINUOUS
 62
     7
 66
     1
 10
0.0
 20
0.0
 30
0.0
 70
     1
  0
VERTEX
  5
39C
  8
DATA
  6
CONTINUOUS
 62
     7
 10
34.287093960649969
 20
11.5680116114741
 30
0.0
  0
VERTEX
  5
39D
  8
DATA
  6
CONTINUOUS
 62
     7
 10
35.81709396064997
 20
11.5680116114741
 30
0.0
  0
VERTEX
  5
39E
  8
DATA
  6
CONTINUOUS
 62
     7
 10
35.81709396064997
 20
10.038011611474101
 30
0.0
  0
VERTEX
  5
39F
  8
DATA
  6
CONTINUOUS
 62
     7
 10
34.287093960649969
 20
10.038011611474101
 30
0.0
  0
SEQEND
  5
3A0
  8
DATA
  6
CONTINUOUS
 62
     7
  0
POLYLINE
  5
167
  8
DATA
  6
CONTINUOUS
 62
     7
 66
     1
 10
0.0
 20
0.0
 30
0.0
  0
VERTEX
  5
3A1
  8
DATA
  6
CONTINUOUS
 62
     7
 10
39.837160131829357
 20
13.203011611474119
 30
0.0
  0
VERTEX
  5
3A2
  8
DATA
  6
CONTINUOUS
 62
     7
 10
41.937160131829337
 20
13.203011611474119
 30
0.0
  0
VERTEX
  5
3A3
  8
DATA
  6
CONTINUOUS
 62
     7
 10
41.937160131829337
 20
12.40301161147411
 30
0.0
  0
VERTEX
  5
3A4
  8
DATA
  6
CONTINUOUS
 62
     7
 10
39.837160131829357
 20
12.40301161147411
 30
0.0
  0
SEQEND
  5
3A5
  8
DATA
  6
CONTINUOUS
 62
     7
  0
POLYLINE
  5
16E
  8
DATA
  6
CONTINUOUS
 62
     7
 66
     1
 10
0.0
 20
0.0
 30
0.0
  0
VERTEX
  5
3A6
  8
DATA
  6
CONTINUOUS
 62
     7
 10
39.037160131829353
 20
12.40301161147411
 30
0.0
  0
VERTEX
  5
3A7
  8
DATA
  6
CONTINUOUS
 62
     7
 10
36.937160131829359
 20
12.40301161147411
 30
0.0
  0
VERTEX
  5
3A8
  8
DATA
  6
CONTINUOUS
 62
     7
 10
36.937160131829359
 20
13.203011611474119
 30
0.0
  0
VERTEX
  5
3A9
  8
DATA
  6
CONTINUOUS
 62
     7
 10
39.037160131829353
 20
13.203011611474119
 30
0.0
  0
SEQEND
  5
3AA
  8
DATA
  6
CONTINUOUS
 62
     7
  0
POLYLINE
  5
175
  8
DATA
  6
CONTINUOUS
 62
     7
 66
     1
 10
0.0
 20
0.0
 30
0.0
  0
VERTEX
  5
3AB
  8
DATA
  6
CONTINUOUS
 62
     7
 10
39.837160131829357
 20
12.40301161147411
 30
0.0
  0
VERTEX
  5
3AC
  8
DATA
  6
CONTINUOUS
 62
     7
 10
39.837160131829357
 20
10.303011611474121
 30
0.0
  0
VERTEX
  5
3AD
  8
DATA
  6
CONTINUOUS
 62
     7
 10
39.037160131829353
 20
10.303011611474121
 30
0.0
  0
VERTEX
  5
3AE
  8
DATA
  6
CONTINUOUS
 62
     7
 10
39.037160131829353
 20
12.40301161147411
 30
0.0
  0
SEQEND
  5
3AF
  8
DATA
  6
CONTINUOUS
 62
     7
  0
POLYLINE
  5
17C
  8
DATA
  6
CONTINUOUS
 62
     7
 66
     1
 10
0.0
 20
0.0
 30
0.0
  0
VERTEX
  5
3B0
  8
DATA
  6
CONTINUOUS
 62
     7
 10
39.037160131829353
 20
13.203011611474119
 30
0.0
  0
VERTEX
  5
3B1
  8
DATA
  6
CONTINUOUS
 62
     7
 10
39.037160131829353
 20
15.303011611474121
 30
0.0
  0
VERTEX
  5
3B2
  8
DATA
  6
CONTINUOUS
 62
     7
 10
39.837160131829357
 20
15.303011611474121
 30
0.0
  0
VERTEX
  5
3B3
  8
DATA
  6
CONTINUOUS
 62
     7
 10
39.837160131829357
 20
13.203011611474119
 30
0.0
  0
SEQEND
  5
3B4
  8
DATA
  6
CONTINUOUS
 62
     7
  0
POLYLINE
  5
183
  8
DATA
  6
CONTINUOUS
 62
     7
 66
     1
 10
0.0
 20
0.0
 30
0.0
 70
     1
  0
VERTEX
  5
3B5
  8
DATA
  6
CONTINUOUS
 62
     7
 10
37.57687570135765
 20
14.56243942212404
 30
0.0
  0
VERTEX
  5
3B6
  8
DATA
  6
CONTINUOUS
 62
     7
 10
38.57687570135765
 20
14.56243942212404
 30
0.0
  0
VERTEX
  5
3B7
  8
DATA
  6
CONTINUOUS
 62
     7
 10
38.57687570135765
 20
13.56243942212404
 30
0.0
  0
VERTEX
  5
3B8
  8
DATA
  6
CONTINUOUS
 62
     7
 10
37.57687570135765
 20
13.56243942212404
 30
0.0
  0
SEQEND
  5
3B9
  8
DATA
  6
CONTINUOUS
 62
     7
  0
POLYLINE
  5
18A
  8
DATA
  6
CONTINUOUS
 62
     7
 66
     1
 10
0.0
 20
0.0
 30
0.0
 70
     1
  0
VERTEX
  5
3BA
  8
DATA
  6
CONTINUOUS
 62
     7
 10
40.297444562301067
 20
14.56243942212404
 30
0.0
  0
VERTEX
  5
3BB
  8
DATA
  6
CONTINUOUS
 62
     7
 10
41.29744456230106
 20
14.56243942212404
 30
0.0
  0
VERTEX
  5
3BC
  8
DATA
  6
CONTINUOUS
 62
     7
 10
41.29744456230106
 20
13.56243942212404
 30
0.0
  0
VERTEX
  5
3BD
  8
DATA
  6
CONTINUOUS
 62
     7
 10
40.297444562301067
 20
13.56243942212404
 30
0.0
  0
SEQEND
  5
3BE
  8
DATA
  6
CONTINUOUS
 62
     7
  0
POLYLINE
  5
191
  8
DATA
  6
CONTINUOUS
 62
     7
 66
     1
 10
0.0
 20
0.0
 30
0.0
 70
     1
  0
VERTEX
  5
3BF
  8
DATA
  6
CONTINUOUS
 62
     7
 10
37.57687570135765
 20
12.0435838008242
 30
0.0
  0
VERTEX
  5
3C0
  8
DATA
  6
CONTINUOUS
 62
     7
 10
38.57687570135765
 20
12.0435838008242
 30
0.0
  0
VERTEX
  5
3C1
  8
DATA
  6
CONTINUOUS
 62
     7
 10
38.57687570135765
 20
11.043583800824191
 30
0.0
  0
VERTEX
  5
3C2
  8
DATA
  6
CONTINUOUS
 62
     7
 10
37.57687570135765
 20
11.043583800824191
 30
0.0
  0
SEQEND
  5
3C3
  8
DATA
  6
CONTINUOUS
 62
     7
  0
POLYLINE
  5
198
  8
DATA
  6
CONTINUOUS
 62
     7
 66
     1
 10
0.0
 20
0.0
 30
0.0
 70
     1
  0
VERTEX
  5
3C4
  8
DATA
  6
CONTINUOUS
 62
     7
 10
40.297444562301067
 20
12.0435838008242
 30
0.0
  0
VERTEX
  5
3C5
  8
DATA
  6
CONTINUOUS
 62
     7
 10
41.29744456230106
 20
12.0435838008242
 30
0.0
  0
VERTEX
  5
3C6
  8
DATA
  6
CONTINUOUS
 62
     7
 10
41.29744456230106
 20
11.043583800824191
 30
0.0
  0
VERTEX
  5
3C7
  8
DATA
  6
CONTINUOUS
 62
     7
 10
40.297444562301067
 20
11.043583800824191
 30
0.0
  0
SEQEND
  5
3C8
  8
DATA
  6
CONTINUOUS
 62
     7
  0
LINE
  5
19F
  8
DATA
  6
CONTINUOUS
 62
     7
 10
19.341788313881999
 20
15.63290330598792
 30
0.0
 11
19.900705511334341
 21
9.7829033059879027
 31
0.0
  0
LINE
  5
1A0
  8
DATA
  6
CONTINUOUS
 62
     7
 10
43.232531949776401
 20
15.63290330598792
 30
0.0
 11
42.673614752324127
 21
9.7829033059879542
 31
0.0
  0
ARC
  5
1A1
  8
DATA
  6
CONTINUOUS
 62
     7
 10
20.337255244637479
 20
15.728011611474161
 30
0.0
 40
0.9999999999999715
 50
90.0
 51
185.45755348510701
  0
ARC
  5
1A2
  8
DATA
  6
CONTINUOUS
 62
     7
 10
42.237065019021038
 20
15.72801161147413
 30
0.0
 40
0.9999999999999729
 50
354.54244651489398
 51
90.000000000001606
  0
ARC
  5
1A3
  8
DATA
  6
CONTINUOUS
 62
     7
 10
20.89617244208981
 20
9.8780116114741361
 30
0.0
 40
1.0000000000000879
 50
185.45755348510701
 51
269.99999999999841
  0
ARC
  5
1A4
  8
DATA
  6
CONTINUOUS
 62
     7
 10
41.67814782156875
 20
9.8780116114741361
 30
0.0
 40
1.0
 50
270.0
 51
354.54244651489569
  0
TEXT
  5
1A5
  8
DATA
 62
     7
 10
26.58595266807103
 20
3.4131059493241578
 30
0.0
 40
2.185361870659722
  1
DVI In 
 41
0.7
 11
26.58595266807103
 21
5.5984678199838811
 31
0.0
 73
     3
  0
LINE
  5
1A6
  8
DATA
  6
CONTINUOUS
 62
     7
 10
-0.0000000000000142
 20
2.0
 30
0.0
 11
-0.0000000000000142
 21
27.0
 31
0.0
  0
LINE
  5
1A7
  8
DATA
  6
CONTINUOUS
 62
     7
 10
81.0
 20
0.0
 30
0.0
 11
71.0
 21
0.0
 31
0.0
  0
LINE
  5
1A8
  8
DATA
  6
CONTINUOUS
 62
     7
 10
12.0
 20
0.0
 30
0.0
 11
1.9999999999999849
 21
0.0
 31
0.0
  0
LINE
  5
1A9
  8
DATA
  6
CONTINUOUS
 62
     7
 10
83.0
 20
27.0
 30
0.0
 11
83.0
 21
2.0
 31
0.0
  0
LINE
  5
1AA
  8
DATA
  6
CONTINUOUS
 62
     7
 10
1.9999999999999849
 20
29.0
 30
0.0
 11
81.0
 21
29.0
 31
0.0
  0
LINE
  5
1AB
  8
DATA
  6
CONTINUOUS
 62
     7
 10
12.0
 20
0.0
 30
0.0
 11
12.0
 21
2.0
 31
0.0
  0
LINE
  5
1AC
  8
DATA
  6
CONTINUOUS
 62
     7
 10
71.0
 20
0.0
 30
0.0
 11
71.0
 21
2.0
 31
0.0
  0
LINE
  5
1AD
  8
DATA
  6
CONTINUOUS
 62
     7
 10
3.9999999999999849
 20
27.0
 30
0.0
 11
79.0
 21
27.0
 31
0.0
  0
LINE
  5
1AE
  8
DATA
  6
CONTINUOUS
 62
     7
 10
1.9999999999999849
 20
2.0
 30
0.0
 11
1.9999999999999849
 21
25.0
 31
0.0
  0
LINE
  5
1AF
  8
DATA
  6
CONTINUOUS
 62
     7
 10
81.0
 20
25.0
 30
0.0
 11
81.0
 21
2.0
 31
0.0
  0
ARC
  5
1B0
  8
DATA
  6
CONTINUOUS
 62
     7
 10
3.9999999999999849
 20
25.0
 30
0.0
 40
2.0
 50
90.0
 51
180.0
  0
ARC
  5
1B1
  8
DATA
  6
CONTINUOUS
 62
     7
 10
1.9999999999999849
 20
27.0
 30
0.0
 40
2.0
 50
90.0
 51
180.0
  0
ARC
  5
1B2
  8
DATA
  6
CONTINUOUS
 62
     7
 10
1.9999999999999849
 20
2.0
 30
0.0
 40
2.0
 50
180.0
 51
270.0
  0
ARC
  5
1B3
  8
DATA
  6
CONTINUOUS
 62
     7
 10
79.0
 20
25.0
 30
0.0
 40
2.0
 50
0.0
 51
90.0
  0
ARC
  5
1B4
  8
DATA
  6
CONTINUOUS
 62
     7
 10
81.0
 20
27.0
 30
0.0
 40
2.0
 50
0.0
 51
90.0
  0
ARC
  5
1B5
  8
DATA
  6
CONTINUOUS
 62
     7
 10
81.0
 20
2.0
 30
0.0
 40
2.0
 50
270.0
 51
0.0
  0
CIRCLE
  5
1B6
  8
DATA
  6
CONTINUOUS
 62
     7
 10
66.99830553788135
 20
14.939643305589749
 30
0.0
 40
3.25
  0
CIRCLE
  5
1B7
  8
DATA
  6
CONTINUOUS
 62
     7
 10
66.99830553788135
 20
14.939643305589749
 30
0.0
 40
0.6500000000000057
  0
TEXT
  5
1B8
  8
DATA
 62
     7
 10
63.34598368451865
 20
21.998497057524101
 30
0.0
 40
2.185361870659722
  1
5V DC 
 41
0.7
 11
63.34598368451865
 21
24.183858928183831
 31
0.0
 73
     3
  0
CIRCLE
  5
1B9
  8
DATA
  6
CONTINUOUS
 62
     7
 10
58.091503656166857
 20
13.90209401252781
 30
0.0
 40
1.3999999999999979
  0
TEXT
  5
1BA
  8
DATA
 62
     7
 10
55.469115347453091
 20
3.4131059493241578
 30
0.0
 40
2.185361870659722
  1
PWR
 41
0.7
 11
55.469115347453091
 21
5.5984678199838811
 31
0.0
 73
     3
  0
LINE
  5
1BB
  8
DATA
  6
CONTINUOUS
 62
     7
 10
0.0
 20
56.25
 30
0.0
 11
82.999999999999986
 21
56.25
 31
0.0
  0
LINE
  5
1BC
  8
DATA
  6
CONTINUOUS
 62
     7
 10
0.0
 20
56.25
 30
0.0
 11
0.0
 21
152.25
 31
0.0
  0
ARC
  5
1BD
  8
DATA
  6
CONTINUOUS
 62
     7
 10
58.091677839880532
 20
56.355962720502248
 30
0.0
 40
1.399999999999999
 50
184.3407344869245
 51
355.65926551307552
  0
LINE
  5
1BE
  8
DATA
  6
CONTINUOUS
 62
     7
 10
49.73707504522303
 20
51.249999999673058
 30
0.0
 11
49.73707504522303
 21
56.249999999673058
 31
0.0
  0
LINE
  5
1BF
  8
DATA
  6
CONTINUOUS
 62
     7
 10
45.060537864787058
 20
51.249999999673058
 30
0.0
 11
45.060537864787058
 21
56.249999999673058
 31
0.0
  0
LINE
  5
1C0
  8
DATA
  6
CONTINUOUS
 62
     7
 10
43.098533508718432
 20
51.249999999673058
 30
0.0
 11
43.098533508718432
 21
56.249999999673058
 31
0.0
  0
LINE
  5
1C1
  8
DATA
  6
CONTINUOUS
 62
     7
 10
19.21160017423589
 20
51.249999999673058
 30
0.0
 11
19.21160017423589
 21
56.249999999673058
 31
0.0
  0
LINE
  5
1C2
  8
DATA
  6
CONTINUOUS
 62
     7
 10
17.23707504522282
 20
51.249999999673058
 30
0.0
 11
17.23707504522282
 21
56.249999999673058
 31
0.0
  0
LINE
  5
1C3
  8
DATA
  6
CONTINUOUS
 62
     7
 10
12.56053786478696
 20
51.249999999673058
 30
0.0
 11
12.56053786478696
 21
56.249999999673058
 31
0.0
  0
LINE
  5
1C4
  8
DATA
  6
CONTINUOUS
 62
     7
 10
12.56053786478696
 20
51.249999999673058
 30
0.0
 11
17.23707504522282
 21
51.249999999673058
 31
0.0
  0
LINE
  5
1C5
  8
DATA
  6
CONTINUOUS
 62
     7
 10
19.21160017423589
 20
51.249999999673058
 30
0.0
 11
43.098533508718432
 21
51.249999999673058
 31
0.0
  0
LINE
  5
1C6
  8
DATA
  6
CONTINUOUS
 62
     7
 10
45.060537864787058
 20
51.249999999673058
 30
0.0
 11
49.73707504522303
 21
51.249999999673058
 31
0.0
  0
TEXT
  5
1C7
  8
DATA
 62
     7
 10
29.945154765301041
 20
72.417815872953454
 30
0.0
 40
6.5153645833333327
  1
DVI to VGA
 41
0.7
 11
29.945154765301041
 21
78.933180456286792
 31
0.0
 73
     3
  0
LINE
  5
1C8
  8
DATA
  6
CONTINUOUS
 62
     7
 10
137.5
 20
0.0
 30
0.0
 11
137.5
 21
29.0
 31
0.0
  0
LINE
  5
1C9
  8
DATA
  6
CONTINUOUS
 62
     7
 10
233.5
 20
0.0
 30
0.0
 11
233.5
 21
29.0
 31
0.0
  0
LINE
  5
1CA
  8
DATA
  6
CONTINUOUS
 62
     7
 10
137.5
 20
29.0
 30
0.0
 11
233.5
 21
29.0
 31
0.0
  0
LINE
  5
1CB
  8
DATA
  6
CONTINUOUS
 62
     7
 10
137.5
 20
0.0
 30
0.0
 11
233.5
 21
0.0
 31
0.0
  0
LINE
  5
1CC
  8
DATA
  6
CONTINUOUS
 62
     7
 10
132.5
 20
16.93563380806113
 30
0.0
 11
137.5
 21
16.93563380806113
 31
0.0
  0
LINE
  5
1CD
  8
DATA
  6
CONTINUOUS
 62
     7
 10
132.5
 20
9.0856338080609191
 30
0.0
 11
137.5
 21
9.0856338080609191
 31
0.0
  0
LINE
  5
1CE
  8
DATA
  6
CONTINUOUS
 62
     7
 10
132.5
 20
9.0856338080609191
 30
0.0
 11
132.5
 21
16.93563380806113
 31
0.0
  0
LINE
  5
1CF
  8
DATA
  6
CONTINUOUS
 62
     7
 10
132.5
 20
15.7106338080611
 30
0.0
 11
137.5
 21
15.7106338080611
 31
0.0
  0
LINE
  5
1D0
  8
DATA
  6
CONTINUOUS
 62
     7
 10
132.5
 20
10.31063380806097
 30
0.0
 11
137.5
 21
10.31063380806097
 31
0.0
  0
LINE
  5
1D1
  8
DATA
  6
CONTINUOUS
 62
     7
 10
238.5
 20
9.0856338080609191
 30
0.0
 11
238.5
 21
16.93563380806113
 31
0.0
  0
LINE
  5
1D2
  8
DATA
  6
CONTINUOUS
 62
     7
 10
233.5
 20
16.93563380806113
 30
0.0
 11
238.5
 21
16.93563380806113
 31
0.0
  0
LINE
  5
1D3
  8
DATA
  6
CONTINUOUS
 62
     7
 10
233.5
 20
9.0856338080609191
 30
0.0
 11
238.5
 21
9.0856338080609191
 31
0.0
  0
LINE
  5
1D4
  8
DATA
  6
CONTINUOUS
 62
     7
 10
233.5
 20
15.7106338080611
 30
0.0
 11
238.5
 21
15.7106338080611
 31
0.0
  0
LINE
  5
1D5
  8
DATA
  6
CONTINUOUS
 62
     7
 10
233.5
 20
10.31063380806097
 30
0.0
 11
238.5
 21
10.31063380806097
 31
0.0
  0
LINE
  5
1D6
  8
DATA
  6
CONTINUOUS
 62
     7
 10
82.999999999999986
 20
56.25
 30
0.0
 11
82.999999999999986
 21
152.25
 31
0.0
  0
LINE
  5
1D7
  8
DATA
  6
CONTINUOUS
 62
     7
 10
81.0
 20
2.0
 30
0.0
 11
1.9999999999999849
 21
2.0
 31
0.0
  0
LINE
  5
1D8
  8
DATA
  6
CONTINUOUS
 62
     7
 10
0.0
 20
152.25
 30
0.0
 11
82.999999999999986
 21
152.25
 31
0.0
  0
TEXT
  5
1D9
  8
DATA
 62
     7
 10
34.926023044081298
 20
63.091933261629158
 30
0.0
 40
6.5153645833333327
  1
Converter
 41
0.7
 11
34.926023044081298
 21
69.607297844962503
 31
0.0
 73
     3
  0
LINE
  5
1DA
  8
DATA
  6
CONTINUOUS
 62
     7
 10
-0.0000000000000142
 20
208.25000000038031
 30
0.0
 11
-0.0000000000000142
 21
183.2500000003804
 31
0.0
  0
LINE
  5
1DB
  8
DATA
  6
CONTINUOUS
 62
     7
 10
81.0
 20
210.25000000038031
 30
0.0
 11
71.0
 21
210.25000000038031
 31
0.0
  0
LINE
  5
1DC
  8
DATA
  6
CONTINUOUS
 62
     7
 10
12.0
 20
210.25000000038031
 30
0.0
 11
1.9999999999999849
 21
210.25000000038031
 31
0.0
  0
LINE
  5
1DD
  8
DATA
  6
CONTINUOUS
 62
     7
 10
83.0
 20
183.2500000003804
 30
0.0
 11
83.0
 21
208.25000000038031
 31
0.0
  0
LINE
  5
1DE
  8
DATA
  6
CONTINUOUS
 62
     7
 10
1.9999999999999849
 20
181.2500000003804
 30
0.0
 11
81.0
 21
181.2500000003804
 31
0.0
  0
LINE
  5
1DF
  8
DATA
  6
CONTINUOUS
 62
     7
 10
12.0
 20
210.25000000038031
 30
0.0
 11
12.0
 21
208.25000000038031
 31
0.0
  0
LINE
  5
1E0
  8
DATA
  6
CONTINUOUS
 62
     7
 10
71.0
 20
210.25000000038031
 30
0.0
 11
71.0
 21
208.25000000038031
 31
0.0
  0
LINE
  5
1E1
  8
DATA
  6
CONTINUOUS
 62
     7
 10
3.9999999999999849
 20
183.2500000003804
 30
0.0
 11
79.0
 21
183.2500000003804
 31
0.0
  0
LINE
  5
1E2
  8
DATA
  6
CONTINUOUS
 62
     7
 10
1.9999999999999849
 20
208.25000000038031
 30
0.0
 11
1.9999999999999849
 21
185.2500000003804
 31
0.0
  0
LINE
  5
1E3
  8
DATA
  6
CONTINUOUS
 62
     7
 10
81.0
 20
185.2500000003804
 30
0.0
 11
81.0
 21
208.25000000038031
 31
0.0
  0
ARC
  5
1E4
  8
DATA
  6
CONTINUOUS
 62
     7
 10
3.9999999999999849
 20
185.2500000003804
 30
0.0
 40
2.0
 50
180.0
 51
270.0
  0
ARC
  5
1E5
  8
DATA
  6
CONTINUOUS
 62
     7
 10
1.9999999999999849
 20
183.2500000003804
 30
0.0
 40
2.0
 50
180.0
 51
270.0
  0
ARC
  5
1E6
  8
DATA
  6
CONTINUOUS
 62
     7
 10
1.9999999999999849
 20
208.25000000038031
 30
0.0
 40
1.9999999999999849
 50
90.0
 51
180.0
  0
ARC
  5
1E7
  8
DATA
  6
CONTINUOUS
 62
     7
 10
79.0
 20
185.2500000003804
 30
0.0
 40
1.999999999999978
 50
270.0
 51
0.0
  0
ARC
  5
1E8
  8
DATA
  6
CONTINUOUS
 62
     7
 10
81.0
 20
183.2500000003804
 30
0.0
 40
2.0000000000000071
 50
270.0
 51
0.0
  0
ARC
  5
1E9
  8
DATA
  6
CONTINUOUS
 62
     7
 10
81.0
 20
208.25000000038031
 30
0.0
 40
2.0
 50
0.0
 51
90.0
  0
LINE
  5
1EA
  8
DATA
  6
CONTINUOUS
 62
     7
 10
81.0
 20
208.25000000038031
 30
0.0
 11
1.9999999999999849
 21
208.25000000038031
 31
0.0
  0
POLYLINE
  5
1EB
  8
DATA
  6
CONTINUOUS
 62
     7
 66
     1
 10
0.0
 20
0.0
 30
0.0
 70
   129
  0
VERTEX
  5
3C9
  8
DATA
  6
CONTINUOUS
 62
     7
 10
49.929515139263202
 20
195.2696192837237
 30
0.0
 42
-0.4142135623730951
  0
VERTEX
  5
3CA
  8
DATA
  6
CONTINUOUS
 62
     7
 10
50.429515139263202
 20
195.7696192837237
 30
0.0
 42
-0.4142135623730992
  0
VERTEX
  5
3CB
  8
DATA
  6
CONTINUOUS
 62
     7
 10
50.929515139263202
 20
195.2696192837237
 30
0.0
 42
-0.4142135623730951
  0
VERTEX
  5
3CC
  8
DATA
  6
CONTINUOUS
 62
     7
 10
50.429515139263202
 20
194.7696192837237
 30
0.0
 42
-0.414213562373091
  0
VERTEX
  5
3CD
  8
DATA
  6
CONTINUOUS
 62
     7
 10
49.929515139263202
 20
195.2696192837237
 30
0.0
  0
SEQEND
  5
3CE
  8
DATA
  6
CONTINUOUS
 62
     7
  0
LINE
  5
1F2
  8
DATA
  6
CONTINUOUS
 62
     7
 10
61.991062246769538
 20
191.0996192837236
 30
0.0
 11
49.091062246769532
 21
191.0996192837236
 31
0.0
  0
LINE
  5
1F3
  8
DATA
  6
CONTINUOUS
 62
     7
 10
61.614492246769537
 20
199.43961928372369
 30
0.0
 11
49.467622246769523
 21
199.43961928372369
 31
0.0
  0
POLYLINE
  5
1F4
  8
DATA
  6
CONTINUOUS
 62
     7
 66
     1
 10
0.0
 20
0.0
 30
0.0
 70
   129
  0
VERTEX
  5
3CF
  8
DATA
  6
CONTINUOUS
 62
     7
 10
52.20951513926321
 20
195.2696192837237
 30
0.0
 42
-0.4142135623730951
  0
VERTEX
  5
3D0
  8
DATA
  6
CONTINUOUS
 62
     7
 10
52.70951513926321
 20
195.7696192837237
 30
0.0
 42
-0.414213562373091
  0
VERTEX
  5
3D1
  8
DATA
  6
CONTINUOUS
 62
     7
 10
53.20951513926321
 20
195.2696192837237
 30
0.0
 42
-0.4142135623730951
  0
VERTEX
  5
3D2
  8
DATA
  6
CONTINUOUS
 62
     7
 10
52.70951513926321
 20
194.7696192837237
 30
0.0
 42
-0.4142135623730992
  0
VERTEX
  5
3D3
  8
DATA
  6
CONTINUOUS
 62
     7
 10
52.20951513926321
 20
195.2696192837237
 30
0.0
  0
SEQEND
  5
3D4
  8
DATA
  6
CONTINUOUS
 62
     7
  0
POLYLINE
  5
1FB
  8
DATA
  6
CONTINUOUS
 62
     7
 66
     1
 10
0.0
 20
0.0
 30
0.0
 70
   129
  0
VERTEX
  5
3D5
  8
DATA
  6
CONTINUOUS
 62
     7
 10
60.147816534335867
 20
197.24961928372369
 30
0.0
 42
-0.4142135623730951
  0
VERTEX
  5
3D6
  8
DATA
  6
CONTINUOUS
 62
     7
 10
60.647816534335881
 20
197.74961928372369
 30
0.0
 42
-0.4142135623730951
  0
VERTEX
  5
3D7
  8
DATA
  6
CONTINUOUS
 62
     7
 10
61.147816534335867
 20
197.24961928372369
 30
0.0
 42
-0.4142135623730951
  0
VERTEX
  5
3D8
  8
DATA
  6
CONTINUOUS
 62
     7
 10
60.647816534335881
 20
196.74961928372369
 30
0.0
 42
-0.4142135623730951
  0
VERTEX
  5
3D9
  8
DATA
  6
CONTINUOUS
 62
     7
 10
60.147816534335867
 20
197.24961928372369
 30
0.0
  0
SEQEND
  5
3DA
  8
DATA
  6
CONTINUOUS
 62
     7
  0
POLYLINE
  5
202
  8
DATA
  6
CONTINUOUS
 62
     7
 66
     1
 10
0.0
 20
0.0
 30
0.0
 70
   129
  0
VERTEX
  5
3DB
  8
DATA
  6
CONTINUOUS
 62
     7
 10
57.857816534335882
 20
197.24961928372369
 30
0.0
 42
-0.4142135623730951
  0
VERTEX
  5
3DC
  8
DATA
  6
CONTINUOUS
 62
     7
 10
58.357816534335882
 20
197.74961928372369
 30
0.0
 42
-0.4142135623730951
  0
VERTEX
  5
3DD
  8
DATA
  6
CONTINUOUS
 62
     7
 10
58.857816534335882
 20
197.24961928372369
 30
0.0
 42
-0.4142135623730951
  0
VERTEX
  5
3DE
  8
DATA
  6
CONTINUOUS
 62
     7
 10
58.357816534335882
 20
196.74961928372369
 30
0.0
 42
-0.4142135623730951
  0
VERTEX
  5
3DF
  8
DATA
  6
CONTINUOUS
 62
     7
 10
57.857816534335882
 20
197.24961928372369
 30
0.0
  0
SEQEND
  5
3E0
  8
DATA
  6
CONTINUOUS
 62
     7
  0
POLYLINE
  5
209
  8
DATA
  6
CONTINUOUS
 62
     7
 66
     1
 10
0.0
 20
0.0
 30
0.0
 70
   129
  0
VERTEX
  5
3E1
  8
DATA
  6
CONTINUOUS
 62
     7
 10
55.567816534335883
 20
197.24961928372369
 30
0.0
 42
-0.4142135623730951
  0
VERTEX
  5
3E2
  8
DATA
  6
CONTINUOUS
 62
     7
 10
56.067816534335883
 20
197.74961928372369
 30
0.0
 42
-0.4142135623730951
  0
VERTEX
  5
3E3
  8
DATA
  6
CONTINUOUS
 62
     7
 10
56.567816534335883
 20
197.24961928372369
 30
0.0
 42
-0.4142135623730951
  0
VERTEX
  5
3E4
  8
DATA
  6
CONTINUOUS
 62
     7
 10
56.067816534335883
 20
196.74961928372369
 30
0.0
 42
-0.4142135623730951
  0
VERTEX
  5
3E5
  8
DATA
  6
CONTINUOUS
 62
     7
 10
55.567816534335883
 20
197.24961928372369
 30
0.0
  0
SEQEND
  5
3E6
  8
DATA
  6
CONTINUOUS
 62
     7
  0
POLYLINE
  5
210
  8
DATA
  6
CONTINUOUS
 62
     7
 66
     1
 10
0.0
 20
0.0
 30
0.0
 70
   129
  0
VERTEX
  5
3E7
  8
DATA
  6
CONTINUOUS
 62
     7
 10
53.28781653433586
 20
197.24961928372369
 30
0.0
 42
-0.4142135623730868
  0
VERTEX
  5
3E8
  8
DATA
  6
CONTINUOUS
 62
     7
 10
53.78781653433586
 20
197.74961928372369
 30
0.0
 42
-0.4142135623730992
  0
VERTEX
  5
3E9
  8
DATA
  6
CONTINUOUS
 62
     7
 10
54.287816534335882
 20
197.24961928372369
 30
0.0
 42
-0.414213562373091
  0
VERTEX
  5
3EA
  8
DATA
  6
CONTINUOUS
 62
     7
 10
53.78781653433586
 20
196.74961928372369
 30
0.0
 42
-0.4142135623730992
  0
VERTEX
  5
3EB
  8
DATA
  6
CONTINUOUS
 62
     7
 10
53.28781653433586
 20
197.24961928372369
 30
0.0
  0
SEQEND
  5
3EC
  8
DATA
  6
CONTINUOUS
 62
     7
  0
POLYLINE
  5
217
  8
DATA
  6
CONTINUOUS
 62
     7
 66
     1
 10
0.0
 20
0.0
 30
0.0
 70
   129
  0
VERTEX
  5
3ED
  8
DATA
  6
CONTINUOUS
 62
     7
 10
60.147816534335867
 20
193.28961928372371
 30
0.0
 42
-0.4142135623730951
  0
VERTEX
  5
3EE
  8
DATA
  6
CONTINUOUS
 62
     7
 10
60.647816534335881
 20
193.78961928372379
 30
0.0
 42
-0.4142135623730951
  0
VERTEX
  5
3EF
  8
DATA
  6
CONTINUOUS
 62
     7
 10
61.147816534335867
 20
193.28961928372371
 30
0.0
 42
-0.4142135623730951
  0
VERTEX
  5
3F0
  8
DATA
  6
CONTINUOUS
 62
     7
 10
60.647816534335881
 20
192.78961928372379
 30
0.0
 42
-0.4142135623730951
  0
VERTEX
  5
3F1
  8
DATA
  6
CONTINUOUS
 62
     7
 10
60.147816534335867
 20
193.28961928372371
 30
0.0
  0
SEQEND
  5
3F2
  8
DATA
  6
CONTINUOUS
 62
     7
  0
POLYLINE
  5
21E
  8
DATA
  6
CONTINUOUS
 62
     7
 66
     1
 10
0.0
 20
0.0
 30
0.0
 70
   129
  0
VERTEX
  5
3F3
  8
DATA
  6
CONTINUOUS
 62
     7
 10
57.857816534335882
 20
193.28961928372371
 30
0.0
 42
-0.4142135623730951
  0
VERTEX
  5
3F4
  8
DATA
  6
CONTINUOUS
 62
     7
 10
58.357816534335882
 20
193.78961928372379
 30
0.0
 42
-0.4142135623730951
  0
VERTEX
  5
3F5
  8
DATA
  6
CONTINUOUS
 62
     7
 10
58.857816534335882
 20
193.28961928372371
 30
0.0
 42
-0.4142135623730951
  0
VERTEX
  5
3F6
  8
DATA
  6
CONTINUOUS
 62
     7
 10
58.357816534335882
 20
192.78961928372379
 30
0.0
 42
-0.4142135623730951
  0
VERTEX
  5
3F7
  8
DATA
  6
CONTINUOUS
 62
     7
 10
57.857816534335882
 20
193.28961928372371
 30
0.0
  0
SEQEND
  5
3F8
  8
DATA
  6
CONTINUOUS
 62
     7
  0
POLYLINE
  5
225
  8
DATA
  6
CONTINUOUS
 62
     7
 66
     1
 10
0.0
 20
0.0
 30
0.0
 70
   129
  0
VERTEX
  5
3F9
  8
DATA
  6
CONTINUOUS
 62
     7
 10
55.567816534335883
 20
193.28961928372371
 30
0.0
 42
-0.4142135623730951
  0
VERTEX
  5
3FA
  8
DATA
  6
CONTINUOUS
 62
     7
 10
56.067816534335883
 20
193.78961928372379
 30
0.0
 42
-0.4142135623730951
  0
VERTEX
  5
3FB
  8
DATA
  6
CONTINUOUS
 62
     7
 10
56.567816534335883
 20
193.28961928372371
 30
0.0
 42
-0.4142135623730951
  0
VERTEX
  5
3FC
  8
DATA
  6
CONTINUOUS
 62
     7
 10
56.067816534335883
 20
192.78961928372379
 30
0.0
 42
-0.4142135623730951
  0
VERTEX
  5
3FD
  8
DATA
  6
CONTINUOUS
 62
     7
 10
55.567816534335883
 20
193.28961928372371
 30
0.0
  0
SEQEND
  5
3FE
  8
DATA
  6
CONTINUOUS
 62
     7
  0
POLYLINE
  5
22C
  8
DATA
  6
CONTINUOUS
 62
     7
 66
     1
 10
0.0
 20
0.0
 30
0.0
 70
   129
  0
VERTEX
  5
3FF
  8
DATA
  6
CONTINUOUS
 62
     7
 10
53.28781653433586
 20
193.28961928372371
 30
0.0
 42
-0.4142135623730868
  0
VERTEX
  5
400
  8
DATA
  6
CONTINUOUS
 62
     7
 10
53.78781653433586
 20
193.78961928372379
 30
0.0
 42
-0.4142135623730992
  0
VERTEX
  5
401
  8
DATA
  6
CONTINUOUS
 62
     7
 10
54.287816534335882
 20
193.28961928372371
 30
0.0
 42
-0.414213562373091
  0
VERTEX
  5
402
  8
DATA
  6
CONTINUOUS
 62
     7
 10
53.78781653433586
 20
192.78961928372379
 30
0.0
 42
-0.4142135623730992
  0
VERTEX
  5
403
  8
DATA
  6
CONTINUOUS
 62
     7
 10
53.28781653433586
 20
193.28961928372371
 30
0.0
  0
SEQEND
  5
404
  8
DATA
  6
CONTINUOUS
 62
     7
  0
POLYLINE
  5
233
  8
DATA
  6
CONTINUOUS
 62
     7
 66
     1
 10
0.0
 20
0.0
 30
0.0
 70
   129
  0
VERTEX
  5
405
  8
DATA
  6
CONTINUOUS
 62
     7
 10
59.069515139263203
 20
195.2696192837237
 30
0.0
 42
-0.4142135623730951
  0
VERTEX
  5
406
  8
DATA
  6
CONTINUOUS
 62
     7
 10
59.569515139263203
 20
195.7696192837237
 30
0.0
 42
-0.414213562373091
  0
VERTEX
  5
407
  8
DATA
  6
CONTINUOUS
 62
     7
 10
60.069515139263203
 20
195.2696192837237
 30
0.0
 42
-0.4142135623730951
  0
VERTEX
  5
408
  8
DATA
  6
CONTINUOUS
 62
     7
 10
59.569515139263203
 20
194.7696192837237
 30
0.0
 42
-0.4142135623730992
  0
VERTEX
  5
409
  8
DATA
  6
CONTINUOUS
 62
     7
 10
59.069515139263203
 20
195.2696192837237
 30
0.0
  0
SEQEND
  5
40A
  8
DATA
  6
CONTINUOUS
 62
     7
  0
POLYLINE
  5
23A
  8
DATA
  6
CONTINUOUS
 62
     7
 66
     1
 10
0.0
 20
0.0
 30
0.0
 70
   129
  0
VERTEX
  5
40B
  8
DATA
  6
CONTINUOUS
 62
     7
 10
56.789515139263209
 20
195.2696192837237
 30
0.0
 42
-0.4142135623730951
  0
VERTEX
  5
40C
  8
DATA
  6
CONTINUOUS
 62
     7
 10
57.289515139263209
 20
195.7696192837237
 30
0.0
 42
-0.4142135623730992
  0
VERTEX
  5
40D
  8
DATA
  6
CONTINUOUS
 62
     7
 10
57.789515139263209
 20
195.2696192837237
 30
0.0
 42
-0.4142135623730951
  0
VERTEX
  5
40E
  8
DATA
  6
CONTINUOUS
 62
     7
 10
57.289515139263209
 20
194.7696192837237
 30
0.0
 42
-0.414213562373091
  0
VERTEX
  5
40F
  8
DATA
  6
CONTINUOUS
 62
     7
 10
56.789515139263209
 20
195.2696192837237
 30
0.0
  0
SEQEND
  5
410
  8
DATA
  6
CONTINUOUS
 62
     7
  0
POLYLINE
  5
241
  8
DATA
  6
CONTINUOUS
 62
     7
 66
     1
 10
0.0
 20
0.0
 30
0.0
 70
   129
  0
VERTEX
  5
411
  8
DATA
  6
CONTINUOUS
 62
     7
 10
54.499515139263202
 20
195.2696192837237
 30
0.0
 42
-0.4142135623730951
  0
VERTEX
  5
412
  8
DATA
  6
CONTINUOUS
 62
     7
 10
54.999515139263202
 20
195.7696192837237
 30
0.0
 42
-0.414213562373091
  0
VERTEX
  5
413
  8
DATA
  6
CONTINUOUS
 62
     7
 10
55.499515139263202
 20
195.2696192837237
 30
0.0
 42
-0.4142135623730951
  0
VERTEX
  5
414
  8
DATA
  6
CONTINUOUS
 62
     7
 10
54.999515139263202
 20
194.7696192837237
 30
0.0
 42
-0.4142135623730992
  0
VERTEX
  5
415
  8
DATA
  6
CONTINUOUS
 62
     7
 10
54.499515139263202
 20
195.2696192837237
 30
0.0
  0
SEQEND
  5
416
  8
DATA
  6
CONTINUOUS
 62
     7
  0
POLYLINE
  5
248
  8
DATA
  6
CONTINUOUS
 62
     7
 66
     1
 10
0.0
 20
0.0
 30
0.0
 70
   129
  0
VERTEX
  5
417
  8
DATA
  6
CONTINUOUS
 62
     7
 10
50.997816534335861
 20
197.24961928372369
 30
0.0
 42
-0.4142135623730951
  0
VERTEX
  5
418
  8
DATA
  6
CONTINUOUS
 62
     7
 10
51.497816534335861
 20
197.74961928372369
 30
0.0
 42
-0.4142135623730951
  0
VERTEX
  5
419
  8
DATA
  6
CONTINUOUS
 62
     7
 10
51.997816534335861
 20
197.24961928372369
 30
0.0
 42
-0.4142135623730951
  0
VERTEX
  5
41A
  8
DATA
  6
CONTINUOUS
 62
     7
 10
51.497816534335861
 20
196.74961928372369
 30
0.0
 42
-0.4142135623730951
  0
VERTEX
  5
41B
  8
DATA
  6
CONTINUOUS
 62
     7
 10
50.997816534335861
 20
197.24961928372369
 30
0.0
  0
SEQEND
  5
41C
  8
DATA
  6
CONTINUOUS
 62
     7
  0
POLYLINE
  5
24F
  8
DATA
  6
CONTINUOUS
 62
     7
 66
     1
 10
0.0
 20
0.0
 30
0.0
 70
   129
  0
VERTEX
  5
41D
  8
DATA
  6
CONTINUOUS
 62
     7
 10
50.997816534335861
 20
193.28961928372371
 30
0.0
 42
-0.4142135623730951
  0
VERTEX
  5
41E
  8
DATA
  6
CONTINUOUS
 62
     7
 10
51.497816534335861
 20
193.78961928372379
 30
0.0
 42
-0.4142135623730951
  0
VERTEX
  5
41F
  8
DATA
  6
CONTINUOUS
 62
     7
 10
51.997816534335861
 20
193.28961928372371
 30
0.0
 42
-0.4142135623730951
  0
VERTEX
  5
420
  8
DATA
  6
CONTINUOUS
 62
     7
 10
51.497816534335861
 20
192.78961928372379
 30
0.0
 42
-0.4142135623730951
  0
VERTEX
  5
421
  8
DATA
  6
CONTINUOUS
 62
     7
 10
50.997816534335861
 20
193.28961928372371
 30
0.0
  0
SEQEND
  5
422
  8
DATA
  6
CONTINUOUS
 62
     7
  0
ARC
  5
256
  8
DATA
  6
CONTINUOUS
 62
     7
 10
61.614492246769537
 20
197.93961928372369
 30
0.0
 40
1.499998001665334
 50
9.9999255496015014
 51
90.0
  0
ARC
  5
257
  8
DATA
  6
CONTINUOUS
 62
     7
 10
61.991062246769538
 20
193.09961928372371
 30
0.0
 40
2.000000000000028
 50
270.0
 51
0.0
  0
LINE
  5
258
  8
DATA
  6
CONTINUOUS
 62
     7
 10
63.991062246769552
 20
193.09961928372371
 30
0.0
 11
63.091712246769532
 21
198.20008928372371
 31
0.0
  0
ARC
  5
259
  8
DATA
  6
CONTINUOUS
 62
     7
 10
49.467622246769523
 20
197.93961928372369
 30
0.0
 40
1.5
 50
90.0
 51
170.00007445039901
  0
ARC
  5
25A
  8
DATA
  6
CONTINUOUS
 62
     7
 10
49.091062246769532
 20
193.09961928372371
 30
0.0
 40
2.0
 50
180.0
 51
270.0
  0
LINE
  5
25B
  8
DATA
  6
CONTINUOUS
 62
     7
 10
47.091062246769518
 20
193.09961928372371
 30
0.0
 11
47.990412246769523
 21
198.20008928372371
 31
0.0
  0
CIRCLE
  5
25C
  8
DATA
  6
CONTINUOUS
 62
     7
 10
43.009760601395072
 20
195.28732897533271
 30
0.0
 40
1.1750000000001251
  0
POLYLINE
  5
25D
  8
DATA
  6
CONTINUOUS
 62
     7
 66
     1
 10
0.0
 20
0.0
 30
0.0
 70
     1
  0
VERTEX
  5
423
  8
DATA
  6
CONTINUOUS
 62
     7
 10
43.009760601395072
 20
192.58732897533281
 30
0.0
  0
VERTEX
  5
424
  8
DATA
  6
CONTINUOUS
 62
     7
 10
45.348029191613172
 20
193.9373289753328
 30
0.0
  0
VERTEX
  5
425
  8
DATA
  6
CONTINUOUS
 62
     7
 10
45.348029191613172
 20
196.63732897533271
 30
0.0
  0
VERTEX
  5
426
  8
DATA
  6
CONTINUOUS
 62
     7
 10
43.009760601395072
 20
197.9873289753327
 30
0.0
  0
VERTEX
  5
427
  8
DATA
  6
CONTINUOUS
 62
     7
 10
40.671492011176959
 20
196.63732897533271
 30
0.0
  0
VERTEX
  5
428
  8
DATA
  6
CONTINUOUS
 62
     7
 10
40.671492011176959
 20
193.9373289753328
 30
0.0
  0
SEQEND
  5
429
  8
DATA
  6
CONTINUOUS
 62
     7
  0
CIRCLE
  5
266
  8
DATA
  6
CONTINUOUS
 62
     7
 10
68.009760601395442
 20
195.28732897533271
 30
0.0
 40
1.1750000000001211
  0
POLYLINE
  5
267
  8
DATA
  6
CONTINUOUS
 62
     7
 66
     1
 10
0.0
 20
0.0
 30
0.0
 70
     1
  0
VERTEX
  5
42A
  8
DATA
  6
CONTINUOUS
 62
     7
 10
68.009760601395442
 20
192.58732897533281
 30
0.0
  0
VERTEX
  5
42B
  8
DATA
  6
CONTINUOUS
 62
     7
 10
70.348029191613364
 20
193.9373289753328
 30
0.0
  0
VERTEX
  5
42C
  8
DATA
  6
CONTINUOUS
 62
     7
 10
70.348029191613364
 20
196.63732897533271
 30
0.0
  0
VERTEX
  5
42D
  8
DATA
  6
CONTINUOUS
 62
     7
 10
68.009760601395442
 20
197.9873289753327
 30
0.0
  0
VERTEX
  5
42E
  8
DATA
  6
CONTINUOUS
 62
     7
 10
65.671492011177349
 20
196.63732897533271
 30
0.0
  0
VERTEX
  5
42F
  8
DATA
  6
CONTINUOUS
 62
     7
 10
65.671492011177349
 20
193.9373289753328
 30
0.0
  0
SEQEND
  5
430
  8
DATA
  6
CONTINUOUS
 62
     7
  0
LINE
  5
270
  8
DATA
  6
CONTINUOUS
 62
     7
 10
40.657817873292402
 20
157.25
 30
0.0
 11
40.657817873292402
 21
152.25
 31
0.0
  0
LINE
  5
271
  8
DATA
  6
CONTINUOUS
 62
     7
 10
45.334355053728459
 20
157.25
 30
0.0
 11
45.334355053728459
 21
152.25
 31
0.0
  0
LINE
  5
272
  8
DATA
  6
CONTINUOUS
 62
     7
 10
65.657817873292672
 20
157.25
 30
0.0
 11
65.657817873292672
 21
152.25
 31
0.0
  0
LINE
  5
273
  8
DATA
  6
CONTINUOUS
 62
     7
 10
70.334355053728743
 20
157.25
 30
0.0
 11
70.334355053728743
 21
152.25
 31
0.0
  0
LINE
  5
274
  8
DATA
  6
CONTINUOUS
 62
     7
 10
47.077388108884833
 20
157.25
 30
0.0
 11
47.077388108884833
 21
152.25
 31
0.0
  0
LINE
  5
275
  8
DATA
  6
CONTINUOUS
 62
     7
 10
63.977388108884853
 20
157.25
 30
0.0
 11
63.977388108884853
 21
152.25
 31
0.0
  0
LINE
  5
276
  8
DATA
  6
CONTINUOUS
 62
     7
 10
70.334355053728743
 20
157.25
 30
0.0
 11
65.657817873292672
 21
157.25
 31
0.0
  0
LINE
  5
277
  8
DATA
  6
CONTINUOUS
 62
     7
 10
63.977388108884853
 20
157.25
 30
0.0
 11
47.077388108884833
 21
157.25
 31
0.0
  0
LINE
  5
278
  8
DATA
  6
CONTINUOUS
 62
     7
 10
45.334355053728459
 20
157.25
 30
0.0
 11
40.657817873292402
 21
157.25
 31
0.0
  0
TEXT
  5
279
  8
DATA
 62
     7
 10
60.631301082581039
 20
206.1118397430096
 30
0.0
 40
2.185361870659722
  1
VGA Out 
 50
180.0
 41
0.7
 11
60.631301082581039
 21
203.92647787234989
 31
0.0
 73
     3
  0
ARC
  5
27A
  8
DATA
  6
CONTINUOUS
 62
     7
 10
7.0842691229928931
 20
1.53125
 30
0.0
 40
4.5312500000000062
 50
199.75087154376601
 51
340.24912845623402
  0
ARC
  5
27B
  8
DATA
  6
CONTINUOUS
 62
     7
 10
75.915730877007093
 20
1.53125
 30
0.0
 40
4.53125
 50
199.75087154376601
 51
340.24912845623379
  0
ARC
  5
27C
  8
DATA
  6
CONTINUOUS
 62
     7
 10
7.0842691229928931
 20
208.71875000074169
 30
0.0
 40
4.5312500000000044
 50
19.750871538909578
 51
160.24912846109041
  0
ARC
  5
27D
  8
DATA
  6
CONTINUOUS
 62
     7
 10
75.915730877007093
 20
208.71875000074169
 30
0.0
 40
4.5312499999999982
 50
19.750871538909411
 51
160.24912846109061
  0
ARC
  5
27E
  8
DATA
  6
CONTINUOUS
 62
     7
 10
151.77204857219809
 20
1.53125
 30
0.0
 40
4.53125
 50
199.75087154376601
 51
340.24912845623379
  0
ARC
  5
27F
  8
DATA
  6
CONTINUOUS
 62
     7
 10
219.35403682875301
 20
1.53125
 30
0.0
 40
4.531249999999992
 50
199.75087154376601
 51
340.24912845623379
  0
ENDSEC
  0
EOF
