  0
SECTION
  2
HEADER
  9
$ACADVER
  1
AC1009
  9
$INSBASE
 10
0.0
 20
0.0
 30
0.0
  9
$EXTMIN
 10
49.981691723202402
 20
8.4045441686225786
 30
-0.0015258207003583
  9
$EXTMAX
 10
950.02899391114363
 20
1350.04120187373
 30
0.0000000349246037
  9
$LIMMIN
 10
0.0
 20
0.0
  9
$LIMMAX
 10
0.0
 20
0.0
  9
$ORTHOMODE
 70
     0
  9
$REGENMODE
 70
     1
  9
$FILLMODE
 70
     1
  9
$QTEXTMODE
 70
     0
  9
$MIRRTEXT
 70
     1
  9
$DRAGMODE
 70
     2
  9
$LTSCALE
 40
25.399999999999999
  9
$OSMODE
 70
   231
  9
$ATTMODE
 70
     1
  9
$TEXTSIZE
 40
0.0
  9
$TRACEWID
 40
1.0
  9
$TEXTSTYLE
  7
STANDARD
  9
$CLAYER
  8
DATA
  9
$CELTYPE
  6
BYLAYER
  9
$CECOLOR
 62
   256
  9
$DIMSCALE
 40
1.0
  9
$DIMASZ
 40
0.18
  9
$DIMEXO
 40
0.0625
  9
$DIMDLI
 40
0.38
  9
$DIMRND
 40
0.0
  9
$DIMDLE
 40
0.0
  9
$DIMEXE
 40
0.18
  9
$DIMTP
 40
0.0
  9
$DIMTM
 40
0.0
  9
$DIMTXT
 40
0.18
  9
$DIMCEN
 40
0.09
  9
$DIMTSZ
 40
0.0
  9
$DIMTOL
 70
     0
  9
$DIMLIM
 70
     0
  9
$DIMTIH
 70
     1
  9
$DIMTOH
 70
     1
  9
$DIMSE1
 70
     0
  9
$DIMSE2
 70
     0
  9
$DIMTAD
 70
     0
  9
$DIMZIN
 70
     0
  9
$DIMBLK
  1

  9
$DIMASO
 70
     1
  9
$DIMSHO
 70
     1
  9
$DIMPOST
  1

  9
$DIMAPOST
  1

  9
$DIMALT
 70
     0
  9
$DIMALTD
 70
     2
  9
$DIMALTF
 40
25.399999999999999
  9
$DIMLFAC
 40
1.0
  9
$DIMTOFL
 70
     0
  9
$DIMTVP
 40
0.0
  9
$DIMTIX
 70
     0
  9
$DIMSOXD
 70
     0
  9
$DIMSAH
 70
     0
  9
$DIMBLK1
  1

  9
$DIMBLK2
  1

  9
$DIMSTYLE
  2
STANDARD
  9
$DIMCLRD
 70
     0
  9
$DIMCLRE
 70
     0
  9
$DIMCLRT
 70
     0
  9
$DIMTFAC
 40
1.0
  9
$DIMGAP
 40
0.09
  9
$LUNITS
 70
     2
  9
$LUPREC
 70
     4
  9
$SKETCHINC
 40
0.1
  9
$FILLETRAD
 40
0.0
  9
$AUNITS
 70
     0
  9
$AUPREC
 70
     0
  9
$MENU
  1
acad
  9
$ELEVATION
 40
0.0
  9
$PELEVATION
 40
0.0
  9
$THICKNESS
 40
0.0
  9
$LIMCHECK
 70
     0
  9
$BLIPMODE
 70
     0
  9
$CHAMFERA
 40
0.0
  9
$CHAMFERB
 40
0.0
  9
$SKPOLY
 70
     0
  9
$TDCREATE
 40
2455355.6611458338
  9
$TDUPDATE
 40
2455355.6615993171
  9
$TDINDWG
 40
0.0003379167
  9
$TDUSRTIMER
 40
0.0003377315
  9
$USRTIMER
 70
     1
  9
$ANGBASE
 50
0.0
  9
$ANGDIR
 70
     0
  9
$PDMODE
 70
     1
  9
$PDSIZE
 40
-2.0
  9
$PLINEWID
 40
0.0
  9
$COORDS
 70
     0
  9
$SPLFRAME
 70
     0
  9
$SPLINETYPE
 70
     6
  9
$SPLINESEGS
 70
     8
  9
$ATTDIA
 70
     0
  9
$ATTREQ
 70
     1
  9
$HANDLING
 70
     1
  9
$HANDSEED
  5
C8A
  9
$SURFTAB1
 70
     6
  9
$SURFTAB2
 70
     6
  9
$SURFTYPE
 70
     6
  9
$SURFU
 70
     6
  9
$SURFV
 70
     6
  9
$UCSNAME
  2

  9
$UCSORG
 10
0.0
 20
0.0
 30
0.0
  9
$UCSXDIR
 10
1.0
 20
0.0
 30
0.0
  9
$UCSYDIR
 10
0.0
 20
1.0
 30
0.0
  9
$PUCSNAME
  2

  9
$PUCSORG
 10
0.0
 20
0.0
 30
0.0
  9
$PUCSXDIR
 10
1.0
 20
0.0
 30
0.0
  9
$PUCSYDIR
 10
0.0
 20
1.0
 30
0.0
  9
$USERI1
 70
     0
  9
$USERI2
 70
     0
  9
$USERI3
 70
     0
  9
$USERI4
 70
     0
  9
$USERI5
 70
     0
  9
$USERR1
 40
0.0
  9
$USERR2
 40
0.0
  9
$USERR3
 40
0.0
  9
$USERR4
 40
0.0
  9
$USERR5
 40
0.0
  9
$WORLDVIEW
 70
     1
  9
$SHADEDGE
 70
     3
  9
$SHADEDIF
 70
    70
  9
$TILEMODE
 70
     1
  9
$MAXACTVP
 70
    64
  9
$PLIMCHECK
 70
     0
  9
$PEXTMIN
 10
1.0000000000000000E+020
 20
1.0000000000000000E+020
 30
1.0000000000000000E+020
  9
$PEXTMAX
 10
-1.0000000000000000E+020
 20
-1.0000000000000000E+020
 30
-1.0000000000000000E+020
  9
$PLIMMIN
 10
0.0
 20
0.0
  9
$PLIMMAX
 10
12.0
 20
9.0
  9
$UNITMODE
 70
     0
  9
$VISRETAIN
 70
     0
  9
$PLINEGEN
 70
     1
  9
$PSLTSCALE
 70
     0
  0
ENDSEC
  0
SECTION
  2
TABLES
  0
TABLE
  2
VPORT
 70
     1
  0
VPORT
  2
*ACTIVE
 70
     0
 10
0.0
 20
0.0
 11
1.0
 21
1.0
 12
500.0053428171729
 22
679.22287302117627
 13
0.0
 23
0.0
 14
1.0
 24
1.0
 15
0.0
 25
0.0
 16
0.0
 26
0.0
 36
1.0
 17
0.0
 27
0.0
 37
0.0
 40
1351.7494968335379
 41
2.0088050314465411
 42
50.0
 43
0.0
 44
0.0
 50
0.0
 51
0.0
 71
     0
 72
  2000
 73
     1
 74
     1
 75
     0
 76
     0
 77
     0
 78
     0
  0
ENDTAB
  0
TABLE
  2
LTYPE
 70
    11
  0
LTYPE
  2
CONTINUOUS
 70
     0
  3
Solid line
 72
    65
 73
     0
 40
0.0
  0
ENDTAB
  0
TABLE
  2
LAYER
 70
     6
  0
LAYER
  2
0
 70
     0
 62
     7
  6
CONTINUOUS
  0
LAYER
  2
DATA
 70
     0
 62
     7
  6
CONTINUOUS
  0
LAYER
  2
HIBINO-BASE
 70
     0
 62
     7
  6
CONTINUOUS
  0
LAYER
  2
SPEC
 70
     0
 62
     7
  6
CONTINUOUS
  0
LAYER
  2
DIMNSIONS
 70
     0
 62
     7
  6
CONTINUOUS
  0
ENDTAB
  0
TABLE
  2
STYLE
 70
     3
  0
STYLE
  2
STANDARD
 70
     0
 40
0.0
 41
1.0
 50
0.0
 71
     0
 42
0.0
  3
txt
  4
BIGFONT.SHX
  0
ENDTAB
  0
TABLE
  2
VIEW
 70
     0
  0
ENDTAB
  0
TABLE
  2
UCS
 70
     0
  0
ENDTAB
  0
TABLE
  2
APPID
 70
     3
  0
APPID
  2
ACAD
 70
     0
  0
APPID
  2
ACADANNOTATIVE
 70
     0
  0
APPID
  2
ACAD_MLEADERVER
 70
     0
  0
ENDTAB
  0
TABLE
  2
DIMSTYLE
 70
     2
  0
DIMSTYLE
  2
STANDARD
 70
     0
  3

  4

  5

  6

  7

 40
1.0
 41
0.18
 42
0.0625
 43
0.38
 44
0.18
 45
0.0
 46
0.0
 47
0.0
 48
0.0
140
0.18
141
0.09
142
0.0
143
25.399999999999999
144
1.0
145
0.0
146
1.0
147
0.09
 71
     0
 72
     0
 73
     1
 74
     1
 75
     0
 76
     0
 77
     0
 78
     0
170
     0
171
     2
172
     0
173
     0
174
     0
175
     0
176
     0
177
     0
178
     0
  0
ENDTAB
  0
ENDSEC
  0
SECTION
  2
BLOCKS
  0
BLOCK
  8
0
  2
$MODEL_SPACE
 70
     0
 10
0.0
 20
0.0
 30
0.0
  3
$MODEL_SPACE
  1

  0
ENDBLK
  5
837
  8
0
  0
BLOCK
 67
     1
  8
0
  2
$PAPER_SPACE
 70
     0
 10
0.0
 20
0.0
 30
0.0
  3
$PAPER_SPACE
  1

  0
ENDBLK
  5
833
 67
     1
  8
0
  0
ENDSEC
  0
SECTION
  2
ENTITIES
  0
LINE
  5
2D
  8
HIBINO-BASE
  6
CONTINUOUS
 62
     7
 10
50.0
 20
1350.0
 30
0.0
 11
950.0
 21
1350.0
 31
0.0
  0
LINE
  5
2E
  8
HIBINO-BASE
  6
CONTINUOUS
 62
     7
 10
950.0
 20
50.0
 30
0.0
 11
50.0
 21
50.0
 31
0.0
  0
LINE
  5
2F
  8
HIBINO-BASE
  6
CONTINUOUS
 62
     7
 10
50.0
 20
50.0
 30
0.0
 11
50.0
 21
1350.0
 31
0.0
  0
LINE
  5
30
  8
HIBINO-BASE
  6
CONTINUOUS
 62
     7
 10
950.0
 20
1350.0
 30
0.0
 11
950.0
 21
50.0
 31
0.0
  0
LINE
  5
31
  8
HIBINO-BASE
  6
CONTINUOUS
 62
     7
 10
500.0
 20
162.50000000000011
 30
0.0
 11
950.0
 21
162.50000000000011
 31
0.0
  0
LINE
  5
32
  8
HIBINO-BASE
  6
CONTINUOUS
 62
     7
 10
500.0
 20
50.0
 30
0.0
 11
500.0
 21
162.50000000000011
 31
0.0
  0
TEXT
  5
33
  8
HIBINO-BASE
 62
     7
 10
504.49999999999989
 20
149.9565333333334
 30
0.0
 40
8.1442057291666661
  1
NOTE
 41
0.7
 11
504.49999999999989
 21
158.10073906250011
 31
0.0
 73
     3
  0
LINE
  5
34
  8
HIBINO-BASE
  6
CONTINUOUS
 62
     7
 10
675.0
 20
50.0
 30
0.0
 11
675.0
 21
162.50000000000011
 31
0.0
  0
TEXT
  5
35
  8
HIBINO-BASE
 62
     7
 10
679.49999999999989
 20
149.9565333333334
 30
0.0
 40
8.1442057291666661
  1
TITLE
 41
0.7
 11
679.49999999999989
 21
158.10073906250011
 31
0.0
 73
     3
  0
LINE
  5
36
  8
HIBINO-BASE
  6
CONTINUOUS
 62
     7
 10
500.0
 20
100.0000000000001
 30
0.0
 11
950.0
 21
100.0000000000001
 31
0.0
  0
TEXT
  5
37
  8
HIBINO-BASE
 62
     7
 10
742.0
 20
87.738133333333465
 30
0.0
 40
8.1442057291666661
  1
DRAWN
 41
0.7
 11
742.0
 21
95.882339062500137
 31
0.0
 73
     3
  0
TEXT
  5
38
  8
HIBINO-BASE
 62
     7
 10
617.0
 20
87.738133333333465
 30
0.0
 40
8.1442057291666661
  1
DATE
 41
0.7
 11
617.0
 21
95.882339062500137
 31
0.0
 73
     3
  0
TEXT
  5
39
  8
HIBINO-BASE
 62
     7
 10
567.0
 20
87.738133333333465
 30
0.0
 40
8.1442057291666661
  1
SCALE
 41
0.7
 11
567.0
 21
95.882339062500137
 31
0.0
 73
     3
  0
TEXT
  5
3A
  8
HIBINO-BASE
 62
     7
 10
679.49999999999989
 20
87.738133333333465
 30
0.0
 40
8.1442057291666661
  1
DESIGN
 41
0.7
 11
679.49999999999989
 21
95.882339062500137
 31
0.0
 73
     3
  0
TEXT
  5
3B
  8
HIBINO-BASE
 62
     7
 10
867.0
 20
87.738133333333465
 30
0.0
 40
8.1442057291666661
  1
DRAWING NO.
 41
0.7
 11
867.0
 21
95.882339062500137
 31
0.0
 73
     3
  0
TEXT
  5
3C
  8
HIBINO-BASE
 62
     7
 10
804.49999999999989
 20
87.738133333333465
 30
0.0
 40
8.1442057291666661
  1
CHECK
 41
0.7
 11
804.49999999999989
 21
95.882339062500137
 31
0.0
 73
     3
  0
LINE
  5
3D
  8
HIBINO-BASE
  6
CONTINUOUS
 62
     7
 10
571.87499999999989
 20
56.25
 30
0.0
 11
590.625
 21
75.000000000000099
 31
0.0
  0
TEXT
  5
3E
  8
HIBINO-BASE
 62
     7
 10
568.74999999999989
 20
69.455283333333384
 30
0.0
 40
8.1442057291666661
  1
1
 41
0.7
 11
568.74999999999989
 21
77.599489062500069
 31
0.0
 73
     3
  0
LINE
  5
3F
  8
HIBINO-BASE
  6
CONTINUOUS
 62
     7
 10
562.49999999999989
 20
50.0
 30
0.0
 11
562.49999999999989
 21
100.0000000000001
 31
0.0
  0
LINE
  5
40
  8
HIBINO-BASE
  6
CONTINUOUS
 62
     7
 10
612.49999999999989
 20
50.0
 30
0.0
 11
612.49999999999989
 21
100.0000000000001
 31
0.0
  0
LINE
  5
41
  8
HIBINO-BASE
  6
CONTINUOUS
 62
     7
 10
737.5
 20
100.0000000000001
 30
0.0
 11
737.5
 21
50.0
 31
0.0
  0
LINE
  5
42
  8
HIBINO-BASE
  6
CONTINUOUS
 62
     7
 10
862.5
 20
100.0000000000001
 30
0.0
 11
862.5
 21
50.0
 31
0.0
  0
LINE
  5
43
  8
HIBINO-BASE
  6
CONTINUOUS
 62
     7
 10
800.0
 20
50.0
 30
0.0
 11
800.0
 21
100.0000000000001
 31
0.0
  0
TEXT
  5
44
  8
HIBINO-BASE
 62
     7
 10
616.78269999999986
 20
64.318233333333382
 30
0.0
 40
8.1442057291666661
  1
'10.05.
 41
0.7
 11
616.78269999999986
 21
72.462439062500053
 31
0.0
 73
     3
  0
TEXT
  5
45
  8
HIBINO-BASE
 62
     7
 10
587.5
 20
60.080283333333398
 30
0.0
 40
8.1442057291666661
  1
5
 41
0.7
 11
587.5
 21
68.224489062500069
 31
0.0
 73
     3
  0
TEXT
  5
46
  8
HIBINO-BASE
 62
     7
 10
746.98306333084508
 20
64.53534591951923
 30
0.0
 40
8.1442057291666661
  1
T.Ootake
 41
0.7
 11
746.98306333084508
 21
72.679551648685901
 31
0.0
 73
     3
  0
TEXT
  5
47
  8
HIBINO-BASE
 62
     7
 10
519.41666666666674
 20
59.880000000000031
 30
0.0
 40
16.288411458333329
  1
A4
 41
0.7
 11
519.41666666666674
 21
76.168411458333352
 31
0.0
 73
     3
  0
TEXT
  5
48
  8
HIBINO-BASE
 62
     7
 10
504.79166666666652
 20
86.902725000000103
 30
0.0
 40
8.1442057291666661
  1
PAPER SIZE
 41
0.7
 11
504.79166666666652
 21
95.046930729166775
 31
0.0
 73
     3
  0
TEXT
  5
49
  8
HIBINO-BASE
 62
     7
 10
61.863692639993189
 20
14.477875377128189
 30
0.0
 40
18.00022089843749
  1
Hibino-Intersound Corporation
 41
0.7
 11
61.863692639993189
 21
32.47809627556569
 31
0.0
 73
     3
  0
TEXT
  5
4A
  8
HIBINO-BASE
 62
     7
 10
594.10965924398056
 20
13.3826283143192
 30
0.0
 40
18.00022089843749
  1
ヒビノインターサウンド株式会社
 41
0.7
 11
594.10965924398056
 21
31.3828492127567
 31
0.0
 73
     3
  0
LINE
  5
4B
  8
SPEC
  6
CONTINUOUS
 62
     7
 10
87.5
 20
1300.0
 30
0.0
 11
825.0
 21
1300.0
 31
0.0
  0
LINE
  5
4C
  8
SPEC
  6
CONTINUOUS
 62
     7
 10
87.5
 20
1281.25
 30
0.0
 11
825.0
 21
1281.25
 31
0.0
  0
LINE
  5
4D
  8
SPEC
  6
CONTINUOUS
 62
     7
 10
87.5
 20
1206.25
 30
0.0
 11
825.0
 21
1206.25
 31
0.0
  0
LINE
  5
4E
  8
SPEC
  6
CONTINUOUS
 62
     7
 10
87.5
 20
1225.0
 30
0.0
 11
825.0
 21
1225.0
 31
0.0
  0
LINE
  5
4F
  8
SPEC
  6
CONTINUOUS
 62
     7
 10
87.5
 20
1243.75
 30
0.0
 11
825.0
 21
1243.75
 31
0.0
  0
LINE
  5
50
  8
SPEC
  6
CONTINUOUS
 62
     7
 10
87.5
 20
1187.5
 30
0.0
 11
825.0
 21
1187.5
 31
0.0
  0
LINE
  5
51
  8
SPEC
  6
CONTINUOUS
 62
     7
 10
87.5
 20
1150.0
 30
0.0
 11
825.0
 21
1150.0
 31
0.0
  0
LINE
  5
52
  8
SPEC
  6
CONTINUOUS
 62
     7
 10
87.5
 20
1168.75
 30
0.0
 11
825.0
 21
1168.75
 31
0.0
  0
LINE
  5
53
  8
SPEC
  6
CONTINUOUS
 62
     7
 10
87.5
 20
1131.25
 30
0.0
 11
825.0
 21
1131.25
 31
0.0
  0
LINE
  5
54
  8
SPEC
  6
CONTINUOUS
 62
     7
 10
87.5
 20
1112.5
 30
0.0
 11
825.0
 21
1112.5
 31
0.0
  0
LINE
  5
55
  8
SPEC
  6
CONTINUOUS
 62
     7
 10
87.5
 20
1262.5
 30
0.0
 11
825.0
 21
1262.5
 31
0.0
  0
TEXT
  5
56
  8
SPEC
 62
     7
 10
93.75
 20
1306.9663499999999
 30
0.0
 40
12.21630859375
  1
仕様
 41
0.7
 11
93.75
 21
1319.1826585937499
 31
0.0
 73
     3
  0
TEXT
  5
57
  8
SPEC
 62
     7
 10
91.618177383554794
 20
1286.150651167545
 30
0.0
 40
9.5015733506944464
  1
形式
 41
0.7
 11
91.618177383554794
 21
1295.6522245182391
 31
0.0
 73
     3
  0
LINE
  5
58
  8
SPEC
  6
CONTINUOUS
 62
     7
 10
325.0
 20
1300.0
 30
0.0
 11
325.0
 21
1093.75
 31
0.0
  0
TEXT
  5
59
  8
SPEC
 62
     7
 10
91.529696161271559
 20
1117.822074807211
 30
0.0
 40
9.5015733506944464
  1
寸法
 41
0.7
 11
91.529696161271559
 21
1127.3236481579049
 31
0.0
 73
     3
  0
TEXT
  5
5A
  8
SPEC
 62
     7
 10
329.67241775143623
 20
1117.1029827319769
 30
0.0
 40
9.5015733506944464
  1
435(W)\U+00D744(H)\U+00D7109(D)mm(突起部含まず)
 41
0.7
 11
329.67241775143623
 21
1126.604556082671
 31
0.0
 73
     3
  0
LINE
  5
5B
  8
SPEC
  6
CONTINUOUS
 62
     7
 10
825.0
 20
1300.0
 30
0.0
 11
825.0
 21
1093.75
 31
0.0
  0
TEXT
  5
5C
  8
SPEC
 62
     7
 10
329.53141917165323
 20
1154.6581878468071
 30
0.0
 40
9.5015733506944464
  1
5V DC
 41
0.7
 11
329.53141917165323
 21
1164.159761197501
 31
0.0
 73
     3
  0
LINE
  5
5D
  8
SPEC
  6
CONTINUOUS
 62
     7
 10
87.5
 20
1300.0
 30
0.0
 11
87.5
 21
1093.75
 31
0.0
  0
TEXT
  5
5E
  8
SPEC
 62
     7
 10
91.549489184934046
 20
1154.9199524605431
 30
0.0
 40
9.5015733506944464
  1
電源
 41
0.7
 11
91.549489184934046
 21
1164.421525811237
 31
0.0
 73
     3
  0
TEXT
  5
5F
  8
SPEC
 62
     7
 10
91.201899981941722
 20
1267.258102632384
 30
0.0
 40
9.5015733506944464
  1
ビデオ帯域
 41
0.7
 11
91.201899981941722
 21
1276.7596759830781
 31
0.0
 73
     3
  0
TEXT
  5
60
  8
SPEC
 62
     7
 10
328.82990995905988
 20
1266.9529664195661
 30
0.0
 40
9.5015733506944464
  1
165MHz\U+00D72
 41
0.7
 11
328.82990995905988
 21
1276.45453977026
 31
0.0
 73
     3
  0
TEXT
  5
61
  8
SPEC
 62
     7
 10
90.834352124649271
 20
1211.210923573472
 30
0.0
 40
9.5015733506944464
  1
シングルリンク対応解像度
 41
0.7
 11
90.834352124649271
 21
1220.712496924167
 31
0.0
 73
     3
  0
TEXT
  5
62
  8
SPEC
 62
     7
 10
91.765804016807124
 20
1248.5916902176191
 30
0.0
 40
9.5015733506944464
  1
入力ビデオ信号
 41
0.7
 11
91.765804016807124
 21
1258.093263568313
 31
0.0
 73
     3
  0
TEXT
  5
63
  8
SPEC
 62
     7
 10
328.91954070879922
 20
1211.2012428216599
 30
0.0
 40
9.5015733506944464
  1
1080p/1920\U+00D71200
 41
0.7
 11
328.91954070879922
 21
1220.702816172354
 31
0.0
 73
     3
  0
TEXT
  5
64
  8
SPEC
 62
     7
 10
328.83416981229283
 20
1248.8099202895689
 30
0.0
 40
9.5015733506944464
  1
1.2Vp-p
 41
0.7
 11
328.83416981229283
 21
1258.3114936402631
 31
0.0
 73
     3
  0
TEXT
  5
65
  8
SPEC
 62
     7
 10
91.733720563698256
 20
1229.567236262649
 30
0.0
 40
9.5015733506944464
  1
入力DDC信号
 41
0.7
 11
91.733720563698256
 21
1239.0688096133431
 31
0.0
 73
     3
  0
TEXT
  5
66
  8
SPEC
 62
     7
 10
329.5103062214921
 20
1229.273404492475
 30
0.0
 40
9.5015733506944464
  1
5Vp-p(TTL)
 41
0.7
 11
329.5103062214921
 21
1238.7749778431701
 31
0.0
 73
     3
  0
TEXT
  5
67
  8
SPEC
 62
     7
 10
91.764027930058589
 20
1136.617340777723
 30
0.0
 40
9.5015733506944464
  1
消費電力
 41
0.7
 11
91.764027930058589
 21
1146.1189141284169
 31
0.0
 73
     3
  0
TEXT
  5
68
  8
SPEC
 62
     7
 10
329.45763436808778
 20
1136.421345183531
 30
0.0
 40
9.5015733506944464
  1
20W(最大)
 41
0.7
 11
329.45763436808778
 21
1145.9229185342249
 31
0.0
 73
     3
  0
TEXT
  5
69
  8
SPEC
 62
     7
 10
91.667322693441164
 20
1099.6281316667771
 30
0.0
 40
9.5015733506944464
  1
重量
 41
0.7
 11
91.667322693441164
 21
1109.129705017471
 31
0.0
 73
     3
  0
TEXT
  5
6A
  8
SPEC
 62
     7
 10
329.41919389599877
 20
1098.457119743973
 30
0.0
 40
9.5015733506944464
  1
約780g
 41
0.7
 11
329.41919389599877
 21
1107.9586930946671
 31
0.0
 73
     3
  0
TEXT
  5
6B
  8
SPEC
 62
     7
 10
329.48927754238588
 20
1285.6193527557491
 30
0.0
 40
9.5015733506944464
  1
DVI切替機
 41
0.7
 11
329.48927754238588
 21
1295.120926106443
 31
0.0
 73
     3
  0
LINE
  5
6C
  8
SPEC
  6
CONTINUOUS
 62
     7
 10
87.5
 20
1093.75
 30
0.0
 11
825.0
 21
1093.75
 31
0.0
  0
TEXT
  5
6D
  8
SPEC
 62
     7
 10
92.070530735809044
 20
1173.5771654698499
 30
0.0
 40
9.5015733506944464
  1
DVI入力端子
 41
0.7
 11
92.070530735809044
 21
1183.0787388205449
 31
0.0
 73
     3
  0
TEXT
  5
6E
  8
SPEC
 62
     7
 10
329.48054689935202
 20
1173.0964664193721
 30
0.0
 40
9.5015733506944464
  1
DVI-I 29pinメス(デジタルのみ)
 41
0.7
 11
329.48054689935202
 21
1182.598039770066
 31
0.0
 73
     3
  0
TEXT
  5
6F
  8
SPEC
 62
     7
 10
91.332637216284482
 20
1192.361266555145
 30
0.0
 40
9.5015733506944464
  1
デュアルリンク対応解像度
 41
0.7
 11
91.332637216284482
 21
1201.86283990584
 31
0.0
 73
     3
  0
TEXT
  5
70
  8
SPEC
 62
     7
 10
329.52669422241661
 20
1192.4512428216599
 30
0.0
 40
9.5015733506944464
  1
3840\U+00D72400
 41
0.7
 11
329.52669422241661
 21
1201.9528161723549
 31
0.0
 73
     3
  0
TEXT
  5
71
  8
DIMNSIONS
 62
     7
 10
400.0
 20
111.34744999999999
 30
0.0
 40
12.21630859375
  1
(単位：mm)
 41
0.7
 11
400.0
 21
123.5637585937499
 31
0.0
 73
     3
  0
LINE
  5
72
  8
DIMNSIONS
  6
CONTINUOUS
 62
     7
 10
187.5
 20
352.49999999970191
 30
0.0
 11
187.5
 21
314.99999999970191
 31
0.0
  0
LINE
  5
73
  8
DIMNSIONS
  6
CONTINUOUS
 62
     7
 10
622.5
 20
352.49999999970191
 30
0.0
 11
622.5
 21
314.99999999970191
 31
0.0
  0
LINE
  5
74
  8
DIMNSIONS
  6
CONTINUOUS
 62
     7
 10
187.5
 20
324.99999999970191
 30
0.0
 11
622.5
 21
324.99999999970191
 31
0.0
  0
LINE
  5
75
  8
DIMNSIONS
  6
CONTINUOUS
 62
     7
 10
187.5
 20
324.99999999970191
 30
0.0
 11
200.00311279296869
 21
328.35019897545311
 31
0.0
  0
LINE
  5
76
  8
DIMNSIONS
  6
CONTINUOUS
 62
     7
 10
187.5
 20
324.99999999970191
 30
0.0
 11
200.00311279296869
 21
321.64980102395077
 31
0.0
  0
LINE
  5
77
  8
DIMNSIONS
  6
CONTINUOUS
 62
     7
 10
622.5
 20
324.99999999970191
 30
0.0
 11
609.99688720703125
 21
321.64980102395077
 31
0.0
  0
LINE
  5
78
  8
DIMNSIONS
  6
CONTINUOUS
 62
     7
 10
622.5
 20
324.99999999970191
 30
0.0
 11
609.99688720703125
 21
328.35019897545311
 31
0.0
  0
TEXT
  5
79
  8
DIMNSIONS
 62
     7
 10
391.77083333333331
 20
329.9694444441464
 30
0.0
 40
13.57367621527778
  1
435
 41
0.7
 11
391.77083333333331
 21
343.54312065942418
 31
0.0
 73
     3
  0
LINE
  5
7A
  8
DIMNSIONS
  6
CONTINUOUS
 62
     7
 10
177.49999999999989
 20
362.49999999970191
 30
0.0
 11
140.0
 21
362.49999999970191
 31
0.0
  0
LINE
  5
7B
  8
DIMNSIONS
  6
CONTINUOUS
 62
     7
 10
177.49999999999989
 20
406.4999999997018
 30
0.0
 11
140.0
 21
406.4999999997018
 31
0.0
  0
LINE
  5
7C
  8
DIMNSIONS
  6
CONTINUOUS
 62
     7
 10
150.0
 20
362.49999999970191
 30
0.0
 11
150.0
 21
406.4999999997018
 31
0.0
  0
LINE
  5
7D
  8
DIMNSIONS
  6
CONTINUOUS
 62
     7
 10
150.0
 20
362.49999999970191
 30
0.0
 11
146.6498010242488
 21
375.00311279267061
 31
0.0
  0
LINE
  5
7E
  8
DIMNSIONS
  6
CONTINUOUS
 62
     7
 10
150.0
 20
362.49999999970191
 30
0.0
 11
153.3501989757512
 21
375.00311279267061
 31
0.0
  0
LINE
  5
7F
  8
DIMNSIONS
  6
CONTINUOUS
 62
     7
 10
150.0
 20
406.4999999997018
 30
0.0
 11
153.3501989757512
 21
393.99688720673322
 31
0.0
  0
LINE
  5
80
  8
DIMNSIONS
  6
CONTINUOUS
 62
     7
 10
150.0
 20
406.4999999997018
 30
0.0
 11
146.6498010242488
 21
393.99688720673322
 31
0.0
  0
TEXT
  5
81
  8
DIMNSIONS
 62
     7
 10
145.03055555555551
 20
375.68055555525751
 30
0.0
 40
13.57367621527778
  1
44
 50
90.0
 41
0.7
 11
131.45687934027771
 21
375.68055555525751
 31
0.0
 73
     3
  0
LINE
  5
82
  8
DIMNSIONS
  6
CONTINUOUS
 62
     7
 10
177.49999999999989
 20
474.9999999997429
 30
0.0
 11
140.0
 21
474.9999999997429
 31
0.0
  0
LINE
  5
83
  8
DIMNSIONS
  6
CONTINUOUS
 62
     7
 10
177.49999999999989
 20
583.99999999974295
 30
0.0
 11
140.0
 21
583.99999999974295
 31
0.0
  0
LINE
  5
84
  8
DIMNSIONS
  6
CONTINUOUS
 62
     7
 10
150.0
 20
474.9999999997429
 30
0.0
 11
150.0
 21
583.99999999974295
 31
0.0
  0
LINE
  5
85
  8
DIMNSIONS
  6
CONTINUOUS
 62
     7
 10
150.0
 20
474.9999999997429
 30
0.0
 11
146.6498010242488
 21
487.50311279271159
 31
0.0
  0
LINE
  5
86
  8
DIMNSIONS
  6
CONTINUOUS
 62
     7
 10
150.0
 20
474.9999999997429
 30
0.0
 11
153.3501989757512
 21
487.50311279271159
 31
0.0
  0
LINE
  5
87
  8
DIMNSIONS
  6
CONTINUOUS
 62
     7
 10
150.0
 20
583.99999999974295
 30
0.0
 11
153.3501989757512
 21
571.4968872067742
 31
0.0
  0
LINE
  5
88
  8
DIMNSIONS
  6
CONTINUOUS
 62
     7
 10
150.0
 20
583.99999999974295
 30
0.0
 11
146.6498010242488
 21
571.4968872067742
 31
0.0
  0
TEXT
  5
89
  8
DIMNSIONS
 62
     7
 10
145.03055555555551
 20
516.27083333307621
 30
0.0
 40
13.57367621527778
  1
109
 50
90.0
 41
0.7
 11
131.45687934027771
 21
516.27083333307621
 31
0.0
 73
     3
  0
LINE
  5
8A
  8
DIMNSIONS
  6
CONTINUOUS
 62
     7
 10
184.33521939007619
 20
358.49999999970191
 30
0.0
 11
140.0
 21
358.49999999970191
 31
0.0
  0
LINE
  5
8B
  8
DIMNSIONS
  6
CONTINUOUS
 62
     7
 10
177.49999999999989
 20
362.49999999970191
 30
0.0
 11
140.0
 21
362.49999999970191
 31
0.0
  0
LINE
  5
8C
  8
DIMNSIONS
  6
CONTINUOUS
 62
     7
 10
150.0
 20
362.49999999970191
 30
0.0
 11
150.0
 21
358.49999999970191
 31
0.0
  0
LINE
  5
8D
  8
DIMNSIONS
  6
CONTINUOUS
 62
     7
 10
150.0
 20
358.49999999970191
 30
0.0
 11
150.0
 21
331.86111111111109
 31
0.0
  0
LINE
  5
8E
  8
DIMNSIONS
  6
CONTINUOUS
 62
     7
 10
150.0
 20
358.49999999970191
 30
0.0
 11
153.3501989757512
 21
345.99688720673322
 31
0.0
  0
LINE
  5
8F
  8
DIMNSIONS
  6
CONTINUOUS
 62
     7
 10
150.0
 20
358.49999999970191
 30
0.0
 11
146.6498010242488
 21
345.99688720673322
 31
0.0
  0
LINE
  5
90
  8
DIMNSIONS
  6
CONTINUOUS
 62
     7
 10
150.0
 20
362.49999999970191
 30
0.0
 11
150.0
 21
387.49999999970191
 31
0.0
  0
LINE
  5
91
  8
DIMNSIONS
  6
CONTINUOUS
 62
     7
 10
150.0
 20
362.49999999970191
 30
0.0
 11
146.6498010242488
 21
375.00311279267061
 31
0.0
  0
LINE
  5
92
  8
DIMNSIONS
  6
CONTINUOUS
 62
     7
 10
150.0
 20
362.49999999970191
 30
0.0
 11
153.3501989757512
 21
375.00311279267061
 31
0.0
  0
TEXT
  5
93
  8
DIMNSIONS
 62
     7
 10
145.03055555555551
 20
331.86111111111109
 30
0.0
 40
13.57367621527778
  1
4
 50
90.0
 41
0.7
 11
131.45687934027771
 21
331.86111111111109
 31
0.0
 73
     3
  0
LINE
  5
94
  8
DIMNSIONS
  6
CONTINUOUS
 62
     7
 10
177.49999999999989
 20
583.99999999974295
 30
0.0
 11
140.0
 21
583.99999999974295
 31
0.0
  0
LINE
  5
95
  8
DIMNSIONS
  6
CONTINUOUS
 62
     7
 10
591.1679948686741
 20
589.99999999974295
 30
0.0
 11
139.99999999999989
 21
589.99999999974295
 31
0.0
  0
LINE
  5
96
  8
DIMNSIONS
  6
CONTINUOUS
 62
     7
 10
149.99999999999989
 20
589.99999999974295
 30
0.0
 11
150.0
 21
583.99999999974295
 31
0.0
  0
LINE
  5
97
  8
DIMNSIONS
  6
CONTINUOUS
 62
     7
 10
150.0
 20
583.99999999974295
 30
0.0
 11
150.0
 21
558.99999999974295
 31
0.0
  0
LINE
  5
98
  8
DIMNSIONS
  6
CONTINUOUS
 62
     7
 10
150.0
 20
583.99999999974295
 30
0.0
 11
153.3501989757512
 21
571.4968872067742
 31
0.0
  0
LINE
  5
99
  8
DIMNSIONS
  6
CONTINUOUS
 62
     7
 10
150.0
 20
583.99999999974295
 30
0.0
 11
146.6498010242488
 21
571.4968872067742
 31
0.0
  0
LINE
  5
9A
  8
DIMNSIONS
  6
CONTINUOUS
 62
     7
 10
149.99999999999989
 20
589.99999999974295
 30
0.0
 11
149.99999999999989
 21
608.81944444444434
 31
0.0
  0
LINE
  5
9B
  8
DIMNSIONS
  6
CONTINUOUS
 62
     7
 10
149.99999999999989
 20
589.99999999974295
 30
0.0
 11
146.64980102424869
 21
602.5031127927117
 31
0.0
  0
LINE
  5
9C
  8
DIMNSIONS
  6
CONTINUOUS
 62
     7
 10
149.99999999999989
 20
589.99999999974295
 30
0.0
 11
153.35019897575111
 21
602.5031127927117
 31
0.0
  0
TEXT
  5
9D
  8
DIMNSIONS
 62
     7
 10
145.0305555555554
 20
600.0
 30
0.0
 40
13.57367621527778
  1
6
 50
90.0
 41
0.7
 11
131.4568793402776
 21
600.0
 31
0.0
 73
     3
  0
LINE
  5
9E
  8
DIMNSIONS
  6
CONTINUOUS
 62
     7
 10
568.29499999999985
 20
473.48957247336722
 30
0.0
 11
140.0
 21
473.48957247336722
 31
0.0
  0
LINE
  5
9F
  8
DIMNSIONS
  6
CONTINUOUS
 62
     7
 10
177.49999999999989
 20
474.9999999997429
 30
0.0
 11
140.0
 21
474.9999999997429
 31
0.0
  0
LINE
  5
A0
  8
DIMNSIONS
  6
CONTINUOUS
 62
     7
 10
150.0
 20
474.9999999997429
 30
0.0
 11
150.0
 21
473.48957247336722
 31
0.0
  0
LINE
  5
A1
  8
DIMNSIONS
  6
CONTINUOUS
 62
     7
 10
150.0
 20
473.48957247336722
 30
0.0
 11
150.0
 21
436.04166666666657
 31
0.0
  0
LINE
  5
A2
  8
DIMNSIONS
  6
CONTINUOUS
 62
     7
 10
150.0
 20
473.48957247336722
 30
0.0
 11
153.3501989757512
 21
460.98645968039853
 31
0.0
  0
LINE
  5
A3
  8
DIMNSIONS
  6
CONTINUOUS
 62
     7
 10
150.0
 20
473.48957247336722
 30
0.0
 11
146.6498010242488
 21
460.98645968039853
 31
0.0
  0
LINE
  5
A4
  8
DIMNSIONS
  6
CONTINUOUS
 62
     7
 10
150.0
 20
474.9999999997429
 30
0.0
 11
150.0
 21
499.9999999997429
 31
0.0
  0
LINE
  5
A5
  8
DIMNSIONS
  6
CONTINUOUS
 62
     7
 10
150.0
 20
474.9999999997429
 30
0.0
 11
146.6498010242488
 21
487.50311279271159
 31
0.0
  0
LINE
  5
A6
  8
DIMNSIONS
  6
CONTINUOUS
 62
     7
 10
150.0
 20
474.9999999997429
 30
0.0
 11
153.3501989757512
 21
487.50311279271159
 31
0.0
  0
TEXT
  5
A7
  8
DIMNSIONS
 62
     7
 10
145.03055555555551
 20
436.04166666666657
 30
0.0
 40
13.57367621527778
  1
1.5
 50
90.0
 41
0.7
 11
131.45687934027771
 21
436.04166666666657
 31
0.0
 73
     3
  0
TEXT
  5
A8
  8
DATA
 62
     7
 10
750.0
 20
105.65445
 30
0.0
 40
12.21630859375
  1
EXT-DVI-441DL
 41
0.7
 11
750.0
 21
117.87075859375
 31
0.0
 73
     3
  0
TEXT
  5
A9
  8
DATA
 62
     7
 10
750.0
 20
141.90445
 30
0.0
 40
12.21630859375
  1
GEFEN
 41
0.7
 11
750.0
 21
154.12075859375
 31
0.0
 73
     3
  0
TEXT
  5
AA
  8
DATA
 62
     7
 10
758.1875
 20
125.2668562333612
 30
0.0
 40
8.1442057291666661
  1
DVI切替機
 41
0.7
 11
758.1875
 21
133.4110619625279
 31
0.0
 73
     3
  0
TEXT
  5
AB
  8
DATA
 62
     7
 10
100.0
 20
71.190000000000111
 30
0.0
 40
8.1442057291666661
  1
仕様および外観は予告なく変更されることがありますので、ご了承ください。
 41
0.7
 11
100.0
 21
79.334205729166783
 31
0.0
 73
     3
  0
LINE
  5
AC
  8
DATA
  6
CONTINUOUS
 62
     7
 10
187.5
 20
362.49999999970191
 30
0.0
 11
187.5
 21
406.4999999997018
 31
0.0
  0
LINE
  5
AD
  8
DATA
  6
CONTINUOUS
 62
     7
 10
622.5
 20
362.49999999970191
 30
0.0
 11
187.5
 21
362.49999999970191
 31
0.0
  0
LINE
  5
AE
  8
DATA
  6
CONTINUOUS
 62
     7
 10
622.5
 20
406.4999999997018
 30
0.0
 11
622.5
 21
362.49999999970191
 31
0.0
  0
LINE
  5
AF
  8
DATA
  6
CONTINUOUS
 62
     7
 10
622.5
 20
474.9999999997429
 30
0.0
 11
187.5
 21
474.9999999997429
 31
0.0
  0
LINE
  5
B0
  8
DATA
  6
CONTINUOUS
 62
     7
 10
675.0
 20
363.49999999970191
 30
0.0
 11
675.0
 21
405.4999999997018
 31
0.0
  0
LINE
  5
B1
  8
DATA
  6
CONTINUOUS
 62
     7
 10
622.5
 20
681.50000000005684
 30
0.0
 11
622.5
 21
637.50000000005684
 31
0.0
  0
LINE
  5
B2
  8
DATA
  6
CONTINUOUS
 62
     7
 10
187.5
 20
681.50000000005684
 30
0.0
 11
622.5
 21
681.50000000005684
 31
0.0
  0
LINE
  5
B3
  8
DATA
  6
CONTINUOUS
 62
     7
 10
187.5
 20
637.50000000005684
 30
0.0
 11
187.5
 21
681.50000000005684
 31
0.0
  0
LINE
  5
B4
  8
DATA
  6
CONTINUOUS
 62
     7
 10
622.5
 20
406.4999999997018
 30
0.0
 11
187.5
 21
406.4999999997018
 31
0.0
  0
LINE
  5
B5
  8
DATA
  6
CONTINUOUS
 62
     7
 10
187.5
 20
637.50000000005684
 30
0.0
 11
622.5
 21
637.50000000005684
 31
0.0
  0
LINE
  5
B6
  8
DATA
  6
CONTINUOUS
 62
     7
 10
622.5
 20
583.99999999974295
 30
0.0
 11
187.5
 21
583.99999999974295
 31
0.0
  0
LINE
  5
B7
  8
DATA
  6
CONTINUOUS
 62
     7
 10
622.5
 20
483.9999999997429
 30
0.0
 11
187.5
 21
483.9999999997429
 31
0.0
  0
ARC
  5
B8
  8
DATA
  6
CONTINUOUS
 62
     7
 10
676.05000000000018
 20
381.68015340998801
 30
0.0
 40
1.7500000000000899
 50
126.86989764584921
 51
233.13010235415081
  0
ARC
  5
B9
  8
DATA
  6
CONTINUOUS
 62
     7
 10
595.56850960370411
 20
476.04999999974291
 30
0.0
 40
1.750000000000079
 50
216.86989764584251
 51
323.13010235415737
  0
LINE
  5
BA
  8
DATA
  6
CONTINUOUS
 62
     7
 10
788.00000000022226
 20
377.899999999702
 30
0.0
 11
784.00000000031355
 21
377.899999999702
 31
0.0
  0
LINE
  5
BB
  8
DATA
  6
CONTINUOUS
 62
     7
 10
788.00000000022226
 20
376.49999999970203
 30
0.0
 11
784.00000000031355
 21
376.49999999970203
 31
0.0
  0
LINE
  5
BC
  8
DATA
  6
CONTINUOUS
 62
     7
 10
788.00000000022226
 20
378.09999999970188
 30
0.0
 11
788.00000000022226
 21
376.49999999970203
 31
0.0
  0
LINE
  5
BD
  8
DATA
  6
CONTINUOUS
 62
     7
 10
187.5
 20
474.9999999997429
 30
0.0
 11
187.5
 21
583.99999999974295
 31
0.0
  0
LINE
  5
BE
  8
DATA
  6
CONTINUOUS
 62
     7
 10
622.5
 20
474.9999999997429
 30
0.0
 11
622.5
 21
583.99999999974295
 31
0.0
  0
LINE
  5
BF
  8
DATA
  6
CONTINUOUS
 62
     7
 10
676.0
 20
406.4999999997018
 30
0.0
 11
783.0
 21
406.4999999997018
 31
0.0
  0
LINE
  5
C0
  8
DATA
  6
CONTINUOUS
 62
     7
 10
676.0
 20
362.49999999970191
 30
0.0
 11
783.0
 21
362.49999999970191
 31
0.0
  0
LINE
  5
C1
  8
DATA
  6
CONTINUOUS
 62
     7
 10
202.45695136427739
 20
588.99999999974307
 30
0.0
 11
202.45695136427739
 21
583.99999999974295
 31
0.0
  0
LINE
  5
C2
  8
DATA
  6
CONTINUOUS
 62
     7
 10
207.13348854471329
 20
588.99999999974307
 30
0.0
 11
207.13348854471329
 21
583.99999999974295
 31
0.0
  0
LINE
  5
C3
  8
DATA
  6
CONTINUOUS
 62
     7
 10
209.09549290078201
 20
588.99999999974307
 30
0.0
 11
209.09549290078201
 21
583.99999999974295
 31
0.0
  0
LINE
  5
C4
  8
DATA
  6
CONTINUOUS
 62
     7
 10
232.98242623526451
 20
588.99999999974307
 30
0.0
 11
232.98242623526451
 21
583.99999999974295
 31
0.0
  0
LINE
  5
C5
  8
DATA
  6
CONTINUOUS
 62
     7
 10
234.95695136427781
 20
588.99999999974307
 30
0.0
 11
234.95695136427781
 21
583.99999999974295
 31
0.0
  0
LINE
  5
C6
  8
DATA
  6
CONTINUOUS
 62
     7
 10
239.6334885447136
 20
588.99999999974307
 30
0.0
 11
239.6334885447136
 21
583.99999999974295
 31
0.0
  0
LINE
  5
C7
  8
DATA
  6
CONTINUOUS
 62
     7
 10
239.6334885447136
 20
588.99999999974307
 30
0.0
 11
234.95695136427781
 21
588.99999999974307
 31
0.0
  0
LINE
  5
C8
  8
DATA
  6
CONTINUOUS
 62
     7
 10
232.98242623526451
 20
588.99999999974307
 30
0.0
 11
209.09549290078201
 21
588.99999999974307
 31
0.0
  0
LINE
  5
C9
  8
DATA
  6
CONTINUOUS
 62
     7
 10
207.13348854471329
 20
588.99999999974307
 30
0.0
 11
202.45695136427739
 21
588.99999999974307
 31
0.0
  0
LINE
  5
CA
  8
DATA
  6
CONTINUOUS
 62
     7
 10
790.0
 20
378.09999999970188
 30
0.0
 11
790.0
 21
385.89999999970178
 31
0.0
  0
LINE
  5
CB
  8
DATA
  6
CONTINUOUS
 62
     7
 10
784.0
 20
378.09999999970188
 30
0.0
 11
790.0
 21
378.09999999970188
 31
0.0
  0
LINE
  5
CC
  8
DATA
  6
CONTINUOUS
 62
     7
 10
784.0
 20
385.89999999970178
 30
0.0
 11
790.0
 21
385.89999999970178
 31
0.0
  0
TEXT
  5
CD
  8
DATA
 62
     7
 10
591.56531956995309
 20
366.61065694991231
 30
0.0
 40
2.4432617187500001
  1
Power
 41
0.7
 11
591.56531956995309
 21
369.05391866866228
 31
0.0
 73
     3
  0
TEXT
  5
CE
  8
DATA
 62
     7
 10
557.58633029750786
 20
389.97953421466048
 30
0.0
 40
9.5015733506944464
  1
4x1DVIDL
 41
0.7
 11
557.58633029750786
 21
399.48110756535488
 31
0.0
 73
     3
  0
CIRCLE
  5
CF
  8
DATA
  6
CONTINUOUS
 62
     7
 10
591.49716723762754
 20
666.41774162843672
 30
0.0
 40
1.175000000000068
  0
POLYLINE
  5
D0
  8
DATA
  6
CONTINUOUS
 62
     7
 66
     1
 10
0.0
 20
0.0
 30
0.0
 70
     1
  0
VERTEX
  5
864
  8
DATA
  6
CONTINUOUS
 62
     7
 10
591.49716723762754
 20
663.71774162843678
 30
0.0
  0
VERTEX
  5
865
  8
DATA
  6
CONTINUOUS
 62
     7
 10
593.83543582784557
 20
665.06774162843692
 30
0.0
  0
VERTEX
  5
866
  8
DATA
  6
CONTINUOUS
 62
     7
 10
593.83543582784557
 20
667.76774162843685
 30
0.0
  0
VERTEX
  5
867
  8
DATA
  6
CONTINUOUS
 62
     7
 10
591.49716723762754
 20
669.11774162843699
 30
0.0
  0
VERTEX
  5
868
  8
DATA
  6
CONTINUOUS
 62
     7
 10
589.15889864740939
 20
667.76774162843685
 30
0.0
  0
VERTEX
  5
869
  8
DATA
  6
CONTINUOUS
 62
     7
 10
589.15889864740939
 20
665.06774162843692
 30
0.0
  0
SEQEND
  5
86A
  8
DATA
  6
CONTINUOUS
 62
     7
  0
CIRCLE
  5
D9
  8
DATA
  6
CONTINUOUS
 62
     7
 10
558.99716723762572
 20
666.41774162843672
 30
0.0
 40
1.175000000000068
  0
POLYLINE
  5
DA
  8
DATA
  6
CONTINUOUS
 62
     7
 66
     1
 10
0.0
 20
0.0
 30
0.0
 70
     1
  0
VERTEX
  5
86B
  8
DATA
  6
CONTINUOUS
 62
     7
 10
558.99716723762572
 20
663.71774162843678
 30
0.0
  0
VERTEX
  5
86C
  8
DATA
  6
CONTINUOUS
 62
     7
 10
561.33543582784375
 20
665.06774162843692
 30
0.0
  0
VERTEX
  5
86D
  8
DATA
  6
CONTINUOUS
 62
     7
 10
561.33543582784375
 20
667.76774162843685
 30
0.0
  0
VERTEX
  5
86E
  8
DATA
  6
CONTINUOUS
 62
     7
 10
558.99716723762572
 20
669.11774162843699
 30
0.0
  0
VERTEX
  5
86F
  8
DATA
  6
CONTINUOUS
 62
     7
 10
556.65889864740768
 20
667.76774162843685
 30
0.0
  0
VERTEX
  5
870
  8
DATA
  6
CONTINUOUS
 62
     7
 10
556.65889864740768
 20
665.06774162843692
 30
0.0
  0
SEQEND
  5
871
  8
DATA
  6
CONTINUOUS
 62
     7
  0
LINE
  5
E3
  8
DATA
  6
CONTINUOUS
 62
     7
 10
586.19707212481921
 20
662.49274162843665
 30
0.0
 11
564.29726235043393
 21
662.49274162843665
 31
0.0
  0
LINE
  5
E4
  8
DATA
  6
CONTINUOUS
 62
     7
 10
564.85617954788631
 20
670.34274162843701
 30
0.0
 11
585.63815492736705
 21
670.34274162843701
 31
0.0
  0
POLYLINE
  5
E5
  8
DATA
  6
CONTINUOUS
 62
     7
 66
     1
 10
0.0
 20
0.0
 30
0.0
 70
     1
  0
VERTEX
  5
872
  8
DATA
  6
CONTINUOUS
 62
     7
 10
584.71723340880669
 20
667.18274162843693
 30
0.0
  0
VERTEX
  5
873
  8
DATA
  6
CONTINUOUS
 62
     7
 10
586.24723340880678
 20
667.18274162843693
 30
0.0
  0
VERTEX
  5
874
  8
DATA
  6
CONTINUOUS
 62
     7
 10
586.24723340880678
 20
665.65274162843673
 30
0.0
  0
VERTEX
  5
875
  8
DATA
  6
CONTINUOUS
 62
     7
 10
584.71723340880669
 20
665.65274162843673
 30
0.0
  0
SEQEND
  5
876
  8
DATA
  6
CONTINUOUS
 62
     7
  0
POLYLINE
  5
EC
  8
DATA
  6
CONTINUOUS
 62
     7
 66
     1
 10
0.0
 20
0.0
 30
0.0
 70
     1
  0
VERTEX
  5
877
  8
DATA
  6
CONTINUOUS
 62
     7
 10
582.71723340880681
 20
667.18274162843693
 30
0.0
  0
VERTEX
  5
878
  8
DATA
  6
CONTINUOUS
 62
     7
 10
584.24723340880689
 20
667.18274162843693
 30
0.0
  0
VERTEX
  5
879
  8
DATA
  6
CONTINUOUS
 62
     7
 10
584.24723340880689
 20
665.65274162843673
 30
0.0
  0
VERTEX
  5
87A
  8
DATA
  6
CONTINUOUS
 62
     7
 10
582.71723340880681
 20
665.65274162843673
 30
0.0
  0
SEQEND
  5
87B
  8
DATA
  6
CONTINUOUS
 62
     7
  0
POLYLINE
  5
F3
  8
DATA
  6
CONTINUOUS
 62
     7
 66
     1
 10
0.0
 20
0.0
 30
0.0
 70
     1
  0
VERTEX
  5
87C
  8
DATA
  6
CONTINUOUS
 62
     7
 10
580.71723340880669
 20
667.18274162843693
 30
0.0
  0
VERTEX
  5
87D
  8
DATA
  6
CONTINUOUS
 62
     7
 10
582.24723340880678
 20
667.18274162843693
 30
0.0
  0
VERTEX
  5
87E
  8
DATA
  6
CONTINUOUS
 62
     7
 10
582.24723340880678
 20
665.65274162843673
 30
0.0
  0
VERTEX
  5
87F
  8
DATA
  6
CONTINUOUS
 62
     7
 10
580.71723340880669
 20
665.65274162843673
 30
0.0
  0
SEQEND
  5
880
  8
DATA
  6
CONTINUOUS
 62
     7
  0
POLYLINE
  5
FA
  8
DATA
  6
CONTINUOUS
 62
     7
 66
     1
 10
0.0
 20
0.0
 30
0.0
 70
     1
  0
VERTEX
  5
881
  8
DATA
  6
CONTINUOUS
 62
     7
 10
578.71723340880681
 20
667.18274162843693
 30
0.0
  0
VERTEX
  5
882
  8
DATA
  6
CONTINUOUS
 62
     7
 10
580.24723340880689
 20
667.18274162843693
 30
0.0
  0
VERTEX
  5
883
  8
DATA
  6
CONTINUOUS
 62
     7
 10
580.24723340880689
 20
665.65274162843673
 30
0.0
  0
VERTEX
  5
884
  8
DATA
  6
CONTINUOUS
 62
     7
 10
578.71723340880681
 20
665.65274162843673
 30
0.0
  0
SEQEND
  5
885
  8
DATA
  6
CONTINUOUS
 62
     7
  0
POLYLINE
  5
101
  8
DATA
  6
CONTINUOUS
 62
     7
 66
     1
 10
0.0
 20
0.0
 30
0.0
 70
     1
  0
VERTEX
  5
886
  8
DATA
  6
CONTINUOUS
 62
     7
 10
576.71723340880669
 20
667.18274162843693
 30
0.0
  0
VERTEX
  5
887
  8
DATA
  6
CONTINUOUS
 62
     7
 10
578.24723340880678
 20
667.18274162843693
 30
0.0
  0
VERTEX
  5
888
  8
DATA
  6
CONTINUOUS
 62
     7
 10
578.24723340880678
 20
665.65274162843673
 30
0.0
  0
VERTEX
  5
889
  8
DATA
  6
CONTINUOUS
 62
     7
 10
576.71723340880669
 20
665.65274162843673
 30
0.0
  0
SEQEND
  5
88A
  8
DATA
  6
CONTINUOUS
 62
     7
  0
POLYLINE
  5
108
  8
DATA
  6
CONTINUOUS
 62
     7
 66
     1
 10
0.0
 20
0.0
 30
0.0
 70
     1
  0
VERTEX
  5
88B
  8
DATA
  6
CONTINUOUS
 62
     7
 10
574.71723340880646
 20
667.18274162843693
 30
0.0
  0
VERTEX
  5
88C
  8
DATA
  6
CONTINUOUS
 62
     7
 10
576.24723340880678
 20
667.18274162843693
 30
0.0
  0
VERTEX
  5
88D
  8
DATA
  6
CONTINUOUS
 62
     7
 10
576.24723340880678
 20
665.65274162843673
 30
0.0
  0
VERTEX
  5
88E
  8
DATA
  6
CONTINUOUS
 62
     7
 10
574.71723340880646
 20
665.65274162843673
 30
0.0
  0
SEQEND
  5
88F
  8
DATA
  6
CONTINUOUS
 62
     7
  0
POLYLINE
  5
10F
  8
DATA
  6
CONTINUOUS
 62
     7
 66
     1
 10
0.0
 20
0.0
 30
0.0
 70
     1
  0
VERTEX
  5
890
  8
DATA
  6
CONTINUOUS
 62
     7
 10
572.71723340880612
 20
667.18274162843693
 30
0.0
  0
VERTEX
  5
891
  8
DATA
  6
CONTINUOUS
 62
     7
 10
574.24723340880655
 20
667.18274162843693
 30
0.0
  0
VERTEX
  5
892
  8
DATA
  6
CONTINUOUS
 62
     7
 10
574.24723340880655
 20
665.65274162843673
 30
0.0
  0
VERTEX
  5
893
  8
DATA
  6
CONTINUOUS
 62
     7
 10
572.71723340880612
 20
665.65274162843673
 30
0.0
  0
SEQEND
  5
894
  8
DATA
  6
CONTINUOUS
 62
     7
  0
POLYLINE
  5
116
  8
DATA
  6
CONTINUOUS
 62
     7
 66
     1
 10
0.0
 20
0.0
 30
0.0
 70
     1
  0
VERTEX
  5
895
  8
DATA
  6
CONTINUOUS
 62
     7
 10
570.71723340880555
 20
667.18274162843693
 30
0.0
  0
VERTEX
  5
896
  8
DATA
  6
CONTINUOUS
 62
     7
 10
572.24723340880598
 20
667.18274162843693
 30
0.0
  0
VERTEX
  5
897
  8
DATA
  6
CONTINUOUS
 62
     7
 10
572.24723340880598
 20
665.65274162843673
 30
0.0
  0
VERTEX
  5
898
  8
DATA
  6
CONTINUOUS
 62
     7
 10
570.71723340880555
 20
665.65274162843673
 30
0.0
  0
SEQEND
  5
899
  8
DATA
  6
CONTINUOUS
 62
     7
  0
POLYLINE
  5
11D
  8
DATA
  6
CONTINUOUS
 62
     7
 66
     1
 10
0.0
 20
0.0
 30
0.0
 70
     1
  0
VERTEX
  5
89A
  8
DATA
  6
CONTINUOUS
 62
     7
 10
584.71723340880669
 20
665.18274162843659
 30
0.0
  0
VERTEX
  5
89B
  8
DATA
  6
CONTINUOUS
 62
     7
 10
586.24723340880678
 20
665.18274162843659
 30
0.0
  0
VERTEX
  5
89C
  8
DATA
  6
CONTINUOUS
 62
     7
 10
586.24723340880678
 20
663.65274162843673
 30
0.0
  0
VERTEX
  5
89D
  8
DATA
  6
CONTINUOUS
 62
     7
 10
584.71723340880669
 20
663.65274162843673
 30
0.0
  0
SEQEND
  5
89E
  8
DATA
  6
CONTINUOUS
 62
     7
  0
POLYLINE
  5
124
  8
DATA
  6
CONTINUOUS
 62
     7
 66
     1
 10
0.0
 20
0.0
 30
0.0
 70
     1
  0
VERTEX
  5
89F
  8
DATA
  6
CONTINUOUS
 62
     7
 10
582.71723340880681
 20
665.18274162843659
 30
0.0
  0
VERTEX
  5
8A0
  8
DATA
  6
CONTINUOUS
 62
     7
 10
584.24723340880689
 20
665.18274162843659
 30
0.0
  0
VERTEX
  5
8A1
  8
DATA
  6
CONTINUOUS
 62
     7
 10
584.24723340880689
 20
663.65274162843673
 30
0.0
  0
VERTEX
  5
8A2
  8
DATA
  6
CONTINUOUS
 62
     7
 10
582.71723340880681
 20
663.65274162843673
 30
0.0
  0
SEQEND
  5
8A3
  8
DATA
  6
CONTINUOUS
 62
     7
  0
POLYLINE
  5
12B
  8
DATA
  6
CONTINUOUS
 62
     7
 66
     1
 10
0.0
 20
0.0
 30
0.0
 70
     1
  0
VERTEX
  5
8A4
  8
DATA
  6
CONTINUOUS
 62
     7
 10
580.71723340880669
 20
665.18274162843659
 30
0.0
  0
VERTEX
  5
8A5
  8
DATA
  6
CONTINUOUS
 62
     7
 10
582.24723340880678
 20
665.18274162843659
 30
0.0
  0
VERTEX
  5
8A6
  8
DATA
  6
CONTINUOUS
 62
     7
 10
582.24723340880678
 20
663.65274162843673
 30
0.0
  0
VERTEX
  5
8A7
  8
DATA
  6
CONTINUOUS
 62
     7
 10
580.71723340880669
 20
663.65274162843673
 30
0.0
  0
SEQEND
  5
8A8
  8
DATA
  6
CONTINUOUS
 62
     7
  0
POLYLINE
  5
132
  8
DATA
  6
CONTINUOUS
 62
     7
 66
     1
 10
0.0
 20
0.0
 30
0.0
 70
     1
  0
VERTEX
  5
8A9
  8
DATA
  6
CONTINUOUS
 62
     7
 10
578.71723340880681
 20
665.18274162843659
 30
0.0
  0
VERTEX
  5
8AA
  8
DATA
  6
CONTINUOUS
 62
     7
 10
580.24723340880689
 20
665.18274162843659
 30
0.0
  0
VERTEX
  5
8AB
  8
DATA
  6
CONTINUOUS
 62
     7
 10
580.24723340880689
 20
663.65274162843673
 30
0.0
  0
VERTEX
  5
8AC
  8
DATA
  6
CONTINUOUS
 62
     7
 10
578.71723340880681
 20
663.65274162843673
 30
0.0
  0
SEQEND
  5
8AD
  8
DATA
  6
CONTINUOUS
 62
     7
  0
POLYLINE
  5
139
  8
DATA
  6
CONTINUOUS
 62
     7
 66
     1
 10
0.0
 20
0.0
 30
0.0
 70
     1
  0
VERTEX
  5
8AE
  8
DATA
  6
CONTINUOUS
 62
     7
 10
576.71723340880669
 20
665.18274162843659
 30
0.0
  0
VERTEX
  5
8AF
  8
DATA
  6
CONTINUOUS
 62
     7
 10
578.24723340880678
 20
665.18274162843659
 30
0.0
  0
VERTEX
  5
8B0
  8
DATA
  6
CONTINUOUS
 62
     7
 10
578.24723340880678
 20
663.65274162843673
 30
0.0
  0
VERTEX
  5
8B1
  8
DATA
  6
CONTINUOUS
 62
     7
 10
576.71723340880669
 20
663.65274162843673
 30
0.0
  0
SEQEND
  5
8B2
  8
DATA
  6
CONTINUOUS
 62
     7
  0
POLYLINE
  5
140
  8
DATA
  6
CONTINUOUS
 62
     7
 66
     1
 10
0.0
 20
0.0
 30
0.0
 70
     1
  0
VERTEX
  5
8B3
  8
DATA
  6
CONTINUOUS
 62
     7
 10
574.71723340880646
 20
665.18274162843659
 30
0.0
  0
VERTEX
  5
8B4
  8
DATA
  6
CONTINUOUS
 62
     7
 10
576.24723340880678
 20
665.18274162843659
 30
0.0
  0
VERTEX
  5
8B5
  8
DATA
  6
CONTINUOUS
 62
     7
 10
576.24723340880678
 20
663.65274162843673
 30
0.0
  0
VERTEX
  5
8B6
  8
DATA
  6
CONTINUOUS
 62
     7
 10
574.71723340880646
 20
663.65274162843673
 30
0.0
  0
SEQEND
  5
8B7
  8
DATA
  6
CONTINUOUS
 62
     7
  0
POLYLINE
  5
147
  8
DATA
  6
CONTINUOUS
 62
     7
 66
     1
 10
0.0
 20
0.0
 30
0.0
 70
     1
  0
VERTEX
  5
8B8
  8
DATA
  6
CONTINUOUS
 62
     7
 10
572.71723340880612
 20
665.18274162843659
 30
0.0
  0
VERTEX
  5
8B9
  8
DATA
  6
CONTINUOUS
 62
     7
 10
574.24723340880655
 20
665.18274162843659
 30
0.0
  0
VERTEX
  5
8BA
  8
DATA
  6
CONTINUOUS
 62
     7
 10
574.24723340880655
 20
663.65274162843673
 30
0.0
  0
VERTEX
  5
8BB
  8
DATA
  6
CONTINUOUS
 62
     7
 10
572.71723340880612
 20
663.65274162843673
 30
0.0
  0
SEQEND
  5
8BC
  8
DATA
  6
CONTINUOUS
 62
     7
  0
POLYLINE
  5
14E
  8
DATA
  6
CONTINUOUS
 62
     7
 66
     1
 10
0.0
 20
0.0
 30
0.0
 70
     1
  0
VERTEX
  5
8BD
  8
DATA
  6
CONTINUOUS
 62
     7
 10
570.71723340880555
 20
665.18274162843659
 30
0.0
  0
VERTEX
  5
8BE
  8
DATA
  6
CONTINUOUS
 62
     7
 10
572.24723340880598
 20
665.18274162843659
 30
0.0
  0
VERTEX
  5
8BF
  8
DATA
  6
CONTINUOUS
 62
     7
 10
572.24723340880598
 20
663.65274162843673
 30
0.0
  0
VERTEX
  5
8C0
  8
DATA
  6
CONTINUOUS
 62
     7
 10
570.71723340880555
 20
663.65274162843673
 30
0.0
  0
SEQEND
  5
8C1
  8
DATA
  6
CONTINUOUS
 62
     7
  0
POLYLINE
  5
155
  8
DATA
  6
CONTINUOUS
 62
     7
 66
     1
 10
0.0
 20
0.0
 30
0.0
 70
     1
  0
VERTEX
  5
8C2
  8
DATA
  6
CONTINUOUS
 62
     7
 10
584.71723340880669
 20
669.18274162843693
 30
0.0
  0
VERTEX
  5
8C3
  8
DATA
  6
CONTINUOUS
 62
     7
 10
586.24723340880678
 20
669.18274162843693
 30
0.0
  0
VERTEX
  5
8C4
  8
DATA
  6
CONTINUOUS
 62
     7
 10
586.24723340880678
 20
667.65274162843696
 30
0.0
  0
VERTEX
  5
8C5
  8
DATA
  6
CONTINUOUS
 62
     7
 10
584.71723340880669
 20
667.65274162843696
 30
0.0
  0
SEQEND
  5
8C6
  8
DATA
  6
CONTINUOUS
 62
     7
  0
POLYLINE
  5
15C
  8
DATA
  6
CONTINUOUS
 62
     7
 66
     1
 10
0.0
 20
0.0
 30
0.0
 70
     1
  0
VERTEX
  5
8C7
  8
DATA
  6
CONTINUOUS
 62
     7
 10
582.71723340880681
 20
669.18274162843693
 30
0.0
  0
VERTEX
  5
8C8
  8
DATA
  6
CONTINUOUS
 62
     7
 10
584.24723340880689
 20
669.18274162843693
 30
0.0
  0
VERTEX
  5
8C9
  8
DATA
  6
CONTINUOUS
 62
     7
 10
584.24723340880689
 20
667.65274162843696
 30
0.0
  0
VERTEX
  5
8CA
  8
DATA
  6
CONTINUOUS
 62
     7
 10
582.71723340880681
 20
667.65274162843696
 30
0.0
  0
SEQEND
  5
8CB
  8
DATA
  6
CONTINUOUS
 62
     7
  0
POLYLINE
  5
163
  8
DATA
  6
CONTINUOUS
 62
     7
 66
     1
 10
0.0
 20
0.0
 30
0.0
 70
     1
  0
VERTEX
  5
8CC
  8
DATA
  6
CONTINUOUS
 62
     7
 10
580.71723340880669
 20
669.18274162843693
 30
0.0
  0
VERTEX
  5
8CD
  8
DATA
  6
CONTINUOUS
 62
     7
 10
582.24723340880678
 20
669.18274162843693
 30
0.0
  0
VERTEX
  5
8CE
  8
DATA
  6
CONTINUOUS
 62
     7
 10
582.24723340880678
 20
667.65274162843696
 30
0.0
  0
VERTEX
  5
8CF
  8
DATA
  6
CONTINUOUS
 62
     7
 10
580.71723340880669
 20
667.65274162843696
 30
0.0
  0
SEQEND
  5
8D0
  8
DATA
  6
CONTINUOUS
 62
     7
  0
POLYLINE
  5
16A
  8
DATA
  6
CONTINUOUS
 62
     7
 66
     1
 10
0.0
 20
0.0
 30
0.0
 70
     1
  0
VERTEX
  5
8D1
  8
DATA
  6
CONTINUOUS
 62
     7
 10
578.71723340880681
 20
669.18274162843693
 30
0.0
  0
VERTEX
  5
8D2
  8
DATA
  6
CONTINUOUS
 62
     7
 10
580.24723340880689
 20
669.18274162843693
 30
0.0
  0
VERTEX
  5
8D3
  8
DATA
  6
CONTINUOUS
 62
     7
 10
580.24723340880689
 20
667.65274162843696
 30
0.0
  0
VERTEX
  5
8D4
  8
DATA
  6
CONTINUOUS
 62
     7
 10
578.71723340880681
 20
667.65274162843696
 30
0.0
  0
SEQEND
  5
8D5
  8
DATA
  6
CONTINUOUS
 62
     7
  0
POLYLINE
  5
171
  8
DATA
  6
CONTINUOUS
 62
     7
 66
     1
 10
0.0
 20
0.0
 30
0.0
 70
     1
  0
VERTEX
  5
8D6
  8
DATA
  6
CONTINUOUS
 62
     7
 10
576.71723340880669
 20
669.18274162843693
 30
0.0
  0
VERTEX
  5
8D7
  8
DATA
  6
CONTINUOUS
 62
     7
 10
578.24723340880678
 20
669.18274162843693
 30
0.0
  0
VERTEX
  5
8D8
  8
DATA
  6
CONTINUOUS
 62
     7
 10
578.24723340880678
 20
667.65274162843696
 30
0.0
  0
VERTEX
  5
8D9
  8
DATA
  6
CONTINUOUS
 62
     7
 10
576.71723340880669
 20
667.65274162843696
 30
0.0
  0
SEQEND
  5
8DA
  8
DATA
  6
CONTINUOUS
 62
     7
  0
POLYLINE
  5
178
  8
DATA
  6
CONTINUOUS
 62
     7
 66
     1
 10
0.0
 20
0.0
 30
0.0
 70
     1
  0
VERTEX
  5
8DB
  8
DATA
  6
CONTINUOUS
 62
     7
 10
574.71723340880646
 20
669.18274162843693
 30
0.0
  0
VERTEX
  5
8DC
  8
DATA
  6
CONTINUOUS
 62
     7
 10
576.24723340880678
 20
669.18274162843693
 30
0.0
  0
VERTEX
  5
8DD
  8
DATA
  6
CONTINUOUS
 62
     7
 10
576.24723340880678
 20
667.65274162843696
 30
0.0
  0
VERTEX
  5
8DE
  8
DATA
  6
CONTINUOUS
 62
     7
 10
574.71723340880646
 20
667.65274162843696
 30
0.0
  0
SEQEND
  5
8DF
  8
DATA
  6
CONTINUOUS
 62
     7
  0
POLYLINE
  5
17F
  8
DATA
  6
CONTINUOUS
 62
     7
 66
     1
 10
0.0
 20
0.0
 30
0.0
 70
     1
  0
VERTEX
  5
8E0
  8
DATA
  6
CONTINUOUS
 62
     7
 10
572.71723340880612
 20
669.18274162843693
 30
0.0
  0
VERTEX
  5
8E1
  8
DATA
  6
CONTINUOUS
 62
     7
 10
574.24723340880655
 20
669.18274162843693
 30
0.0
  0
VERTEX
  5
8E2
  8
DATA
  6
CONTINUOUS
 62
     7
 10
574.24723340880655
 20
667.65274162843696
 30
0.0
  0
VERTEX
  5
8E3
  8
DATA
  6
CONTINUOUS
 62
     7
 10
572.71723340880612
 20
667.65274162843696
 30
0.0
  0
SEQEND
  5
8E4
  8
DATA
  6
CONTINUOUS
 62
     7
  0
POLYLINE
  5
186
  8
DATA
  6
CONTINUOUS
 62
     7
 66
     1
 10
0.0
 20
0.0
 30
0.0
 70
     1
  0
VERTEX
  5
8E5
  8
DATA
  6
CONTINUOUS
 62
     7
 10
570.71723340880555
 20
669.18274162843693
 30
0.0
  0
VERTEX
  5
8E6
  8
DATA
  6
CONTINUOUS
 62
     7
 10
572.24723340880598
 20
669.18274162843693
 30
0.0
  0
VERTEX
  5
8E7
  8
DATA
  6
CONTINUOUS
 62
     7
 10
572.24723340880598
 20
667.65274162843696
 30
0.0
  0
VERTEX
  5
8E8
  8
DATA
  6
CONTINUOUS
 62
     7
 10
570.71723340880555
 20
667.65274162843696
 30
0.0
  0
SEQEND
  5
8E9
  8
DATA
  6
CONTINUOUS
 62
     7
  0
POLYLINE
  5
18D
  8
DATA
  6
CONTINUOUS
 62
     7
 66
     1
 10
0.0
 20
0.0
 30
0.0
  0
VERTEX
  5
8EA
  8
DATA
  6
CONTINUOUS
 62
     7
 10
566.69716723762565
 20
666.01774162843685
 30
0.0
  0
VERTEX
  5
8EB
  8
DATA
  6
CONTINUOUS
 62
     7
 10
564.59716723762563
 20
666.01774162843685
 30
0.0
  0
VERTEX
  5
8EC
  8
DATA
  6
CONTINUOUS
 62
     7
 10
564.59716723762563
 20
666.81774162843692
 30
0.0
  0
VERTEX
  5
8ED
  8
DATA
  6
CONTINUOUS
 62
     7
 10
566.69716723762565
 20
666.81774162843692
 30
0.0
  0
SEQEND
  5
8EE
  8
DATA
  6
CONTINUOUS
 62
     7
  0
POLYLINE
  5
194
  8
DATA
  6
CONTINUOUS
 62
     7
 66
     1
 10
0.0
 20
0.0
 30
0.0
  0
VERTEX
  5
8EF
  8
DATA
  6
CONTINUOUS
 62
     7
 10
567.4971672376256
 20
666.81774162843692
 30
0.0
  0
VERTEX
  5
8F0
  8
DATA
  6
CONTINUOUS
 62
     7
 10
569.59716723762597
 20
666.81774162843692
 30
0.0
  0
VERTEX
  5
8F1
  8
DATA
  6
CONTINUOUS
 62
     7
 10
569.59716723762597
 20
666.01774162843685
 30
0.0
  0
VERTEX
  5
8F2
  8
DATA
  6
CONTINUOUS
 62
     7
 10
567.4971672376256
 20
666.01774162843685
 30
0.0
  0
SEQEND
  5
8F3
  8
DATA
  6
CONTINUOUS
 62
     7
  0
POLYLINE
  5
19B
  8
DATA
  6
CONTINUOUS
 62
     7
 66
     1
 10
0.0
 20
0.0
 30
0.0
  0
VERTEX
  5
8F4
  8
DATA
  6
CONTINUOUS
 62
     7
 10
566.69716723762565
 20
666.81774162843692
 30
0.0
  0
VERTEX
  5
8F5
  8
DATA
  6
CONTINUOUS
 62
     7
 10
566.69716723762565
 20
668.91774162843694
 30
0.0
  0
VERTEX
  5
8F6
  8
DATA
  6
CONTINUOUS
 62
     7
 10
567.4971672376256
 20
668.91774162843694
 30
0.0
  0
VERTEX
  5
8F7
  8
DATA
  6
CONTINUOUS
 62
     7
 10
567.4971672376256
 20
666.81774162843692
 30
0.0
  0
SEQEND
  5
8F8
  8
DATA
  6
CONTINUOUS
 62
     7
  0
POLYLINE
  5
1A2
  8
DATA
  6
CONTINUOUS
 62
     7
 66
     1
 10
0.0
 20
0.0
 30
0.0
  0
VERTEX
  5
8F9
  8
DATA
  6
CONTINUOUS
 62
     7
 10
567.4971672376256
 20
666.01774162843685
 30
0.0
  0
VERTEX
  5
8FA
  8
DATA
  6
CONTINUOUS
 62
     7
 10
567.4971672376256
 20
663.91774162843672
 30
0.0
  0
VERTEX
  5
8FB
  8
DATA
  6
CONTINUOUS
 62
     7
 10
566.69716723762565
 20
663.91774162843672
 30
0.0
  0
VERTEX
  5
8FC
  8
DATA
  6
CONTINUOUS
 62
     7
 10
566.69716723762565
 20
666.01774162843685
 30
0.0
  0
SEQEND
  5
8FD
  8
DATA
  6
CONTINUOUS
 62
     7
  0
POLYLINE
  5
1A9
  8
DATA
  6
CONTINUOUS
 62
     7
 66
     1
 10
0.0
 20
0.0
 30
0.0
 70
     1
  0
VERTEX
  5
8FE
  8
DATA
  6
CONTINUOUS
 62
     7
 10
567.95745166809752
 20
665.65831381778685
 30
0.0
  0
VERTEX
  5
8FF
  8
DATA
  6
CONTINUOUS
 62
     7
 10
568.95745166809752
 20
665.65831381778685
 30
0.0
  0
VERTEX
  5
900
  8
DATA
  6
CONTINUOUS
 62
     7
 10
568.95745166809752
 20
664.65831381778685
 30
0.0
  0
VERTEX
  5
901
  8
DATA
  6
CONTINUOUS
 62
     7
 10
567.95745166809752
 20
664.65831381778685
 30
0.0
  0
SEQEND
  5
902
  8
DATA
  6
CONTINUOUS
 62
     7
  0
POLYLINE
  5
1B0
  8
DATA
  6
CONTINUOUS
 62
     7
 66
     1
 10
0.0
 20
0.0
 30
0.0
 70
     1
  0
VERTEX
  5
903
  8
DATA
  6
CONTINUOUS
 62
     7
 10
565.23688280715385
 20
665.65831381778685
 30
0.0
  0
VERTEX
  5
904
  8
DATA
  6
CONTINUOUS
 62
     7
 10
566.23688280715396
 20
665.65831381778685
 30
0.0
  0
VERTEX
  5
905
  8
DATA
  6
CONTINUOUS
 62
     7
 10
566.23688280715396
 20
664.65831381778685
 30
0.0
  0
VERTEX
  5
906
  8
DATA
  6
CONTINUOUS
 62
     7
 10
565.23688280715385
 20
664.65831381778685
 30
0.0
  0
SEQEND
  5
907
  8
DATA
  6
CONTINUOUS
 62
     7
  0
POLYLINE
  5
1B7
  8
DATA
  6
CONTINUOUS
 62
     7
 66
     1
 10
0.0
 20
0.0
 30
0.0
 70
     1
  0
VERTEX
  5
908
  8
DATA
  6
CONTINUOUS
 62
     7
 10
567.95745166809752
 20
668.1771694390867
 30
0.0
  0
VERTEX
  5
909
  8
DATA
  6
CONTINUOUS
 62
     7
 10
568.95745166809752
 20
668.1771694390867
 30
0.0
  0
VERTEX
  5
90A
  8
DATA
  6
CONTINUOUS
 62
     7
 10
568.95745166809752
 20
667.17716943908681
 30
0.0
  0
VERTEX
  5
90B
  8
DATA
  6
CONTINUOUS
 62
     7
 10
567.95745166809752
 20
667.17716943908681
 30
0.0
  0
SEQEND
  5
90C
  8
DATA
  6
CONTINUOUS
 62
     7
  0
POLYLINE
  5
1BE
  8
DATA
  6
CONTINUOUS
 62
     7
 66
     1
 10
0.0
 20
0.0
 30
0.0
 70
     1
  0
VERTEX
  5
90D
  8
DATA
  6
CONTINUOUS
 62
     7
 10
565.23688280715385
 20
668.1771694390867
 30
0.0
  0
VERTEX
  5
90E
  8
DATA
  6
CONTINUOUS
 62
     7
 10
566.23688280715396
 20
668.1771694390867
 30
0.0
  0
VERTEX
  5
90F
  8
DATA
  6
CONTINUOUS
 62
     7
 10
566.23688280715396
 20
667.17716943908681
 30
0.0
  0
VERTEX
  5
910
  8
DATA
  6
CONTINUOUS
 62
     7
 10
565.23688280715385
 20
667.17716943908681
 30
0.0
  0
SEQEND
  5
911
  8
DATA
  6
CONTINUOUS
 62
     7
  0
LINE
  5
1C5
  8
DATA
  6
CONTINUOUS
 62
     7
 10
587.19253905557457
 20
663.58784993392317
 30
0.0
 11
586.6336218581223
 21
669.4378499339233
 31
0.0
  0
LINE
  5
1C6
  8
DATA
  6
CONTINUOUS
 62
     7
 10
563.30179541967846
 20
663.58784993392317
 30
0.0
 11
563.86071261713084
 21
669.4378499339233
 31
0.0
  0
ARC
  5
1C7
  8
DATA
  6
CONTINUOUS
 62
     7
 10
586.19707212481921
 20
663.49274162843676
 30
0.0
 40
1.0000000000000071
 50
270.0
 51
5.4575534851077228
  0
ARC
  5
1C8
  8
DATA
  6
CONTINUOUS
 62
     7
 10
564.29726235043393
 20
663.49274162843676
 30
0.0
 40
0.9999999999999754
 50
174.5424465148923
 51
270.0
  0
ARC
  5
1C9
  8
DATA
  6
CONTINUOUS
 62
     7
 10
585.63815492736705
 20
669.34274162843701
 30
0.0
 40
0.9999999999999754
 50
5.4575534851077103
 51
90.0
  0
ARC
  5
1CA
  8
DATA
  6
CONTINUOUS
 62
     7
 10
564.85617954788631
 20
669.34274162843701
 30
0.0
 40
1.0000000000000311
 50
90.0
 51
174.54244651489549
  0
TEXT
  5
1CB
  8
DATA
 62
     7
 10
580.27521225941791
 20
678.36332479642863
 30
0.0
 40
2.8097509765624999
  1
In 1
 50
180.0
 41
0.7
 11
580.27521225941791
 21
675.55357381986596
 31
0.0
 73
     3
  0
TEXT
  5
1CC
  8
DATA
 62
     7
 10
537.77201507974848
 20
678.36332479642863
 30
0.0
 40
2.8097509765624999
  1
In 2
 50
180.0
 41
0.7
 11
537.77201507974848
 21
675.55357381986596
 31
0.0
 73
     3
  0
TEXT
  5
1CD
  8
DATA
 62
     7
 10
495.0304693739451
 20
678.36332479642863
 30
0.0
 40
2.8097509765624999
  1
In 3
 50
180.0
 41
0.7
 11
495.0304693739451
 21
675.55357381986596
 31
0.0
 73
     3
  0
TEXT
  5
1CE
  8
DATA
 62
     7
 10
451.04591611679001
 20
678.36332479642863
 30
0.0
 40
2.8097509765624999
  1
In 4
 50
180.0
 41
0.7
 11
451.04591611679001
 21
675.55357381986596
 31
0.0
 73
     3
  0
TEXT
  5
1CF
  8
DATA
 62
     7
 10
227.66491467661899
 20
678.36332479642863
 30
0.0
 40
2.8097509765624999
  1
DVI Out
 50
180.0
 41
0.7
 11
227.66491467661899
 21
675.55357381986596
 31
0.0
 73
     3
  0
CIRCLE
  5
1D0
  8
DATA
  6
CONTINUOUS
 62
     7
 10
237.41268409451561
 20
666.41774162843672
 30
0.0
 40
1.175000000000068
  0
POLYLINE
  5
1D1
  8
DATA
  6
CONTINUOUS
 62
     7
 66
     1
 10
0.0
 20
0.0
 30
0.0
 70
     1
  0
VERTEX
  5
912
  8
DATA
  6
CONTINUOUS
 62
     7
 10
237.41268409451561
 20
663.71774162843678
 30
0.0
  0
VERTEX
  5
913
  8
DATA
  6
CONTINUOUS
 62
     7
 10
239.75095268473351
 20
665.06774162843692
 30
0.0
  0
VERTEX
  5
914
  8
DATA
  6
CONTINUOUS
 62
     7
 10
239.75095268473351
 20
667.76774162843685
 30
0.0
  0
VERTEX
  5
915
  8
DATA
  6
CONTINUOUS
 62
     7
 10
237.41268409451561
 20
669.11774162843699
 30
0.0
  0
VERTEX
  5
916
  8
DATA
  6
CONTINUOUS
 62
     7
 10
235.07441550429749
 20
667.76774162843685
 30
0.0
  0
VERTEX
  5
917
  8
DATA
  6
CONTINUOUS
 62
     7
 10
235.07441550429749
 20
665.06774162843692
 30
0.0
  0
SEQEND
  5
918
  8
DATA
  6
CONTINUOUS
 62
     7
  0
CIRCLE
  5
1DA
  8
DATA
  6
CONTINUOUS
 62
     7
 10
204.91268409451331
 20
666.41774162843672
 30
0.0
 40
1.175000000000068
  0
POLYLINE
  5
1DB
  8
DATA
  6
CONTINUOUS
 62
     7
 66
     1
 10
0.0
 20
0.0
 30
0.0
 70
     1
  0
VERTEX
  5
919
  8
DATA
  6
CONTINUOUS
 62
     7
 10
204.91268409451331
 20
663.71774162843678
 30
0.0
  0
VERTEX
  5
91A
  8
DATA
  6
CONTINUOUS
 62
     7
 10
207.2509526847312
 20
665.06774162843692
 30
0.0
  0
VERTEX
  5
91B
  8
DATA
  6
CONTINUOUS
 62
     7
 10
207.2509526847312
 20
667.76774162843685
 30
0.0
  0
VERTEX
  5
91C
  8
DATA
  6
CONTINUOUS
 62
     7
 10
204.91268409451331
 20
669.11774162843699
 30
0.0
  0
VERTEX
  5
91D
  8
DATA
  6
CONTINUOUS
 62
     7
 10
202.5744155042953
 20
667.76774162843685
 30
0.0
  0
VERTEX
  5
91E
  8
DATA
  6
CONTINUOUS
 62
     7
 10
202.5744155042953
 20
665.06774162843692
 30
0.0
  0
SEQEND
  5
91F
  8
DATA
  6
CONTINUOUS
 62
     7
  0
LINE
  5
1E4
  8
DATA
  6
CONTINUOUS
 62
     7
 10
232.11258898170729
 20
662.49274162843665
 30
0.0
 11
210.2127792073214
 21
662.49274162843665
 31
0.0
  0
LINE
  5
1E5
  8
DATA
  6
CONTINUOUS
 62
     7
 10
210.77169640477379
 20
670.34274162843701
 30
0.0
 11
231.55367178425499
 21
670.34274162843701
 31
0.0
  0
POLYLINE
  5
1E6
  8
DATA
  6
CONTINUOUS
 62
     7
 66
     1
 10
0.0
 20
0.0
 30
0.0
 70
     1
  0
VERTEX
  5
920
  8
DATA
  6
CONTINUOUS
 62
     7
 10
230.63275026569491
 20
667.18274162843693
 30
0.0
  0
VERTEX
  5
921
  8
DATA
  6
CONTINUOUS
 62
     7
 10
232.1627502656948
 20
667.18274162843693
 30
0.0
  0
VERTEX
  5
922
  8
DATA
  6
CONTINUOUS
 62
     7
 10
232.1627502656948
 20
665.65274162843673
 30
0.0
  0
VERTEX
  5
923
  8
DATA
  6
CONTINUOUS
 62
     7
 10
230.63275026569491
 20
665.65274162843673
 30
0.0
  0
SEQEND
  5
924
  8
DATA
  6
CONTINUOUS
 62
     7
  0
POLYLINE
  5
1ED
  8
DATA
  6
CONTINUOUS
 62
     7
 66
     1
 10
0.0
 20
0.0
 30
0.0
 70
     1
  0
VERTEX
  5
925
  8
DATA
  6
CONTINUOUS
 62
     7
 10
228.63275026569491
 20
667.18274162843693
 30
0.0
  0
VERTEX
  5
926
  8
DATA
  6
CONTINUOUS
 62
     7
 10
230.1627502656948
 20
667.18274162843693
 30
0.0
  0
VERTEX
  5
927
  8
DATA
  6
CONTINUOUS
 62
     7
 10
230.1627502656948
 20
665.65274162843673
 30
0.0
  0
VERTEX
  5
928
  8
DATA
  6
CONTINUOUS
 62
     7
 10
228.63275026569491
 20
665.65274162843673
 30
0.0
  0
SEQEND
  5
929
  8
DATA
  6
CONTINUOUS
 62
     7
  0
POLYLINE
  5
1F4
  8
DATA
  6
CONTINUOUS
 62
     7
 66
     1
 10
0.0
 20
0.0
 30
0.0
 70
     1
  0
VERTEX
  5
92A
  8
DATA
  6
CONTINUOUS
 62
     7
 10
226.63275026569491
 20
667.18274162843693
 30
0.0
  0
VERTEX
  5
92B
  8
DATA
  6
CONTINUOUS
 62
     7
 10
228.16275026569491
 20
667.18274162843693
 30
0.0
  0
VERTEX
  5
92C
  8
DATA
  6
CONTINUOUS
 62
     7
 10
228.16275026569491
 20
665.65274162843673
 30
0.0
  0
VERTEX
  5
92D
  8
DATA
  6
CONTINUOUS
 62
     7
 10
226.63275026569491
 20
665.65274162843673
 30
0.0
  0
SEQEND
  5
92E
  8
DATA
  6
CONTINUOUS
 62
     7
  0
POLYLINE
  5
1FB
  8
DATA
  6
CONTINUOUS
 62
     7
 66
     1
 10
0.0
 20
0.0
 30
0.0
 70
     1
  0
VERTEX
  5
92F
  8
DATA
  6
CONTINUOUS
 62
     7
 10
224.6327502656948
 20
667.18274162843693
 30
0.0
  0
VERTEX
  5
930
  8
DATA
  6
CONTINUOUS
 62
     7
 10
226.16275026569491
 20
667.18274162843693
 30
0.0
  0
VERTEX
  5
931
  8
DATA
  6
CONTINUOUS
 62
     7
 10
226.16275026569491
 20
665.65274162843673
 30
0.0
  0
VERTEX
  5
932
  8
DATA
  6
CONTINUOUS
 62
     7
 10
224.6327502656948
 20
665.65274162843673
 30
0.0
  0
SEQEND
  5
933
  8
DATA
  6
CONTINUOUS
 62
     7
  0
POLYLINE
  5
202
  8
DATA
  6
CONTINUOUS
 62
     7
 66
     1
 10
0.0
 20
0.0
 30
0.0
 70
     1
  0
VERTEX
  5
934
  8
DATA
  6
CONTINUOUS
 62
     7
 10
222.6327502656946
 20
667.18274162843693
 30
0.0
  0
VERTEX
  5
935
  8
DATA
  6
CONTINUOUS
 62
     7
 10
224.1627502656948
 20
667.18274162843693
 30
0.0
  0
VERTEX
  5
936
  8
DATA
  6
CONTINUOUS
 62
     7
 10
224.1627502656948
 20
665.65274162843673
 30
0.0
  0
VERTEX
  5
937
  8
DATA
  6
CONTINUOUS
 62
     7
 10
222.6327502656946
 20
665.65274162843673
 30
0.0
  0
SEQEND
  5
938
  8
DATA
  6
CONTINUOUS
 62
     7
  0
POLYLINE
  5
209
  8
DATA
  6
CONTINUOUS
 62
     7
 66
     1
 10
0.0
 20
0.0
 30
0.0
 70
     1
  0
VERTEX
  5
939
  8
DATA
  6
CONTINUOUS
 62
     7
 10
220.6327502656944
 20
667.18274162843693
 30
0.0
  0
VERTEX
  5
93A
  8
DATA
  6
CONTINUOUS
 62
     7
 10
222.1627502656946
 20
667.18274162843693
 30
0.0
  0
VERTEX
  5
93B
  8
DATA
  6
CONTINUOUS
 62
     7
 10
222.1627502656946
 20
665.65274162843673
 30
0.0
  0
VERTEX
  5
93C
  8
DATA
  6
CONTINUOUS
 62
     7
 10
220.6327502656944
 20
665.65274162843673
 30
0.0
  0
SEQEND
  5
93D
  8
DATA
  6
CONTINUOUS
 62
     7
  0
POLYLINE
  5
210
  8
DATA
  6
CONTINUOUS
 62
     7
 66
     1
 10
0.0
 20
0.0
 30
0.0
 70
     1
  0
VERTEX
  5
93E
  8
DATA
  6
CONTINUOUS
 62
     7
 10
218.63275026569389
 20
667.18274162843693
 30
0.0
  0
VERTEX
  5
93F
  8
DATA
  6
CONTINUOUS
 62
     7
 10
220.1627502656944
 20
667.18274162843693
 30
0.0
  0
VERTEX
  5
940
  8
DATA
  6
CONTINUOUS
 62
     7
 10
220.1627502656944
 20
665.65274162843673
 30
0.0
  0
VERTEX
  5
941
  8
DATA
  6
CONTINUOUS
 62
     7
 10
218.63275026569389
 20
665.65274162843673
 30
0.0
  0
SEQEND
  5
942
  8
DATA
  6
CONTINUOUS
 62
     7
  0
POLYLINE
  5
217
  8
DATA
  6
CONTINUOUS
 62
     7
 66
     1
 10
0.0
 20
0.0
 30
0.0
 70
     1
  0
VERTEX
  5
943
  8
DATA
  6
CONTINUOUS
 62
     7
 10
216.6327502656932
 20
667.18274162843693
 30
0.0
  0
VERTEX
  5
944
  8
DATA
  6
CONTINUOUS
 62
     7
 10
218.16275026569369
 20
667.18274162843693
 30
0.0
  0
VERTEX
  5
945
  8
DATA
  6
CONTINUOUS
 62
     7
 10
218.16275026569369
 20
665.65274162843673
 30
0.0
  0
VERTEX
  5
946
  8
DATA
  6
CONTINUOUS
 62
     7
 10
216.6327502656932
 20
665.65274162843673
 30
0.0
  0
SEQEND
  5
947
  8
DATA
  6
CONTINUOUS
 62
     7
  0
POLYLINE
  5
21E
  8
DATA
  6
CONTINUOUS
 62
     7
 66
     1
 10
0.0
 20
0.0
 30
0.0
 70
     1
  0
VERTEX
  5
948
  8
DATA
  6
CONTINUOUS
 62
     7
 10
230.63275026569491
 20
665.18274162843659
 30
0.0
  0
VERTEX
  5
949
  8
DATA
  6
CONTINUOUS
 62
     7
 10
232.1627502656948
 20
665.18274162843659
 30
0.0
  0
VERTEX
  5
94A
  8
DATA
  6
CONTINUOUS
 62
     7
 10
232.1627502656948
 20
663.65274162843673
 30
0.0
  0
VERTEX
  5
94B
  8
DATA
  6
CONTINUOUS
 62
     7
 10
230.63275026569491
 20
663.65274162843673
 30
0.0
  0
SEQEND
  5
94C
  8
DATA
  6
CONTINUOUS
 62
     7
  0
POLYLINE
  5
225
  8
DATA
  6
CONTINUOUS
 62
     7
 66
     1
 10
0.0
 20
0.0
 30
0.0
 70
     1
  0
VERTEX
  5
94D
  8
DATA
  6
CONTINUOUS
 62
     7
 10
228.63275026569491
 20
665.18274162843659
 30
0.0
  0
VERTEX
  5
94E
  8
DATA
  6
CONTINUOUS
 62
     7
 10
230.1627502656948
 20
665.18274162843659
 30
0.0
  0
VERTEX
  5
94F
  8
DATA
  6
CONTINUOUS
 62
     7
 10
230.1627502656948
 20
663.65274162843673
 30
0.0
  0
VERTEX
  5
950
  8
DATA
  6
CONTINUOUS
 62
     7
 10
228.63275026569491
 20
663.65274162843673
 30
0.0
  0
SEQEND
  5
951
  8
DATA
  6
CONTINUOUS
 62
     7
  0
POLYLINE
  5
22C
  8
DATA
  6
CONTINUOUS
 62
     7
 66
     1
 10
0.0
 20
0.0
 30
0.0
 70
     1
  0
VERTEX
  5
952
  8
DATA
  6
CONTINUOUS
 62
     7
 10
226.63275026569491
 20
665.18274162843659
 30
0.0
  0
VERTEX
  5
953
  8
DATA
  6
CONTINUOUS
 62
     7
 10
228.16275026569491
 20
665.18274162843659
 30
0.0
  0
VERTEX
  5
954
  8
DATA
  6
CONTINUOUS
 62
     7
 10
228.16275026569491
 20
663.65274162843673
 30
0.0
  0
VERTEX
  5
955
  8
DATA
  6
CONTINUOUS
 62
     7
 10
226.63275026569491
 20
663.65274162843673
 30
0.0
  0
SEQEND
  5
956
  8
DATA
  6
CONTINUOUS
 62
     7
  0
POLYLINE
  5
233
  8
DATA
  6
CONTINUOUS
 62
     7
 66
     1
 10
0.0
 20
0.0
 30
0.0
 70
     1
  0
VERTEX
  5
957
  8
DATA
  6
CONTINUOUS
 62
     7
 10
224.6327502656948
 20
665.18274162843659
 30
0.0
  0
VERTEX
  5
958
  8
DATA
  6
CONTINUOUS
 62
     7
 10
226.16275026569491
 20
665.18274162843659
 30
0.0
  0
VERTEX
  5
959
  8
DATA
  6
CONTINUOUS
 62
     7
 10
226.16275026569491
 20
663.65274162843673
 30
0.0
  0
VERTEX
  5
95A
  8
DATA
  6
CONTINUOUS
 62
     7
 10
224.6327502656948
 20
663.65274162843673
 30
0.0
  0
SEQEND
  5
95B
  8
DATA
  6
CONTINUOUS
 62
     7
  0
POLYLINE
  5
23A
  8
DATA
  6
CONTINUOUS
 62
     7
 66
     1
 10
0.0
 20
0.0
 30
0.0
 70
     1
  0
VERTEX
  5
95C
  8
DATA
  6
CONTINUOUS
 62
     7
 10
222.6327502656946
 20
665.18274162843659
 30
0.0
  0
VERTEX
  5
95D
  8
DATA
  6
CONTINUOUS
 62
     7
 10
224.1627502656948
 20
665.18274162843659
 30
0.0
  0
VERTEX
  5
95E
  8
DATA
  6
CONTINUOUS
 62
     7
 10
224.1627502656948
 20
663.65274162843673
 30
0.0
  0
VERTEX
  5
95F
  8
DATA
  6
CONTINUOUS
 62
     7
 10
222.6327502656946
 20
663.65274162843673
 30
0.0
  0
SEQEND
  5
960
  8
DATA
  6
CONTINUOUS
 62
     7
  0
POLYLINE
  5
241
  8
DATA
  6
CONTINUOUS
 62
     7
 66
     1
 10
0.0
 20
0.0
 30
0.0
 70
     1
  0
VERTEX
  5
961
  8
DATA
  6
CONTINUOUS
 62
     7
 10
220.6327502656944
 20
665.18274162843659
 30
0.0
  0
VERTEX
  5
962
  8
DATA
  6
CONTINUOUS
 62
     7
 10
222.1627502656946
 20
665.18274162843659
 30
0.0
  0
VERTEX
  5
963
  8
DATA
  6
CONTINUOUS
 62
     7
 10
222.1627502656946
 20
663.65274162843673
 30
0.0
  0
VERTEX
  5
964
  8
DATA
  6
CONTINUOUS
 62
     7
 10
220.6327502656944
 20
663.65274162843673
 30
0.0
  0
SEQEND
  5
965
  8
DATA
  6
CONTINUOUS
 62
     7
  0
POLYLINE
  5
248
  8
DATA
  6
CONTINUOUS
 62
     7
 66
     1
 10
0.0
 20
0.0
 30
0.0
 70
     1
  0
VERTEX
  5
966
  8
DATA
  6
CONTINUOUS
 62
     7
 10
218.63275026569389
 20
665.18274162843659
 30
0.0
  0
VERTEX
  5
967
  8
DATA
  6
CONTINUOUS
 62
     7
 10
220.1627502656944
 20
665.18274162843659
 30
0.0
  0
VERTEX
  5
968
  8
DATA
  6
CONTINUOUS
 62
     7
 10
220.1627502656944
 20
663.65274162843673
 30
0.0
  0
VERTEX
  5
969
  8
DATA
  6
CONTINUOUS
 62
     7
 10
218.63275026569389
 20
663.65274162843673
 30
0.0
  0
SEQEND
  5
96A
  8
DATA
  6
CONTINUOUS
 62
     7
  0
POLYLINE
  5
24F
  8
DATA
  6
CONTINUOUS
 62
     7
 66
     1
 10
0.0
 20
0.0
 30
0.0
 70
     1
  0
VERTEX
  5
96B
  8
DATA
  6
CONTINUOUS
 62
     7
 10
216.6327502656932
 20
665.18274162843659
 30
0.0
  0
VERTEX
  5
96C
  8
DATA
  6
CONTINUOUS
 62
     7
 10
218.16275026569369
 20
665.18274162843659
 30
0.0
  0
VERTEX
  5
96D
  8
DATA
  6
CONTINUOUS
 62
     7
 10
218.16275026569369
 20
663.65274162843673
 30
0.0
  0
VERTEX
  5
96E
  8
DATA
  6
CONTINUOUS
 62
     7
 10
216.6327502656932
 20
663.65274162843673
 30
0.0
  0
SEQEND
  5
96F
  8
DATA
  6
CONTINUOUS
 62
     7
  0
POLYLINE
  5
256
  8
DATA
  6
CONTINUOUS
 62
     7
 66
     1
 10
0.0
 20
0.0
 30
0.0
 70
     1
  0
VERTEX
  5
970
  8
DATA
  6
CONTINUOUS
 62
     7
 10
230.63275026569491
 20
669.18274162843693
 30
0.0
  0
VERTEX
  5
971
  8
DATA
  6
CONTINUOUS
 62
     7
 10
232.1627502656948
 20
669.18274162843693
 30
0.0
  0
VERTEX
  5
972
  8
DATA
  6
CONTINUOUS
 62
     7
 10
232.1627502656948
 20
667.65274162843696
 30
0.0
  0
VERTEX
  5
973
  8
DATA
  6
CONTINUOUS
 62
     7
 10
230.63275026569491
 20
667.65274162843696
 30
0.0
  0
SEQEND
  5
974
  8
DATA
  6
CONTINUOUS
 62
     7
  0
POLYLINE
  5
25D
  8
DATA
  6
CONTINUOUS
 62
     7
 66
     1
 10
0.0
 20
0.0
 30
0.0
 70
     1
  0
VERTEX
  5
975
  8
DATA
  6
CONTINUOUS
 62
     7
 10
228.63275026569491
 20
669.18274162843693
 30
0.0
  0
VERTEX
  5
976
  8
DATA
  6
CONTINUOUS
 62
     7
 10
230.1627502656948
 20
669.18274162843693
 30
0.0
  0
VERTEX
  5
977
  8
DATA
  6
CONTINUOUS
 62
     7
 10
230.1627502656948
 20
667.65274162843696
 30
0.0
  0
VERTEX
  5
978
  8
DATA
  6
CONTINUOUS
 62
     7
 10
228.63275026569491
 20
667.65274162843696
 30
0.0
  0
SEQEND
  5
979
  8
DATA
  6
CONTINUOUS
 62
     7
  0
POLYLINE
  5
264
  8
DATA
  6
CONTINUOUS
 62
     7
 66
     1
 10
0.0
 20
0.0
 30
0.0
 70
     1
  0
VERTEX
  5
97A
  8
DATA
  6
CONTINUOUS
 62
     7
 10
226.63275026569491
 20
669.18274162843693
 30
0.0
  0
VERTEX
  5
97B
  8
DATA
  6
CONTINUOUS
 62
     7
 10
228.16275026569491
 20
669.18274162843693
 30
0.0
  0
VERTEX
  5
97C
  8
DATA
  6
CONTINUOUS
 62
     7
 10
228.16275026569491
 20
667.65274162843696
 30
0.0
  0
VERTEX
  5
97D
  8
DATA
  6
CONTINUOUS
 62
     7
 10
226.63275026569491
 20
667.65274162843696
 30
0.0
  0
SEQEND
  5
97E
  8
DATA
  6
CONTINUOUS
 62
     7
  0
POLYLINE
  5
26B
  8
DATA
  6
CONTINUOUS
 62
     7
 66
     1
 10
0.0
 20
0.0
 30
0.0
 70
     1
  0
VERTEX
  5
97F
  8
DATA
  6
CONTINUOUS
 62
     7
 10
224.6327502656948
 20
669.18274162843693
 30
0.0
  0
VERTEX
  5
980
  8
DATA
  6
CONTINUOUS
 62
     7
 10
226.16275026569491
 20
669.18274162843693
 30
0.0
  0
VERTEX
  5
981
  8
DATA
  6
CONTINUOUS
 62
     7
 10
226.16275026569491
 20
667.65274162843696
 30
0.0
  0
VERTEX
  5
982
  8
DATA
  6
CONTINUOUS
 62
     7
 10
224.6327502656948
 20
667.65274162843696
 30
0.0
  0
SEQEND
  5
983
  8
DATA
  6
CONTINUOUS
 62
     7
  0
POLYLINE
  5
272
  8
DATA
  6
CONTINUOUS
 62
     7
 66
     1
 10
0.0
 20
0.0
 30
0.0
 70
     1
  0
VERTEX
  5
984
  8
DATA
  6
CONTINUOUS
 62
     7
 10
222.6327502656946
 20
669.18274162843693
 30
0.0
  0
VERTEX
  5
985
  8
DATA
  6
CONTINUOUS
 62
     7
 10
224.1627502656948
 20
669.18274162843693
 30
0.0
  0
VERTEX
  5
986
  8
DATA
  6
CONTINUOUS
 62
     7
 10
224.1627502656948
 20
667.65274162843696
 30
0.0
  0
VERTEX
  5
987
  8
DATA
  6
CONTINUOUS
 62
     7
 10
222.6327502656946
 20
667.65274162843696
 30
0.0
  0
SEQEND
  5
988
  8
DATA
  6
CONTINUOUS
 62
     7
  0
POLYLINE
  5
279
  8
DATA
  6
CONTINUOUS
 62
     7
 66
     1
 10
0.0
 20
0.0
 30
0.0
 70
     1
  0
VERTEX
  5
989
  8
DATA
  6
CONTINUOUS
 62
     7
 10
220.6327502656944
 20
669.18274162843693
 30
0.0
  0
VERTEX
  5
98A
  8
DATA
  6
CONTINUOUS
 62
     7
 10
222.1627502656946
 20
669.18274162843693
 30
0.0
  0
VERTEX
  5
98B
  8
DATA
  6
CONTINUOUS
 62
     7
 10
222.1627502656946
 20
667.65274162843696
 30
0.0
  0
VERTEX
  5
98C
  8
DATA
  6
CONTINUOUS
 62
     7
 10
220.6327502656944
 20
667.65274162843696
 30
0.0
  0
SEQEND
  5
98D
  8
DATA
  6
CONTINUOUS
 62
     7
  0
POLYLINE
  5
280
  8
DATA
  6
CONTINUOUS
 62
     7
 66
     1
 10
0.0
 20
0.0
 30
0.0
 70
     1
  0
VERTEX
  5
98E
  8
DATA
  6
CONTINUOUS
 62
     7
 10
218.63275026569389
 20
669.18274162843693
 30
0.0
  0
VERTEX
  5
98F
  8
DATA
  6
CONTINUOUS
 62
     7
 10
220.1627502656944
 20
669.18274162843693
 30
0.0
  0
VERTEX
  5
990
  8
DATA
  6
CONTINUOUS
 62
     7
 10
220.1627502656944
 20
667.65274162843696
 30
0.0
  0
VERTEX
  5
991
  8
DATA
  6
CONTINUOUS
 62
     7
 10
218.63275026569389
 20
667.65274162843696
 30
0.0
  0
SEQEND
  5
992
  8
DATA
  6
CONTINUOUS
 62
     7
  0
POLYLINE
  5
287
  8
DATA
  6
CONTINUOUS
 62
     7
 66
     1
 10
0.0
 20
0.0
 30
0.0
 70
     1
  0
VERTEX
  5
993
  8
DATA
  6
CONTINUOUS
 62
     7
 10
216.6327502656932
 20
669.18274162843693
 30
0.0
  0
VERTEX
  5
994
  8
DATA
  6
CONTINUOUS
 62
     7
 10
218.16275026569369
 20
669.18274162843693
 30
0.0
  0
VERTEX
  5
995
  8
DATA
  6
CONTINUOUS
 62
     7
 10
218.16275026569369
 20
667.65274162843696
 30
0.0
  0
VERTEX
  5
996
  8
DATA
  6
CONTINUOUS
 62
     7
 10
216.6327502656932
 20
667.65274162843696
 30
0.0
  0
SEQEND
  5
997
  8
DATA
  6
CONTINUOUS
 62
     7
  0
POLYLINE
  5
28E
  8
DATA
  6
CONTINUOUS
 62
     7
 66
     1
 10
0.0
 20
0.0
 30
0.0
  0
VERTEX
  5
998
  8
DATA
  6
CONTINUOUS
 62
     7
 10
212.61268409451341
 20
666.01774162843685
 30
0.0
  0
VERTEX
  5
999
  8
DATA
  6
CONTINUOUS
 62
     7
 10
210.51268409451319
 20
666.01774162843685
 30
0.0
  0
VERTEX
  5
99A
  8
DATA
  6
CONTINUOUS
 62
     7
 10
210.51268409451319
 20
666.81774162843692
 30
0.0
  0
VERTEX
  5
99B
  8
DATA
  6
CONTINUOUS
 62
     7
 10
212.61268409451341
 20
666.81774162843692
 30
0.0
  0
SEQEND
  5
99C
  8
DATA
  6
CONTINUOUS
 62
     7
  0
POLYLINE
  5
295
  8
DATA
  6
CONTINUOUS
 62
     7
 66
     1
 10
0.0
 20
0.0
 30
0.0
  0
VERTEX
  5
99D
  8
DATA
  6
CONTINUOUS
 62
     7
 10
213.41268409451339
 20
666.81774162843692
 30
0.0
  0
VERTEX
  5
99E
  8
DATA
  6
CONTINUOUS
 62
     7
 10
215.51268409451359
 20
666.81774162843692
 30
0.0
  0
VERTEX
  5
99F
  8
DATA
  6
CONTINUOUS
 62
     7
 10
215.51268409451359
 20
666.01774162843685
 30
0.0
  0
VERTEX
  5
9A0
  8
DATA
  6
CONTINUOUS
 62
     7
 10
213.41268409451339
 20
666.01774162843685
 30
0.0
  0
SEQEND
  5
9A1
  8
DATA
  6
CONTINUOUS
 62
     7
  0
POLYLINE
  5
29C
  8
DATA
  6
CONTINUOUS
 62
     7
 66
     1
 10
0.0
 20
0.0
 30
0.0
  0
VERTEX
  5
9A2
  8
DATA
  6
CONTINUOUS
 62
     7
 10
212.61268409451341
 20
666.81774162843692
 30
0.0
  0
VERTEX
  5
9A3
  8
DATA
  6
CONTINUOUS
 62
     7
 10
212.61268409451341
 20
668.91774162843694
 30
0.0
  0
VERTEX
  5
9A4
  8
DATA
  6
CONTINUOUS
 62
     7
 10
213.41268409451339
 20
668.91774162843694
 30
0.0
  0
VERTEX
  5
9A5
  8
DATA
  6
CONTINUOUS
 62
     7
 10
213.41268409451339
 20
666.81774162843692
 30
0.0
  0
SEQEND
  5
9A6
  8
DATA
  6
CONTINUOUS
 62
     7
  0
POLYLINE
  5
2A3
  8
DATA
  6
CONTINUOUS
 62
     7
 66
     1
 10
0.0
 20
0.0
 30
0.0
  0
VERTEX
  5
9A7
  8
DATA
  6
CONTINUOUS
 62
     7
 10
213.41268409451339
 20
666.01774162843685
 30
0.0
  0
VERTEX
  5
9A8
  8
DATA
  6
CONTINUOUS
 62
     7
 10
213.41268409451339
 20
663.91774162843672
 30
0.0
  0
VERTEX
  5
9A9
  8
DATA
  6
CONTINUOUS
 62
     7
 10
212.61268409451341
 20
663.91774162843672
 30
0.0
  0
VERTEX
  5
9AA
  8
DATA
  6
CONTINUOUS
 62
     7
 10
212.61268409451341
 20
666.01774162843685
 30
0.0
  0
SEQEND
  5
9AB
  8
DATA
  6
CONTINUOUS
 62
     7
  0
POLYLINE
  5
2AA
  8
DATA
  6
CONTINUOUS
 62
     7
 66
     1
 10
0.0
 20
0.0
 30
0.0
 70
     1
  0
VERTEX
  5
9AC
  8
DATA
  6
CONTINUOUS
 62
     7
 10
213.8729685249852
 20
665.65831381778685
 30
0.0
  0
VERTEX
  5
9AD
  8
DATA
  6
CONTINUOUS
 62
     7
 10
214.8729685249852
 20
665.65831381778685
 30
0.0
  0
VERTEX
  5
9AE
  8
DATA
  6
CONTINUOUS
 62
     7
 10
214.8729685249852
 20
664.65831381778685
 30
0.0
  0
VERTEX
  5
9AF
  8
DATA
  6
CONTINUOUS
 62
     7
 10
213.8729685249852
 20
664.65831381778685
 30
0.0
  0
SEQEND
  5
9B0
  8
DATA
  6
CONTINUOUS
 62
     7
  0
POLYLINE
  5
2B1
  8
DATA
  6
CONTINUOUS
 62
     7
 66
     1
 10
0.0
 20
0.0
 30
0.0
 70
     1
  0
VERTEX
  5
9B1
  8
DATA
  6
CONTINUOUS
 62
     7
 10
211.1523996640415
 20
665.65831381778685
 30
0.0
  0
VERTEX
  5
9B2
  8
DATA
  6
CONTINUOUS
 62
     7
 10
212.1523996640415
 20
665.65831381778685
 30
0.0
  0
VERTEX
  5
9B3
  8
DATA
  6
CONTINUOUS
 62
     7
 10
212.1523996640415
 20
664.65831381778685
 30
0.0
  0
VERTEX
  5
9B4
  8
DATA
  6
CONTINUOUS
 62
     7
 10
211.1523996640415
 20
664.65831381778685
 30
0.0
  0
SEQEND
  5
9B5
  8
DATA
  6
CONTINUOUS
 62
     7
  0
POLYLINE
  5
2B8
  8
DATA
  6
CONTINUOUS
 62
     7
 66
     1
 10
0.0
 20
0.0
 30
0.0
 70
     1
  0
VERTEX
  5
9B6
  8
DATA
  6
CONTINUOUS
 62
     7
 10
213.8729685249852
 20
668.1771694390867
 30
0.0
  0
VERTEX
  5
9B7
  8
DATA
  6
CONTINUOUS
 62
     7
 10
214.8729685249852
 20
668.1771694390867
 30
0.0
  0
VERTEX
  5
9B8
  8
DATA
  6
CONTINUOUS
 62
     7
 10
214.8729685249852
 20
667.17716943908681
 30
0.0
  0
VERTEX
  5
9B9
  8
DATA
  6
CONTINUOUS
 62
     7
 10
213.8729685249852
 20
667.17716943908681
 30
0.0
  0
SEQEND
  5
9BA
  8
DATA
  6
CONTINUOUS
 62
     7
  0
POLYLINE
  5
2BF
  8
DATA
  6
CONTINUOUS
 62
     7
 66
     1
 10
0.0
 20
0.0
 30
0.0
 70
     1
  0
VERTEX
  5
9BB
  8
DATA
  6
CONTINUOUS
 62
     7
 10
211.1523996640415
 20
668.1771694390867
 30
0.0
  0
VERTEX
  5
9BC
  8
DATA
  6
CONTINUOUS
 62
     7
 10
212.1523996640415
 20
668.1771694390867
 30
0.0
  0
VERTEX
  5
9BD
  8
DATA
  6
CONTINUOUS
 62
     7
 10
212.1523996640415
 20
667.17716943908681
 30
0.0
  0
VERTEX
  5
9BE
  8
DATA
  6
CONTINUOUS
 62
     7
 10
211.1523996640415
 20
667.17716943908681
 30
0.0
  0
SEQEND
  5
9BF
  8
DATA
  6
CONTINUOUS
 62
     7
  0
LINE
  5
2C6
  8
DATA
  6
CONTINUOUS
 62
     7
 10
233.10805591246259
 20
663.58784993392317
 30
0.0
 11
232.5491387150104
 21
669.4378499339233
 31
0.0
  0
LINE
  5
2C7
  8
DATA
  6
CONTINUOUS
 62
     7
 10
209.2173122765661
 20
663.58784993392317
 30
0.0
 11
209.77622947401841
 21
669.4378499339233
 31
0.0
  0
ARC
  5
2C8
  8
DATA
  6
CONTINUOUS
 62
     7
 10
232.11258898170729
 20
663.49274162843676
 30
0.0
 40
1.0000000000000071
 50
270.0
 51
5.4575534851077228
  0
ARC
  5
2C9
  8
DATA
  6
CONTINUOUS
 62
     7
 10
210.2127792073214
 20
663.49274162843676
 30
0.0
 40
1.000000000000032
 50
174.54244651489259
 51
270.0
  0
ARC
  5
2CA
  8
DATA
  6
CONTINUOUS
 62
     7
 10
231.55367178425499
 20
669.34274162843701
 30
0.0
 40
0.9999999999999754
 50
5.4575534851077103
 51
90.0
  0
ARC
  5
2CB
  8
DATA
  6
CONTINUOUS
 62
     7
 10
210.77169640477379
 20
669.34274162843701
 30
0.0
 40
1.0000000000000311
 50
90.0
 51
174.54244651489549
  0
CIRCLE
  5
2CC
  8
DATA
  6
CONTINUOUS
 62
     7
 10
605.06799486867408
 20
665.79212016480642
 30
0.0
 40
3.9000000000000048
  0
CIRCLE
  5
2CD
  8
DATA
  6
CONTINUOUS
 62
     7
 10
605.06799486867408
 20
665.79212016480642
 30
0.0
 40
0.75
  0
TEXT
  5
2CE
  8
DATA
 62
     7
 10
609.45622526230341
 20
678.01531620567869
 30
0.0
 40
2.8097509765624999
  1
5V DC
 50
180.0
 41
0.7
 11
609.45622526230341
 21
675.20556522911625
 31
0.0
 73
     3
  0
LINE
  5
2CF
  8
DATA
  6
CONTINUOUS
 62
     7
 10
556.65742499511407
 20
588.99999999974307
 30
0.0
 11
556.65742499511407
 21
583.99999999974295
 31
0.0
  0
LINE
  5
2D0
  8
DATA
  6
CONTINUOUS
 62
     7
 10
561.33396217555003
 20
588.99999999974307
 30
0.0
 11
561.33396217555003
 21
583.99999999974295
 31
0.0
  0
LINE
  5
2D1
  8
DATA
  6
CONTINUOUS
 62
     7
 10
563.29596653161866
 20
588.99999999974307
 30
0.0
 11
563.29596653161866
 21
583.99999999974295
 31
0.0
  0
LINE
  5
2D2
  8
DATA
  6
CONTINUOUS
 62
     7
 10
587.18289986610114
 20
588.99999999974307
 30
0.0
 11
587.18289986610114
 21
583.99999999974295
 31
0.0
  0
LINE
  5
2D3
  8
DATA
  6
CONTINUOUS
 62
     7
 10
589.15742499511441
 20
588.99999999974307
 30
0.0
 11
589.15742499511441
 21
583.99999999974295
 31
0.0
  0
LINE
  5
2D4
  8
DATA
  6
CONTINUOUS
 62
     7
 10
593.83396217555037
 20
588.99999999974307
 30
0.0
 11
593.83396217555037
 21
583.99999999974295
 31
0.0
  0
LINE
  5
2D5
  8
DATA
  6
CONTINUOUS
 62
     7
 10
593.83396217555037
 20
588.99999999974307
 30
0.0
 11
589.15742499511441
 21
588.99999999974307
 31
0.0
  0
LINE
  5
2D6
  8
DATA
  6
CONTINUOUS
 62
     7
 10
587.18289986610114
 20
588.99999999974307
 30
0.0
 11
563.29596653161866
 21
588.99999999974307
 31
0.0
  0
LINE
  5
2D7
  8
DATA
  6
CONTINUOUS
 62
     7
 10
561.33396217555003
 20
588.99999999974307
 30
0.0
 11
556.65742499511407
 21
588.99999999974307
 31
0.0
  0
LINE
  5
2D8
  8
DATA
  6
CONTINUOUS
 62
     7
 10
670.0
 20
376.83882265059748
 30
0.0
 11
670.0
 21
386.83882265059748
 31
0.0
  0
LINE
  5
2D9
  8
DATA
  6
CONTINUOUS
 62
     7
 10
670.0
 20
386.83882265059748
 30
0.0
 11
675.0
 21
386.83882265059748
 31
0.0
  0
LINE
  5
2DA
  8
DATA
  6
CONTINUOUS
 62
     7
 10
670.0
 20
376.83882265059748
 30
0.0
 11
675.0
 21
376.83882265059748
 31
0.0
  0
LINE
  5
2DB
  8
DATA
  6
CONTINUOUS
 62
     7
 10
784.0
 20
363.49999999970191
 30
0.0
 11
784.0
 21
405.4999999997018
 31
0.0
  0
ARC
  5
2DC
  8
DATA
  6
CONTINUOUS
 62
     7
 10
676.0
 20
405.4999999997018
 30
0.0
 40
1.0
 50
90.0
 51
180.0
  0
ARC
  5
2DD
  8
DATA
  6
CONTINUOUS
 62
     7
 10
783.0
 20
405.4999999997018
 30
0.0
 40
1.0
 50
0.0
 51
90.0
  0
ARC
  5
2DE
  8
DATA
  6
CONTINUOUS
 62
     7
 10
676.0
 20
363.49999999970191
 30
0.0
 40
1.0
 50
180.0
 51
270.0
  0
ARC
  5
2DF
  8
DATA
  6
CONTINUOUS
 62
     7
 10
783.0
 20
363.49999999970191
 30
0.0
 40
1.0
 50
270.0
 51
0.0
  0
CIRCLE
  5
2E0
  8
DATA
  6
CONTINUOUS
 62
     7
 10
689.0
 20
399.49999999970191
 30
0.0
 40
2.0000000000000151
  0
LINE
  5
2E1
  8
DATA
  6
CONTINUOUS
 62
     7
 10
687.96016828284564
 20
398.46016828254761
 30
0.0
 11
690.03983171715413
 21
400.5398317168561
 31
0.0
  0
LINE
  5
2E2
  8
DATA
  6
CONTINUOUS
 62
     7
 10
690.03983171715413
 20
398.46016828254761
 30
0.0
 11
687.96016828284564
 21
400.5398317168561
 31
0.0
  0
CIRCLE
  5
2E3
  8
DATA
  6
CONTINUOUS
 62
     7
 10
689.0
 20
369.49999999970191
 30
0.0
 40
2.0000000000000151
  0
LINE
  5
2E4
  8
DATA
  6
CONTINUOUS
 62
     7
 10
687.96016828284564
 20
368.46016828254761
 30
0.0
 11
690.03983171715413
 21
370.53983171685621
 31
0.0
  0
LINE
  5
2E5
  8
DATA
  6
CONTINUOUS
 62
     7
 10
690.03983171715413
 20
368.46016828254761
 30
0.0
 11
687.96016828284564
 21
370.53983171685621
 31
0.0
  0
CIRCLE
  5
2E6
  8
DATA
  6
CONTINUOUS
 62
     7
 10
764.0
 20
369.49999999970191
 30
0.0
 40
2.0000000000000151
  0
LINE
  5
2E7
  8
DATA
  6
CONTINUOUS
 62
     7
 10
762.96016828284564
 20
368.46016828254761
 30
0.0
 11
765.03983171715413
 21
370.53983171685621
 31
0.0
  0
LINE
  5
2E8
  8
DATA
  6
CONTINUOUS
 62
     7
 10
765.03983171715413
 20
368.46016828254761
 30
0.0
 11
762.96016828284564
 21
370.53983171685621
 31
0.0
  0
CIRCLE
  5
2E9
  8
DATA
  6
CONTINUOUS
 62
     7
 10
595.5
 20
377.49999999970191
 30
0.0
 40
1.5
  0
CIRCLE
  5
2EA
  8
DATA
  6
CONTINUOUS
 62
     7
 10
580.49999999999989
 20
376.04980087064399
 30
0.0
 40
2.2049999999999979
  0
TEXT
  5
2EB
  8
DATA
 62
     7
 10
575.80289285893036
 20
366.61065694991231
 30
0.0
 40
2.4432617187500001
  1
Select
 41
0.7
 11
575.80289285893036
 21
369.05391866866228
 31
0.0
 73
     3
  0
CIRCLE
  5
2EC
  8
DATA
  6
CONTINUOUS
 62
     7
 10
504.49999999999989
 20
377.49999999970191
 30
0.0
 40
1.5
  0
CIRCLE
  5
2ED
  8
DATA
  6
CONTINUOUS
 62
     7
 10
490.5
 20
377.49999999970191
 30
0.0
 40
1.5
  0
CIRCLE
  5
2EE
  8
DATA
  6
CONTINUOUS
 62
     7
 10
476.49999999999989
 20
377.49999999970191
 30
0.0
 40
1.5
  0
CIRCLE
  5
2EF
  8
DATA
  6
CONTINUOUS
 62
     7
 10
462.5
 20
377.49999999970191
 30
0.0
 40
1.5
  0
CIRCLE
  5
2F0
  8
DATA
  6
CONTINUOUS
 62
     7
 10
446.49999999999989
 20
377.49999999970191
 30
0.0
 40
5.0
  0
TEXT
  5
2F1
  8
DATA
 62
     7
 10
503.64740207590478
 20
366.46331200297323
 30
0.0
 40
2.4432617187500001
  1
4
 41
0.7
 11
503.64740207590478
 21
368.90657372172319
 31
0.0
 73
     3
  0
TEXT
  5
2F2
  8
DATA
 62
     7
 10
489.64740207590478
 20
366.46331200297323
 30
0.0
 40
2.4432617187500001
  1
3
 41
0.7
 11
489.64740207590478
 21
368.90657372172319
 31
0.0
 73
     3
  0
TEXT
  5
2F3
  8
DATA
 62
     7
 10
475.64740207590478
 20
366.46331200297323
 30
0.0
 40
2.4432617187500001
  1
2
 41
0.7
 11
475.64740207590478
 21
368.90657372172319
 31
0.0
 73
     3
  0
TEXT
  5
2F4
  8
DATA
 62
     7
 10
461.64740207590478
 20
366.46331200297323
 30
0.0
 40
2.4432617187500001
  1
1
 41
0.7
 11
461.64740207590478
 21
368.90657372172319
 31
0.0
 73
     3
  0
TEXT
  5
2F5
  8
DATA
 62
     7
 10
445.30131390061922
 20
366.46331200297323
 30
0.0
 40
2.4432617187500001
  1
IR
 41
0.7
 11
445.30131390061922
 21
368.90657372172319
 31
0.0
 73
     3
  0
CIRCLE
  5
2F6
  8
DATA
  6
CONTINUOUS
 62
     7
 10
424.5
 20
374.4522594109153
 30
0.0
 40
3.0
  0
CIRCLE
  5
2F7
  8
DATA
  6
CONTINUOUS
 62
     7
 10
424.5
 20
374.4522594109153
 30
0.0
 40
1.700000000000002
  0
TEXT
  5
2F8
  8
DATA
 62
     7
 10
419.99982118621119
 20
366.49427648276429
 30
0.0
 40
2.4432617187500001
  1
Ext-IR
 41
0.7
 11
419.99982118621119
 21
368.93753820151443
 31
0.0
 73
     3
  0
LINE
  5
2F9
  8
DATA
  6
CONTINUOUS
 62
     7
 10
582.70499999999981
 20
473.4999999997429
 30
0.0
 11
578.29499999999985
 21
473.4999999997429
 31
0.0
  0
LINE
  5
2FA
  8
DATA
  6
CONTINUOUS
 62
     7
 10
578.29499999999985
 20
473.48957247336722
 30
0.0
 11
578.29499999999985
 21
474.9999999997429
 31
0.0
  0
LINE
  5
2FB
  8
DATA
  6
CONTINUOUS
 62
     7
 10
582.70499999999981
 20
473.48957247336722
 30
0.0
 11
582.70499999999981
 21
474.9999999997429
 31
0.0
  0
ARC
  5
2FC
  8
DATA
  6
CONTINUOUS
 62
     7
 10
504.49602319699562
 20
476.04999999974291
 30
0.0
 40
1.750000000000081
 50
216.86989764584251
 51
323.13010235415737
  0
ARC
  5
2FD
  8
DATA
  6
CONTINUOUS
 62
     7
 10
490.49602319699568
 20
476.04999999974291
 30
0.0
 40
1.750000000000081
 50
216.86989764584251
 51
323.13010235415737
  0
ARC
  5
2FE
  8
DATA
  6
CONTINUOUS
 62
     7
 10
476.49602319699568
 20
476.04999999974291
 30
0.0
 40
1.7500000000000819
 50
216.86989764584251
 51
323.13010235415737
  0
ARC
  5
2FF
  8
DATA
  6
CONTINUOUS
 62
     7
 10
462.49602319699562
 20
476.04999999974291
 30
0.0
 40
1.750000000000079
 50
216.86989764584251
 51
323.13010235415737
  0
LINE
  5
300
  8
DATA
  6
CONTINUOUS
 62
     7
 10
421.49999999999989
 20
473.9999999997429
 30
0.0
 11
427.5
 21
473.9999999997429
 31
0.0
  0
LINE
  5
301
  8
DATA
  6
CONTINUOUS
 62
     7
 10
421.49999999999989
 20
473.9999999997429
 30
0.0
 11
421.49999999999989
 21
474.9999999997429
 31
0.0
  0
LINE
  5
302
  8
DATA
  6
CONTINUOUS
 62
     7
 10
427.5
 20
473.9999999997429
 30
0.0
 11
427.5
 21
474.9999999997429
 31
0.0
  0
CIRCLE
  5
303
  8
DATA
  6
CONTINUOUS
 62
     7
 10
548.49716723762754
 20
666.41774162843672
 30
0.0
 40
1.175000000000068
  0
POLYLINE
  5
304
  8
DATA
  6
CONTINUOUS
 62
     7
 66
     1
 10
0.0
 20
0.0
 30
0.0
 70
     1
  0
VERTEX
  5
9C0
  8
DATA
  6
CONTINUOUS
 62
     7
 10
548.49716723762754
 20
663.71774162843678
 30
0.0
  0
VERTEX
  5
9C1
  8
DATA
  6
CONTINUOUS
 62
     7
 10
550.83543582784546
 20
665.06774162843692
 30
0.0
  0
VERTEX
  5
9C2
  8
DATA
  6
CONTINUOUS
 62
     7
 10
550.83543582784546
 20
667.76774162843685
 30
0.0
  0
VERTEX
  5
9C3
  8
DATA
  6
CONTINUOUS
 62
     7
 10
548.49716723762754
 20
669.11774162843699
 30
0.0
  0
VERTEX
  5
9C4
  8
DATA
  6
CONTINUOUS
 62
     7
 10
546.1588986474095
 20
667.76774162843685
 30
0.0
  0
VERTEX
  5
9C5
  8
DATA
  6
CONTINUOUS
 62
     7
 10
546.1588986474095
 20
665.06774162843692
 30
0.0
  0
SEQEND
  5
9C6
  8
DATA
  6
CONTINUOUS
 62
     7
  0
CIRCLE
  5
30D
  8
DATA
  6
CONTINUOUS
 62
     7
 10
515.99716723762572
 20
666.41774162843672
 30
0.0
 40
1.175000000000068
  0
POLYLINE
  5
30E
  8
DATA
  6
CONTINUOUS
 62
     7
 66
     1
 10
0.0
 20
0.0
 30
0.0
 70
     1
  0
VERTEX
  5
9C7
  8
DATA
  6
CONTINUOUS
 62
     7
 10
515.99716723762572
 20
663.71774162843678
 30
0.0
  0
VERTEX
  5
9C8
  8
DATA
  6
CONTINUOUS
 62
     7
 10
518.33543582784375
 20
665.06774162843692
 30
0.0
  0
VERTEX
  5
9C9
  8
DATA
  6
CONTINUOUS
 62
     7
 10
518.33543582784375
 20
667.76774162843685
 30
0.0
  0
VERTEX
  5
9CA
  8
DATA
  6
CONTINUOUS
 62
     7
 10
515.99716723762572
 20
669.11774162843699
 30
0.0
  0
VERTEX
  5
9CB
  8
DATA
  6
CONTINUOUS
 62
     7
 10
513.6588986474078
 20
667.76774162843685
 30
0.0
  0
VERTEX
  5
9CC
  8
DATA
  6
CONTINUOUS
 62
     7
 10
513.6588986474078
 20
665.06774162843692
 30
0.0
  0
SEQEND
  5
9CD
  8
DATA
  6
CONTINUOUS
 62
     7
  0
LINE
  5
317
  8
DATA
  6
CONTINUOUS
 62
     7
 10
543.19707212481921
 20
662.49274162843665
 30
0.0
 11
521.29726235043393
 21
662.49274162843665
 31
0.0
  0
LINE
  5
318
  8
DATA
  6
CONTINUOUS
 62
     7
 10
521.85617954788609
 20
670.34274162843701
 30
0.0
 11
542.63815492736705
 21
670.34274162843701
 31
0.0
  0
POLYLINE
  5
319
  8
DATA
  6
CONTINUOUS
 62
     7
 66
     1
 10
0.0
 20
0.0
 30
0.0
 70
     1
  0
VERTEX
  5
9CE
  8
DATA
  6
CONTINUOUS
 62
     7
 10
541.71723340880681
 20
667.18274162843693
 30
0.0
  0
VERTEX
  5
9CF
  8
DATA
  6
CONTINUOUS
 62
     7
 10
543.24723340880678
 20
667.18274162843693
 30
0.0
  0
VERTEX
  5
9D0
  8
DATA
  6
CONTINUOUS
 62
     7
 10
543.24723340880678
 20
665.65274162843673
 30
0.0
  0
VERTEX
  5
9D1
  8
DATA
  6
CONTINUOUS
 62
     7
 10
541.71723340880681
 20
665.65274162843673
 30
0.0
  0
SEQEND
  5
9D2
  8
DATA
  6
CONTINUOUS
 62
     7
  0
POLYLINE
  5
320
  8
DATA
  6
CONTINUOUS
 62
     7
 66
     1
 10
0.0
 20
0.0
 30
0.0
 70
     1
  0
VERTEX
  5
9D3
  8
DATA
  6
CONTINUOUS
 62
     7
 10
539.71723340880669
 20
667.18274162843693
 30
0.0
  0
VERTEX
  5
9D4
  8
DATA
  6
CONTINUOUS
 62
     7
 10
541.24723340880689
 20
667.18274162843693
 30
0.0
  0
VERTEX
  5
9D5
  8
DATA
  6
CONTINUOUS
 62
     7
 10
541.24723340880689
 20
665.65274162843673
 30
0.0
  0
VERTEX
  5
9D6
  8
DATA
  6
CONTINUOUS
 62
     7
 10
539.71723340880669
 20
665.65274162843673
 30
0.0
  0
SEQEND
  5
9D7
  8
DATA
  6
CONTINUOUS
 62
     7
  0
POLYLINE
  5
327
  8
DATA
  6
CONTINUOUS
 62
     7
 66
     1
 10
0.0
 20
0.0
 30
0.0
 70
     1
  0
VERTEX
  5
9D8
  8
DATA
  6
CONTINUOUS
 62
     7
 10
537.71723340880681
 20
667.18274162843693
 30
0.0
  0
VERTEX
  5
9D9
  8
DATA
  6
CONTINUOUS
 62
     7
 10
539.24723340880678
 20
667.18274162843693
 30
0.0
  0
VERTEX
  5
9DA
  8
DATA
  6
CONTINUOUS
 62
     7
 10
539.24723340880678
 20
665.65274162843673
 30
0.0
  0
VERTEX
  5
9DB
  8
DATA
  6
CONTINUOUS
 62
     7
 10
537.71723340880681
 20
665.65274162843673
 30
0.0
  0
SEQEND
  5
9DC
  8
DATA
  6
CONTINUOUS
 62
     7
  0
POLYLINE
  5
32E
  8
DATA
  6
CONTINUOUS
 62
     7
 66
     1
 10
0.0
 20
0.0
 30
0.0
 70
     1
  0
VERTEX
  5
9DD
  8
DATA
  6
CONTINUOUS
 62
     7
 10
535.71723340880681
 20
667.18274162843693
 30
0.0
  0
VERTEX
  5
9DE
  8
DATA
  6
CONTINUOUS
 62
     7
 10
537.24723340880689
 20
667.18274162843693
 30
0.0
  0
VERTEX
  5
9DF
  8
DATA
  6
CONTINUOUS
 62
     7
 10
537.24723340880689
 20
665.65274162843673
 30
0.0
  0
VERTEX
  5
9E0
  8
DATA
  6
CONTINUOUS
 62
     7
 10
535.71723340880681
 20
665.65274162843673
 30
0.0
  0
SEQEND
  5
9E1
  8
DATA
  6
CONTINUOUS
 62
     7
  0
POLYLINE
  5
335
  8
DATA
  6
CONTINUOUS
 62
     7
 66
     1
 10
0.0
 20
0.0
 30
0.0
 70
     1
  0
VERTEX
  5
9E2
  8
DATA
  6
CONTINUOUS
 62
     7
 10
533.71723340880681
 20
667.18274162843693
 30
0.0
  0
VERTEX
  5
9E3
  8
DATA
  6
CONTINUOUS
 62
     7
 10
535.24723340880678
 20
667.18274162843693
 30
0.0
  0
VERTEX
  5
9E4
  8
DATA
  6
CONTINUOUS
 62
     7
 10
535.24723340880678
 20
665.65274162843673
 30
0.0
  0
VERTEX
  5
9E5
  8
DATA
  6
CONTINUOUS
 62
     7
 10
533.71723340880681
 20
665.65274162843673
 30
0.0
  0
SEQEND
  5
9E6
  8
DATA
  6
CONTINUOUS
 62
     7
  0
POLYLINE
  5
33C
  8
DATA
  6
CONTINUOUS
 62
     7
 66
     1
 10
0.0
 20
0.0
 30
0.0
 70
     1
  0
VERTEX
  5
9E7
  8
DATA
  6
CONTINUOUS
 62
     7
 10
531.71723340880646
 20
667.18274162843693
 30
0.0
  0
VERTEX
  5
9E8
  8
DATA
  6
CONTINUOUS
 62
     7
 10
533.24723340880689
 20
667.18274162843693
 30
0.0
  0
VERTEX
  5
9E9
  8
DATA
  6
CONTINUOUS
 62
     7
 10
533.24723340880689
 20
665.65274162843673
 30
0.0
  0
VERTEX
  5
9EA
  8
DATA
  6
CONTINUOUS
 62
     7
 10
531.71723340880646
 20
665.65274162843673
 30
0.0
  0
SEQEND
  5
9EB
  8
DATA
  6
CONTINUOUS
 62
     7
  0
POLYLINE
  5
343
  8
DATA
  6
CONTINUOUS
 62
     7
 66
     1
 10
0.0
 20
0.0
 30
0.0
 70
     1
  0
VERTEX
  5
9EC
  8
DATA
  6
CONTINUOUS
 62
     7
 10
529.71723340880601
 20
667.18274162843693
 30
0.0
  0
VERTEX
  5
9ED
  8
DATA
  6
CONTINUOUS
 62
     7
 10
531.24723340880655
 20
667.18274162843693
 30
0.0
  0
VERTEX
  5
9EE
  8
DATA
  6
CONTINUOUS
 62
     7
 10
531.24723340880655
 20
665.65274162843673
 30
0.0
  0
VERTEX
  5
9EF
  8
DATA
  6
CONTINUOUS
 62
     7
 10
529.71723340880601
 20
665.65274162843673
 30
0.0
  0
SEQEND
  5
9F0
  8
DATA
  6
CONTINUOUS
 62
     7
  0
POLYLINE
  5
34A
  8
DATA
  6
CONTINUOUS
 62
     7
 66
     1
 10
0.0
 20
0.0
 30
0.0
 70
     1
  0
VERTEX
  5
9F1
  8
DATA
  6
CONTINUOUS
 62
     7
 10
527.71723340880555
 20
667.18274162843693
 30
0.0
  0
VERTEX
  5
9F2
  8
DATA
  6
CONTINUOUS
 62
     7
 10
529.24723340880587
 20
667.18274162843693
 30
0.0
  0
VERTEX
  5
9F3
  8
DATA
  6
CONTINUOUS
 62
     7
 10
529.24723340880587
 20
665.65274162843673
 30
0.0
  0
VERTEX
  5
9F4
  8
DATA
  6
CONTINUOUS
 62
     7
 10
527.71723340880555
 20
665.65274162843673
 30
0.0
  0
SEQEND
  5
9F5
  8
DATA
  6
CONTINUOUS
 62
     7
  0
POLYLINE
  5
351
  8
DATA
  6
CONTINUOUS
 62
     7
 66
     1
 10
0.0
 20
0.0
 30
0.0
 70
     1
  0
VERTEX
  5
9F6
  8
DATA
  6
CONTINUOUS
 62
     7
 10
541.71723340880681
 20
665.18274162843659
 30
0.0
  0
VERTEX
  5
9F7
  8
DATA
  6
CONTINUOUS
 62
     7
 10
543.24723340880678
 20
665.18274162843659
 30
0.0
  0
VERTEX
  5
9F8
  8
DATA
  6
CONTINUOUS
 62
     7
 10
543.24723340880678
 20
663.65274162843673
 30
0.0
  0
VERTEX
  5
9F9
  8
DATA
  6
CONTINUOUS
 62
     7
 10
541.71723340880681
 20
663.65274162843673
 30
0.0
  0
SEQEND
  5
9FA
  8
DATA
  6
CONTINUOUS
 62
     7
  0
POLYLINE
  5
358
  8
DATA
  6
CONTINUOUS
 62
     7
 66
     1
 10
0.0
 20
0.0
 30
0.0
 70
     1
  0
VERTEX
  5
9FB
  8
DATA
  6
CONTINUOUS
 62
     7
 10
539.71723340880669
 20
665.18274162843659
 30
0.0
  0
VERTEX
  5
9FC
  8
DATA
  6
CONTINUOUS
 62
     7
 10
541.24723340880689
 20
665.18274162843659
 30
0.0
  0
VERTEX
  5
9FD
  8
DATA
  6
CONTINUOUS
 62
     7
 10
541.24723340880689
 20
663.65274162843673
 30
0.0
  0
VERTEX
  5
9FE
  8
DATA
  6
CONTINUOUS
 62
     7
 10
539.71723340880669
 20
663.65274162843673
 30
0.0
  0
SEQEND
  5
9FF
  8
DATA
  6
CONTINUOUS
 62
     7
  0
POLYLINE
  5
35F
  8
DATA
  6
CONTINUOUS
 62
     7
 66
     1
 10
0.0
 20
0.0
 30
0.0
 70
     1
  0
VERTEX
  5
A00
  8
DATA
  6
CONTINUOUS
 62
     7
 10
537.71723340880681
 20
665.18274162843659
 30
0.0
  0
VERTEX
  5
A01
  8
DATA
  6
CONTINUOUS
 62
     7
 10
539.24723340880678
 20
665.18274162843659
 30
0.0
  0
VERTEX
  5
A02
  8
DATA
  6
CONTINUOUS
 62
     7
 10
539.24723340880678
 20
663.65274162843673
 30
0.0
  0
VERTEX
  5
A03
  8
DATA
  6
CONTINUOUS
 62
     7
 10
537.71723340880681
 20
663.65274162843673
 30
0.0
  0
SEQEND
  5
A04
  8
DATA
  6
CONTINUOUS
 62
     7
  0
POLYLINE
  5
366
  8
DATA
  6
CONTINUOUS
 62
     7
 66
     1
 10
0.0
 20
0.0
 30
0.0
 70
     1
  0
VERTEX
  5
A05
  8
DATA
  6
CONTINUOUS
 62
     7
 10
535.71723340880681
 20
665.18274162843659
 30
0.0
  0
VERTEX
  5
A06
  8
DATA
  6
CONTINUOUS
 62
     7
 10
537.24723340880689
 20
665.18274162843659
 30
0.0
  0
VERTEX
  5
A07
  8
DATA
  6
CONTINUOUS
 62
     7
 10
537.24723340880689
 20
663.65274162843673
 30
0.0
  0
VERTEX
  5
A08
  8
DATA
  6
CONTINUOUS
 62
     7
 10
535.71723340880681
 20
663.65274162843673
 30
0.0
  0
SEQEND
  5
A09
  8
DATA
  6
CONTINUOUS
 62
     7
  0
POLYLINE
  5
36D
  8
DATA
  6
CONTINUOUS
 62
     7
 66
     1
 10
0.0
 20
0.0
 30
0.0
 70
     1
  0
VERTEX
  5
A0A
  8
DATA
  6
CONTINUOUS
 62
     7
 10
533.71723340880681
 20
665.18274162843659
 30
0.0
  0
VERTEX
  5
A0B
  8
DATA
  6
CONTINUOUS
 62
     7
 10
535.24723340880678
 20
665.18274162843659
 30
0.0
  0
VERTEX
  5
A0C
  8
DATA
  6
CONTINUOUS
 62
     7
 10
535.24723340880678
 20
663.65274162843673
 30
0.0
  0
VERTEX
  5
A0D
  8
DATA
  6
CONTINUOUS
 62
     7
 10
533.71723340880681
 20
663.65274162843673
 30
0.0
  0
SEQEND
  5
A0E
  8
DATA
  6
CONTINUOUS
 62
     7
  0
POLYLINE
  5
374
  8
DATA
  6
CONTINUOUS
 62
     7
 66
     1
 10
0.0
 20
0.0
 30
0.0
 70
     1
  0
VERTEX
  5
A0F
  8
DATA
  6
CONTINUOUS
 62
     7
 10
531.71723340880646
 20
665.18274162843659
 30
0.0
  0
VERTEX
  5
A10
  8
DATA
  6
CONTINUOUS
 62
     7
 10
533.24723340880689
 20
665.18274162843659
 30
0.0
  0
VERTEX
  5
A11
  8
DATA
  6
CONTINUOUS
 62
     7
 10
533.24723340880689
 20
663.65274162843673
 30
0.0
  0
VERTEX
  5
A12
  8
DATA
  6
CONTINUOUS
 62
     7
 10
531.71723340880646
 20
663.65274162843673
 30
0.0
  0
SEQEND
  5
A13
  8
DATA
  6
CONTINUOUS
 62
     7
  0
POLYLINE
  5
37B
  8
DATA
  6
CONTINUOUS
 62
     7
 66
     1
 10
0.0
 20
0.0
 30
0.0
 70
     1
  0
VERTEX
  5
A14
  8
DATA
  6
CONTINUOUS
 62
     7
 10
529.71723340880601
 20
665.18274162843659
 30
0.0
  0
VERTEX
  5
A15
  8
DATA
  6
CONTINUOUS
 62
     7
 10
531.24723340880655
 20
665.18274162843659
 30
0.0
  0
VERTEX
  5
A16
  8
DATA
  6
CONTINUOUS
 62
     7
 10
531.24723340880655
 20
663.65274162843673
 30
0.0
  0
VERTEX
  5
A17
  8
DATA
  6
CONTINUOUS
 62
     7
 10
529.71723340880601
 20
663.65274162843673
 30
0.0
  0
SEQEND
  5
A18
  8
DATA
  6
CONTINUOUS
 62
     7
  0
POLYLINE
  5
382
  8
DATA
  6
CONTINUOUS
 62
     7
 66
     1
 10
0.0
 20
0.0
 30
0.0
 70
     1
  0
VERTEX
  5
A19
  8
DATA
  6
CONTINUOUS
 62
     7
 10
527.71723340880555
 20
665.18274162843659
 30
0.0
  0
VERTEX
  5
A1A
  8
DATA
  6
CONTINUOUS
 62
     7
 10
529.24723340880587
 20
665.18274162843659
 30
0.0
  0
VERTEX
  5
A1B
  8
DATA
  6
CONTINUOUS
 62
     7
 10
529.24723340880587
 20
663.65274162843673
 30
0.0
  0
VERTEX
  5
A1C
  8
DATA
  6
CONTINUOUS
 62
     7
 10
527.71723340880555
 20
663.65274162843673
 30
0.0
  0
SEQEND
  5
A1D
  8
DATA
  6
CONTINUOUS
 62
     7
  0
POLYLINE
  5
389
  8
DATA
  6
CONTINUOUS
 62
     7
 66
     1
 10
0.0
 20
0.0
 30
0.0
 70
     1
  0
VERTEX
  5
A1E
  8
DATA
  6
CONTINUOUS
 62
     7
 10
541.71723340880681
 20
669.18274162843693
 30
0.0
  0
VERTEX
  5
A1F
  8
DATA
  6
CONTINUOUS
 62
     7
 10
543.24723340880678
 20
669.18274162843693
 30
0.0
  0
VERTEX
  5
A20
  8
DATA
  6
CONTINUOUS
 62
     7
 10
543.24723340880678
 20
667.65274162843696
 30
0.0
  0
VERTEX
  5
A21
  8
DATA
  6
CONTINUOUS
 62
     7
 10
541.71723340880681
 20
667.65274162843696
 30
0.0
  0
SEQEND
  5
A22
  8
DATA
  6
CONTINUOUS
 62
     7
  0
POLYLINE
  5
390
  8
DATA
  6
CONTINUOUS
 62
     7
 66
     1
 10
0.0
 20
0.0
 30
0.0
 70
     1
  0
VERTEX
  5
A23
  8
DATA
  6
CONTINUOUS
 62
     7
 10
539.71723340880669
 20
669.18274162843693
 30
0.0
  0
VERTEX
  5
A24
  8
DATA
  6
CONTINUOUS
 62
     7
 10
541.24723340880689
 20
669.18274162843693
 30
0.0
  0
VERTEX
  5
A25
  8
DATA
  6
CONTINUOUS
 62
     7
 10
541.24723340880689
 20
667.65274162843696
 30
0.0
  0
VERTEX
  5
A26
  8
DATA
  6
CONTINUOUS
 62
     7
 10
539.71723340880669
 20
667.65274162843696
 30
0.0
  0
SEQEND
  5
A27
  8
DATA
  6
CONTINUOUS
 62
     7
  0
POLYLINE
  5
397
  8
DATA
  6
CONTINUOUS
 62
     7
 66
     1
 10
0.0
 20
0.0
 30
0.0
 70
     1
  0
VERTEX
  5
A28
  8
DATA
  6
CONTINUOUS
 62
     7
 10
537.71723340880681
 20
669.18274162843693
 30
0.0
  0
VERTEX
  5
A29
  8
DATA
  6
CONTINUOUS
 62
     7
 10
539.24723340880678
 20
669.18274162843693
 30
0.0
  0
VERTEX
  5
A2A
  8
DATA
  6
CONTINUOUS
 62
     7
 10
539.24723340880678
 20
667.65274162843696
 30
0.0
  0
VERTEX
  5
A2B
  8
DATA
  6
CONTINUOUS
 62
     7
 10
537.71723340880681
 20
667.65274162843696
 30
0.0
  0
SEQEND
  5
A2C
  8
DATA
  6
CONTINUOUS
 62
     7
  0
POLYLINE
  5
39E
  8
DATA
  6
CONTINUOUS
 62
     7
 66
     1
 10
0.0
 20
0.0
 30
0.0
 70
     1
  0
VERTEX
  5
A2D
  8
DATA
  6
CONTINUOUS
 62
     7
 10
535.71723340880681
 20
669.18274162843693
 30
0.0
  0
VERTEX
  5
A2E
  8
DATA
  6
CONTINUOUS
 62
     7
 10
537.24723340880689
 20
669.18274162843693
 30
0.0
  0
VERTEX
  5
A2F
  8
DATA
  6
CONTINUOUS
 62
     7
 10
537.24723340880689
 20
667.65274162843696
 30
0.0
  0
VERTEX
  5
A30
  8
DATA
  6
CONTINUOUS
 62
     7
 10
535.71723340880681
 20
667.65274162843696
 30
0.0
  0
SEQEND
  5
A31
  8
DATA
  6
CONTINUOUS
 62
     7
  0
POLYLINE
  5
3A5
  8
DATA
  6
CONTINUOUS
 62
     7
 66
     1
 10
0.0
 20
0.0
 30
0.0
 70
     1
  0
VERTEX
  5
A32
  8
DATA
  6
CONTINUOUS
 62
     7
 10
533.71723340880681
 20
669.18274162843693
 30
0.0
  0
VERTEX
  5
A33
  8
DATA
  6
CONTINUOUS
 62
     7
 10
535.24723340880678
 20
669.18274162843693
 30
0.0
  0
VERTEX
  5
A34
  8
DATA
  6
CONTINUOUS
 62
     7
 10
535.24723340880678
 20
667.65274162843696
 30
0.0
  0
VERTEX
  5
A35
  8
DATA
  6
CONTINUOUS
 62
     7
 10
533.71723340880681
 20
667.65274162843696
 30
0.0
  0
SEQEND
  5
A36
  8
DATA
  6
CONTINUOUS
 62
     7
  0
POLYLINE
  5
3AC
  8
DATA
  6
CONTINUOUS
 62
     7
 66
     1
 10
0.0
 20
0.0
 30
0.0
 70
     1
  0
VERTEX
  5
A37
  8
DATA
  6
CONTINUOUS
 62
     7
 10
531.71723340880646
 20
669.18274162843693
 30
0.0
  0
VERTEX
  5
A38
  8
DATA
  6
CONTINUOUS
 62
     7
 10
533.24723340880689
 20
669.18274162843693
 30
0.0
  0
VERTEX
  5
A39
  8
DATA
  6
CONTINUOUS
 62
     7
 10
533.24723340880689
 20
667.65274162843696
 30
0.0
  0
VERTEX
  5
A3A
  8
DATA
  6
CONTINUOUS
 62
     7
 10
531.71723340880646
 20
667.65274162843696
 30
0.0
  0
SEQEND
  5
A3B
  8
DATA
  6
CONTINUOUS
 62
     7
  0
POLYLINE
  5
3B3
  8
DATA
  6
CONTINUOUS
 62
     7
 66
     1
 10
0.0
 20
0.0
 30
0.0
 70
     1
  0
VERTEX
  5
A3C
  8
DATA
  6
CONTINUOUS
 62
     7
 10
529.71723340880601
 20
669.18274162843693
 30
0.0
  0
VERTEX
  5
A3D
  8
DATA
  6
CONTINUOUS
 62
     7
 10
531.24723340880655
 20
669.18274162843693
 30
0.0
  0
VERTEX
  5
A3E
  8
DATA
  6
CONTINUOUS
 62
     7
 10
531.24723340880655
 20
667.65274162843696
 30
0.0
  0
VERTEX
  5
A3F
  8
DATA
  6
CONTINUOUS
 62
     7
 10
529.71723340880601
 20
667.65274162843696
 30
0.0
  0
SEQEND
  5
A40
  8
DATA
  6
CONTINUOUS
 62
     7
  0
POLYLINE
  5
3BA
  8
DATA
  6
CONTINUOUS
 62
     7
 66
     1
 10
0.0
 20
0.0
 30
0.0
 70
     1
  0
VERTEX
  5
A41
  8
DATA
  6
CONTINUOUS
 62
     7
 10
527.71723340880555
 20
669.18274162843693
 30
0.0
  0
VERTEX
  5
A42
  8
DATA
  6
CONTINUOUS
 62
     7
 10
529.24723340880587
 20
669.18274162843693
 30
0.0
  0
VERTEX
  5
A43
  8
DATA
  6
CONTINUOUS
 62
     7
 10
529.24723340880587
 20
667.65274162843696
 30
0.0
  0
VERTEX
  5
A44
  8
DATA
  6
CONTINUOUS
 62
     7
 10
527.71723340880555
 20
667.65274162843696
 30
0.0
  0
SEQEND
  5
A45
  8
DATA
  6
CONTINUOUS
 62
     7
  0
POLYLINE
  5
3C1
  8
DATA
  6
CONTINUOUS
 62
     7
 66
     1
 10
0.0
 20
0.0
 30
0.0
  0
VERTEX
  5
A46
  8
DATA
  6
CONTINUOUS
 62
     7
 10
523.69716723762565
 20
666.01774162843685
 30
0.0
  0
VERTEX
  5
A47
  8
DATA
  6
CONTINUOUS
 62
     7
 10
521.59716723762563
 20
666.01774162843685
 30
0.0
  0
VERTEX
  5
A48
  8
DATA
  6
CONTINUOUS
 62
     7
 10
521.59716723762563
 20
666.81774162843692
 30
0.0
  0
VERTEX
  5
A49
  8
DATA
  6
CONTINUOUS
 62
     7
 10
523.69716723762565
 20
666.81774162843692
 30
0.0
  0
SEQEND
  5
A4A
  8
DATA
  6
CONTINUOUS
 62
     7
  0
POLYLINE
  5
3C8
  8
DATA
  6
CONTINUOUS
 62
     7
 66
     1
 10
0.0
 20
0.0
 30
0.0
  0
VERTEX
  5
A4B
  8
DATA
  6
CONTINUOUS
 62
     7
 10
524.4971672376256
 20
666.81774162843692
 30
0.0
  0
VERTEX
  5
A4C
  8
DATA
  6
CONTINUOUS
 62
     7
 10
526.59716723762597
 20
666.81774162843692
 30
0.0
  0
VERTEX
  5
A4D
  8
DATA
  6
CONTINUOUS
 62
     7
 10
526.59716723762597
 20
666.01774162843685
 30
0.0
  0
VERTEX
  5
A4E
  8
DATA
  6
CONTINUOUS
 62
     7
 10
524.4971672376256
 20
666.01774162843685
 30
0.0
  0
SEQEND
  5
A4F
  8
DATA
  6
CONTINUOUS
 62
     7
  0
POLYLINE
  5
3CF
  8
DATA
  6
CONTINUOUS
 62
     7
 66
     1
 10
0.0
 20
0.0
 30
0.0
  0
VERTEX
  5
A50
  8
DATA
  6
CONTINUOUS
 62
     7
 10
523.69716723762565
 20
666.81774162843692
 30
0.0
  0
VERTEX
  5
A51
  8
DATA
  6
CONTINUOUS
 62
     7
 10
523.69716723762565
 20
668.91774162843694
 30
0.0
  0
VERTEX
  5
A52
  8
DATA
  6
CONTINUOUS
 62
     7
 10
524.4971672376256
 20
668.91774162843694
 30
0.0
  0
VERTEX
  5
A53
  8
DATA
  6
CONTINUOUS
 62
     7
 10
524.4971672376256
 20
666.81774162843692
 30
0.0
  0
SEQEND
  5
A54
  8
DATA
  6
CONTINUOUS
 62
     7
  0
POLYLINE
  5
3D6
  8
DATA
  6
CONTINUOUS
 62
     7
 66
     1
 10
0.0
 20
0.0
 30
0.0
  0
VERTEX
  5
A55
  8
DATA
  6
CONTINUOUS
 62
     7
 10
524.4971672376256
 20
666.01774162843685
 30
0.0
  0
VERTEX
  5
A56
  8
DATA
  6
CONTINUOUS
 62
     7
 10
524.4971672376256
 20
663.91774162843672
 30
0.0
  0
VERTEX
  5
A57
  8
DATA
  6
CONTINUOUS
 62
     7
 10
523.69716723762565
 20
663.91774162843672
 30
0.0
  0
VERTEX
  5
A58
  8
DATA
  6
CONTINUOUS
 62
     7
 10
523.69716723762565
 20
666.01774162843685
 30
0.0
  0
SEQEND
  5
A59
  8
DATA
  6
CONTINUOUS
 62
     7
  0
POLYLINE
  5
3DD
  8
DATA
  6
CONTINUOUS
 62
     7
 66
     1
 10
0.0
 20
0.0
 30
0.0
 70
     1
  0
VERTEX
  5
A5A
  8
DATA
  6
CONTINUOUS
 62
     7
 10
524.95745166809741
 20
665.65831381778685
 30
0.0
  0
VERTEX
  5
A5B
  8
DATA
  6
CONTINUOUS
 62
     7
 10
525.95745166809752
 20
665.65831381778685
 30
0.0
  0
VERTEX
  5
A5C
  8
DATA
  6
CONTINUOUS
 62
     7
 10
525.95745166809752
 20
664.65831381778685
 30
0.0
  0
VERTEX
  5
A5D
  8
DATA
  6
CONTINUOUS
 62
     7
 10
524.95745166809741
 20
664.65831381778685
 30
0.0
  0
SEQEND
  5
A5E
  8
DATA
  6
CONTINUOUS
 62
     7
  0
POLYLINE
  5
3E4
  8
DATA
  6
CONTINUOUS
 62
     7
 66
     1
 10
0.0
 20
0.0
 30
0.0
 70
     1
  0
VERTEX
  5
A5F
  8
DATA
  6
CONTINUOUS
 62
     7
 10
522.23688280715385
 20
665.65831381778685
 30
0.0
  0
VERTEX
  5
A60
  8
DATA
  6
CONTINUOUS
 62
     7
 10
523.23688280715385
 20
665.65831381778685
 30
0.0
  0
VERTEX
  5
A61
  8
DATA
  6
CONTINUOUS
 62
     7
 10
523.23688280715385
 20
664.65831381778685
 30
0.0
  0
VERTEX
  5
A62
  8
DATA
  6
CONTINUOUS
 62
     7
 10
522.23688280715385
 20
664.65831381778685
 30
0.0
  0
SEQEND
  5
A63
  8
DATA
  6
CONTINUOUS
 62
     7
  0
POLYLINE
  5
3EB
  8
DATA
  6
CONTINUOUS
 62
     7
 66
     1
 10
0.0
 20
0.0
 30
0.0
 70
     1
  0
VERTEX
  5
A64
  8
DATA
  6
CONTINUOUS
 62
     7
 10
524.95745166809741
 20
668.1771694390867
 30
0.0
  0
VERTEX
  5
A65
  8
DATA
  6
CONTINUOUS
 62
     7
 10
525.95745166809752
 20
668.1771694390867
 30
0.0
  0
VERTEX
  5
A66
  8
DATA
  6
CONTINUOUS
 62
     7
 10
525.95745166809752
 20
667.17716943908681
 30
0.0
  0
VERTEX
  5
A67
  8
DATA
  6
CONTINUOUS
 62
     7
 10
524.95745166809741
 20
667.17716943908681
 30
0.0
  0
SEQEND
  5
A68
  8
DATA
  6
CONTINUOUS
 62
     7
  0
POLYLINE
  5
3F2
  8
DATA
  6
CONTINUOUS
 62
     7
 66
     1
 10
0.0
 20
0.0
 30
0.0
 70
     1
  0
VERTEX
  5
A69
  8
DATA
  6
CONTINUOUS
 62
     7
 10
522.23688280715385
 20
668.1771694390867
 30
0.0
  0
VERTEX
  5
A6A
  8
DATA
  6
CONTINUOUS
 62
     7
 10
523.23688280715385
 20
668.1771694390867
 30
0.0
  0
VERTEX
  5
A6B
  8
DATA
  6
CONTINUOUS
 62
     7
 10
523.23688280715385
 20
667.17716943908681
 30
0.0
  0
VERTEX
  5
A6C
  8
DATA
  6
CONTINUOUS
 62
     7
 10
522.23688280715385
 20
667.17716943908681
 30
0.0
  0
SEQEND
  5
A6D
  8
DATA
  6
CONTINUOUS
 62
     7
  0
LINE
  5
3F9
  8
DATA
  6
CONTINUOUS
 62
     7
 10
544.19253905557468
 20
663.58784993392317
 30
0.0
 11
543.63362185812241
 21
669.4378499339233
 31
0.0
  0
LINE
  5
3FA
  8
DATA
  6
CONTINUOUS
 62
     7
 10
520.30179541967846
 20
663.58784993392317
 30
0.0
 11
520.86071261713084
 21
669.4378499339233
 31
0.0
  0
ARC
  5
3FB
  8
DATA
  6
CONTINUOUS
 62
     7
 10
543.19707212481921
 20
663.49274162843676
 30
0.0
 40
1.0000000000000071
 50
270.0
 51
5.4575534851077228
  0
ARC
  5
3FC
  8
DATA
  6
CONTINUOUS
 62
     7
 10
521.29726235043393
 20
663.49274162843676
 30
0.0
 40
0.9999999999999754
 50
174.5424465148923
 51
270.0
  0
ARC
  5
3FD
  8
DATA
  6
CONTINUOUS
 62
     7
 10
542.63815492736705
 20
669.34274162843701
 30
0.0
 40
0.9999999999999754
 50
5.4575534851077103
 51
90.0
  0
ARC
  5
3FE
  8
DATA
  6
CONTINUOUS
 62
     7
 10
521.85617954788609
 20
669.34274162843701
 30
0.0
 40
1.0000000000000311
 50
90.0
 51
174.54244651489549
  0
CIRCLE
  5
3FF
  8
DATA
  6
CONTINUOUS
 62
     7
 10
505.49716723762759
 20
666.41774162843672
 30
0.0
 40
1.175000000000068
  0
POLYLINE
  5
400
  8
DATA
  6
CONTINUOUS
 62
     7
 66
     1
 10
0.0
 20
0.0
 30
0.0
 70
     1
  0
VERTEX
  5
A6E
  8
DATA
  6
CONTINUOUS
 62
     7
 10
505.49716723762759
 20
663.71774162843678
 30
0.0
  0
VERTEX
  5
A6F
  8
DATA
  6
CONTINUOUS
 62
     7
 10
507.8354358278454
 20
665.06774162843692
 30
0.0
  0
VERTEX
  5
A70
  8
DATA
  6
CONTINUOUS
 62
     7
 10
507.8354358278454
 20
667.76774162843685
 30
0.0
  0
VERTEX
  5
A71
  8
DATA
  6
CONTINUOUS
 62
     7
 10
505.49716723762759
 20
669.11774162843699
 30
0.0
  0
VERTEX
  5
A72
  8
DATA
  6
CONTINUOUS
 62
     7
 10
503.15889864740961
 20
667.76774162843685
 30
0.0
  0
VERTEX
  5
A73
  8
DATA
  6
CONTINUOUS
 62
     7
 10
503.15889864740961
 20
665.06774162843692
 30
0.0
  0
SEQEND
  5
A74
  8
DATA
  6
CONTINUOUS
 62
     7
  0
CIRCLE
  5
409
  8
DATA
  6
CONTINUOUS
 62
     7
 10
472.99716723762577
 20
666.41774162843672
 30
0.0
 40
1.175000000000068
  0
POLYLINE
  5
40A
  8
DATA
  6
CONTINUOUS
 62
     7
 66
     1
 10
0.0
 20
0.0
 30
0.0
 70
     1
  0
VERTEX
  5
A75
  8
DATA
  6
CONTINUOUS
 62
     7
 10
472.99716723762577
 20
663.71774162843678
 30
0.0
  0
VERTEX
  5
A76
  8
DATA
  6
CONTINUOUS
 62
     7
 10
475.3354358278437
 20
665.06774162843692
 30
0.0
  0
VERTEX
  5
A77
  8
DATA
  6
CONTINUOUS
 62
     7
 10
475.3354358278437
 20
667.76774162843685
 30
0.0
  0
VERTEX
  5
A78
  8
DATA
  6
CONTINUOUS
 62
     7
 10
472.99716723762577
 20
669.11774162843699
 30
0.0
  0
VERTEX
  5
A79
  8
DATA
  6
CONTINUOUS
 62
     7
 10
470.65889864740791
 20
667.76774162843685
 30
0.0
  0
VERTEX
  5
A7A
  8
DATA
  6
CONTINUOUS
 62
     7
 10
470.65889864740791
 20
665.06774162843692
 30
0.0
  0
SEQEND
  5
A7B
  8
DATA
  6
CONTINUOUS
 62
     7
  0
LINE
  5
413
  8
DATA
  6
CONTINUOUS
 62
     7
 10
500.19707212481921
 20
662.49274162843665
 30
0.0
 11
478.29726235043398
 21
662.49274162843665
 31
0.0
  0
LINE
  5
414
  8
DATA
  6
CONTINUOUS
 62
     7
 10
478.8561795478862
 20
670.34274162843701
 30
0.0
 11
499.63815492736711
 21
670.34274162843701
 31
0.0
  0
POLYLINE
  5
415
  8
DATA
  6
CONTINUOUS
 62
     7
 66
     1
 10
0.0
 20
0.0
 30
0.0
 70
     1
  0
VERTEX
  5
A7C
  8
DATA
  6
CONTINUOUS
 62
     7
 10
498.71723340880681
 20
667.18274162843693
 30
0.0
  0
VERTEX
  5
A7D
  8
DATA
  6
CONTINUOUS
 62
     7
 10
500.24723340880678
 20
667.18274162843693
 30
0.0
  0
VERTEX
  5
A7E
  8
DATA
  6
CONTINUOUS
 62
     7
 10
500.24723340880678
 20
665.65274162843673
 30
0.0
  0
VERTEX
  5
A7F
  8
DATA
  6
CONTINUOUS
 62
     7
 10
498.71723340880681
 20
665.65274162843673
 30
0.0
  0
SEQEND
  5
A80
  8
DATA
  6
CONTINUOUS
 62
     7
  0
POLYLINE
  5
41C
  8
DATA
  6
CONTINUOUS
 62
     7
 66
     1
 10
0.0
 20
0.0
 30
0.0
 70
     1
  0
VERTEX
  5
A81
  8
DATA
  6
CONTINUOUS
 62
     7
 10
496.71723340880681
 20
667.18274162843693
 30
0.0
  0
VERTEX
  5
A82
  8
DATA
  6
CONTINUOUS
 62
     7
 10
498.24723340880678
 20
667.18274162843693
 30
0.0
  0
VERTEX
  5
A83
  8
DATA
  6
CONTINUOUS
 62
     7
 10
498.24723340880678
 20
665.65274162843673
 30
0.0
  0
VERTEX
  5
A84
  8
DATA
  6
CONTINUOUS
 62
     7
 10
496.71723340880681
 20
665.65274162843673
 30
0.0
  0
SEQEND
  5
A85
  8
DATA
  6
CONTINUOUS
 62
     7
  0
POLYLINE
  5
423
  8
DATA
  6
CONTINUOUS
 62
     7
 66
     1
 10
0.0
 20
0.0
 30
0.0
 70
     1
  0
VERTEX
  5
A86
  8
DATA
  6
CONTINUOUS
 62
     7
 10
494.71723340880681
 20
667.18274162843693
 30
0.0
  0
VERTEX
  5
A87
  8
DATA
  6
CONTINUOUS
 62
     7
 10
496.24723340880678
 20
667.18274162843693
 30
0.0
  0
VERTEX
  5
A88
  8
DATA
  6
CONTINUOUS
 62
     7
 10
496.24723340880678
 20
665.65274162843673
 30
0.0
  0
VERTEX
  5
A89
  8
DATA
  6
CONTINUOUS
 62
     7
 10
494.71723340880681
 20
665.65274162843673
 30
0.0
  0
SEQEND
  5
A8A
  8
DATA
  6
CONTINUOUS
 62
     7
  0
POLYLINE
  5
42A
  8
DATA
  6
CONTINUOUS
 62
     7
 66
     1
 10
0.0
 20
0.0
 30
0.0
 70
     1
  0
VERTEX
  5
A8B
  8
DATA
  6
CONTINUOUS
 62
     7
 10
492.71723340880681
 20
667.18274162843693
 30
0.0
  0
VERTEX
  5
A8C
  8
DATA
  6
CONTINUOUS
 62
     7
 10
494.24723340880678
 20
667.18274162843693
 30
0.0
  0
VERTEX
  5
A8D
  8
DATA
  6
CONTINUOUS
 62
     7
 10
494.24723340880678
 20
665.65274162843673
 30
0.0
  0
VERTEX
  5
A8E
  8
DATA
  6
CONTINUOUS
 62
     7
 10
492.71723340880681
 20
665.65274162843673
 30
0.0
  0
SEQEND
  5
A8F
  8
DATA
  6
CONTINUOUS
 62
     7
  0
POLYLINE
  5
431
  8
DATA
  6
CONTINUOUS
 62
     7
 66
     1
 10
0.0
 20
0.0
 30
0.0
 70
     1
  0
VERTEX
  5
A90
  8
DATA
  6
CONTINUOUS
 62
     7
 10
490.71723340880681
 20
667.18274162843693
 30
0.0
  0
VERTEX
  5
A91
  8
DATA
  6
CONTINUOUS
 62
     7
 10
492.24723340880678
 20
667.18274162843693
 30
0.0
  0
VERTEX
  5
A92
  8
DATA
  6
CONTINUOUS
 62
     7
 10
492.24723340880678
 20
665.65274162843673
 30
0.0
  0
VERTEX
  5
A93
  8
DATA
  6
CONTINUOUS
 62
     7
 10
490.71723340880681
 20
665.65274162843673
 30
0.0
  0
SEQEND
  5
A94
  8
DATA
  6
CONTINUOUS
 62
     7
  0
POLYLINE
  5
438
  8
DATA
  6
CONTINUOUS
 62
     7
 66
     1
 10
0.0
 20
0.0
 30
0.0
 70
     1
  0
VERTEX
  5
A95
  8
DATA
  6
CONTINUOUS
 62
     7
 10
488.71723340880658
 20
667.18274162843693
 30
0.0
  0
VERTEX
  5
A96
  8
DATA
  6
CONTINUOUS
 62
     7
 10
490.24723340880678
 20
667.18274162843693
 30
0.0
  0
VERTEX
  5
A97
  8
DATA
  6
CONTINUOUS
 62
     7
 10
490.24723340880678
 20
665.65274162843673
 30
0.0
  0
VERTEX
  5
A98
  8
DATA
  6
CONTINUOUS
 62
     7
 10
488.71723340880658
 20
665.65274162843673
 30
0.0
  0
SEQEND
  5
A99
  8
DATA
  6
CONTINUOUS
 62
     7
  0
POLYLINE
  5
43F
  8
DATA
  6
CONTINUOUS
 62
     7
 66
     1
 10
0.0
 20
0.0
 30
0.0
 70
     1
  0
VERTEX
  5
A9A
  8
DATA
  6
CONTINUOUS
 62
     7
 10
486.71723340880618
 20
667.18274162843693
 30
0.0
  0
VERTEX
  5
A9B
  8
DATA
  6
CONTINUOUS
 62
     7
 10
488.24723340880649
 20
667.18274162843693
 30
0.0
  0
VERTEX
  5
A9C
  8
DATA
  6
CONTINUOUS
 62
     7
 10
488.24723340880649
 20
665.65274162843673
 30
0.0
  0
VERTEX
  5
A9D
  8
DATA
  6
CONTINUOUS
 62
     7
 10
486.71723340880618
 20
665.65274162843673
 30
0.0
  0
SEQEND
  5
A9E
  8
DATA
  6
CONTINUOUS
 62
     7
  0
POLYLINE
  5
446
  8
DATA
  6
CONTINUOUS
 62
     7
 66
     1
 10
0.0
 20
0.0
 30
0.0
 70
     1
  0
VERTEX
  5
A9F
  8
DATA
  6
CONTINUOUS
 62
     7
 10
484.71723340880561
 20
667.18274162843693
 30
0.0
  0
VERTEX
  5
AA0
  8
DATA
  6
CONTINUOUS
 62
     7
 10
486.24723340880593
 20
667.18274162843693
 30
0.0
  0
VERTEX
  5
AA1
  8
DATA
  6
CONTINUOUS
 62
     7
 10
486.24723340880593
 20
665.65274162843673
 30
0.0
  0
VERTEX
  5
AA2
  8
DATA
  6
CONTINUOUS
 62
     7
 10
484.71723340880561
 20
665.65274162843673
 30
0.0
  0
SEQEND
  5
AA3
  8
DATA
  6
CONTINUOUS
 62
     7
  0
POLYLINE
  5
44D
  8
DATA
  6
CONTINUOUS
 62
     7
 66
     1
 10
0.0
 20
0.0
 30
0.0
 70
     1
  0
VERTEX
  5
AA4
  8
DATA
  6
CONTINUOUS
 62
     7
 10
498.71723340880681
 20
665.18274162843659
 30
0.0
  0
VERTEX
  5
AA5
  8
DATA
  6
CONTINUOUS
 62
     7
 10
500.24723340880678
 20
665.18274162843659
 30
0.0
  0
VERTEX
  5
AA6
  8
DATA
  6
CONTINUOUS
 62
     7
 10
500.24723340880678
 20
663.65274162843673
 30
0.0
  0
VERTEX
  5
AA7
  8
DATA
  6
CONTINUOUS
 62
     7
 10
498.71723340880681
 20
663.65274162843673
 30
0.0
  0
SEQEND
  5
AA8
  8
DATA
  6
CONTINUOUS
 62
     7
  0
POLYLINE
  5
454
  8
DATA
  6
CONTINUOUS
 62
     7
 66
     1
 10
0.0
 20
0.0
 30
0.0
 70
     1
  0
VERTEX
  5
AA9
  8
DATA
  6
CONTINUOUS
 62
     7
 10
496.71723340880681
 20
665.18274162843659
 30
0.0
  0
VERTEX
  5
AAA
  8
DATA
  6
CONTINUOUS
 62
     7
 10
498.24723340880678
 20
665.18274162843659
 30
0.0
  0
VERTEX
  5
AAB
  8
DATA
  6
CONTINUOUS
 62
     7
 10
498.24723340880678
 20
663.65274162843673
 30
0.0
  0
VERTEX
  5
AAC
  8
DATA
  6
CONTINUOUS
 62
     7
 10
496.71723340880681
 20
663.65274162843673
 30
0.0
  0
SEQEND
  5
AAD
  8
DATA
  6
CONTINUOUS
 62
     7
  0
POLYLINE
  5
45B
  8
DATA
  6
CONTINUOUS
 62
     7
 66
     1
 10
0.0
 20
0.0
 30
0.0
 70
     1
  0
VERTEX
  5
AAE
  8
DATA
  6
CONTINUOUS
 62
     7
 10
494.71723340880681
 20
665.18274162843659
 30
0.0
  0
VERTEX
  5
AAF
  8
DATA
  6
CONTINUOUS
 62
     7
 10
496.24723340880678
 20
665.18274162843659
 30
0.0
  0
VERTEX
  5
AB0
  8
DATA
  6
CONTINUOUS
 62
     7
 10
496.24723340880678
 20
663.65274162843673
 30
0.0
  0
VERTEX
  5
AB1
  8
DATA
  6
CONTINUOUS
 62
     7
 10
494.71723340880681
 20
663.65274162843673
 30
0.0
  0
SEQEND
  5
AB2
  8
DATA
  6
CONTINUOUS
 62
     7
  0
POLYLINE
  5
462
  8
DATA
  6
CONTINUOUS
 62
     7
 66
     1
 10
0.0
 20
0.0
 30
0.0
 70
     1
  0
VERTEX
  5
AB3
  8
DATA
  6
CONTINUOUS
 62
     7
 10
492.71723340880681
 20
665.18274162843659
 30
0.0
  0
VERTEX
  5
AB4
  8
DATA
  6
CONTINUOUS
 62
     7
 10
494.24723340880678
 20
665.18274162843659
 30
0.0
  0
VERTEX
  5
AB5
  8
DATA
  6
CONTINUOUS
 62
     7
 10
494.24723340880678
 20
663.65274162843673
 30
0.0
  0
VERTEX
  5
AB6
  8
DATA
  6
CONTINUOUS
 62
     7
 10
492.71723340880681
 20
663.65274162843673
 30
0.0
  0
SEQEND
  5
AB7
  8
DATA
  6
CONTINUOUS
 62
     7
  0
POLYLINE
  5
469
  8
DATA
  6
CONTINUOUS
 62
     7
 66
     1
 10
0.0
 20
0.0
 30
0.0
 70
     1
  0
VERTEX
  5
AB8
  8
DATA
  6
CONTINUOUS
 62
     7
 10
490.71723340880681
 20
665.18274162843659
 30
0.0
  0
VERTEX
  5
AB9
  8
DATA
  6
CONTINUOUS
 62
     7
 10
492.24723340880678
 20
665.18274162843659
 30
0.0
  0
VERTEX
  5
ABA
  8
DATA
  6
CONTINUOUS
 62
     7
 10
492.24723340880678
 20
663.65274162843673
 30
0.0
  0
VERTEX
  5
ABB
  8
DATA
  6
CONTINUOUS
 62
     7
 10
490.71723340880681
 20
663.65274162843673
 30
0.0
  0
SEQEND
  5
ABC
  8
DATA
  6
CONTINUOUS
 62
     7
  0
POLYLINE
  5
470
  8
DATA
  6
CONTINUOUS
 62
     7
 66
     1
 10
0.0
 20
0.0
 30
0.0
 70
     1
  0
VERTEX
  5
ABD
  8
DATA
  6
CONTINUOUS
 62
     7
 10
488.71723340880658
 20
665.18274162843659
 30
0.0
  0
VERTEX
  5
ABE
  8
DATA
  6
CONTINUOUS
 62
     7
 10
490.24723340880678
 20
665.18274162843659
 30
0.0
  0
VERTEX
  5
ABF
  8
DATA
  6
CONTINUOUS
 62
     7
 10
490.24723340880678
 20
663.65274162843673
 30
0.0
  0
VERTEX
  5
AC0
  8
DATA
  6
CONTINUOUS
 62
     7
 10
488.71723340880658
 20
663.65274162843673
 30
0.0
  0
SEQEND
  5
AC1
  8
DATA
  6
CONTINUOUS
 62
     7
  0
POLYLINE
  5
477
  8
DATA
  6
CONTINUOUS
 62
     7
 66
     1
 10
0.0
 20
0.0
 30
0.0
 70
     1
  0
VERTEX
  5
AC2
  8
DATA
  6
CONTINUOUS
 62
     7
 10
486.71723340880618
 20
665.18274162843659
 30
0.0
  0
VERTEX
  5
AC3
  8
DATA
  6
CONTINUOUS
 62
     7
 10
488.24723340880649
 20
665.18274162843659
 30
0.0
  0
VERTEX
  5
AC4
  8
DATA
  6
CONTINUOUS
 62
     7
 10
488.24723340880649
 20
663.65274162843673
 30
0.0
  0
VERTEX
  5
AC5
  8
DATA
  6
CONTINUOUS
 62
     7
 10
486.71723340880618
 20
663.65274162843673
 30
0.0
  0
SEQEND
  5
AC6
  8
DATA
  6
CONTINUOUS
 62
     7
  0
POLYLINE
  5
47E
  8
DATA
  6
CONTINUOUS
 62
     7
 66
     1
 10
0.0
 20
0.0
 30
0.0
 70
     1
  0
VERTEX
  5
AC7
  8
DATA
  6
CONTINUOUS
 62
     7
 10
484.71723340880561
 20
665.18274162843659
 30
0.0
  0
VERTEX
  5
AC8
  8
DATA
  6
CONTINUOUS
 62
     7
 10
486.24723340880593
 20
665.18274162843659
 30
0.0
  0
VERTEX
  5
AC9
  8
DATA
  6
CONTINUOUS
 62
     7
 10
486.24723340880593
 20
663.65274162843673
 30
0.0
  0
VERTEX
  5
ACA
  8
DATA
  6
CONTINUOUS
 62
     7
 10
484.71723340880561
 20
663.65274162843673
 30
0.0
  0
SEQEND
  5
ACB
  8
DATA
  6
CONTINUOUS
 62
     7
  0
POLYLINE
  5
485
  8
DATA
  6
CONTINUOUS
 62
     7
 66
     1
 10
0.0
 20
0.0
 30
0.0
 70
     1
  0
VERTEX
  5
ACC
  8
DATA
  6
CONTINUOUS
 62
     7
 10
498.71723340880681
 20
669.18274162843693
 30
0.0
  0
VERTEX
  5
ACD
  8
DATA
  6
CONTINUOUS
 62
     7
 10
500.24723340880678
 20
669.18274162843693
 30
0.0
  0
VERTEX
  5
ACE
  8
DATA
  6
CONTINUOUS
 62
     7
 10
500.24723340880678
 20
667.65274162843696
 30
0.0
  0
VERTEX
  5
ACF
  8
DATA
  6
CONTINUOUS
 62
     7
 10
498.71723340880681
 20
667.65274162843696
 30
0.0
  0
SEQEND
  5
AD0
  8
DATA
  6
CONTINUOUS
 62
     7
  0
POLYLINE
  5
48C
  8
DATA
  6
CONTINUOUS
 62
     7
 66
     1
 10
0.0
 20
0.0
 30
0.0
 70
     1
  0
VERTEX
  5
AD1
  8
DATA
  6
CONTINUOUS
 62
     7
 10
496.71723340880681
 20
669.18274162843693
 30
0.0
  0
VERTEX
  5
AD2
  8
DATA
  6
CONTINUOUS
 62
     7
 10
498.24723340880678
 20
669.18274162843693
 30
0.0
  0
VERTEX
  5
AD3
  8
DATA
  6
CONTINUOUS
 62
     7
 10
498.24723340880678
 20
667.65274162843696
 30
0.0
  0
VERTEX
  5
AD4
  8
DATA
  6
CONTINUOUS
 62
     7
 10
496.71723340880681
 20
667.65274162843696
 30
0.0
  0
SEQEND
  5
AD5
  8
DATA
  6
CONTINUOUS
 62
     7
  0
POLYLINE
  5
493
  8
DATA
  6
CONTINUOUS
 62
     7
 66
     1
 10
0.0
 20
0.0
 30
0.0
 70
     1
  0
VERTEX
  5
AD6
  8
DATA
  6
CONTINUOUS
 62
     7
 10
494.71723340880681
 20
669.18274162843693
 30
0.0
  0
VERTEX
  5
AD7
  8
DATA
  6
CONTINUOUS
 62
     7
 10
496.24723340880678
 20
669.18274162843693
 30
0.0
  0
VERTEX
  5
AD8
  8
DATA
  6
CONTINUOUS
 62
     7
 10
496.24723340880678
 20
667.65274162843696
 30
0.0
  0
VERTEX
  5
AD9
  8
DATA
  6
CONTINUOUS
 62
     7
 10
494.71723340880681
 20
667.65274162843696
 30
0.0
  0
SEQEND
  5
ADA
  8
DATA
  6
CONTINUOUS
 62
     7
  0
POLYLINE
  5
49A
  8
DATA
  6
CONTINUOUS
 62
     7
 66
     1
 10
0.0
 20
0.0
 30
0.0
 70
     1
  0
VERTEX
  5
ADB
  8
DATA
  6
CONTINUOUS
 62
     7
 10
492.71723340880681
 20
669.18274162843693
 30
0.0
  0
VERTEX
  5
ADC
  8
DATA
  6
CONTINUOUS
 62
     7
 10
494.24723340880678
 20
669.18274162843693
 30
0.0
  0
VERTEX
  5
ADD
  8
DATA
  6
CONTINUOUS
 62
     7
 10
494.24723340880678
 20
667.65274162843696
 30
0.0
  0
VERTEX
  5
ADE
  8
DATA
  6
CONTINUOUS
 62
     7
 10
492.71723340880681
 20
667.65274162843696
 30
0.0
  0
SEQEND
  5
ADF
  8
DATA
  6
CONTINUOUS
 62
     7
  0
POLYLINE
  5
4A1
  8
DATA
  6
CONTINUOUS
 62
     7
 66
     1
 10
0.0
 20
0.0
 30
0.0
 70
     1
  0
VERTEX
  5
AE0
  8
DATA
  6
CONTINUOUS
 62
     7
 10
490.71723340880681
 20
669.18274162843693
 30
0.0
  0
VERTEX
  5
AE1
  8
DATA
  6
CONTINUOUS
 62
     7
 10
492.24723340880678
 20
669.18274162843693
 30
0.0
  0
VERTEX
  5
AE2
  8
DATA
  6
CONTINUOUS
 62
     7
 10
492.24723340880678
 20
667.65274162843696
 30
0.0
  0
VERTEX
  5
AE3
  8
DATA
  6
CONTINUOUS
 62
     7
 10
490.71723340880681
 20
667.65274162843696
 30
0.0
  0
SEQEND
  5
AE4
  8
DATA
  6
CONTINUOUS
 62
     7
  0
POLYLINE
  5
4A8
  8
DATA
  6
CONTINUOUS
 62
     7
 66
     1
 10
0.0
 20
0.0
 30
0.0
 70
     1
  0
VERTEX
  5
AE5
  8
DATA
  6
CONTINUOUS
 62
     7
 10
488.71723340880658
 20
669.18274162843693
 30
0.0
  0
VERTEX
  5
AE6
  8
DATA
  6
CONTINUOUS
 62
     7
 10
490.24723340880678
 20
669.18274162843693
 30
0.0
  0
VERTEX
  5
AE7
  8
DATA
  6
CONTINUOUS
 62
     7
 10
490.24723340880678
 20
667.65274162843696
 30
0.0
  0
VERTEX
  5
AE8
  8
DATA
  6
CONTINUOUS
 62
     7
 10
488.71723340880658
 20
667.65274162843696
 30
0.0
  0
SEQEND
  5
AE9
  8
DATA
  6
CONTINUOUS
 62
     7
  0
POLYLINE
  5
4AF
  8
DATA
  6
CONTINUOUS
 62
     7
 66
     1
 10
0.0
 20
0.0
 30
0.0
 70
     1
  0
VERTEX
  5
AEA
  8
DATA
  6
CONTINUOUS
 62
     7
 10
486.71723340880618
 20
669.18274162843693
 30
0.0
  0
VERTEX
  5
AEB
  8
DATA
  6
CONTINUOUS
 62
     7
 10
488.24723340880649
 20
669.18274162843693
 30
0.0
  0
VERTEX
  5
AEC
  8
DATA
  6
CONTINUOUS
 62
     7
 10
488.24723340880649
 20
667.65274162843696
 30
0.0
  0
VERTEX
  5
AED
  8
DATA
  6
CONTINUOUS
 62
     7
 10
486.71723340880618
 20
667.65274162843696
 30
0.0
  0
SEQEND
  5
AEE
  8
DATA
  6
CONTINUOUS
 62
     7
  0
POLYLINE
  5
4B6
  8
DATA
  6
CONTINUOUS
 62
     7
 66
     1
 10
0.0
 20
0.0
 30
0.0
 70
     1
  0
VERTEX
  5
AEF
  8
DATA
  6
CONTINUOUS
 62
     7
 10
484.71723340880561
 20
669.18274162843693
 30
0.0
  0
VERTEX
  5
AF0
  8
DATA
  6
CONTINUOUS
 62
     7
 10
486.24723340880593
 20
669.18274162843693
 30
0.0
  0
VERTEX
  5
AF1
  8
DATA
  6
CONTINUOUS
 62
     7
 10
486.24723340880593
 20
667.65274162843696
 30
0.0
  0
VERTEX
  5
AF2
  8
DATA
  6
CONTINUOUS
 62
     7
 10
484.71723340880561
 20
667.65274162843696
 30
0.0
  0
SEQEND
  5
AF3
  8
DATA
  6
CONTINUOUS
 62
     7
  0
POLYLINE
  5
4BD
  8
DATA
  6
CONTINUOUS
 62
     7
 66
     1
 10
0.0
 20
0.0
 30
0.0
  0
VERTEX
  5
AF4
  8
DATA
  6
CONTINUOUS
 62
     7
 10
480.69716723762559
 20
666.01774162843685
 30
0.0
  0
VERTEX
  5
AF5
  8
DATA
  6
CONTINUOUS
 62
     7
 10
478.59716723762563
 20
666.01774162843685
 30
0.0
  0
VERTEX
  5
AF6
  8
DATA
  6
CONTINUOUS
 62
     7
 10
478.59716723762563
 20
666.81774162843692
 30
0.0
  0
VERTEX
  5
AF7
  8
DATA
  6
CONTINUOUS
 62
     7
 10
480.69716723762559
 20
666.81774162843692
 30
0.0
  0
SEQEND
  5
AF8
  8
DATA
  6
CONTINUOUS
 62
     7
  0
POLYLINE
  5
4C4
  8
DATA
  6
CONTINUOUS
 62
     7
 66
     1
 10
0.0
 20
0.0
 30
0.0
  0
VERTEX
  5
AF9
  8
DATA
  6
CONTINUOUS
 62
     7
 10
481.49716723762572
 20
666.81774162843692
 30
0.0
  0
VERTEX
  5
AFA
  8
DATA
  6
CONTINUOUS
 62
     7
 10
483.59716723762602
 20
666.81774162843692
 30
0.0
  0
VERTEX
  5
AFB
  8
DATA
  6
CONTINUOUS
 62
     7
 10
483.59716723762602
 20
666.01774162843685
 30
0.0
  0
VERTEX
  5
AFC
  8
DATA
  6
CONTINUOUS
 62
     7
 10
481.49716723762572
 20
666.01774162843685
 30
0.0
  0
SEQEND
  5
AFD
  8
DATA
  6
CONTINUOUS
 62
     7
  0
POLYLINE
  5
4CB
  8
DATA
  6
CONTINUOUS
 62
     7
 66
     1
 10
0.0
 20
0.0
 30
0.0
  0
VERTEX
  5
AFE
  8
DATA
  6
CONTINUOUS
 62
     7
 10
480.69716723762559
 20
666.81774162843692
 30
0.0
  0
VERTEX
  5
AFF
  8
DATA
  6
CONTINUOUS
 62
     7
 10
480.69716723762559
 20
668.91774162843694
 30
0.0
  0
VERTEX
  5
B00
  8
DATA
  6
CONTINUOUS
 62
     7
 10
481.49716723762572
 20
668.91774162843694
 30
0.0
  0
VERTEX
  5
B01
  8
DATA
  6
CONTINUOUS
 62
     7
 10
481.49716723762572
 20
666.81774162843692
 30
0.0
  0
SEQEND
  5
B02
  8
DATA
  6
CONTINUOUS
 62
     7
  0
POLYLINE
  5
4D2
  8
DATA
  6
CONTINUOUS
 62
     7
 66
     1
 10
0.0
 20
0.0
 30
0.0
  0
VERTEX
  5
B03
  8
DATA
  6
CONTINUOUS
 62
     7
 10
481.49716723762572
 20
666.01774162843685
 30
0.0
  0
VERTEX
  5
B04
  8
DATA
  6
CONTINUOUS
 62
     7
 10
481.49716723762572
 20
663.91774162843672
 30
0.0
  0
VERTEX
  5
B05
  8
DATA
  6
CONTINUOUS
 62
     7
 10
480.69716723762559
 20
663.91774162843672
 30
0.0
  0
VERTEX
  5
B06
  8
DATA
  6
CONTINUOUS
 62
     7
 10
480.69716723762559
 20
666.01774162843685
 30
0.0
  0
SEQEND
  5
B07
  8
DATA
  6
CONTINUOUS
 62
     7
  0
POLYLINE
  5
4D9
  8
DATA
  6
CONTINUOUS
 62
     7
 66
     1
 10
0.0
 20
0.0
 30
0.0
 70
     1
  0
VERTEX
  5
B08
  8
DATA
  6
CONTINUOUS
 62
     7
 10
481.95745166809752
 20
665.65831381778685
 30
0.0
  0
VERTEX
  5
B09
  8
DATA
  6
CONTINUOUS
 62
     7
 10
482.95745166809752
 20
665.65831381778685
 30
0.0
  0
VERTEX
  5
B0A
  8
DATA
  6
CONTINUOUS
 62
     7
 10
482.95745166809752
 20
664.65831381778685
 30
0.0
  0
VERTEX
  5
B0B
  8
DATA
  6
CONTINUOUS
 62
     7
 10
481.95745166809752
 20
664.65831381778685
 30
0.0
  0
SEQEND
  5
B0C
  8
DATA
  6
CONTINUOUS
 62
     7
  0
POLYLINE
  5
4E0
  8
DATA
  6
CONTINUOUS
 62
     7
 66
     1
 10
0.0
 20
0.0
 30
0.0
 70
     1
  0
VERTEX
  5
B0D
  8
DATA
  6
CONTINUOUS
 62
     7
 10
479.2368828071539
 20
665.65831381778685
 30
0.0
  0
VERTEX
  5
B0E
  8
DATA
  6
CONTINUOUS
 62
     7
 10
480.23688280715402
 20
665.65831381778685
 30
0.0
  0
VERTEX
  5
B0F
  8
DATA
  6
CONTINUOUS
 62
     7
 10
480.23688280715402
 20
664.65831381778685
 30
0.0
  0
VERTEX
  5
B10
  8
DATA
  6
CONTINUOUS
 62
     7
 10
479.2368828071539
 20
664.65831381778685
 30
0.0
  0
SEQEND
  5
B11
  8
DATA
  6
CONTINUOUS
 62
     7
  0
POLYLINE
  5
4E7
  8
DATA
  6
CONTINUOUS
 62
     7
 66
     1
 10
0.0
 20
0.0
 30
0.0
 70
     1
  0
VERTEX
  5
B12
  8
DATA
  6
CONTINUOUS
 62
     7
 10
481.95745166809752
 20
668.1771694390867
 30
0.0
  0
VERTEX
  5
B13
  8
DATA
  6
CONTINUOUS
 62
     7
 10
482.95745166809752
 20
668.1771694390867
 30
0.0
  0
VERTEX
  5
B14
  8
DATA
  6
CONTINUOUS
 62
     7
 10
482.95745166809752
 20
667.17716943908681
 30
0.0
  0
VERTEX
  5
B15
  8
DATA
  6
CONTINUOUS
 62
     7
 10
481.95745166809752
 20
667.17716943908681
 30
0.0
  0
SEQEND
  5
B16
  8
DATA
  6
CONTINUOUS
 62
     7
  0
POLYLINE
  5
4EE
  8
DATA
  6
CONTINUOUS
 62
     7
 66
     1
 10
0.0
 20
0.0
 30
0.0
 70
     1
  0
VERTEX
  5
B17
  8
DATA
  6
CONTINUOUS
 62
     7
 10
479.2368828071539
 20
668.1771694390867
 30
0.0
  0
VERTEX
  5
B18
  8
DATA
  6
CONTINUOUS
 62
     7
 10
480.23688280715402
 20
668.1771694390867
 30
0.0
  0
VERTEX
  5
B19
  8
DATA
  6
CONTINUOUS
 62
     7
 10
480.23688280715402
 20
667.17716943908681
 30
0.0
  0
VERTEX
  5
B1A
  8
DATA
  6
CONTINUOUS
 62
     7
 10
479.2368828071539
 20
667.17716943908681
 30
0.0
  0
SEQEND
  5
B1B
  8
DATA
  6
CONTINUOUS
 62
     7
  0
LINE
  5
4F5
  8
DATA
  6
CONTINUOUS
 62
     7
 10
501.19253905557463
 20
663.58784993392317
 30
0.0
 11
500.63362185812241
 21
669.4378499339233
 31
0.0
  0
LINE
  5
4F6
  8
DATA
  6
CONTINUOUS
 62
     7
 10
477.30179541967851
 20
663.58784993392317
 30
0.0
 11
477.8607126171309
 21
669.4378499339233
 31
0.0
  0
ARC
  5
4F7
  8
DATA
  6
CONTINUOUS
 62
     7
 10
500.19707212481921
 20
663.49274162843676
 30
0.0
 40
1.0000000000000071
 50
270.0
 51
5.4575534851077228
  0
ARC
  5
4F8
  8
DATA
  6
CONTINUOUS
 62
     7
 10
478.29726235043398
 20
663.49274162843676
 30
0.0
 40
0.9999999999999754
 50
174.5424465148923
 51
270.0
  0
ARC
  5
4F9
  8
DATA
  6
CONTINUOUS
 62
     7
 10
499.63815492736711
 20
669.34274162843701
 30
0.0
 40
0.9999999999999754
 50
5.4575534851077103
 51
90.0
  0
ARC
  5
4FA
  8
DATA
  6
CONTINUOUS
 62
     7
 10
478.8561795478862
 20
669.34274162843701
 30
0.0
 40
1.0000000000000311
 50
90.0
 51
174.54244651489549
  0
CIRCLE
  5
4FB
  8
DATA
  6
CONTINUOUS
 62
     7
 10
462.49716723762759
 20
666.41774162843672
 30
0.0
 40
1.175000000000068
  0
POLYLINE
  5
4FC
  8
DATA
  6
CONTINUOUS
 62
     7
 66
     1
 10
0.0
 20
0.0
 30
0.0
 70
     1
  0
VERTEX
  5
B1C
  8
DATA
  6
CONTINUOUS
 62
     7
 10
462.49716723762759
 20
663.71774162843678
 30
0.0
  0
VERTEX
  5
B1D
  8
DATA
  6
CONTINUOUS
 62
     7
 10
464.83543582784552
 20
665.06774162843692
 30
0.0
  0
VERTEX
  5
B1E
  8
DATA
  6
CONTINUOUS
 62
     7
 10
464.83543582784552
 20
667.76774162843685
 30
0.0
  0
VERTEX
  5
B1F
  8
DATA
  6
CONTINUOUS
 62
     7
 10
462.49716723762759
 20
669.11774162843699
 30
0.0
  0
VERTEX
  5
B20
  8
DATA
  6
CONTINUOUS
 62
     7
 10
460.15889864740961
 20
667.76774162843685
 30
0.0
  0
VERTEX
  5
B21
  8
DATA
  6
CONTINUOUS
 62
     7
 10
460.15889864740961
 20
665.06774162843692
 30
0.0
  0
SEQEND
  5
B22
  8
DATA
  6
CONTINUOUS
 62
     7
  0
CIRCLE
  5
505
  8
DATA
  6
CONTINUOUS
 62
     7
 10
429.99716723762572
 20
666.41774162843672
 30
0.0
 40
1.175000000000068
  0
POLYLINE
  5
506
  8
DATA
  6
CONTINUOUS
 62
     7
 66
     1
 10
0.0
 20
0.0
 30
0.0
 70
     1
  0
VERTEX
  5
B23
  8
DATA
  6
CONTINUOUS
 62
     7
 10
429.99716723762572
 20
663.71774162843678
 30
0.0
  0
VERTEX
  5
B24
  8
DATA
  6
CONTINUOUS
 62
     7
 10
432.3354358278437
 20
665.06774162843692
 30
0.0
  0
VERTEX
  5
B25
  8
DATA
  6
CONTINUOUS
 62
     7
 10
432.3354358278437
 20
667.76774162843685
 30
0.0
  0
VERTEX
  5
B26
  8
DATA
  6
CONTINUOUS
 62
     7
 10
429.99716723762572
 20
669.11774162843699
 30
0.0
  0
VERTEX
  5
B27
  8
DATA
  6
CONTINUOUS
 62
     7
 10
427.65889864740791
 20
667.76774162843685
 30
0.0
  0
VERTEX
  5
B28
  8
DATA
  6
CONTINUOUS
 62
     7
 10
427.65889864740791
 20
665.06774162843692
 30
0.0
  0
SEQEND
  5
B29
  8
DATA
  6
CONTINUOUS
 62
     7
  0
LINE
  5
50F
  8
DATA
  6
CONTINUOUS
 62
     7
 10
457.19707212481927
 20
662.49274162843665
 30
0.0
 11
435.29726235043398
 21
662.49274162843665
 31
0.0
  0
LINE
  5
510
  8
DATA
  6
CONTINUOUS
 62
     7
 10
435.8561795478862
 20
670.34274162843701
 30
0.0
 11
456.638154927367
 21
670.34274162843701
 31
0.0
  0
POLYLINE
  5
511
  8
DATA
  6
CONTINUOUS
 62
     7
 66
     1
 10
0.0
 20
0.0
 30
0.0
 70
     1
  0
VERTEX
  5
B2A
  8
DATA
  6
CONTINUOUS
 62
     7
 10
455.71723340880681
 20
667.18274162843693
 30
0.0
  0
VERTEX
  5
B2B
  8
DATA
  6
CONTINUOUS
 62
     7
 10
457.24723340880678
 20
667.18274162843693
 30
0.0
  0
VERTEX
  5
B2C
  8
DATA
  6
CONTINUOUS
 62
     7
 10
457.24723340880678
 20
665.65274162843673
 30
0.0
  0
VERTEX
  5
B2D
  8
DATA
  6
CONTINUOUS
 62
     7
 10
455.71723340880681
 20
665.65274162843673
 30
0.0
  0
SEQEND
  5
B2E
  8
DATA
  6
CONTINUOUS
 62
     7
  0
POLYLINE
  5
518
  8
DATA
  6
CONTINUOUS
 62
     7
 66
     1
 10
0.0
 20
0.0
 30
0.0
 70
     1
  0
VERTEX
  5
B2F
  8
DATA
  6
CONTINUOUS
 62
     7
 10
453.71723340880681
 20
667.18274162843693
 30
0.0
  0
VERTEX
  5
B30
  8
DATA
  6
CONTINUOUS
 62
     7
 10
455.24723340880678
 20
667.18274162843693
 30
0.0
  0
VERTEX
  5
B31
  8
DATA
  6
CONTINUOUS
 62
     7
 10
455.24723340880678
 20
665.65274162843673
 30
0.0
  0
VERTEX
  5
B32
  8
DATA
  6
CONTINUOUS
 62
     7
 10
453.71723340880681
 20
665.65274162843673
 30
0.0
  0
SEQEND
  5
B33
  8
DATA
  6
CONTINUOUS
 62
     7
  0
POLYLINE
  5
51F
  8
DATA
  6
CONTINUOUS
 62
     7
 66
     1
 10
0.0
 20
0.0
 30
0.0
 70
     1
  0
VERTEX
  5
B34
  8
DATA
  6
CONTINUOUS
 62
     7
 10
451.71723340880681
 20
667.18274162843693
 30
0.0
  0
VERTEX
  5
B35
  8
DATA
  6
CONTINUOUS
 62
     7
 10
453.24723340880678
 20
667.18274162843693
 30
0.0
  0
VERTEX
  5
B36
  8
DATA
  6
CONTINUOUS
 62
     7
 10
453.24723340880678
 20
665.65274162843673
 30
0.0
  0
VERTEX
  5
B37
  8
DATA
  6
CONTINUOUS
 62
     7
 10
451.71723340880681
 20
665.65274162843673
 30
0.0
  0
SEQEND
  5
B38
  8
DATA
  6
CONTINUOUS
 62
     7
  0
POLYLINE
  5
526
  8
DATA
  6
CONTINUOUS
 62
     7
 66
     1
 10
0.0
 20
0.0
 30
0.0
 70
     1
  0
VERTEX
  5
B39
  8
DATA
  6
CONTINUOUS
 62
     7
 10
449.71723340880692
 20
667.18274162843693
 30
0.0
  0
VERTEX
  5
B3A
  8
DATA
  6
CONTINUOUS
 62
     7
 10
451.24723340880678
 20
667.18274162843693
 30
0.0
  0
VERTEX
  5
B3B
  8
DATA
  6
CONTINUOUS
 62
     7
 10
451.24723340880678
 20
665.65274162843673
 30
0.0
  0
VERTEX
  5
B3C
  8
DATA
  6
CONTINUOUS
 62
     7
 10
449.71723340880692
 20
665.65274162843673
 30
0.0
  0
SEQEND
  5
B3D
  8
DATA
  6
CONTINUOUS
 62
     7
  0
POLYLINE
  5
52D
  8
DATA
  6
CONTINUOUS
 62
     7
 66
     1
 10
0.0
 20
0.0
 30
0.0
 70
     1
  0
VERTEX
  5
B3E
  8
DATA
  6
CONTINUOUS
 62
     7
 10
447.71723340880681
 20
667.18274162843693
 30
0.0
  0
VERTEX
  5
B3F
  8
DATA
  6
CONTINUOUS
 62
     7
 10
449.24723340880678
 20
667.18274162843693
 30
0.0
  0
VERTEX
  5
B40
  8
DATA
  6
CONTINUOUS
 62
     7
 10
449.24723340880678
 20
665.65274162843673
 30
0.0
  0
VERTEX
  5
B41
  8
DATA
  6
CONTINUOUS
 62
     7
 10
447.71723340880681
 20
665.65274162843673
 30
0.0
  0
SEQEND
  5
B42
  8
DATA
  6
CONTINUOUS
 62
     7
  0
POLYLINE
  5
534
  8
DATA
  6
CONTINUOUS
 62
     7
 66
     1
 10
0.0
 20
0.0
 30
0.0
 70
     1
  0
VERTEX
  5
B43
  8
DATA
  6
CONTINUOUS
 62
     7
 10
445.71723340880658
 20
667.18274162843693
 30
0.0
  0
VERTEX
  5
B44
  8
DATA
  6
CONTINUOUS
 62
     7
 10
447.24723340880678
 20
667.18274162843693
 30
0.0
  0
VERTEX
  5
B45
  8
DATA
  6
CONTINUOUS
 62
     7
 10
447.24723340880678
 20
665.65274162843673
 30
0.0
  0
VERTEX
  5
B46
  8
DATA
  6
CONTINUOUS
 62
     7
 10
445.71723340880658
 20
665.65274162843673
 30
0.0
  0
SEQEND
  5
B47
  8
DATA
  6
CONTINUOUS
 62
     7
  0
POLYLINE
  5
53B
  8
DATA
  6
CONTINUOUS
 62
     7
 66
     1
 10
0.0
 20
0.0
 30
0.0
 70
     1
  0
VERTEX
  5
B48
  8
DATA
  6
CONTINUOUS
 62
     7
 10
443.71723340880612
 20
667.18274162843693
 30
0.0
  0
VERTEX
  5
B49
  8
DATA
  6
CONTINUOUS
 62
     7
 10
445.24723340880649
 20
667.18274162843693
 30
0.0
  0
VERTEX
  5
B4A
  8
DATA
  6
CONTINUOUS
 62
     7
 10
445.24723340880649
 20
665.65274162843673
 30
0.0
  0
VERTEX
  5
B4B
  8
DATA
  6
CONTINUOUS
 62
     7
 10
443.71723340880612
 20
665.65274162843673
 30
0.0
  0
SEQEND
  5
B4C
  8
DATA
  6
CONTINUOUS
 62
     7
  0
POLYLINE
  5
542
  8
DATA
  6
CONTINUOUS
 62
     7
 66
     1
 10
0.0
 20
0.0
 30
0.0
 70
     1
  0
VERTEX
  5
B4D
  8
DATA
  6
CONTINUOUS
 62
     7
 10
441.71723340880561
 20
667.18274162843693
 30
0.0
  0
VERTEX
  5
B4E
  8
DATA
  6
CONTINUOUS
 62
     7
 10
443.24723340880598
 20
667.18274162843693
 30
0.0
  0
VERTEX
  5
B4F
  8
DATA
  6
CONTINUOUS
 62
     7
 10
443.24723340880598
 20
665.65274162843673
 30
0.0
  0
VERTEX
  5
B50
  8
DATA
  6
CONTINUOUS
 62
     7
 10
441.71723340880561
 20
665.65274162843673
 30
0.0
  0
SEQEND
  5
B51
  8
DATA
  6
CONTINUOUS
 62
     7
  0
POLYLINE
  5
549
  8
DATA
  6
CONTINUOUS
 62
     7
 66
     1
 10
0.0
 20
0.0
 30
0.0
 70
     1
  0
VERTEX
  5
B52
  8
DATA
  6
CONTINUOUS
 62
     7
 10
455.71723340880681
 20
665.18274162843659
 30
0.0
  0
VERTEX
  5
B53
  8
DATA
  6
CONTINUOUS
 62
     7
 10
457.24723340880678
 20
665.18274162843659
 30
0.0
  0
VERTEX
  5
B54
  8
DATA
  6
CONTINUOUS
 62
     7
 10
457.24723340880678
 20
663.65274162843673
 30
0.0
  0
VERTEX
  5
B55
  8
DATA
  6
CONTINUOUS
 62
     7
 10
455.71723340880681
 20
663.65274162843673
 30
0.0
  0
SEQEND
  5
B56
  8
DATA
  6
CONTINUOUS
 62
     7
  0
POLYLINE
  5
550
  8
DATA
  6
CONTINUOUS
 62
     7
 66
     1
 10
0.0
 20
0.0
 30
0.0
 70
     1
  0
VERTEX
  5
B57
  8
DATA
  6
CONTINUOUS
 62
     7
 10
453.71723340880681
 20
665.18274162843659
 30
0.0
  0
VERTEX
  5
B58
  8
DATA
  6
CONTINUOUS
 62
     7
 10
455.24723340880678
 20
665.18274162843659
 30
0.0
  0
VERTEX
  5
B59
  8
DATA
  6
CONTINUOUS
 62
     7
 10
455.24723340880678
 20
663.65274162843673
 30
0.0
  0
VERTEX
  5
B5A
  8
DATA
  6
CONTINUOUS
 62
     7
 10
453.71723340880681
 20
663.65274162843673
 30
0.0
  0
SEQEND
  5
B5B
  8
DATA
  6
CONTINUOUS
 62
     7
  0
POLYLINE
  5
557
  8
DATA
  6
CONTINUOUS
 62
     7
 66
     1
 10
0.0
 20
0.0
 30
0.0
 70
     1
  0
VERTEX
  5
B5C
  8
DATA
  6
CONTINUOUS
 62
     7
 10
451.71723340880681
 20
665.18274162843659
 30
0.0
  0
VERTEX
  5
B5D
  8
DATA
  6
CONTINUOUS
 62
     7
 10
453.24723340880678
 20
665.18274162843659
 30
0.0
  0
VERTEX
  5
B5E
  8
DATA
  6
CONTINUOUS
 62
     7
 10
453.24723340880678
 20
663.65274162843673
 30
0.0
  0
VERTEX
  5
B5F
  8
DATA
  6
CONTINUOUS
 62
     7
 10
451.71723340880681
 20
663.65274162843673
 30
0.0
  0
SEQEND
  5
B60
  8
DATA
  6
CONTINUOUS
 62
     7
  0
POLYLINE
  5
55E
  8
DATA
  6
CONTINUOUS
 62
     7
 66
     1
 10
0.0
 20
0.0
 30
0.0
 70
     1
  0
VERTEX
  5
B61
  8
DATA
  6
CONTINUOUS
 62
     7
 10
449.71723340880692
 20
665.18274162843659
 30
0.0
  0
VERTEX
  5
B62
  8
DATA
  6
CONTINUOUS
 62
     7
 10
451.24723340880678
 20
665.18274162843659
 30
0.0
  0
VERTEX
  5
B63
  8
DATA
  6
CONTINUOUS
 62
     7
 10
451.24723340880678
 20
663.65274162843673
 30
0.0
  0
VERTEX
  5
B64
  8
DATA
  6
CONTINUOUS
 62
     7
 10
449.71723340880692
 20
663.65274162843673
 30
0.0
  0
SEQEND
  5
B65
  8
DATA
  6
CONTINUOUS
 62
     7
  0
POLYLINE
  5
565
  8
DATA
  6
CONTINUOUS
 62
     7
 66
     1
 10
0.0
 20
0.0
 30
0.0
 70
     1
  0
VERTEX
  5
B66
  8
DATA
  6
CONTINUOUS
 62
     7
 10
447.71723340880681
 20
665.18274162843659
 30
0.0
  0
VERTEX
  5
B67
  8
DATA
  6
CONTINUOUS
 62
     7
 10
449.24723340880678
 20
665.18274162843659
 30
0.0
  0
VERTEX
  5
B68
  8
DATA
  6
CONTINUOUS
 62
     7
 10
449.24723340880678
 20
663.65274162843673
 30
0.0
  0
VERTEX
  5
B69
  8
DATA
  6
CONTINUOUS
 62
     7
 10
447.71723340880681
 20
663.65274162843673
 30
0.0
  0
SEQEND
  5
B6A
  8
DATA
  6
CONTINUOUS
 62
     7
  0
POLYLINE
  5
56C
  8
DATA
  6
CONTINUOUS
 62
     7
 66
     1
 10
0.0
 20
0.0
 30
0.0
 70
     1
  0
VERTEX
  5
B6B
  8
DATA
  6
CONTINUOUS
 62
     7
 10
445.71723340880658
 20
665.18274162843659
 30
0.0
  0
VERTEX
  5
B6C
  8
DATA
  6
CONTINUOUS
 62
     7
 10
447.24723340880678
 20
665.18274162843659
 30
0.0
  0
VERTEX
  5
B6D
  8
DATA
  6
CONTINUOUS
 62
     7
 10
447.24723340880678
 20
663.65274162843673
 30
0.0
  0
VERTEX
  5
B6E
  8
DATA
  6
CONTINUOUS
 62
     7
 10
445.71723340880658
 20
663.65274162843673
 30
0.0
  0
SEQEND
  5
B6F
  8
DATA
  6
CONTINUOUS
 62
     7
  0
POLYLINE
  5
573
  8
DATA
  6
CONTINUOUS
 62
     7
 66
     1
 10
0.0
 20
0.0
 30
0.0
 70
     1
  0
VERTEX
  5
B70
  8
DATA
  6
CONTINUOUS
 62
     7
 10
443.71723340880612
 20
665.18274162843659
 30
0.0
  0
VERTEX
  5
B71
  8
DATA
  6
CONTINUOUS
 62
     7
 10
445.24723340880649
 20
665.18274162843659
 30
0.0
  0
VERTEX
  5
B72
  8
DATA
  6
CONTINUOUS
 62
     7
 10
445.24723340880649
 20
663.65274162843673
 30
0.0
  0
VERTEX
  5
B73
  8
DATA
  6
CONTINUOUS
 62
     7
 10
443.71723340880612
 20
663.65274162843673
 30
0.0
  0
SEQEND
  5
B74
  8
DATA
  6
CONTINUOUS
 62
     7
  0
POLYLINE
  5
57A
  8
DATA
  6
CONTINUOUS
 62
     7
 66
     1
 10
0.0
 20
0.0
 30
0.0
 70
     1
  0
VERTEX
  5
B75
  8
DATA
  6
CONTINUOUS
 62
     7
 10
441.71723340880561
 20
665.18274162843659
 30
0.0
  0
VERTEX
  5
B76
  8
DATA
  6
CONTINUOUS
 62
     7
 10
443.24723340880598
 20
665.18274162843659
 30
0.0
  0
VERTEX
  5
B77
  8
DATA
  6
CONTINUOUS
 62
     7
 10
443.24723340880598
 20
663.65274162843673
 30
0.0
  0
VERTEX
  5
B78
  8
DATA
  6
CONTINUOUS
 62
     7
 10
441.71723340880561
 20
663.65274162843673
 30
0.0
  0
SEQEND
  5
B79
  8
DATA
  6
CONTINUOUS
 62
     7
  0
POLYLINE
  5
581
  8
DATA
  6
CONTINUOUS
 62
     7
 66
     1
 10
0.0
 20
0.0
 30
0.0
 70
     1
  0
VERTEX
  5
B7A
  8
DATA
  6
CONTINUOUS
 62
     7
 10
455.71723340880681
 20
669.18274162843693
 30
0.0
  0
VERTEX
  5
B7B
  8
DATA
  6
CONTINUOUS
 62
     7
 10
457.24723340880678
 20
669.18274162843693
 30
0.0
  0
VERTEX
  5
B7C
  8
DATA
  6
CONTINUOUS
 62
     7
 10
457.24723340880678
 20
667.65274162843696
 30
0.0
  0
VERTEX
  5
B7D
  8
DATA
  6
CONTINUOUS
 62
     7
 10
455.71723340880681
 20
667.65274162843696
 30
0.0
  0
SEQEND
  5
B7E
  8
DATA
  6
CONTINUOUS
 62
     7
  0
POLYLINE
  5
588
  8
DATA
  6
CONTINUOUS
 62
     7
 66
     1
 10
0.0
 20
0.0
 30
0.0
 70
     1
  0
VERTEX
  5
B7F
  8
DATA
  6
CONTINUOUS
 62
     7
 10
453.71723340880681
 20
669.18274162843693
 30
0.0
  0
VERTEX
  5
B80
  8
DATA
  6
CONTINUOUS
 62
     7
 10
455.24723340880678
 20
669.18274162843693
 30
0.0
  0
VERTEX
  5
B81
  8
DATA
  6
CONTINUOUS
 62
     7
 10
455.24723340880678
 20
667.65274162843696
 30
0.0
  0
VERTEX
  5
B82
  8
DATA
  6
CONTINUOUS
 62
     7
 10
453.71723340880681
 20
667.65274162843696
 30
0.0
  0
SEQEND
  5
B83
  8
DATA
  6
CONTINUOUS
 62
     7
  0
POLYLINE
  5
58F
  8
DATA
  6
CONTINUOUS
 62
     7
 66
     1
 10
0.0
 20
0.0
 30
0.0
 70
     1
  0
VERTEX
  5
B84
  8
DATA
  6
CONTINUOUS
 62
     7
 10
451.71723340880681
 20
669.18274162843693
 30
0.0
  0
VERTEX
  5
B85
  8
DATA
  6
CONTINUOUS
 62
     7
 10
453.24723340880678
 20
669.18274162843693
 30
0.0
  0
VERTEX
  5
B86
  8
DATA
  6
CONTINUOUS
 62
     7
 10
453.24723340880678
 20
667.65274162843696
 30
0.0
  0
VERTEX
  5
B87
  8
DATA
  6
CONTINUOUS
 62
     7
 10
451.71723340880681
 20
667.65274162843696
 30
0.0
  0
SEQEND
  5
B88
  8
DATA
  6
CONTINUOUS
 62
     7
  0
POLYLINE
  5
596
  8
DATA
  6
CONTINUOUS
 62
     7
 66
     1
 10
0.0
 20
0.0
 30
0.0
 70
     1
  0
VERTEX
  5
B89
  8
DATA
  6
CONTINUOUS
 62
     7
 10
449.71723340880692
 20
669.18274162843693
 30
0.0
  0
VERTEX
  5
B8A
  8
DATA
  6
CONTINUOUS
 62
     7
 10
451.24723340880678
 20
669.18274162843693
 30
0.0
  0
VERTEX
  5
B8B
  8
DATA
  6
CONTINUOUS
 62
     7
 10
451.24723340880678
 20
667.65274162843696
 30
0.0
  0
VERTEX
  5
B8C
  8
DATA
  6
CONTINUOUS
 62
     7
 10
449.71723340880692
 20
667.65274162843696
 30
0.0
  0
SEQEND
  5
B8D
  8
DATA
  6
CONTINUOUS
 62
     7
  0
POLYLINE
  5
59D
  8
DATA
  6
CONTINUOUS
 62
     7
 66
     1
 10
0.0
 20
0.0
 30
0.0
 70
     1
  0
VERTEX
  5
B8E
  8
DATA
  6
CONTINUOUS
 62
     7
 10
447.71723340880681
 20
669.18274162843693
 30
0.0
  0
VERTEX
  5
B8F
  8
DATA
  6
CONTINUOUS
 62
     7
 10
449.24723340880678
 20
669.18274162843693
 30
0.0
  0
VERTEX
  5
B90
  8
DATA
  6
CONTINUOUS
 62
     7
 10
449.24723340880678
 20
667.65274162843696
 30
0.0
  0
VERTEX
  5
B91
  8
DATA
  6
CONTINUOUS
 62
     7
 10
447.71723340880681
 20
667.65274162843696
 30
0.0
  0
SEQEND
  5
B92
  8
DATA
  6
CONTINUOUS
 62
     7
  0
POLYLINE
  5
5A4
  8
DATA
  6
CONTINUOUS
 62
     7
 66
     1
 10
0.0
 20
0.0
 30
0.0
 70
     1
  0
VERTEX
  5
B93
  8
DATA
  6
CONTINUOUS
 62
     7
 10
445.71723340880658
 20
669.18274162843693
 30
0.0
  0
VERTEX
  5
B94
  8
DATA
  6
CONTINUOUS
 62
     7
 10
447.24723340880678
 20
669.18274162843693
 30
0.0
  0
VERTEX
  5
B95
  8
DATA
  6
CONTINUOUS
 62
     7
 10
447.24723340880678
 20
667.65274162843696
 30
0.0
  0
VERTEX
  5
B96
  8
DATA
  6
CONTINUOUS
 62
     7
 10
445.71723340880658
 20
667.65274162843696
 30
0.0
  0
SEQEND
  5
B97
  8
DATA
  6
CONTINUOUS
 62
     7
  0
POLYLINE
  5
5AB
  8
DATA
  6
CONTINUOUS
 62
     7
 66
     1
 10
0.0
 20
0.0
 30
0.0
 70
     1
  0
VERTEX
  5
B98
  8
DATA
  6
CONTINUOUS
 62
     7
 10
443.71723340880612
 20
669.18274162843693
 30
0.0
  0
VERTEX
  5
B99
  8
DATA
  6
CONTINUOUS
 62
     7
 10
445.24723340880649
 20
669.18274162843693
 30
0.0
  0
VERTEX
  5
B9A
  8
DATA
  6
CONTINUOUS
 62
     7
 10
445.24723340880649
 20
667.65274162843696
 30
0.0
  0
VERTEX
  5
B9B
  8
DATA
  6
CONTINUOUS
 62
     7
 10
443.71723340880612
 20
667.65274162843696
 30
0.0
  0
SEQEND
  5
B9C
  8
DATA
  6
CONTINUOUS
 62
     7
  0
POLYLINE
  5
5B2
  8
DATA
  6
CONTINUOUS
 62
     7
 66
     1
 10
0.0
 20
0.0
 30
0.0
 70
     1
  0
VERTEX
  5
B9D
  8
DATA
  6
CONTINUOUS
 62
     7
 10
441.71723340880561
 20
669.18274162843693
 30
0.0
  0
VERTEX
  5
B9E
  8
DATA
  6
CONTINUOUS
 62
     7
 10
443.24723340880598
 20
669.18274162843693
 30
0.0
  0
VERTEX
  5
B9F
  8
DATA
  6
CONTINUOUS
 62
     7
 10
443.24723340880598
 20
667.65274162843696
 30
0.0
  0
VERTEX
  5
BA0
  8
DATA
  6
CONTINUOUS
 62
     7
 10
441.71723340880561
 20
667.65274162843696
 30
0.0
  0
SEQEND
  5
BA1
  8
DATA
  6
CONTINUOUS
 62
     7
  0
POLYLINE
  5
5B9
  8
DATA
  6
CONTINUOUS
 62
     7
 66
     1
 10
0.0
 20
0.0
 30
0.0
  0
VERTEX
  5
BA2
  8
DATA
  6
CONTINUOUS
 62
     7
 10
437.69716723762571
 20
666.01774162843685
 30
0.0
  0
VERTEX
  5
BA3
  8
DATA
  6
CONTINUOUS
 62
     7
 10
435.59716723762568
 20
666.01774162843685
 30
0.0
  0
VERTEX
  5
BA4
  8
DATA
  6
CONTINUOUS
 62
     7
 10
435.59716723762568
 20
666.81774162843692
 30
0.0
  0
VERTEX
  5
BA5
  8
DATA
  6
CONTINUOUS
 62
     7
 10
437.69716723762571
 20
666.81774162843692
 30
0.0
  0
SEQEND
  5
BA6
  8
DATA
  6
CONTINUOUS
 62
     7
  0
POLYLINE
  5
5C0
  8
DATA
  6
CONTINUOUS
 62
     7
 66
     1
 10
0.0
 20
0.0
 30
0.0
  0
VERTEX
  5
BA7
  8
DATA
  6
CONTINUOUS
 62
     7
 10
438.49716723762572
 20
666.81774162843692
 30
0.0
  0
VERTEX
  5
BA8
  8
DATA
  6
CONTINUOUS
 62
     7
 10
440.59716723762602
 20
666.81774162843692
 30
0.0
  0
VERTEX
  5
BA9
  8
DATA
  6
CONTINUOUS
 62
     7
 10
440.59716723762602
 20
666.01774162843685
 30
0.0
  0
VERTEX
  5
BAA
  8
DATA
  6
CONTINUOUS
 62
     7
 10
438.49716723762572
 20
666.01774162843685
 30
0.0
  0
SEQEND
  5
BAB
  8
DATA
  6
CONTINUOUS
 62
     7
  0
POLYLINE
  5
5C7
  8
DATA
  6
CONTINUOUS
 62
     7
 66
     1
 10
0.0
 20
0.0
 30
0.0
  0
VERTEX
  5
BAC
  8
DATA
  6
CONTINUOUS
 62
     7
 10
437.69716723762571
 20
666.81774162843692
 30
0.0
  0
VERTEX
  5
BAD
  8
DATA
  6
CONTINUOUS
 62
     7
 10
437.69716723762571
 20
668.91774162843694
 30
0.0
  0
VERTEX
  5
BAE
  8
DATA
  6
CONTINUOUS
 62
     7
 10
438.49716723762572
 20
668.91774162843694
 30
0.0
  0
VERTEX
  5
BAF
  8
DATA
  6
CONTINUOUS
 62
     7
 10
438.49716723762572
 20
666.81774162843692
 30
0.0
  0
SEQEND
  5
BB0
  8
DATA
  6
CONTINUOUS
 62
     7
  0
POLYLINE
  5
5CE
  8
DATA
  6
CONTINUOUS
 62
     7
 66
     1
 10
0.0
 20
0.0
 30
0.0
  0
VERTEX
  5
BB1
  8
DATA
  6
CONTINUOUS
 62
     7
 10
438.49716723762572
 20
666.01774162843685
 30
0.0
  0
VERTEX
  5
BB2
  8
DATA
  6
CONTINUOUS
 62
     7
 10
438.49716723762572
 20
663.91774162843672
 30
0.0
  0
VERTEX
  5
BB3
  8
DATA
  6
CONTINUOUS
 62
     7
 10
437.69716723762571
 20
663.91774162843672
 30
0.0
  0
VERTEX
  5
BB4
  8
DATA
  6
CONTINUOUS
 62
     7
 10
437.69716723762571
 20
666.01774162843685
 30
0.0
  0
SEQEND
  5
BB5
  8
DATA
  6
CONTINUOUS
 62
     7
  0
POLYLINE
  5
5D5
  8
DATA
  6
CONTINUOUS
 62
     7
 66
     1
 10
0.0
 20
0.0
 30
0.0
 70
     1
  0
VERTEX
  5
BB6
  8
DATA
  6
CONTINUOUS
 62
     7
 10
438.95745166809741
 20
665.65831381778685
 30
0.0
  0
VERTEX
  5
BB7
  8
DATA
  6
CONTINUOUS
 62
     7
 10
439.95745166809752
 20
665.65831381778685
 30
0.0
  0
VERTEX
  5
BB8
  8
DATA
  6
CONTINUOUS
 62
     7
 10
439.95745166809752
 20
664.65831381778685
 30
0.0
  0
VERTEX
  5
BB9
  8
DATA
  6
CONTINUOUS
 62
     7
 10
438.95745166809741
 20
664.65831381778685
 30
0.0
  0
SEQEND
  5
BBA
  8
DATA
  6
CONTINUOUS
 62
     7
  0
POLYLINE
  5
5DC
  8
DATA
  6
CONTINUOUS
 62
     7
 66
     1
 10
0.0
 20
0.0
 30
0.0
 70
     1
  0
VERTEX
  5
BBB
  8
DATA
  6
CONTINUOUS
 62
     7
 10
436.23688280715402
 20
665.65831381778685
 30
0.0
  0
VERTEX
  5
BBC
  8
DATA
  6
CONTINUOUS
 62
     7
 10
437.23688280715402
 20
665.65831381778685
 30
0.0
  0
VERTEX
  5
BBD
  8
DATA
  6
CONTINUOUS
 62
     7
 10
437.23688280715402
 20
664.65831381778685
 30
0.0
  0
VERTEX
  5
BBE
  8
DATA
  6
CONTINUOUS
 62
     7
 10
436.23688280715402
 20
664.65831381778685
 30
0.0
  0
SEQEND
  5
BBF
  8
DATA
  6
CONTINUOUS
 62
     7
  0
POLYLINE
  5
5E3
  8
DATA
  6
CONTINUOUS
 62
     7
 66
     1
 10
0.0
 20
0.0
 30
0.0
 70
     1
  0
VERTEX
  5
BC0
  8
DATA
  6
CONTINUOUS
 62
     7
 10
438.95745166809741
 20
668.1771694390867
 30
0.0
  0
VERTEX
  5
BC1
  8
DATA
  6
CONTINUOUS
 62
     7
 10
439.95745166809752
 20
668.1771694390867
 30
0.0
  0
VERTEX
  5
BC2
  8
DATA
  6
CONTINUOUS
 62
     7
 10
439.95745166809752
 20
667.17716943908681
 30
0.0
  0
VERTEX
  5
BC3
  8
DATA
  6
CONTINUOUS
 62
     7
 10
438.95745166809741
 20
667.17716943908681
 30
0.0
  0
SEQEND
  5
BC4
  8
DATA
  6
CONTINUOUS
 62
     7
  0
POLYLINE
  5
5EA
  8
DATA
  6
CONTINUOUS
 62
     7
 66
     1
 10
0.0
 20
0.0
 30
0.0
 70
     1
  0
VERTEX
  5
BC5
  8
DATA
  6
CONTINUOUS
 62
     7
 10
436.23688280715402
 20
668.1771694390867
 30
0.0
  0
VERTEX
  5
BC6
  8
DATA
  6
CONTINUOUS
 62
     7
 10
437.23688280715402
 20
668.1771694390867
 30
0.0
  0
VERTEX
  5
BC7
  8
DATA
  6
CONTINUOUS
 62
     7
 10
437.23688280715402
 20
667.17716943908681
 30
0.0
  0
VERTEX
  5
BC8
  8
DATA
  6
CONTINUOUS
 62
     7
 10
436.23688280715402
 20
667.17716943908681
 30
0.0
  0
SEQEND
  5
BC9
  8
DATA
  6
CONTINUOUS
 62
     7
  0
LINE
  5
5F1
  8
DATA
  6
CONTINUOUS
 62
     7
 10
458.19253905557451
 20
663.58784993392317
 30
0.0
 11
457.63362185812241
 21
669.4378499339233
 31
0.0
  0
LINE
  5
5F2
  8
DATA
  6
CONTINUOUS
 62
     7
 10
434.30179541967863
 20
663.58784993392317
 30
0.0
 11
434.8607126171309
 21
669.4378499339233
 31
0.0
  0
ARC
  5
5F3
  8
DATA
  6
CONTINUOUS
 62
     7
 10
457.19707212481927
 20
663.49274162843676
 30
0.0
 40
1.0000000000000071
 50
270.0
 51
5.4575534851077228
  0
ARC
  5
5F4
  8
DATA
  6
CONTINUOUS
 62
     7
 10
435.29726235043398
 20
663.49274162843676
 30
0.0
 40
0.9999999999999754
 50
174.5424465148923
 51
270.0
  0
ARC
  5
5F5
  8
DATA
  6
CONTINUOUS
 62
     7
 10
456.638154927367
 20
669.34274162843701
 30
0.0
 40
0.9999999999999754
 50
5.4575534851077103
 51
90.0
  0
ARC
  5
5F6
  8
DATA
  6
CONTINUOUS
 62
     7
 10
435.8561795478862
 20
669.34274162843701
 30
0.0
 40
1.0000000000000311
 50
90.0
 51
174.54244651489549
  0
CIRCLE
  5
5F7
  8
DATA
  6
CONTINUOUS
 62
     7
 10
318.55665384880592
 20
648.93896668233162
 30
0.0
 40
1.1750000000000109
  0
POLYLINE
  5
5F8
  8
DATA
  6
CONTINUOUS
 62
     7
 66
     1
 10
0.0
 20
0.0
 30
0.0
 70
     1
  0
VERTEX
  5
BCA
  8
DATA
  6
CONTINUOUS
 62
     7
 10
318.55665384880592
 20
646.23896668233181
 30
0.0
  0
VERTEX
  5
BCB
  8
DATA
  6
CONTINUOUS
 62
     7
 10
320.89492243902367
 20
647.58896668233206
 30
0.0
  0
VERTEX
  5
BCC
  8
DATA
  6
CONTINUOUS
 62
     7
 10
320.89492243902367
 20
650.28896668233142
 30
0.0
  0
VERTEX
  5
BCD
  8
DATA
  6
CONTINUOUS
 62
     7
 10
318.55665384880592
 20
651.63896668233156
 30
0.0
  0
VERTEX
  5
BCE
  8
DATA
  6
CONTINUOUS
 62
     7
 10
316.21838525858789
 20
650.28896668233142
 30
0.0
  0
VERTEX
  5
BCF
  8
DATA
  6
CONTINUOUS
 62
     7
 10
316.21838525858789
 20
647.58896668233206
 30
0.0
  0
SEQEND
  5
BD0
  8
DATA
  6
CONTINUOUS
 62
     7
  0
CIRCLE
  5
601
  8
DATA
  6
CONTINUOUS
 62
     7
 10
343.55665384880598
 20
648.93896668233162
 30
0.0
 40
1.175000000000068
  0
POLYLINE
  5
602
  8
DATA
  6
CONTINUOUS
 62
     7
 66
     1
 10
0.0
 20
0.0
 30
0.0
 70
     1
  0
VERTEX
  5
BD1
  8
DATA
  6
CONTINUOUS
 62
     7
 10
343.55665384880598
 20
646.23896668233181
 30
0.0
  0
VERTEX
  5
BD2
  8
DATA
  6
CONTINUOUS
 62
     7
 10
345.89492243902379
 20
647.58896668233206
 30
0.0
  0
VERTEX
  5
BD3
  8
DATA
  6
CONTINUOUS
 62
     7
 10
345.89492243902379
 20
650.28896668233142
 30
0.0
  0
VERTEX
  5
BD4
  8
DATA
  6
CONTINUOUS
 62
     7
 10
343.55665384880598
 20
651.63896668233156
 30
0.0
  0
VERTEX
  5
BD5
  8
DATA
  6
CONTINUOUS
 62
     7
 10
341.21838525858789
 20
650.28896668233142
 30
0.0
  0
VERTEX
  5
BD6
  8
DATA
  6
CONTINUOUS
 62
     7
 10
341.21838525858789
 20
647.58896668233206
 30
0.0
  0
SEQEND
  5
BD7
  8
DATA
  6
CONTINUOUS
 62
     7
  0
LINE
  5
60B
  8
DATA
  6
CONTINUOUS
 62
     7
 10
325.4548906386172
 20
652.93896668233162
 30
0.0
 11
336.6584170589943
 21
652.93896668233162
 31
0.0
  0
LINE
  5
60C
  8
DATA
  6
CONTINUOUS
 62
     7
 10
337.47091705899442
 20
644.93896668233197
 30
0.0
 11
324.64239063861709
 21
644.93896668233197
 31
0.0
  0
LINE
  5
60D
  8
DATA
  6
CONTINUOUS
 62
     7
 10
338.04163390624598
 20
651.75509431471471
 30
0.0
 11
338.85413390624581
 21
646.55509431471501
 31
0.0
  0
LINE
  5
60E
  8
DATA
  6
CONTINUOUS
 62
     7
 10
323.2591737913657
 20
646.55509431471501
 30
0.0
 11
324.07167379136558
 21
651.75509431471471
 31
0.0
  0
CIRCLE
  5
60F
  8
DATA
  6
CONTINUOUS
 62
     7
 10
331.08328361928068
 20
647.30265851117827
 30
0.0
 40
0.5
  0
ARC
  5
610
  8
DATA
  6
CONTINUOUS
 62
     7
 10
337.47091705899442
 20
646.33896668233206
 30
0.0
 40
1.399999999999977
 50
270.0
 51
8.8806591505205574
  0
ARC
  5
611
  8
DATA
  6
CONTINUOUS
 62
     7
 10
324.64239063861709
 20
646.33896668233206
 30
0.0
 40
1.400000000000019
 50
171.1193408494795
 51
270.0
  0
ARC
  5
612
  8
DATA
  6
CONTINUOUS
 62
     7
 10
336.6584170589943
 20
651.53896668233142
 30
0.0
 40
1.4000000000000281
 50
8.8806591505228312
 51
90.0
  0
ARC
  5
613
  8
DATA
  6
CONTINUOUS
 62
     7
 10
325.4548906386172
 20
651.53896668233142
 30
0.0
 40
1.4000000000001469
 50
90.0
 51
171.11934084947711
  0
LINE
  5
614
  8
DATA
  6
CONTINUOUS
 62
     7
 10
323.89784991815162
 20
654.93896668233162
 30
0.0
 11
338.21545777945988
 21
654.93896668233162
 31
0.0
  0
LINE
  5
615
  8
DATA
  6
CONTINUOUS
 62
     7
 10
339.2342995000563
 20
642.93896668233185
 30
0.0
 11
322.87900819755521
 21
642.93896668233185
 31
0.0
  0
LINE
  5
616
  8
DATA
  6
CONTINUOUS
 62
     7
 10
341.20614472719973
 20
645.27337122804295
 30
0.0
 11
339.79293396117453
 21
653.60649031890046
 31
0.0
  0
LINE
  5
617
  8
DATA
  6
CONTINUOUS
 62
     7
 10
320.907162970412
 20
645.27337122804295
 30
0.0
 11
322.32037373643709
 21
653.60649031890046
 31
0.0
  0
ARC
  5
618
  8
DATA
  6
CONTINUOUS
 62
     7
 10
339.2342995000563
 20
644.93896668233197
 30
0.0
 40
2.000000000000056
 50
270.0
 51
9.6251929436203341
  0
ARC
  5
619
  8
DATA
  6
CONTINUOUS
 62
     7
 10
322.87900819755521
 20
644.93896668233197
 30
0.0
 40
1.999999999999958
 50
170.37480705637881
 51
270.0
  0
ARC
  5
61A
  8
DATA
  6
CONTINUOUS
 62
     7
 10
338.21545777945983
 20
653.3389666823316
 30
0.0
 40
1.60000000000017
 50
9.6251929436203323
 51
89.999999999995936
  0
ARC
  5
61B
  8
DATA
  6
CONTINUOUS
 62
     7
 10
323.89784991815162
 20
653.3389666823316
 30
0.0
 40
1.6000000000000789
 50
90.0
 51
170.3748070563783
  0
CIRCLE
  5
61C
  8
DATA
  6
CONTINUOUS
 62
     7
 10
333.58328361928068
 20
647.30265851117827
 30
0.0
 40
0.5
  0
CIRCLE
  5
61D
  8
DATA
  6
CONTINUOUS
 62
     7
 10
336.08328361928068
 20
647.30265851117827
 30
0.0
 40
0.5
  0
CIRCLE
  5
61E
  8
DATA
  6
CONTINUOUS
 62
     7
 10
328.58328361928068
 20
647.30265851117827
 30
0.0
 40
0.5
  0
CIRCLE
  5
61F
  8
DATA
  6
CONTINUOUS
 62
     7
 10
326.08328361928079
 20
647.30265851117827
 30
0.0
 40
0.5
  0
CIRCLE
  5
620
  8
DATA
  6
CONTINUOUS
 62
     7
 10
332.27879479535198
 20
650.92117892994054
 30
0.0
 40
0.5
  0
CIRCLE
  5
621
  8
DATA
  6
CONTINUOUS
 62
     7
 10
334.77879479535198
 20
650.92117892994054
 30
0.0
 40
0.5
  0
CIRCLE
  5
622
  8
DATA
  6
CONTINUOUS
 62
     7
 10
329.77879479535198
 20
650.92117892994054
 30
0.0
 40
0.5
  0
CIRCLE
  5
623
  8
DATA
  6
CONTINUOUS
 62
     7
 10
327.27879479535198
 20
650.92117892994054
 30
0.0
 40
0.5
  0
TEXT
  5
624
  8
DATA
 62
     7
 10
337.41087559994997
 20
662.00999999999988
 30
0.0
 40
2.693359375
  1
RS-232
 50
180.0
 41
0.7
 11
337.41087559994997
 21
659.31664062499988
 31
0.0
 73
     3
  0
LINE
  5
625
  8
DATA
  6
CONTINUOUS
 62
     7
 10
513.65742499511407
 20
588.99999999974307
 30
0.0
 11
513.65742499511407
 21
583.99999999974295
 31
0.0
  0
LINE
  5
626
  8
DATA
  6
CONTINUOUS
 62
     7
 10
518.33396217555003
 20
588.99999999974307
 30
0.0
 11
518.33396217555003
 21
583.99999999974295
 31
0.0
  0
LINE
  5
627
  8
DATA
  6
CONTINUOUS
 62
     7
 10
520.29596653161866
 20
588.99999999974307
 30
0.0
 11
520.29596653161866
 21
583.99999999974295
 31
0.0
  0
LINE
  5
628
  8
DATA
  6
CONTINUOUS
 62
     7
 10
544.18289986610114
 20
588.99999999974307
 30
0.0
 11
544.18289986610114
 21
583.99999999974295
 31
0.0
  0
LINE
  5
629
  8
DATA
  6
CONTINUOUS
 62
     7
 10
546.1574249951143
 20
588.99999999974307
 30
0.0
 11
546.1574249951143
 21
583.99999999974295
 31
0.0
  0
LINE
  5
62A
  8
DATA
  6
CONTINUOUS
 62
     7
 10
550.83396217555025
 20
588.99999999974307
 30
0.0
 11
550.83396217555025
 21
583.99999999974295
 31
0.0
  0
LINE
  5
62B
  8
DATA
  6
CONTINUOUS
 62
     7
 10
550.83396217555025
 20
588.99999999974307
 30
0.0
 11
546.1574249951143
 21
588.99999999974307
 31
0.0
  0
LINE
  5
62C
  8
DATA
  6
CONTINUOUS
 62
     7
 10
544.18289986610114
 20
588.99999999974307
 30
0.0
 11
520.29596653161866
 21
588.99999999974307
 31
0.0
  0
LINE
  5
62D
  8
DATA
  6
CONTINUOUS
 62
     7
 10
518.33396217555003
 20
588.99999999974307
 30
0.0
 11
513.65742499511407
 21
588.99999999974307
 31
0.0
  0
LINE
  5
62E
  8
DATA
  6
CONTINUOUS
 62
     7
 10
470.65742499511418
 20
588.99999999974307
 30
0.0
 11
470.65742499511418
 21
583.99999999974295
 31
0.0
  0
LINE
  5
62F
  8
DATA
  6
CONTINUOUS
 62
     7
 10
475.33396217555003
 20
588.99999999974307
 30
0.0
 11
475.33396217555003
 21
583.99999999974295
 31
0.0
  0
LINE
  5
630
  8
DATA
  6
CONTINUOUS
 62
     7
 10
477.29596653161877
 20
588.99999999974307
 30
0.0
 11
477.29596653161877
 21
583.99999999974295
 31
0.0
  0
LINE
  5
631
  8
DATA
  6
CONTINUOUS
 62
     7
 10
501.18289986610108
 20
588.99999999974307
 30
0.0
 11
501.18289986610108
 21
583.99999999974295
 31
0.0
  0
LINE
  5
632
  8
DATA
  6
CONTINUOUS
 62
     7
 10
503.1574249951143
 20
588.99999999974307
 30
0.0
 11
503.1574249951143
 21
583.99999999974295
 31
0.0
  0
LINE
  5
633
  8
DATA
  6
CONTINUOUS
 62
     7
 10
507.8339621755502
 20
588.99999999974307
 30
0.0
 11
507.8339621755502
 21
583.99999999974295
 31
0.0
  0
LINE
  5
634
  8
DATA
  6
CONTINUOUS
 62
     7
 10
507.8339621755502
 20
588.99999999974307
 30
0.0
 11
503.1574249951143
 21
588.99999999974307
 31
0.0
  0
LINE
  5
635
  8
DATA
  6
CONTINUOUS
 62
     7
 10
501.18289986610108
 20
588.99999999974307
 30
0.0
 11
477.29596653161877
 21
588.99999999974307
 31
0.0
  0
LINE
  5
636
  8
DATA
  6
CONTINUOUS
 62
     7
 10
475.33396217555003
 20
588.99999999974307
 30
0.0
 11
470.65742499511418
 21
588.99999999974307
 31
0.0
  0
LINE
  5
637
  8
DATA
  6
CONTINUOUS
 62
     7
 10
427.65742499511413
 20
588.99999999974307
 30
0.0
 11
427.65742499511413
 21
583.99999999974295
 31
0.0
  0
LINE
  5
638
  8
DATA
  6
CONTINUOUS
 62
     7
 10
432.33396217555008
 20
588.99999999974307
 30
0.0
 11
432.33396217555008
 21
583.99999999974295
 31
0.0
  0
LINE
  5
639
  8
DATA
  6
CONTINUOUS
 62
     7
 10
434.29596653161877
 20
588.99999999974307
 30
0.0
 11
434.29596653161877
 21
583.99999999974295
 31
0.0
  0
LINE
  5
63A
  8
DATA
  6
CONTINUOUS
 62
     7
 10
458.18289986610108
 20
588.99999999974307
 30
0.0
 11
458.18289986610108
 21
583.99999999974295
 31
0.0
  0
LINE
  5
63B
  8
DATA
  6
CONTINUOUS
 62
     7
 10
460.1574249951143
 20
588.99999999974307
 30
0.0
 11
460.1574249951143
 21
583.99999999974295
 31
0.0
  0
LINE
  5
63C
  8
DATA
  6
CONTINUOUS
 62
     7
 10
464.83396217555031
 20
588.99999999974307
 30
0.0
 11
464.83396217555031
 21
583.99999999974295
 31
0.0
  0
LINE
  5
63D
  8
DATA
  6
CONTINUOUS
 62
     7
 10
464.83396217555031
 20
588.99999999974307
 30
0.0
 11
460.1574249951143
 21
588.99999999974307
 31
0.0
  0
LINE
  5
63E
  8
DATA
  6
CONTINUOUS
 62
     7
 10
458.18289986610108
 20
588.99999999974307
 30
0.0
 11
434.29596653161877
 21
588.99999999974307
 31
0.0
  0
LINE
  5
63F
  8
DATA
  6
CONTINUOUS
 62
     7
 10
432.33396217555008
 20
588.99999999974307
 30
0.0
 11
427.65742499511413
 21
588.99999999974307
 31
0.0
  0
LINE
  5
640
  8
DATA
  6
CONTINUOUS
 62
     7
 10
323.06444981300638
 20
588.9999999996121
 30
0.0
 11
323.06444981300638
 21
583.9999999996121
 31
0.0
  0
LINE
  5
641
  8
DATA
  6
CONTINUOUS
 62
     7
 10
338.67458861979321
 20
588.9999999996121
 30
0.0
 11
338.67458861979321
 21
583.9999999996121
 31
0.0
  0
LINE
  5
642
  8
DATA
  6
CONTINUOUS
 62
     7
 10
316.02207000832169
 20
588.9999999996121
 30
0.0
 11
316.02207000832169
 21
583.9999999996121
 31
0.0
  0
LINE
  5
643
  8
DATA
  6
CONTINUOUS
 62
     7
 10
320.69860718875759
 20
588.9999999996121
 30
0.0
 11
320.69860718875759
 21
583.9999999996121
 31
0.0
  0
LINE
  5
644
  8
DATA
  6
CONTINUOUS
 62
     7
 10
341.02207000832169
 20
588.9999999996121
 30
0.0
 11
341.02207000832169
 21
583.9999999996121
 31
0.0
  0
LINE
  5
645
  8
DATA
  6
CONTINUOUS
 62
     7
 10
345.69860718875771
 20
588.9999999996121
 30
0.0
 11
345.69860718875771
 21
583.9999999996121
 31
0.0
  0
LINE
  5
646
  8
DATA
  6
CONTINUOUS
 62
     7
 10
316.02207000832169
 20
588.9999999996121
 30
0.0
 11
320.69860718875759
 21
588.9999999996121
 31
0.0
  0
LINE
  5
647
  8
DATA
  6
CONTINUOUS
 62
     7
 10
323.06444981300638
 20
588.9999999996121
 30
0.0
 11
338.67458861979321
 21
588.9999999996121
 31
0.0
  0
LINE
  5
648
  8
DATA
  6
CONTINUOUS
 62
     7
 10
341.02207000832169
 20
588.9999999996121
 30
0.0
 11
345.69860718875771
 21
588.9999999996121
 31
0.0
  0
POLYLINE
  5
649
  8
DATA
  6
CONTINUOUS
 62
     7
 66
     1
 10
0.0
 20
0.0
 30
0.0
 70
     1
  0
VERTEX
  5
BD8
  8
DATA
  6
CONTINUOUS
 62
     7
 10
602.18124352272594
 20
670.79212016480642
 30
0.0
  0
VERTEX
  5
BD9
  8
DATA
  6
CONTINUOUS
 62
     7
 10
599.29449217677768
 20
665.79212016480642
 30
0.0
  0
VERTEX
  5
BDA
  8
DATA
  6
CONTINUOUS
 62
     7
 10
602.18124352272594
 20
660.79212016480642
 30
0.0
  0
VERTEX
  5
BDB
  8
DATA
  6
CONTINUOUS
 62
     7
 10
607.95474621462222
 20
660.79212016480642
 30
0.0
  0
VERTEX
  5
BDC
  8
DATA
  6
CONTINUOUS
 62
     7
 10
610.84149756057025
 20
665.79212016480642
 30
0.0
  0
VERTEX
  5
BDD
  8
DATA
  6
CONTINUOUS
 62
     7
 10
607.95474621462222
 20
670.79212016480642
 30
0.0
  0
SEQEND
  5
BDE
  8
DATA
  6
CONTINUOUS
 62
     7
  0
LINE
  5
652
  8
DATA
  6
CONTINUOUS
 62
     7
 10
610.84149756057025
 20
585.49999999974295
 30
0.0
 11
599.29449217677768
 21
585.49999999974295
 31
0.0
  0
LINE
  5
653
  8
DATA
  6
CONTINUOUS
 62
     7
 10
599.29449217677768
 20
585.49999999974295
 30
0.0
 11
599.29449217677768
 21
583.99999999974295
 31
0.0
  0
LINE
  5
654
  8
DATA
  6
CONTINUOUS
 62
     7
 10
610.84149756057025
 20
585.49999999974295
 30
0.0
 11
610.84149756057025
 21
583.99999999974295
 31
0.0
  0
LINE
  5
655
  8
DATA
  6
CONTINUOUS
 62
     7
 10
602.18124352272594
 20
585.49999999974295
 30
0.0
 11
602.18124352272594
 21
583.99999999974295
 31
0.0
  0
LINE
  5
656
  8
DATA
  6
CONTINUOUS
 62
     7
 10
607.95474621462222
 20
585.49999999974295
 30
0.0
 11
607.95474621462222
 21
583.99999999974295
 31
0.0
  0
LINE
  5
657
  8
DATA
  6
CONTINUOUS
 62
     7
 10
601.16799486867399
 20
589.99999999974295
 30
0.0
 11
601.16799486867399
 21
585.49999999974295
 31
0.0
  0
LINE
  5
658
  8
DATA
  6
CONTINUOUS
 62
     7
 10
608.96799486867405
 20
589.99999999974295
 30
0.0
 11
608.96799486867405
 21
585.49999999974295
 31
0.0
  0
LINE
  5
659
  8
DATA
  6
CONTINUOUS
 62
     7
 10
601.16799486867399
 20
589.99999999974295
 30
0.0
 11
608.96799486867405
 21
589.99999999974295
 31
0.0
  0
LINE
  5
65A
  8
DATA
  6
CONTINUOUS
 62
     7
 10
622.5
 20
871.49999999977877
 30
0.0
 11
187.5
 21
871.49999999977877
 31
0.0
  0
LINE
  5
65B
  8
DATA
  6
CONTINUOUS
 62
     7
 10
622.5
 20
762.49999999977933
 30
0.0
 11
187.5
 21
762.49999999977933
 31
0.0
  0
ARC
  5
65C
  8
DATA
  6
CONTINUOUS
 62
     7
 10
595.56850960370411
 20
870.44999999977892
 30
0.0
 40
1.7500000000000451
 50
36.869897645841043
 51
143.13010235415891
  0
LINE
  5
65D
  8
DATA
  6
CONTINUOUS
 62
     7
 10
187.5
 20
871.49999999977877
 30
0.0
 11
187.5
 21
762.49999999977933
 31
0.0
  0
LINE
  5
65E
  8
DATA
  6
CONTINUOUS
 62
     7
 10
622.5
 20
871.49999999977877
 30
0.0
 11
622.5
 21
762.49999999977933
 31
0.0
  0
LINE
  5
65F
  8
DATA
  6
CONTINUOUS
 62
     7
 10
202.45695136427739
 20
757.49999999977933
 30
0.0
 11
202.45695136427739
 21
762.49999999977933
 31
0.0
  0
LINE
  5
660
  8
DATA
  6
CONTINUOUS
 62
     7
 10
207.13348854471329
 20
757.49999999977933
 30
0.0
 11
207.13348854471329
 21
762.49999999977933
 31
0.0
  0
LINE
  5
661
  8
DATA
  6
CONTINUOUS
 62
     7
 10
209.09549290078201
 20
757.49999999977933
 30
0.0
 11
209.09549290078201
 21
762.49999999977933
 31
0.0
  0
LINE
  5
662
  8
DATA
  6
CONTINUOUS
 62
     7
 10
232.98242623526451
 20
757.49999999977933
 30
0.0
 11
232.98242623526451
 21
762.49999999977933
 31
0.0
  0
LINE
  5
663
  8
DATA
  6
CONTINUOUS
 62
     7
 10
234.95695136427781
 20
757.49999999977933
 30
0.0
 11
234.95695136427781
 21
762.49999999977933
 31
0.0
  0
LINE
  5
664
  8
DATA
  6
CONTINUOUS
 62
     7
 10
239.6334885447136
 20
757.49999999977933
 30
0.0
 11
239.6334885447136
 21
762.49999999977933
 31
0.0
  0
LINE
  5
665
  8
DATA
  6
CONTINUOUS
 62
     7
 10
239.6334885447136
 20
757.49999999977933
 30
0.0
 11
234.95695136427781
 21
757.49999999977933
 31
0.0
  0
LINE
  5
666
  8
DATA
  6
CONTINUOUS
 62
     7
 10
232.98242623526451
 20
757.49999999977933
 30
0.0
 11
209.09549290078201
 21
757.49999999977933
 31
0.0
  0
LINE
  5
667
  8
DATA
  6
CONTINUOUS
 62
     7
 10
207.13348854471329
 20
757.49999999977933
 30
0.0
 11
202.45695136427739
 21
757.49999999977933
 31
0.0
  0
LINE
  5
668
  8
DATA
  6
CONTINUOUS
 62
     7
 10
556.65742499511407
 20
757.49999999977933
 30
0.0
 11
556.65742499511407
 21
762.49999999977933
 31
0.0
  0
LINE
  5
669
  8
DATA
  6
CONTINUOUS
 62
     7
 10
561.33396217555003
 20
757.49999999977933
 30
0.0
 11
561.33396217555003
 21
762.49999999977933
 31
0.0
  0
LINE
  5
66A
  8
DATA
  6
CONTINUOUS
 62
     7
 10
563.29596653161866
 20
757.49999999977933
 30
0.0
 11
563.29596653161866
 21
762.49999999977933
 31
0.0
  0
LINE
  5
66B
  8
DATA
  6
CONTINUOUS
 62
     7
 10
587.18289986610114
 20
757.49999999977933
 30
0.0
 11
587.18289986610114
 21
762.49999999977933
 31
0.0
  0
LINE
  5
66C
  8
DATA
  6
CONTINUOUS
 62
     7
 10
589.15742499511441
 20
757.49999999977933
 30
0.0
 11
589.15742499511441
 21
762.49999999977933
 31
0.0
  0
LINE
  5
66D
  8
DATA
  6
CONTINUOUS
 62
     7
 10
593.83396217555037
 20
757.49999999977933
 30
0.0
 11
593.83396217555037
 21
762.49999999977933
 31
0.0
  0
LINE
  5
66E
  8
DATA
  6
CONTINUOUS
 62
     7
 10
593.83396217555037
 20
757.49999999977933
 30
0.0
 11
589.15742499511441
 21
757.49999999977933
 31
0.0
  0
LINE
  5
66F
  8
DATA
  6
CONTINUOUS
 62
     7
 10
587.18289986610114
 20
757.49999999977933
 30
0.0
 11
563.29596653161866
 21
757.49999999977933
 31
0.0
  0
LINE
  5
670
  8
DATA
  6
CONTINUOUS
 62
     7
 10
561.33396217555003
 20
757.49999999977933
 30
0.0
 11
556.65742499511407
 21
757.49999999977933
 31
0.0
  0
LINE
  5
671
  8
DATA
  6
CONTINUOUS
 62
     7
 10
582.70499999999981
 20
872.99999999977865
 30
0.0
 11
578.29499999999985
 21
872.99999999977865
 31
0.0
  0
LINE
  5
672
  8
DATA
  6
CONTINUOUS
 62
     7
 10
578.29499999999985
 20
873.01042752615444
 30
0.0
 11
578.29499999999985
 21
871.49999999977877
 31
0.0
  0
LINE
  5
673
  8
DATA
  6
CONTINUOUS
 62
     7
 10
582.70499999999981
 20
873.01042752615444
 30
0.0
 11
582.70499999999981
 21
871.49999999977877
 31
0.0
  0
ARC
  5
674
  8
DATA
  6
CONTINUOUS
 62
     7
 10
504.49602319699562
 20
870.44999999977892
 30
0.0
 40
1.7500000000000451
 50
36.869897645841043
 51
143.13010235415899
  0
ARC
  5
675
  8
DATA
  6
CONTINUOUS
 62
     7
 10
490.49602319699568
 20
870.44999999977892
 30
0.0
 40
1.7500000000000451
 50
36.869897645841043
 51
143.13010235415899
  0
ARC
  5
676
  8
DATA
  6
CONTINUOUS
 62
     7
 10
476.49602319699568
 20
870.44999999977892
 30
0.0
 40
1.7500000000000451
 50
36.869897645841043
 51
143.13010235415899
  0
ARC
  5
677
  8
DATA
  6
CONTINUOUS
 62
     7
 10
462.49602319699562
 20
870.44999999977892
 30
0.0
 40
1.7500000000000451
 50
36.869897645841043
 51
143.13010235415891
  0
LINE
  5
678
  8
DATA
  6
CONTINUOUS
 62
     7
 10
421.49999999999989
 20
872.49999999977877
 30
0.0
 11
427.5
 21
872.49999999977877
 31
0.0
  0
LINE
  5
679
  8
DATA
  6
CONTINUOUS
 62
     7
 10
421.49999999999989
 20
872.49999999977877
 30
0.0
 11
421.49999999999989
 21
871.49999999977877
 31
0.0
  0
LINE
  5
67A
  8
DATA
  6
CONTINUOUS
 62
     7
 10
427.5
 20
872.49999999977877
 30
0.0
 11
427.5
 21
871.49999999977877
 31
0.0
  0
LINE
  5
67B
  8
DATA
  6
CONTINUOUS
 62
     7
 10
513.65742499511407
 20
757.49999999977933
 30
0.0
 11
513.65742499511407
 21
762.49999999977933
 31
0.0
  0
LINE
  5
67C
  8
DATA
  6
CONTINUOUS
 62
     7
 10
518.33396217555003
 20
757.49999999977933
 30
0.0
 11
518.33396217555003
 21
762.49999999977933
 31
0.0
  0
LINE
  5
67D
  8
DATA
  6
CONTINUOUS
 62
     7
 10
520.29596653161866
 20
757.49999999977933
 30
0.0
 11
520.29596653161866
 21
762.49999999977933
 31
0.0
  0
LINE
  5
67E
  8
DATA
  6
CONTINUOUS
 62
     7
 10
544.18289986610114
 20
757.49999999977933
 30
0.0
 11
544.18289986610114
 21
762.49999999977933
 31
0.0
  0
LINE
  5
67F
  8
DATA
  6
CONTINUOUS
 62
     7
 10
546.1574249951143
 20
757.49999999977933
 30
0.0
 11
546.1574249951143
 21
762.49999999977933
 31
0.0
  0
LINE
  5
680
  8
DATA
  6
CONTINUOUS
 62
     7
 10
550.83396217555025
 20
757.49999999977933
 30
0.0
 11
550.83396217555025
 21
762.49999999977933
 31
0.0
  0
LINE
  5
681
  8
DATA
  6
CONTINUOUS
 62
     7
 10
550.83396217555025
 20
757.49999999977933
 30
0.0
 11
546.1574249951143
 21
757.49999999977933
 31
0.0
  0
LINE
  5
682
  8
DATA
  6
CONTINUOUS
 62
     7
 10
544.18289986610114
 20
757.49999999977933
 30
0.0
 11
520.29596653161866
 21
757.49999999977933
 31
0.0
  0
LINE
  5
683
  8
DATA
  6
CONTINUOUS
 62
     7
 10
518.33396217555003
 20
757.49999999977933
 30
0.0
 11
513.65742499511407
 21
757.49999999977933
 31
0.0
  0
LINE
  5
684
  8
DATA
  6
CONTINUOUS
 62
     7
 10
470.65742499511418
 20
757.49999999977933
 30
0.0
 11
470.65742499511418
 21
762.49999999977933
 31
0.0
  0
LINE
  5
685
  8
DATA
  6
CONTINUOUS
 62
     7
 10
475.33396217555003
 20
757.49999999977933
 30
0.0
 11
475.33396217555003
 21
762.49999999977933
 31
0.0
  0
LINE
  5
686
  8
DATA
  6
CONTINUOUS
 62
     7
 10
477.29596653161877
 20
757.49999999977933
 30
0.0
 11
477.29596653161877
 21
762.49999999977933
 31
0.0
  0
LINE
  5
687
  8
DATA
  6
CONTINUOUS
 62
     7
 10
501.18289986610108
 20
757.49999999977933
 30
0.0
 11
501.18289986610108
 21
762.49999999977933
 31
0.0
  0
LINE
  5
688
  8
DATA
  6
CONTINUOUS
 62
     7
 10
503.1574249951143
 20
757.49999999977933
 30
0.0
 11
503.1574249951143
 21
762.49999999977933
 31
0.0
  0
LINE
  5
689
  8
DATA
  6
CONTINUOUS
 62
     7
 10
507.8339621755502
 20
757.49999999977933
 30
0.0
 11
507.8339621755502
 21
762.49999999977933
 31
0.0
  0
LINE
  5
68A
  8
DATA
  6
CONTINUOUS
 62
     7
 10
507.8339621755502
 20
757.49999999977933
 30
0.0
 11
503.1574249951143
 21
757.49999999977933
 31
0.0
  0
LINE
  5
68B
  8
DATA
  6
CONTINUOUS
 62
     7
 10
501.18289986610108
 20
757.49999999977933
 30
0.0
 11
477.29596653161877
 21
757.49999999977933
 31
0.0
  0
LINE
  5
68C
  8
DATA
  6
CONTINUOUS
 62
     7
 10
475.33396217555003
 20
757.49999999977933
 30
0.0
 11
470.65742499511418
 21
757.49999999977933
 31
0.0
  0
LINE
  5
68D
  8
DATA
  6
CONTINUOUS
 62
     7
 10
427.65742499511413
 20
757.49999999977933
 30
0.0
 11
427.65742499511413
 21
762.49999999977933
 31
0.0
  0
LINE
  5
68E
  8
DATA
  6
CONTINUOUS
 62
     7
 10
432.33396217555008
 20
757.49999999977933
 30
0.0
 11
432.33396217555008
 21
762.49999999977933
 31
0.0
  0
LINE
  5
68F
  8
DATA
  6
CONTINUOUS
 62
     7
 10
434.29596653161877
 20
757.49999999977933
 30
0.0
 11
434.29596653161877
 21
762.49999999977933
 31
0.0
  0
LINE
  5
690
  8
DATA
  6
CONTINUOUS
 62
     7
 10
458.18289986610108
 20
757.49999999977933
 30
0.0
 11
458.18289986610108
 21
762.49999999977933
 31
0.0
  0
LINE
  5
691
  8
DATA
  6
CONTINUOUS
 62
     7
 10
460.1574249951143
 20
757.49999999977933
 30
0.0
 11
460.1574249951143
 21
762.49999999977933
 31
0.0
  0
LINE
  5
692
  8
DATA
  6
CONTINUOUS
 62
     7
 10
464.83396217555031
 20
757.49999999977933
 30
0.0
 11
464.83396217555031
 21
762.49999999977933
 31
0.0
  0
LINE
  5
693
  8
DATA
  6
CONTINUOUS
 62
     7
 10
464.83396217555031
 20
757.49999999977933
 30
0.0
 11
460.1574249951143
 21
757.49999999977933
 31
0.0
  0
LINE
  5
694
  8
DATA
  6
CONTINUOUS
 62
     7
 10
458.18289986610108
 20
757.49999999977933
 30
0.0
 11
434.29596653161877
 21
757.49999999977933
 31
0.0
  0
LINE
  5
695
  8
DATA
  6
CONTINUOUS
 62
     7
 10
432.33396217555008
 20
757.49999999977933
 30
0.0
 11
427.65742499511413
 21
757.49999999977933
 31
0.0
  0
LINE
  5
696
  8
DATA
  6
CONTINUOUS
 62
     7
 10
323.06444981300638
 20
757.4999999999103
 30
0.0
 11
323.06444981300638
 21
762.49999999991019
 31
0.0
  0
LINE
  5
697
  8
DATA
  6
CONTINUOUS
 62
     7
 10
338.67458861979321
 20
757.4999999999103
 30
0.0
 11
338.67458861979321
 21
762.49999999991019
 31
0.0
  0
LINE
  5
698
  8
DATA
  6
CONTINUOUS
 62
     7
 10
316.02207000832169
 20
757.4999999999103
 30
0.0
 11
316.02207000832169
 21
762.49999999991019
 31
0.0
  0
LINE
  5
699
  8
DATA
  6
CONTINUOUS
 62
     7
 10
320.69860718875759
 20
757.4999999999103
 30
0.0
 11
320.69860718875759
 21
762.49999999991019
 31
0.0
  0
LINE
  5
69A
  8
DATA
  6
CONTINUOUS
 62
     7
 10
341.02207000832169
 20
757.4999999999103
 30
0.0
 11
341.02207000832169
 21
762.49999999991019
 31
0.0
  0
LINE
  5
69B
  8
DATA
  6
CONTINUOUS
 62
     7
 10
345.69860718875771
 20
757.4999999999103
 30
0.0
 11
345.69860718875771
 21
762.49999999991019
 31
0.0
  0
LINE
  5
69C
  8
DATA
  6
CONTINUOUS
 62
     7
 10
316.02207000832169
 20
757.4999999999103
 30
0.0
 11
320.69860718875759
 21
757.4999999999103
 31
0.0
  0
LINE
  5
69D
  8
DATA
  6
CONTINUOUS
 62
     7
 10
323.06444981300638
 20
757.4999999999103
 30
0.0
 11
338.67458861979321
 21
757.4999999999103
 31
0.0
  0
LINE
  5
69E
  8
DATA
  6
CONTINUOUS
 62
     7
 10
341.02207000832169
 20
757.4999999999103
 30
0.0
 11
345.69860718875771
 21
757.4999999999103
 31
0.0
  0
LINE
  5
69F
  8
DATA
  6
CONTINUOUS
 62
     7
 10
610.84149756057025
 20
760.99999999977933
 30
0.0
 11
599.29449217677768
 21
760.99999999977933
 31
0.0
  0
LINE
  5
6A0
  8
DATA
  6
CONTINUOUS
 62
     7
 10
599.29449217677768
 20
760.99999999977933
 30
0.0
 11
599.29449217677768
 21
762.49999999977933
 31
0.0
  0
LINE
  5
6A1
  8
DATA
  6
CONTINUOUS
 62
     7
 10
610.84149756057025
 20
760.99999999977933
 30
0.0
 11
610.84149756057025
 21
762.49999999977933
 31
0.0
  0
LINE
  5
6A2
  8
DATA
  6
CONTINUOUS
 62
     7
 10
602.18124352272594
 20
760.99999999977933
 30
0.0
 11
602.18124352272594
 21
762.49999999977933
 31
0.0
  0
LINE
  5
6A3
  8
DATA
  6
CONTINUOUS
 62
     7
 10
607.95474621462222
 20
760.99999999977933
 30
0.0
 11
607.95474621462222
 21
762.49999999977933
 31
0.0
  0
LINE
  5
6A4
  8
DATA
  6
CONTINUOUS
 62
     7
 10
601.16799486867399
 20
756.49999999977933
 30
0.0
 11
601.16799486867399
 21
760.99999999977933
 31
0.0
  0
LINE
  5
6A5
  8
DATA
  6
CONTINUOUS
 62
     7
 10
608.96799486867405
 20
756.49999999977933
 30
0.0
 11
608.96799486867405
 21
760.99999999977933
 31
0.0
  0
LINE
  5
6A6
  8
DATA
  6
CONTINUOUS
 62
     7
 10
601.16799486867399
 20
756.49999999977933
 30
0.0
 11
608.96799486867405
 21
756.49999999977933
 31
0.0
  0
LINE
  5
6A7
  8
DATA
  6
CONTINUOUS
 62
     7
 10
594.5
 20
836.49999999977877
 30
0.0
 11
594.5
 21
802.49999999977865
 31
0.0
  0
LINE
  5
6A8
  8
DATA
  6
CONTINUOUS
 62
     7
 10
622.5
 20
771.59999999977936
 30
0.0
 11
187.5
 21
771.59999999977936
 31
0.0
  0
LINE
  5
6A9
  8
DATA
  6
CONTINUOUS
 62
     7
 10
587.19999999999982
 20
836.49999999977877
 30
0.0
 11
587.19999999999982
 21
802.49999999977865
 31
0.0
  0
LINE
  5
6AA
  8
DATA
  6
CONTINUOUS
 62
     7
 10
622.5
 20
871.49999999977877
 30
0.0
 11
561.39999999999998
 21
871.49999999977877
 31
0.0
  0
LINE
  5
6AB
  8
DATA
  6
CONTINUOUS
 62
     7
 10
594.5
 20
836.49999999977877
 30
0.0
 11
587.19999999999982
 21
836.49999999977877
 31
0.0
  0
LINE
  5
6AC
  8
DATA
  6
CONTINUOUS
 62
     7
 10
594.5
 20
802.49999999977865
 30
0.0
 11
587.19999999999982
 21
802.49999999977865
 31
0.0
  0
LINE
  5
6AD
  8
DATA
  6
CONTINUOUS
 62
     7
 10
594.5
 20
824.49999999977865
 30
0.0
 11
587.19999999999982
 21
824.49999999977865
 31
0.0
  0
POLYLINE
  5
6AE
  8
DATA
  6
CONTINUOUS
 62
     7
 66
     1
 10
0.0
 20
0.0
 30
0.0
 70
     1
  0
VERTEX
  5
BDF
  8
DATA
  6
CONTINUOUS
 62
     7
 10
589.57700070944065
 20
805.19480519987417
 30
0.0
  0
VERTEX
  5
BE0
  8
DATA
  6
CONTINUOUS
 62
     7
 10
592.07700070944065
 20
805.19480519987417
 30
0.0
  0
VERTEX
  5
BE1
  8
DATA
  6
CONTINUOUS
 62
     7
 10
592.07700070944065
 20
804.19480519987417
 30
0.0
  0
VERTEX
  5
BE2
  8
DATA
  6
CONTINUOUS
 62
     7
 10
589.57700070944065
 20
804.19480519987417
 30
0.0
  0
SEQEND
  5
BE3
  8
DATA
  6
CONTINUOUS
 62
     7
  0
LINE
  5
6B5
  8
DATA
  6
CONTINUOUS
 62
     7
 10
590.82700070944065
 20
804.19480519987417
 30
0.0
 11
590.82700070944065
 21
805.19480519987417
 31
0.0
  0
TEXT
  5
6B6
  8
DATA
 62
     7
 10
588.92070410985355
 20
803.36903622473756
 30
0.0
 40
1.085894097222222
  1
ON
 50
90.0
 41
0.7
 11
587.83481001263135
 21
803.36903622473756
 31
0.0
 73
     3
  0
TEXT
  5
6B7
  8
DATA
 62
     7
 10
593.72079482534389
 20
804.32276440863302
 30
0.0
 40
1.085894097222222
  1
1
 50
90.0
 41
0.7
 11
592.63490072812158
 21
804.32276440863302
 31
0.0
 73
     3
  0
POLYLINE
  5
6B8
  8
DATA
  6
CONTINUOUS
 62
     7
 66
     1
 10
0.0
 20
0.0
 30
0.0
 70
     1
  0
VERTEX
  5
BE4
  8
DATA
  6
CONTINUOUS
 62
     7
 10
589.57700070944065
 20
807.69480519987417
 30
0.0
  0
VERTEX
  5
BE5
  8
DATA
  6
CONTINUOUS
 62
     7
 10
592.07700070944065
 20
807.69480519987417
 30
0.0
  0
VERTEX
  5
BE6
  8
DATA
  6
CONTINUOUS
 62
     7
 10
592.07700070944065
 20
806.69480519987428
 30
0.0
  0
VERTEX
  5
BE7
  8
DATA
  6
CONTINUOUS
 62
     7
 10
589.57700070944065
 20
806.69480519987428
 30
0.0
  0
SEQEND
  5
BE8
  8
DATA
  6
CONTINUOUS
 62
     7
  0
LINE
  5
6BF
  8
DATA
  6
CONTINUOUS
 62
     7
 10
590.82700070944065
 20
806.69480519987428
 30
0.0
 11
590.82700070944065
 21
807.69480519987417
 31
0.0
  0
TEXT
  5
6C0
  8
DATA
 62
     7
 10
593.72079482534389
 20
806.82276440863313
 30
0.0
 40
1.085894097222222
  1
2
 50
90.0
 41
0.7
 11
592.63490072812158
 21
806.82276440863313
 31
0.0
 73
     3
  0
POLYLINE
  5
6C1
  8
DATA
  6
CONTINUOUS
 62
     7
 66
     1
 10
0.0
 20
0.0
 30
0.0
 70
     1
  0
VERTEX
  5
BE9
  8
DATA
  6
CONTINUOUS
 62
     7
 10
589.57700070944065
 20
810.19480519987428
 30
0.0
  0
VERTEX
  5
BEA
  8
DATA
  6
CONTINUOUS
 62
     7
 10
592.07700070944065
 20
810.19480519987428
 30
0.0
  0
VERTEX
  5
BEB
  8
DATA
  6
CONTINUOUS
 62
     7
 10
592.07700070944065
 20
809.19480519987428
 30
0.0
  0
VERTEX
  5
BEC
  8
DATA
  6
CONTINUOUS
 62
     7
 10
589.57700070944065
 20
809.19480519987428
 30
0.0
  0
SEQEND
  5
BED
  8
DATA
  6
CONTINUOUS
 62
     7
  0
LINE
  5
6C8
  8
DATA
  6
CONTINUOUS
 62
     7
 10
590.82700070944065
 20
809.19480519987428
 30
0.0
 11
590.82700070944065
 21
810.19480519987428
 31
0.0
  0
TEXT
  5
6C9
  8
DATA
 62
     7
 10
593.72079482534389
 20
809.32276440863291
 30
0.0
 40
1.085894097222222
  1
3
 50
90.0
 41
0.7
 11
592.63490072812158
 21
809.32276440863291
 31
0.0
 73
     3
  0
POLYLINE
  5
6CA
  8
DATA
  6
CONTINUOUS
 62
     7
 66
     1
 10
0.0
 20
0.0
 30
0.0
 70
     1
  0
VERTEX
  5
BEE
  8
DATA
  6
CONTINUOUS
 62
     7
 10
589.57700070944065
 20
812.69480519987428
 30
0.0
  0
VERTEX
  5
BEF
  8
DATA
  6
CONTINUOUS
 62
     7
 10
592.07700070944065
 20
812.69480519987428
 30
0.0
  0
VERTEX
  5
BF0
  8
DATA
  6
CONTINUOUS
 62
     7
 10
592.07700070944065
 20
811.69480519987428
 30
0.0
  0
VERTEX
  5
BF1
  8
DATA
  6
CONTINUOUS
 62
     7
 10
589.57700070944065
 20
811.69480519987428
 30
0.0
  0
SEQEND
  5
BF2
  8
DATA
  6
CONTINUOUS
 62
     7
  0
LINE
  5
6D1
  8
DATA
  6
CONTINUOUS
 62
     7
 10
590.82700070944065
 20
811.69480519987428
 30
0.0
 11
590.82700070944065
 21
812.69480519987428
 31
0.0
  0
TEXT
  5
6D2
  8
DATA
 62
     7
 10
593.72079482534389
 20
811.82276440863302
 30
0.0
 40
1.085894097222222
  1
4
 50
90.0
 41
0.7
 11
592.63490072812158
 21
811.82276440863302
 31
0.0
 73
     3
  0
POLYLINE
  5
6D3
  8
DATA
  6
CONTINUOUS
 62
     7
 66
     1
 10
0.0
 20
0.0
 30
0.0
 70
     1
  0
VERTEX
  5
BF3
  8
DATA
  6
CONTINUOUS
 62
     7
 10
589.57700070944065
 20
815.19480519987417
 30
0.0
  0
VERTEX
  5
BF4
  8
DATA
  6
CONTINUOUS
 62
     7
 10
592.07700070944065
 20
815.19480519987417
 30
0.0
  0
VERTEX
  5
BF5
  8
DATA
  6
CONTINUOUS
 62
     7
 10
592.07700070944065
 20
814.19480519987417
 30
0.0
  0
VERTEX
  5
BF6
  8
DATA
  6
CONTINUOUS
 62
     7
 10
589.57700070944065
 20
814.19480519987417
 30
0.0
  0
SEQEND
  5
BF7
  8
DATA
  6
CONTINUOUS
 62
     7
  0
LINE
  5
6DA
  8
DATA
  6
CONTINUOUS
 62
     7
 10
590.82700070944065
 20
814.19480519987417
 30
0.0
 11
590.82700070944065
 21
815.19480519987417
 31
0.0
  0
TEXT
  5
6DB
  8
DATA
 62
     7
 10
593.72079482534389
 20
814.32276440863302
 30
0.0
 40
1.085894097222222
  1
5
 50
90.0
 41
0.7
 11
592.63490072812158
 21
814.32276440863302
 31
0.0
 73
     3
  0
POLYLINE
  5
6DC
  8
DATA
  6
CONTINUOUS
 62
     7
 66
     1
 10
0.0
 20
0.0
 30
0.0
 70
     1
  0
VERTEX
  5
BF8
  8
DATA
  6
CONTINUOUS
 62
     7
 10
589.57700070944065
 20
817.69480519987417
 30
0.0
  0
VERTEX
  5
BF9
  8
DATA
  6
CONTINUOUS
 62
     7
 10
592.07700070944065
 20
817.69480519987417
 30
0.0
  0
VERTEX
  5
BFA
  8
DATA
  6
CONTINUOUS
 62
     7
 10
592.07700070944065
 20
816.69480519987417
 30
0.0
  0
VERTEX
  5
BFB
  8
DATA
  6
CONTINUOUS
 62
     7
 10
589.57700070944065
 20
816.69480519987417
 30
0.0
  0
SEQEND
  5
BFC
  8
DATA
  6
CONTINUOUS
 62
     7
  0
LINE
  5
6E3
  8
DATA
  6
CONTINUOUS
 62
     7
 10
590.82700070944065
 20
816.69480519987417
 30
0.0
 11
590.82700070944065
 21
817.69480519987417
 31
0.0
  0
TEXT
  5
6E4
  8
DATA
 62
     7
 10
593.72079482534389
 20
816.82276440863302
 30
0.0
 40
1.085894097222222
  1
6
 50
90.0
 41
0.7
 11
592.63490072812158
 21
816.82276440863302
 31
0.0
 73
     3
  0
POLYLINE
  5
6E5
  8
DATA
  6
CONTINUOUS
 62
     7
 66
     1
 10
0.0
 20
0.0
 30
0.0
 70
     1
  0
VERTEX
  5
BFD
  8
DATA
  6
CONTINUOUS
 62
     7
 10
589.57700070944065
 20
820.19480519987417
 30
0.0
  0
VERTEX
  5
BFE
  8
DATA
  6
CONTINUOUS
 62
     7
 10
592.07700070944065
 20
820.19480519987417
 30
0.0
  0
VERTEX
  5
BFF
  8
DATA
  6
CONTINUOUS
 62
     7
 10
592.07700070944065
 20
819.19480519987428
 30
0.0
  0
VERTEX
  5
C00
  8
DATA
  6
CONTINUOUS
 62
     7
 10
589.57700070944065
 20
819.19480519987428
 30
0.0
  0
SEQEND
  5
C01
  8
DATA
  6
CONTINUOUS
 62
     7
  0
LINE
  5
6EC
  8
DATA
  6
CONTINUOUS
 62
     7
 10
590.82700070944065
 20
819.19480519987428
 30
0.0
 11
590.82700070944065
 21
820.19480519987417
 31
0.0
  0
TEXT
  5
6ED
  8
DATA
 62
     7
 10
593.72079482534389
 20
819.32276440863313
 30
0.0
 40
1.085894097222222
  1
7
 50
90.0
 41
0.7
 11
592.63490072812158
 21
819.32276440863313
 31
0.0
 73
     3
  0
POLYLINE
  5
6EE
  8
DATA
  6
CONTINUOUS
 62
     7
 66
     1
 10
0.0
 20
0.0
 30
0.0
 70
     1
  0
VERTEX
  5
C02
  8
DATA
  6
CONTINUOUS
 62
     7
 10
589.57700070944065
 20
822.69480519987428
 30
0.0
  0
VERTEX
  5
C03
  8
DATA
  6
CONTINUOUS
 62
     7
 10
592.07700070944065
 20
822.69480519987428
 30
0.0
  0
VERTEX
  5
C04
  8
DATA
  6
CONTINUOUS
 62
     7
 10
592.07700070944065
 20
821.69480519987428
 30
0.0
  0
VERTEX
  5
C05
  8
DATA
  6
CONTINUOUS
 62
     7
 10
589.57700070944065
 20
821.69480519987428
 30
0.0
  0
SEQEND
  5
C06
  8
DATA
  6
CONTINUOUS
 62
     7
  0
LINE
  5
6F5
  8
DATA
  6
CONTINUOUS
 62
     7
 10
590.82700070944065
 20
821.69480519987428
 30
0.0
 11
590.82700070944065
 21
822.69480519987428
 31
0.0
  0
TEXT
  5
6F6
  8
DATA
 62
     7
 10
593.72079482534389
 20
821.82276440863291
 30
0.0
 40
1.085894097222222
  1
8
 50
90.0
 41
0.7
 11
592.63490072812158
 21
821.82276440863291
 31
0.0
 73
     3
  0
POLYLINE
  5
6F7
  8
DATA
  6
CONTINUOUS
 62
     7
 66
     1
 10
0.0
 20
0.0
 30
0.0
 70
     1
  0
VERTEX
  5
C07
  8
DATA
  6
CONTINUOUS
 62
     7
 10
589.57700070944065
 20
827.25983823517765
 30
0.0
  0
VERTEX
  5
C08
  8
DATA
  6
CONTINUOUS
 62
     7
 10
592.07700070944065
 20
827.25983823517765
 30
0.0
  0
VERTEX
  5
C09
  8
DATA
  6
CONTINUOUS
 62
     7
 10
592.07700070944065
 20
826.25983823517765
 30
0.0
  0
VERTEX
  5
C0A
  8
DATA
  6
CONTINUOUS
 62
     7
 10
589.57700070944065
 20
826.25983823517765
 30
0.0
  0
SEQEND
  5
C0B
  8
DATA
  6
CONTINUOUS
 62
     7
  0
LINE
  5
6FE
  8
DATA
  6
CONTINUOUS
 62
     7
 10
590.82700070944065
 20
826.25983823517765
 30
0.0
 11
590.82700070944065
 21
827.25983823517765
 31
0.0
  0
TEXT
  5
6FF
  8
DATA
 62
     7
 10
593.72079482534389
 20
826.38779744393651
 30
0.0
 40
1.085894097222222
  1
1
 50
90.0
 41
0.7
 11
592.63490072812158
 21
826.38779744393651
 31
0.0
 73
     3
  0
POLYLINE
  5
700
  8
DATA
  6
CONTINUOUS
 62
     7
 66
     1
 10
0.0
 20
0.0
 30
0.0
 70
     1
  0
VERTEX
  5
C0C
  8
DATA
  6
CONTINUOUS
 62
     7
 10
589.57700070944065
 20
829.75983823517765
 30
0.0
  0
VERTEX
  5
C0D
  8
DATA
  6
CONTINUOUS
 62
     7
 10
592.07700070944065
 20
829.75983823517765
 30
0.0
  0
VERTEX
  5
C0E
  8
DATA
  6
CONTINUOUS
 62
     7
 10
592.07700070944065
 20
828.75983823517765
 30
0.0
  0
VERTEX
  5
C0F
  8
DATA
  6
CONTINUOUS
 62
     7
 10
589.57700070944065
 20
828.75983823517765
 30
0.0
  0
SEQEND
  5
C10
  8
DATA
  6
CONTINUOUS
 62
     7
  0
LINE
  5
707
  8
DATA
  6
CONTINUOUS
 62
     7
 10
590.82700070944065
 20
828.75983823517765
 30
0.0
 11
590.82700070944065
 21
829.75983823517765
 31
0.0
  0
TEXT
  5
708
  8
DATA
 62
     7
 10
593.72079482534389
 20
828.88779744393651
 30
0.0
 40
1.085894097222222
  1
2
 50
90.0
 41
0.7
 11
592.63490072812158
 21
828.88779744393651
 31
0.0
 73
     3
  0
POLYLINE
  5
709
  8
DATA
  6
CONTINUOUS
 62
     7
 66
     1
 10
0.0
 20
0.0
 30
0.0
 70
     1
  0
VERTEX
  5
C11
  8
DATA
  6
CONTINUOUS
 62
     7
 10
589.57700070944065
 20
832.25983823517765
 30
0.0
  0
VERTEX
  5
C12
  8
DATA
  6
CONTINUOUS
 62
     7
 10
592.07700070944065
 20
832.25983823517765
 30
0.0
  0
VERTEX
  5
C13
  8
DATA
  6
CONTINUOUS
 62
     7
 10
592.07700070944065
 20
831.25983823517777
 30
0.0
  0
VERTEX
  5
C14
  8
DATA
  6
CONTINUOUS
 62
     7
 10
589.57700070944065
 20
831.25983823517777
 30
0.0
  0
SEQEND
  5
C15
  8
DATA
  6
CONTINUOUS
 62
     7
  0
LINE
  5
710
  8
DATA
  6
CONTINUOUS
 62
     7
 10
590.82700070944065
 20
831.25983823517777
 30
0.0
 11
590.82700070944065
 21
832.25983823517765
 31
0.0
  0
TEXT
  5
711
  8
DATA
 62
     7
 10
593.72079482534389
 20
831.38779744393639
 30
0.0
 40
1.085894097222222
  1
3
 50
90.0
 41
0.7
 11
592.63490072812158
 21
831.38779744393639
 31
0.0
 73
     3
  0
POLYLINE
  5
712
  8
DATA
  6
CONTINUOUS
 62
     7
 66
     1
 10
0.0
 20
0.0
 30
0.0
 70
     1
  0
VERTEX
  5
C16
  8
DATA
  6
CONTINUOUS
 62
     7
 10
589.57700070944065
 20
834.75983823517777
 30
0.0
  0
VERTEX
  5
C17
  8
DATA
  6
CONTINUOUS
 62
     7
 10
592.07700070944065
 20
834.75983823517777
 30
0.0
  0
VERTEX
  5
C18
  8
DATA
  6
CONTINUOUS
 62
     7
 10
592.07700070944065
 20
833.75983823517777
 30
0.0
  0
VERTEX
  5
C19
  8
DATA
  6
CONTINUOUS
 62
     7
 10
589.57700070944065
 20
833.75983823517777
 30
0.0
  0
SEQEND
  5
C1A
  8
DATA
  6
CONTINUOUS
 62
     7
  0
LINE
  5
719
  8
DATA
  6
CONTINUOUS
 62
     7
 10
590.82700070944065
 20
833.75983823517777
 30
0.0
 11
590.82700070944065
 21
834.75983823517777
 31
0.0
  0
TEXT
  5
71A
  8
DATA
 62
     7
 10
593.72079482534389
 20
833.88779744393639
 30
0.0
 40
1.085894097222222
  1
4
 50
90.0
 41
0.7
 11
592.63490072812158
 21
833.88779744393639
 31
0.0
 73
     3
  0
TEXT
  5
71B
  8
DATA
 62
     7
 10
588.92070410985355
 20
826.6239207322152
 30
0.0
 40
1.085894097222222
  1
ON
 50
90.0
 41
0.7
 11
587.83481001263135
 21
826.6239207322152
 31
0.0
 73
     3
  0
LINE
  5
71C
  8
DATA
  6
CONTINUOUS
 62
     7
 10
815.23749999999995
 20
894.25
 30
0.0
 11
815.23749999999995
 21
562.74999999999977
 31
0.0
  0
LINE
  5
71D
  8
DATA
  6
CONTINUOUS
 62
     7
 10
744.06249999999966
 20
894.25
 30
0.0
 11
744.06249999999966
 21
562.74999999999977
 31
0.0
  0
LINE
  5
71E
  8
DATA
  6
CONTINUOUS
 62
     7
 10
815.23749999999995
 20
894.25
 30
0.0
 11
744.06249999999966
 21
894.25
 31
0.0
  0
LINE
  5
71F
  8
DATA
  6
CONTINUOUS
 62
     7
 10
815.23749999999995
 20
562.74999999999977
 30
0.0
 11
744.06249999999966
 21
562.74999999999977
 31
0.0
  0
LINE
  5
720
  8
DATA
  6
CONTINUOUS
 62
     7
 10
815.23749999999995
 20
777.24999999999989
 30
0.0
 11
744.06249999999966
 21
777.24999999999989
 31
0.0
  0
POLYLINE
  5
721
  8
DATA
  6
CONTINUOUS
 62
     7
 66
     1
 10
0.0
 20
0.0
 30
0.0
 70
     1
  0
VERTEX
  5
C1B
  8
DATA
  6
CONTINUOUS
 62
     7
 10
767.23825691704747
 20
589.02435070093168
 30
0.0
  0
VERTEX
  5
C1C
  8
DATA
  6
CONTINUOUS
 62
     7
 10
791.61325691704735
 20
589.02435070093168
 30
0.0
  0
VERTEX
  5
C1D
  8
DATA
  6
CONTINUOUS
 62
     7
 10
791.61325691704735
 20
579.27435070093156
 30
0.0
  0
VERTEX
  5
C1E
  8
DATA
  6
CONTINUOUS
 62
     7
 10
767.23825691704747
 20
579.27435070093156
 30
0.0
  0
SEQEND
  5
C1F
  8
DATA
  6
CONTINUOUS
 62
     7
  0
LINE
  5
728
  8
DATA
  6
CONTINUOUS
 62
     7
 10
779.42575691704747
 20
579.27435070093156
 30
0.0
 11
779.42575691704747
 21
589.02435070093168
 31
0.0
  0
TEXT
  5
729
  8
DATA
 62
     7
 10
760.83936507107205
 20
571.22310319334781
 30
0.0
 40
10.58746744791666
  1
ON
 50
90.0
 41
0.7
 11
750.2518976231554
 21
571.22310319334781
 31
0.0
 73
     3
  0
TEXT
  5
72A
  8
DATA
 62
     7
 10
807.64024954710396
 20
580.5219529863283
 30
0.0
 40
10.58746744791666
  1
1
 50
90.0
 41
0.7
 11
797.05278209918731
 21
580.5219529863283
 31
0.0
 73
     3
  0
POLYLINE
  5
72B
  8
DATA
  6
CONTINUOUS
 62
     7
 66
     1
 10
0.0
 20
0.0
 30
0.0
 70
     1
  0
VERTEX
  5
C20
  8
DATA
  6
CONTINUOUS
 62
     7
 10
767.23825691704747
 20
613.39935070093156
 30
0.0
  0
VERTEX
  5
C21
  8
DATA
  6
CONTINUOUS
 62
     7
 10
791.61325691704735
 20
613.39935070093156
 30
0.0
  0
VERTEX
  5
C22
  8
DATA
  6
CONTINUOUS
 62
     7
 10
791.61325691704735
 20
603.64935070093168
 30
0.0
  0
VERTEX
  5
C23
  8
DATA
  6
CONTINUOUS
 62
     7
 10
767.23825691704747
 20
603.64935070093168
 30
0.0
  0
SEQEND
  5
C24
  8
DATA
  6
CONTINUOUS
 62
     7
  0
LINE
  5
732
  8
DATA
  6
CONTINUOUS
 62
     7
 10
779.42575691704747
 20
603.64935070093168
 30
0.0
 11
779.42575691704747
 21
613.39935070093156
 31
0.0
  0
TEXT
  5
733
  8
DATA
 62
     7
 10
807.64024954710396
 20
604.8969529863283
 30
0.0
 40
10.58746744791666
  1
2
 50
90.0
 41
0.7
 11
797.05278209918731
 21
604.8969529863283
 31
0.0
 73
     3
  0
POLYLINE
  5
734
  8
DATA
  6
CONTINUOUS
 62
     7
 66
     1
 10
0.0
 20
0.0
 30
0.0
 70
     1
  0
VERTEX
  5
C25
  8
DATA
  6
CONTINUOUS
 62
     7
 10
767.23825691704747
 20
637.77435070093156
 30
0.0
  0
VERTEX
  5
C26
  8
DATA
  6
CONTINUOUS
 62
     7
 10
791.61325691704735
 20
637.77435070093156
 30
0.0
  0
VERTEX
  5
C27
  8
DATA
  6
CONTINUOUS
 62
     7
 10
791.61325691704735
 20
628.02435070093156
 30
0.0
  0
VERTEX
  5
C28
  8
DATA
  6
CONTINUOUS
 62
     7
 10
767.23825691704747
 20
628.02435070093156
 30
0.0
  0
SEQEND
  5
C29
  8
DATA
  6
CONTINUOUS
 62
     7
  0
LINE
  5
73B
  8
DATA
  6
CONTINUOUS
 62
     7
 10
779.42575691704747
 20
628.02435070093156
 30
0.0
 11
779.42575691704747
 21
637.77435070093156
 31
0.0
  0
TEXT
  5
73C
  8
DATA
 62
     7
 10
807.64024954710396
 20
629.27195298632819
 30
0.0
 40
10.58746744791666
  1
3
 50
90.0
 41
0.7
 11
797.05278209918731
 21
629.27195298632819
 31
0.0
 73
     3
  0
POLYLINE
  5
73D
  8
DATA
  6
CONTINUOUS
 62
     7
 66
     1
 10
0.0
 20
0.0
 30
0.0
 70
     1
  0
VERTEX
  5
C2A
  8
DATA
  6
CONTINUOUS
 62
     7
 10
767.23825691704747
 20
662.14935070093168
 30
0.0
  0
VERTEX
  5
C2B
  8
DATA
  6
CONTINUOUS
 62
     7
 10
791.61325691704735
 20
662.14935070093168
 30
0.0
  0
VERTEX
  5
C2C
  8
DATA
  6
CONTINUOUS
 62
     7
 10
791.61325691704735
 20
652.39935070093168
 30
0.0
  0
VERTEX
  5
C2D
  8
DATA
  6
CONTINUOUS
 62
     7
 10
767.23825691704747
 20
652.39935070093168
 30
0.0
  0
SEQEND
  5
C2E
  8
DATA
  6
CONTINUOUS
 62
     7
  0
LINE
  5
744
  8
DATA
  6
CONTINUOUS
 62
     7
 10
779.42575691704747
 20
652.39935070093168
 30
0.0
 11
779.42575691704747
 21
662.14935070093168
 31
0.0
  0
TEXT
  5
745
  8
DATA
 62
     7
 10
807.64024954710396
 20
653.6469529863283
 30
0.0
 40
10.58746744791666
  1
4
 50
90.0
 41
0.7
 11
797.05278209918731
 21
653.6469529863283
 31
0.0
 73
     3
  0
POLYLINE
  5
746
  8
DATA
  6
CONTINUOUS
 62
     7
 66
     1
 10
0.0
 20
0.0
 30
0.0
 70
     1
  0
VERTEX
  5
C2F
  8
DATA
  6
CONTINUOUS
 62
     7
 10
767.23825691704747
 20
686.52435070093156
 30
0.0
  0
VERTEX
  5
C30
  8
DATA
  6
CONTINUOUS
 62
     7
 10
791.61325691704735
 20
686.52435070093156
 30
0.0
  0
VERTEX
  5
C31
  8
DATA
  6
CONTINUOUS
 62
     7
 10
791.61325691704735
 20
676.77435070093156
 30
0.0
  0
VERTEX
  5
C32
  8
DATA
  6
CONTINUOUS
 62
     7
 10
767.23825691704747
 20
676.77435070093156
 30
0.0
  0
SEQEND
  5
C33
  8
DATA
  6
CONTINUOUS
 62
     7
  0
LINE
  5
74D
  8
DATA
  6
CONTINUOUS
 62
     7
 10
779.42575691704747
 20
676.77435070093156
 30
0.0
 11
779.42575691704747
 21
686.52435070093156
 31
0.0
  0
TEXT
  5
74E
  8
DATA
 62
     7
 10
807.64024954710396
 20
678.02195298632819
 30
0.0
 40
10.58746744791666
  1
5
 50
90.0
 41
0.7
 11
797.05278209918731
 21
678.02195298632819
 31
0.0
 73
     3
  0
POLYLINE
  5
74F
  8
DATA
  6
CONTINUOUS
 62
     7
 66
     1
 10
0.0
 20
0.0
 30
0.0
 70
     1
  0
VERTEX
  5
C34
  8
DATA
  6
CONTINUOUS
 62
     7
 10
767.23825691704747
 20
710.89935070093156
 30
0.0
  0
VERTEX
  5
C35
  8
DATA
  6
CONTINUOUS
 62
     7
 10
791.61325691704735
 20
710.89935070093156
 30
0.0
  0
VERTEX
  5
C36
  8
DATA
  6
CONTINUOUS
 62
     7
 10
791.61325691704735
 20
701.14935070093156
 30
0.0
  0
VERTEX
  5
C37
  8
DATA
  6
CONTINUOUS
 62
     7
 10
767.23825691704747
 20
701.14935070093156
 30
0.0
  0
SEQEND
  5
C38
  8
DATA
  6
CONTINUOUS
 62
     7
  0
LINE
  5
756
  8
DATA
  6
CONTINUOUS
 62
     7
 10
779.42575691704747
 20
701.14935070093156
 30
0.0
 11
779.42575691704747
 21
710.89935070093156
 31
0.0
  0
TEXT
  5
757
  8
DATA
 62
     7
 10
807.64024954710396
 20
702.3969529863283
 30
0.0
 40
10.58746744791666
  1
6
 50
90.0
 41
0.7
 11
797.05278209918731
 21
702.3969529863283
 31
0.0
 73
     3
  0
POLYLINE
  5
758
  8
DATA
  6
CONTINUOUS
 62
     7
 66
     1
 10
0.0
 20
0.0
 30
0.0
 70
     1
  0
VERTEX
  5
C39
  8
DATA
  6
CONTINUOUS
 62
     7
 10
767.23825691704747
 20
735.27435070093145
 30
0.0
  0
VERTEX
  5
C3A
  8
DATA
  6
CONTINUOUS
 62
     7
 10
791.61325691704735
 20
735.27435070093145
 30
0.0
  0
VERTEX
  5
C3B
  8
DATA
  6
CONTINUOUS
 62
     7
 10
791.61325691704735
 20
725.52435070093145
 30
0.0
  0
VERTEX
  5
C3C
  8
DATA
  6
CONTINUOUS
 62
     7
 10
767.23825691704747
 20
725.52435070093145
 30
0.0
  0
SEQEND
  5
C3D
  8
DATA
  6
CONTINUOUS
 62
     7
  0
LINE
  5
75F
  8
DATA
  6
CONTINUOUS
 62
     7
 10
779.42575691704747
 20
725.52435070093145
 30
0.0
 11
779.42575691704747
 21
735.27435070093145
 31
0.0
  0
TEXT
  5
760
  8
DATA
 62
     7
 10
807.64024954710396
 20
726.7719529863283
 30
0.0
 40
10.58746744791666
  1
7
 50
90.0
 41
0.7
 11
797.05278209918731
 21
726.7719529863283
 31
0.0
 73
     3
  0
POLYLINE
  5
761
  8
DATA
  6
CONTINUOUS
 62
     7
 66
     1
 10
0.0
 20
0.0
 30
0.0
 70
     1
  0
VERTEX
  5
C3E
  8
DATA
  6
CONTINUOUS
 62
     7
 10
767.23825691704747
 20
759.64935070093156
 30
0.0
  0
VERTEX
  5
C3F
  8
DATA
  6
CONTINUOUS
 62
     7
 10
791.61325691704735
 20
759.64935070093156
 30
0.0
  0
VERTEX
  5
C40
  8
DATA
  6
CONTINUOUS
 62
     7
 10
791.61325691704735
 20
749.89935070093145
 30
0.0
  0
VERTEX
  5
C41
  8
DATA
  6
CONTINUOUS
 62
     7
 10
767.23825691704747
 20
749.89935070093145
 30
0.0
  0
SEQEND
  5
C42
  8
DATA
  6
CONTINUOUS
 62
     7
  0
LINE
  5
768
  8
DATA
  6
CONTINUOUS
 62
     7
 10
779.42575691704747
 20
749.89935070093145
 30
0.0
 11
779.42575691704747
 21
759.64935070093156
 31
0.0
  0
TEXT
  5
769
  8
DATA
 62
     7
 10
807.64024954710396
 20
751.14695298632819
 30
0.0
 40
10.58746744791666
  1
8
 50
90.0
 41
0.7
 11
797.05278209918731
 21
751.14695298632819
 31
0.0
 73
     3
  0
POLYLINE
  5
76A
  8
DATA
  6
CONTINUOUS
 62
     7
 66
     1
 10
0.0
 20
0.0
 30
0.0
 70
     1
  0
VERTEX
  5
C43
  8
DATA
  6
CONTINUOUS
 62
     7
 10
767.23825691704747
 20
804.15842279514004
 30
0.0
  0
VERTEX
  5
C44
  8
DATA
  6
CONTINUOUS
 62
     7
 10
791.61325691704735
 20
804.15842279514004
 30
0.0
  0
VERTEX
  5
C45
  8
DATA
  6
CONTINUOUS
 62
     7
 10
791.61325691704735
 20
794.40842279513993
 30
0.0
  0
VERTEX
  5
C46
  8
DATA
  6
CONTINUOUS
 62
     7
 10
767.23825691704747
 20
794.40842279513993
 30
0.0
  0
SEQEND
  5
C47
  8
DATA
  6
CONTINUOUS
 62
     7
  0
LINE
  5
771
  8
DATA
  6
CONTINUOUS
 62
     7
 10
779.42575691704747
 20
794.40842279513993
 30
0.0
 11
779.42575691704747
 21
804.15842279514004
 31
0.0
  0
TEXT
  5
772
  8
DATA
 62
     7
 10
807.64024954710396
 20
795.65602508053632
 30
0.0
 40
10.58746744791666
  1
1
 50
90.0
 41
0.7
 11
797.05278209918731
 21
795.65602508053632
 31
0.0
 73
     3
  0
POLYLINE
  5
773
  8
DATA
  6
CONTINUOUS
 62
     7
 66
     1
 10
0.0
 20
0.0
 30
0.0
 70
     1
  0
VERTEX
  5
C48
  8
DATA
  6
CONTINUOUS
 62
     7
 10
767.23825691704747
 20
828.53342279513981
 30
0.0
  0
VERTEX
  5
C49
  8
DATA
  6
CONTINUOUS
 62
     7
 10
791.61325691704735
 20
828.53342279513981
 30
0.0
  0
VERTEX
  5
C4A
  8
DATA
  6
CONTINUOUS
 62
     7
 10
791.61325691704735
 20
818.78342279513981
 30
0.0
  0
VERTEX
  5
C4B
  8
DATA
  6
CONTINUOUS
 62
     7
 10
767.23825691704747
 20
818.78342279513981
 30
0.0
  0
SEQEND
  5
C4C
  8
DATA
  6
CONTINUOUS
 62
     7
  0
LINE
  5
77A
  8
DATA
  6
CONTINUOUS
 62
     7
 10
779.42575691704747
 20
818.78342279513981
 30
0.0
 11
779.42575691704747
 21
828.53342279513981
 31
0.0
  0
TEXT
  5
77B
  8
DATA
 62
     7
 10
807.64024954710396
 20
820.03102508053644
 30
0.0
 40
10.58746744791666
  1
2
 50
90.0
 41
0.7
 11
797.05278209918731
 21
820.03102508053644
 31
0.0
 73
     3
  0
POLYLINE
  5
77C
  8
DATA
  6
CONTINUOUS
 62
     7
 66
     1
 10
0.0
 20
0.0
 30
0.0
 70
     1
  0
VERTEX
  5
C4D
  8
DATA
  6
CONTINUOUS
 62
     7
 10
767.23825691704747
 20
852.90842279513993
 30
0.0
  0
VERTEX
  5
C4E
  8
DATA
  6
CONTINUOUS
 62
     7
 10
791.61325691704735
 20
852.90842279513993
 30
0.0
  0
VERTEX
  5
C4F
  8
DATA
  6
CONTINUOUS
 62
     7
 10
791.61325691704735
 20
843.15842279513993
 30
0.0
  0
VERTEX
  5
C50
  8
DATA
  6
CONTINUOUS
 62
     7
 10
767.23825691704747
 20
843.15842279513993
 30
0.0
  0
SEQEND
  5
C51
  8
DATA
  6
CONTINUOUS
 62
     7
  0
LINE
  5
783
  8
DATA
  6
CONTINUOUS
 62
     7
 10
779.42575691704747
 20
843.15842279513993
 30
0.0
 11
779.42575691704747
 21
852.90842279513993
 31
0.0
  0
TEXT
  5
784
  8
DATA
 62
     7
 10
807.64024954710396
 20
844.40602508053621
 30
0.0
 40
10.58746744791666
  1
3
 50
90.0
 41
0.7
 11
797.05278209918731
 21
844.40602508053621
 31
0.0
 73
     3
  0
POLYLINE
  5
785
  8
DATA
  6
CONTINUOUS
 62
     7
 66
     1
 10
0.0
 20
0.0
 30
0.0
 70
     1
  0
VERTEX
  5
C52
  8
DATA
  6
CONTINUOUS
 62
     7
 10
767.23825691704747
 20
877.28342279513993
 30
0.0
  0
VERTEX
  5
C53
  8
DATA
  6
CONTINUOUS
 62
     7
 10
791.61325691704735
 20
877.28342279513993
 30
0.0
  0
VERTEX
  5
C54
  8
DATA
  6
CONTINUOUS
 62
     7
 10
791.61325691704735
 20
867.53342279513993
 30
0.0
  0
VERTEX
  5
C55
  8
DATA
  6
CONTINUOUS
 62
     7
 10
767.23825691704747
 20
867.53342279513993
 30
0.0
  0
SEQEND
  5
C56
  8
DATA
  6
CONTINUOUS
 62
     7
  0
LINE
  5
78C
  8
DATA
  6
CONTINUOUS
 62
     7
 10
779.42575691704747
 20
867.53342279513993
 30
0.0
 11
779.42575691704747
 21
877.28342279513993
 31
0.0
  0
TEXT
  5
78D
  8
DATA
 62
     7
 10
807.64024954710396
 20
868.78102508053621
 30
0.0
 40
10.58746744791666
  1
4
 50
90.0
 41
0.7
 11
797.05278209918731
 21
868.78102508053621
 31
0.0
 73
     3
  0
TEXT
  5
78E
  8
DATA
 62
     7
 10
760.83936507107205
 20
797.95822714125529
 30
0.0
 40
10.58746744791666
  1
ON
 50
90.0
 41
0.7
 11
750.2518976231554
 21
797.95822714125529
 31
0.0
 73
     3
  0
TEXT
  5
78F
  8
DATA
 62
     7
 10
706.47608406850645
 20
917.75797655037616
 30
0.0
 40
13.57367621527778
  1
DIPスイッチ拡大図
 41
0.7
 11
706.47608406850645
 21
931.33165276565387
 31
0.0
 73
     3
  0
LINE
  5
790
  8
DATA
  6
CONTINUOUS
 62
     7
 10
687.5
 20
912.5
 30
0.0
 11
875.0
 21
912.5
 31
0.0
  0
CIRCLE
  5
791
  8
DATA
  6
CONTINUOUS
 62
     7
 10
405.0
 20
767.0499999997794
 30
0.0
 40
2.4999999999999898
  0
LINE
  5
792
  8
DATA
  6
CONTINUOUS
 62
     7
 10
403.98203634637048
 20
766.03203634615011
 30
0.0
 11
406.01796365362918
 21
768.06796365340881
 31
0.0
  0
LINE
  5
793
  8
DATA
  6
CONTINUOUS
 62
     7
 10
406.01796365362918
 20
766.03203634615011
 30
0.0
 11
403.98203634637048
 21
768.06796365340881
 31
0.0
  0
CIRCLE
  5
794
  8
DATA
  6
CONTINUOUS
 62
     7
 10
505.0
 20
767.0499999997794
 30
0.0
 40
2.4999999999999898
  0
LINE
  5
795
  8
DATA
  6
CONTINUOUS
 62
     7
 10
503.98203634637048
 20
766.03203634615011
 30
0.0
 11
506.01796365362918
 21
768.06796365340881
 31
0.0
  0
LINE
  5
796
  8
DATA
  6
CONTINUOUS
 62
     7
 10
506.01796365362918
 20
766.03203634615011
 30
0.0
 11
503.98203634637048
 21
768.06796365340881
 31
0.0
  0
CIRCLE
  5
797
  8
DATA
  6
CONTINUOUS
 62
     7
 10
605.0
 20
767.0499999997794
 30
0.0
 40
2.4999999999999898
  0
LINE
  5
798
  8
DATA
  6
CONTINUOUS
 62
     7
 10
603.98203634637048
 20
766.03203634615011
 30
0.0
 11
606.01796365362907
 21
768.06796365340881
 31
0.0
  0
LINE
  5
799
  8
DATA
  6
CONTINUOUS
 62
     7
 10
606.01796365362907
 20
766.03203634615011
 30
0.0
 11
603.98203634637048
 21
768.06796365340881
 31
0.0
  0
CIRCLE
  5
79A
  8
DATA
  6
CONTINUOUS
 62
     7
 10
304.99999999999989
 20
767.0499999997794
 30
0.0
 40
2.5
  0
LINE
  5
79B
  8
DATA
  6
CONTINUOUS
 62
     7
 10
303.98203634637048
 20
766.03203634615011
 30
0.0
 11
306.01796365362918
 21
768.06796365340881
 31
0.0
  0
LINE
  5
79C
  8
DATA
  6
CONTINUOUS
 62
     7
 10
306.01796365362918
 20
766.03203634615011
 30
0.0
 11
303.98203634637048
 21
768.06796365340881
 31
0.0
  0
CIRCLE
  5
79D
  8
DATA
  6
CONTINUOUS
 62
     7
 10
205.0
 20
767.0499999997794
 30
0.0
 40
2.5
  0
LINE
  5
79E
  8
DATA
  6
CONTINUOUS
 62
     7
 10
203.98203634637051
 20
766.03203634615011
 30
0.0
 11
206.01796365362929
 21
768.06796365340881
 31
0.0
  0
LINE
  5
79F
  8
DATA
  6
CONTINUOUS
 62
     7
 10
206.01796365362929
 20
766.03203634615011
 30
0.0
 11
203.98203634637051
 21
768.06796365340881
 31
0.0
  0
LINE
  5
7A0
  8
DATA
  6
CONTINUOUS
 62
     7
 10
189.09999999999999
 20
864.49999999977877
 30
0.0
 11
189.09999999999999
 21
771.59999999977936
 31
0.0
  0
LINE
  5
7A1
  8
DATA
  6
CONTINUOUS
 62
     7
 10
620.89999999999986
 20
864.49999999977877
 30
0.0
 11
620.89999999999986
 21
771.59999999977936
 31
0.0
  0
LINE
  5
7A2
  8
DATA
  6
CONTINUOUS
 62
     7
 10
622.5
 20
864.49999999977877
 30
0.0
 11
620.89999999999986
 21
864.49999999977877
 31
0.0
  0
LINE
  5
7A3
  8
DATA
  6
CONTINUOUS
 62
     7
 10
189.09999999999999
 20
864.49999999977877
 30
0.0
 11
187.5
 21
864.49999999977877
 31
0.0
  0
CIRCLE
  5
7A4
  8
DATA
  6
CONTINUOUS
 62
     7
 10
202.19973705925881
 20
855.77260775420825
 30
0.0
 40
9.5
  0
CIRCLE
  5
7A5
  8
DATA
  6
CONTINUOUS
 62
     7
 10
202.19973705925881
 20
855.77260775420825
 30
0.0
 40
8.0
  0
CIRCLE
  5
7A6
  8
DATA
  6
CONTINUOUS
 62
     7
 10
607.80026294074094
 20
855.77260775420825
 30
0.0
 40
9.5
  0
CIRCLE
  5
7A7
  8
DATA
  6
CONTINUOUS
 62
     7
 10
607.80026294074094
 20
855.77260775420825
 30
0.0
 40
8.0
  0
CIRCLE
  5
7A8
  8
DATA
  6
CONTINUOUS
 62
     7
 10
202.19973705925881
 20
784.42856023417028
 30
0.0
 40
9.5
  0
CIRCLE
  5
7A9
  8
DATA
  6
CONTINUOUS
 62
     7
 10
202.19973705925881
 20
784.42856023417028
 30
0.0
 40
8.0
  0
CIRCLE
  5
7AA
  8
DATA
  6
CONTINUOUS
 62
     7
 10
607.80026294074094
 20
784.42856023417028
 30
0.0
 40
9.5
  0
CIRCLE
  5
7AB
  8
DATA
  6
CONTINUOUS
 62
     7
 10
607.80026294074094
 20
784.42856023417028
 30
0.0
 40
8.0
  0
LINE
  5
7AC
  8
DATA
  6
CONTINUOUS
 62
     7
 10
194.19973705925881
 20
358.49999999970191
 30
0.0
 11
210.19973705925881
 21
358.49999999970191
 31
0.0
  0
LINE
  5
7AD
  8
DATA
  6
CONTINUOUS
 62
     7
 10
194.19973705925881
 20
358.49999999970191
 30
0.0
 11
192.69973705925881
 21
362.49999999970191
 31
0.0
  0
LINE
  5
7AE
  8
DATA
  6
CONTINUOUS
 62
     7
 10
210.19973705925881
 20
358.49999999970191
 30
0.0
 11
211.69973705925881
 21
362.49999999970191
 31
0.0
  0
LINE
  5
7AF
  8
DATA
  6
CONTINUOUS
 62
     7
 10
599.80026294074094
 20
358.49999999970191
 30
0.0
 11
615.80026294074094
 21
358.49999999970191
 31
0.0
  0
LINE
  5
7B0
  8
DATA
  6
CONTINUOUS
 62
     7
 10
599.80026294074094
 20
358.49999999970191
 30
0.0
 11
598.30026294074094
 21
362.49999999970191
 31
0.0
  0
LINE
  5
7B1
  8
DATA
  6
CONTINUOUS
 62
     7
 10
615.80026294074094
 20
358.49999999970191
 30
0.0
 11
617.30026294074094
 21
362.49999999970191
 31
0.0
  0
LINE
  5
7B2
  8
DATA
  6
CONTINUOUS
 62
     7
 10
760.26072550403035
 20
358.49999999970191
 30
0.0
 11
776.26072550403035
 21
358.49999999970191
 31
0.0
  0
LINE
  5
7B3
  8
DATA
  6
CONTINUOUS
 62
     7
 10
760.26072550403035
 20
358.49999999970191
 30
0.0
 11
758.76072550403035
 21
362.49999999970191
 31
0.0
  0
LINE
  5
7B4
  8
DATA
  6
CONTINUOUS
 62
     7
 10
776.26072550403035
 20
358.49999999970191
 30
0.0
 11
777.76072550403035
 21
362.49999999970191
 31
0.0
  0
LINE
  5
7B5
  8
DATA
  6
CONTINUOUS
 62
     7
 10
688.96072550403028
 20
358.49999999970191
 30
0.0
 11
704.96072550403017
 21
358.49999999970191
 31
0.0
  0
LINE
  5
7B6
  8
DATA
  6
CONTINUOUS
 62
     7
 10
688.96072550403028
 20
358.49999999970191
 30
0.0
 11
687.46072550403017
 21
362.49999999970191
 31
0.0
  0
LINE
  5
7B7
  8
DATA
  6
CONTINUOUS
 62
     7
 10
704.96072550403017
 20
358.49999999970191
 30
0.0
 11
706.46072550403028
 21
362.49999999970191
 31
0.0
  0
LINE
  5
7B8
  8
DATA
  6
CONTINUOUS
 62
     7
 10
194.19973705925881
 20
685.50000000029843
 30
0.0
 11
210.19973705925881
 21
685.50000000029843
 31
0.0
  0
LINE
  5
7B9
  8
DATA
  6
CONTINUOUS
 62
     7
 10
194.19973705925881
 20
685.50000000029843
 30
0.0
 11
192.69973705925881
 21
681.50000000029843
 31
0.0
  0
LINE
  5
7BA
  8
DATA
  6
CONTINUOUS
 62
     7
 10
210.19973705925881
 20
685.50000000029843
 30
0.0
 11
211.69973705925881
 21
681.50000000029843
 31
0.0
  0
LINE
  5
7BB
  8
DATA
  6
CONTINUOUS
 62
     7
 10
599.80026294074094
 20
685.50000000029843
 30
0.0
 11
615.80026294074094
 21
685.50000000029843
 31
0.0
  0
LINE
  5
7BC
  8
DATA
  6
CONTINUOUS
 62
     7
 10
599.80026294074094
 20
685.50000000029843
 30
0.0
 11
598.30026294074094
 21
681.50000000029843
 31
0.0
  0
LINE
  5
7BD
  8
DATA
  6
CONTINUOUS
 62
     7
 10
615.80026294074094
 20
685.50000000029843
 30
0.0
 11
617.30026294074094
 21
681.50000000029843
 31
0.0
  0
ENDSEC
  0
EOF
