  0
SECTION
  2
HEADER
  9
$ACADVER
  1
AC1009
  9
$INSBASE
 10
0.0
 20
0.0
 30
0.0
  9
$EXTMIN
 10
49.981691723202402
 20
11.90643626254314
 30
-0.0015258207003583
  9
$EXTMAX
 10
950.02899391114363
 20
1350.04120187373
 30
0.0000000349246037
  9
$LIMMIN
 10
0.0
 20
0.0
  9
$LIMMAX
 10
0.0
 20
0.0
  9
$ORTHOMODE
 70
     0
  9
$REGENMODE
 70
     1
  9
$FILLMODE
 70
     1
  9
$QTEXTMODE
 70
     0
  9
$MIRRTEXT
 70
     1
  9
$DRAGMODE
 70
     2
  9
$LTSCALE
 40
25.399999999999999
  9
$OSMODE
 70
   231
  9
$ATTMODE
 70
     1
  9
$TEXTSIZE
 40
0.0
  9
$TRACEWID
 40
1.0
  9
$TEXTSTYLE
  7
STANDARD
  9
$CLAYER
  8
DATA
  9
$CELTYPE
  6
BYLAYER
  9
$CECOLOR
 62
   256
  9
$DIMSCALE
 40
1.0
  9
$DIMASZ
 40
0.18
  9
$DIMEXO
 40
0.0625
  9
$DIMDLI
 40
0.38
  9
$DIMRND
 40
0.0
  9
$DIMDLE
 40
0.0
  9
$DIMEXE
 40
0.18
  9
$DIMTP
 40
0.0
  9
$DIMTM
 40
0.0
  9
$DIMTXT
 40
0.18
  9
$DIMCEN
 40
0.09
  9
$DIMTSZ
 40
0.0
  9
$DIMTOL
 70
     0
  9
$DIMLIM
 70
     0
  9
$DIMTIH
 70
     1
  9
$DIMTOH
 70
     1
  9
$DIMSE1
 70
     0
  9
$DIMSE2
 70
     0
  9
$DIMTAD
 70
     0
  9
$DIMZIN
 70
     0
  9
$DIMBLK
  1

  9
$DIMASO
 70
     1
  9
$DIMSHO
 70
     1
  9
$DIMPOST
  1

  9
$DIMAPOST
  1

  9
$DIMALT
 70
     0
  9
$DIMALTD
 70
     2
  9
$DIMALTF
 40
25.399999999999999
  9
$DIMLFAC
 40
1.0
  9
$DIMTOFL
 70
     0
  9
$DIMTVP
 40
0.0
  9
$DIMTIX
 70
     0
  9
$DIMSOXD
 70
     0
  9
$DIMSAH
 70
     0
  9
$DIMBLK1
  1

  9
$DIMBLK2
  1

  9
$DIMSTYLE
  2
STANDARD
  9
$DIMCLRD
 70
     0
  9
$DIMCLRE
 70
     0
  9
$DIMCLRT
 70
     0
  9
$DIMTFAC
 40
1.0
  9
$DIMGAP
 40
0.09
  9
$LUNITS
 70
     2
  9
$LUPREC
 70
     4
  9
$SKETCHINC
 40
0.1
  9
$FILLETRAD
 40
0.0
  9
$AUNITS
 70
     0
  9
$AUPREC
 70
     0
  9
$MENU
  1
acad
  9
$ELEVATION
 40
0.0
  9
$PELEVATION
 40
0.0
  9
$THICKNESS
 40
0.0
  9
$LIMCHECK
 70
     0
  9
$BLIPMODE
 70
     0
  9
$CHAMFERA
 40
0.0
  9
$CHAMFERB
 40
0.0
  9
$SKPOLY
 70
     0
  9
$TDCREATE
 40
2455408.6699421299
  9
$TDUPDATE
 40
2455408.6737886691
  9
$TDINDWG
 40
0.0002828819
  9
$TDUSRTIMER
 40
0.0002827083
  9
$USRTIMER
 70
     1
  9
$ANGBASE
 50
0.0
  9
$ANGDIR
 70
     0
  9
$PDMODE
 70
     1
  9
$PDSIZE
 40
-2.0
  9
$PLINEWID
 40
0.0
  9
$COORDS
 70
     0
  9
$SPLFRAME
 70
     0
  9
$SPLINETYPE
 70
     6
  9
$SPLINESEGS
 70
     8
  9
$ATTDIA
 70
     0
  9
$ATTREQ
 70
     1
  9
$HANDLING
 70
     1
  9
$HANDSEED
  5
12F6
  9
$SURFTAB1
 70
     6
  9
$SURFTAB2
 70
     6
  9
$SURFTYPE
 70
     6
  9
$SURFU
 70
     6
  9
$SURFV
 70
     6
  9
$UCSNAME
  2

  9
$UCSORG
 10
0.0
 20
0.0
 30
0.0
  9
$UCSXDIR
 10
1.0
 20
0.0
 30
0.0
  9
$UCSYDIR
 10
0.0
 20
1.0
 30
0.0
  9
$PUCSNAME
  2

  9
$PUCSORG
 10
0.0
 20
0.0
 30
0.0
  9
$PUCSXDIR
 10
1.0
 20
0.0
 30
0.0
  9
$PUCSYDIR
 10
0.0
 20
1.0
 30
0.0
  9
$USERI1
 70
     0
  9
$USERI2
 70
     0
  9
$USERI3
 70
     0
  9
$USERI4
 70
     0
  9
$USERI5
 70
     0
  9
$USERR1
 40
0.0
  9
$USERR2
 40
0.0
  9
$USERR3
 40
0.0
  9
$USERR4
 40
0.0
  9
$USERR5
 40
0.0
  9
$WORLDVIEW
 70
     1
  9
$SHADEDGE
 70
     3
  9
$SHADEDIF
 70
    70
  9
$TILEMODE
 70
     1
  9
$MAXACTVP
 70
    64
  9
$PLIMCHECK
 70
     0
  9
$PEXTMIN
 10
1.0000000000000000E+020
 20
1.0000000000000000E+020
 30
1.0000000000000000E+020
  9
$PEXTMAX
 10
-1.0000000000000000E+020
 20
-1.0000000000000000E+020
 30
-1.0000000000000000E+020
  9
$PLIMMIN
 10
0.0
 20
0.0
  9
$PLIMMAX
 10
12.0
 20
9.0
  9
$UNITMODE
 70
     0
  9
$VISRETAIN
 70
     0
  9
$PLINEGEN
 70
     1
  9
$PSLTSCALE
 70
     0
  0
ENDSEC
  0
SECTION
  2
TABLES
  0
TABLE
  2
VPORT
 70
     1
  0
VPORT
  2
*ACTIVE
 70
     0
 10
0.0
 20
0.0
 11
1.0
 21
1.0
 12
500.00534281717307
 22
680.97381906813655
 13
0.0
 23
0.0
 14
1.0
 24
1.0
 15
0.0
 25
0.0
 16
0.0
 26
0.0
 36
1.0
 17
0.0
 27
0.0
 37
0.0
 40
1347.986064499122
 41
1.961916461916462
 42
50.0
 43
0.0
 44
0.0
 50
0.0
 51
0.0
 71
     0
 72
  2000
 73
     1
 74
     1
 75
     0
 76
     0
 77
     0
 78
     0
  0
ENDTAB
  0
TABLE
  2
LTYPE
 70
    11
  0
LTYPE
  2
CONTINUOUS
 70
     0
  3
Solid line
 72
    65
 73
     0
 40
0.0
  0
ENDTAB
  0
TABLE
  2
LAYER
 70
     5
  0
LAYER
  2
0
 70
     0
 62
     7
  6
CONTINUOUS
  0
LAYER
  2
DATA
 70
     0
 62
     7
  6
CONTINUOUS
  0
LAYER
  2
HIBINO-BASE
 70
     0
 62
     7
  6
CONTINUOUS
  0
LAYER
  2
SPEC
 70
     0
 62
     7
  6
CONTINUOUS
  0
LAYER
  2
DIMNSIONS
 70
     0
 62
     7
  6
CONTINUOUS
  0
ENDTAB
  0
TABLE
  2
STYLE
 70
     3
  0
STYLE
  2
STANDARD
 70
     0
 40
0.0
 41
1.0
 50
0.0
 71
     0
 42
0.0
  3
txt
  4
BIGFONT.SHX
  0
ENDTAB
  0
TABLE
  2
VIEW
 70
     0
  0
ENDTAB
  0
TABLE
  2
UCS
 70
     0
  0
ENDTAB
  0
TABLE
  2
APPID
 70
     3
  0
APPID
  2
ACAD
 70
     0
  0
APPID
  2
ACADANNOTATIVE
 70
     0
  0
APPID
  2
ACAD_MLEADERVER
 70
     0
  0
ENDTAB
  0
TABLE
  2
DIMSTYLE
 70
     2
  0
DIMSTYLE
  2
STANDARD
 70
     0
  3

  4

  5

  6

  7

 40
1.0
 41
0.18
 42
0.0625
 43
0.38
 44
0.18
 45
0.0
 46
0.0
 47
0.0
 48
0.0
140
0.18
141
0.09
142
0.0
143
25.399999999999999
144
1.0
145
0.0
146
1.0
147
0.09
 71
     0
 72
     0
 73
     1
 74
     1
 75
     0
 76
     0
 77
     0
 78
     0
170
     0
171
     2
172
     0
173
     0
174
     0
175
     0
176
     0
177
     0
178
     0
  0
ENDTAB
  0
ENDSEC
  0
SECTION
  2
BLOCKS
  0
BLOCK
  8
0
  2
$MODEL_SPACE
 70
     0
 10
0.0
 20
0.0
 30
0.0
  3
$MODEL_SPACE
  1

  0
ENDBLK
  5
B24
  8
0
  0
BLOCK
 67
     1
  8
0
  2
$PAPER_SPACE
 70
     0
 10
0.0
 20
0.0
 30
0.0
  3
$PAPER_SPACE
  1

  0
ENDBLK
  5
B20
 67
     1
  8
0
  0
ENDSEC
  0
SECTION
  2
ENTITIES
  0
LINE
  5
2C
  8
HIBINO-BASE
  6
CONTINUOUS
 62
     7
 10
50.0
 20
1350.0
 30
0.0
 11
950.0
 21
1350.0
 31
0.0
  0
LINE
  5
2D
  8
HIBINO-BASE
  6
CONTINUOUS
 62
     7
 10
950.0
 20
50.0
 30
0.0
 11
50.0
 21
50.0
 31
0.0
  0
LINE
  5
2E
  8
HIBINO-BASE
  6
CONTINUOUS
 62
     7
 10
50.0
 20
50.0
 30
0.0
 11
50.0
 21
1350.0
 31
0.0
  0
TEXT
  5
2F
  8
HIBINO-BASE
 62
     7
 10
62.82012861104743
 20
17.956611000000098
 30
0.0
 40
18.00022089843749
  1
Hibino-Intersound Corporation
 41
0.7
 11
62.82012861104743
 21
35.956831898437599
 31
0.0
 73
     3
1001
ACADANNOTATIVE
1000
AnnotativeData
1002
{
1070
     1
1070
     0
1002
}
  0
LINE
  5
30
  8
HIBINO-BASE
  6
CONTINUOUS
 62
     7
 10
950.0
 20
1350.0
 30
0.0
 11
950.0
 21
50.0
 31
0.0
  0
LINE
  5
31
  8
HIBINO-BASE
  6
CONTINUOUS
 62
     7
 10
500.0
 20
162.50000000000011
 30
0.0
 11
950.0
 21
162.50000000000011
 31
0.0
  0
LINE
  5
32
  8
HIBINO-BASE
  6
CONTINUOUS
 62
     7
 10
500.0
 20
50.0
 30
0.0
 11
500.0
 21
162.50000000000011
 31
0.0
  0
TEXT
  5
33
  8
HIBINO-BASE
 62
     7
 10
504.49999999999989
 20
149.9565333333334
 30
0.0
 40
8.1442057291666661
  1
NOTE
 41
0.7
 11
504.49999999999989
 21
158.10073906250011
 31
0.0
 73
     3
1001
ACADANNOTATIVE
1000
AnnotativeData
1002
{
1070
     1
1070
     0
1002
}
  0
LINE
  5
34
  8
HIBINO-BASE
  6
CONTINUOUS
 62
     7
 10
675.0
 20
50.0
 30
0.0
 11
675.0
 21
162.50000000000011
 31
0.0
  0
TEXT
  5
35
  8
HIBINO-BASE
 62
     7
 10
679.49999999999989
 20
149.9565333333334
 30
0.0
 40
8.1442057291666661
  1
TITLE
 41
0.7
 11
679.49999999999989
 21
158.10073906250011
 31
0.0
 73
     3
1001
ACADANNOTATIVE
1000
AnnotativeData
1002
{
1070
     1
1070
     0
1002
}
  0
TEXT
  5
36
  8
HIBINO-BASE
 62
     7
 10
595.06609521503515
 20
16.861363937191111
 30
0.0
 40
18.00022089843749
  1
ヒビノインターサウンド株式会社
 41
0.7
 11
595.06609521503515
 21
34.861584835628598
 31
0.0
 73
     3
1001
ACADANNOTATIVE
1000
AnnotativeData
1002
{
1070
     1
1070
     0
1002
}
  0
LINE
  5
37
  8
HIBINO-BASE
  6
CONTINUOUS
 62
     7
 10
500.0
 20
100.0000000000001
 30
0.0
 11
950.0
 21
100.0000000000001
 31
0.0
  0
TEXT
  5
38
  8
HIBINO-BASE
 62
     7
 10
742.0
 20
87.738133333333465
 30
0.0
 40
8.1442057291666661
  1
DRAWN
 41
0.7
 11
742.0
 21
95.882339062500137
 31
0.0
 73
     3
1001
ACADANNOTATIVE
1000
AnnotativeData
1002
{
1070
     1
1070
     0
1002
}
  0
TEXT
  5
39
  8
HIBINO-BASE
 62
     7
 10
617.0
 20
87.738133333333465
 30
0.0
 40
8.1442057291666661
  1
DATE
 41
0.7
 11
617.0
 21
95.882339062500137
 31
0.0
 73
     3
1001
ACADANNOTATIVE
1000
AnnotativeData
1002
{
1070
     1
1070
     0
1002
}
  0
TEXT
  5
3A
  8
HIBINO-BASE
 62
     7
 10
567.0
 20
87.738133333333465
 30
0.0
 40
8.1442057291666661
  1
SCALE
 41
0.7
 11
567.0
 21
95.882339062500137
 31
0.0
 73
     3
1001
ACADANNOTATIVE
1000
AnnotativeData
1002
{
1070
     1
1070
     0
1002
}
  0
TEXT
  5
3B
  8
HIBINO-BASE
 62
     7
 10
679.49999999999989
 20
87.738133333333465
 30
0.0
 40
8.1442057291666661
  1
DESIGN
 41
0.7
 11
679.49999999999989
 21
95.882339062500137
 31
0.0
 73
     3
1001
ACADANNOTATIVE
1000
AnnotativeData
1002
{
1070
     1
1070
     0
1002
}
  0
TEXT
  5
3C
  8
HIBINO-BASE
 62
     7
 10
867.0
 20
87.738133333333465
 30
0.0
 40
8.1442057291666661
  1
DRAWING NO.
 41
0.7
 11
867.0
 21
95.882339062500137
 31
0.0
 73
     3
1001
ACADANNOTATIVE
1000
AnnotativeData
1002
{
1070
     1
1070
     0
1002
}
  0
TEXT
  5
3D
  8
HIBINO-BASE
 62
     7
 10
804.49999999999989
 20
87.738133333333465
 30
0.0
 40
8.1442057291666661
  1
CHECK
 41
0.7
 11
804.49999999999989
 21
95.882339062500137
 31
0.0
 73
     3
1001
ACADANNOTATIVE
1000
AnnotativeData
1002
{
1070
     1
1070
     0
1002
}
  0
LINE
  5
3E
  8
HIBINO-BASE
  6
CONTINUOUS
 62
     7
 10
571.87499999999989
 20
56.25
 30
0.0
 11
590.625
 21
75.000000000000099
 31
0.0
  0
TEXT
  5
3F
  8
HIBINO-BASE
 62
     7
 10
568.74999999999989
 20
69.455283333333384
 30
0.0
 40
8.1442057291666661
  1
1
 41
0.7
 11
568.74999999999989
 21
77.599489062500069
 31
0.0
 73
     3
1001
ACADANNOTATIVE
1000
AnnotativeData
1002
{
1070
     1
1070
     0
1002
}
  0
LINE
  5
40
  8
HIBINO-BASE
  6
CONTINUOUS
 62
     7
 10
562.49999999999989
 20
50.0
 30
0.0
 11
562.49999999999989
 21
100.0000000000001
 31
0.0
  0
LINE
  5
41
  8
HIBINO-BASE
  6
CONTINUOUS
 62
     7
 10
612.49999999999989
 20
50.0
 30
0.0
 11
612.49999999999989
 21
100.0000000000001
 31
0.0
  0
LINE
  5
42
  8
HIBINO-BASE
  6
CONTINUOUS
 62
     7
 10
737.5
 20
100.0000000000001
 30
0.0
 11
737.5
 21
50.0
 31
0.0
  0
LINE
  5
43
  8
HIBINO-BASE
  6
CONTINUOUS
 62
     7
 10
862.5
 20
100.0000000000001
 30
0.0
 11
862.5
 21
50.0
 31
0.0
  0
LINE
  5
44
  8
HIBINO-BASE
  6
CONTINUOUS
 62
     7
 10
800.0
 20
50.0
 30
0.0
 11
800.0
 21
100.0000000000001
 31
0.0
  0
TEXT
  5
45
  8
HIBINO-BASE
 62
     7
 10
616.78269999999986
 20
64.318233333333382
 30
0.0
 40
8.1442057291666661
  1
'10.08.
 41
0.7
 11
616.78269999999986
 21
72.462439062500053
 31
0.0
 73
     3
1001
ACADANNOTATIVE
1000
AnnotativeData
1002
{
1070
     1
1070
     0
1002
}
  0
TEXT
  5
46
  8
HIBINO-BASE
 62
     7
 10
587.5
 20
60.080283333333398
 30
0.0
 40
8.1442057291666661
  1
5
 41
0.7
 11
587.5
 21
68.224489062500069
 31
0.0
 73
     3
1001
ACADANNOTATIVE
1000
AnnotativeData
1002
{
1070
     1
1070
     0
1002
}
  0
TEXT
  5
47
  8
HIBINO-BASE
 62
     7
 10
746.98306333084508
 20
64.53534591951923
 30
0.0
 40
8.1442057291666661
  1
T.Ootake
 41
0.7
 11
746.98306333084508
 21
72.679551648685901
 31
0.0
 73
     3
1001
ACADANNOTATIVE
1000
AnnotativeData
1002
{
1070
     1
1070
     0
1002
}
  0
TEXT
  5
48
  8
HIBINO-BASE
 62
     7
 10
519.41666666666674
 20
59.880000000000031
 30
0.0
 40
16.288411458333329
  1
A4
 41
0.7
 11
519.41666666666674
 21
76.168411458333352
 31
0.0
 73
     3
1001
ACADANNOTATIVE
1000
AnnotativeData
1002
{
1070
     1
1070
     0
1002
}
  0
TEXT
  5
49
  8
HIBINO-BASE
 62
     7
 10
504.79166666666652
 20
86.902725000000103
 30
0.0
 40
8.1442057291666661
  1
PAPER SIZE
 41
0.7
 11
504.79166666666652
 21
95.046930729166775
 31
0.0
 73
     3
1001
ACADANNOTATIVE
1000
AnnotativeData
1002
{
1070
     1
1070
     0
1002
}
  0
LINE
  5
4A
  8
SPEC
  6
CONTINUOUS
 62
     7
 10
87.5
 20
1300.0
 30
0.0
 11
825.0
 21
1300.0
 31
0.0
  0
LINE
  5
4B
  8
SPEC
  6
CONTINUOUS
 62
     7
 10
87.5
 20
1281.25
 30
0.0
 11
825.0
 21
1281.25
 31
0.0
  0
LINE
  5
4C
  8
SPEC
  6
CONTINUOUS
 62
     7
 10
87.5
 20
1206.25
 30
0.0
 11
825.0
 21
1206.25
 31
0.0
  0
LINE
  5
4D
  8
SPEC
  6
CONTINUOUS
 62
     7
 10
87.5
 20
1225.0
 30
0.0
 11
825.0
 21
1225.0
 31
0.0
  0
LINE
  5
4E
  8
SPEC
  6
CONTINUOUS
 62
     7
 10
87.5
 20
1243.75
 30
0.0
 11
825.0
 21
1243.75
 31
0.0
  0
LINE
  5
4F
  8
SPEC
  6
CONTINUOUS
 62
     7
 10
87.5
 20
1187.5
 30
0.0
 11
825.0
 21
1187.5
 31
0.0
  0
LINE
  5
50
  8
SPEC
  6
CONTINUOUS
 62
     7
 10
87.5
 20
1150.0
 30
0.0
 11
825.0
 21
1150.0
 31
0.0
  0
LINE
  5
51
  8
SPEC
  6
CONTINUOUS
 62
     7
 10
87.5
 20
1168.75
 30
0.0
 11
825.0
 21
1168.75
 31
0.0
  0
LINE
  5
52
  8
SPEC
  6
CONTINUOUS
 62
     7
 10
87.5
 20
1131.25
 30
0.0
 11
825.0
 21
1131.25
 31
0.0
  0
LINE
  5
53
  8
SPEC
  6
CONTINUOUS
 62
     7
 10
87.5
 20
1262.5
 30
0.0
 11
825.0
 21
1262.5
 31
0.0
  0
TEXT
  5
54
  8
SPEC
 62
     7
 10
93.75
 20
1306.9663499999999
 30
0.0
 40
12.21630859375
  1
仕様
 41
0.7
 11
93.75
 21
1319.1826585937499
 31
0.0
 73
     3
1001
ACADANNOTATIVE
1000
AnnotativeData
1002
{
1070
     1
1070
     0
1002
}
  0
LINE
  5
55
  8
SPEC
  6
CONTINUOUS
 62
     7
 10
325.0
 20
1300.0
 30
0.0
 11
325.0
 21
1112.5
 31
0.0
  0
TEXT
  5
56
  8
SPEC
 62
     7
 10
91.492663715050966
 20
1136.248175622899
 30
0.0
 40
9.5015562499999984
  1
寸法
 41
0.7
 11
91.492663715050966
 21
1145.749731872899
 31
0.0
 73
     3
1001
ACADANNOTATIVE
1000
AnnotativeData
1002
{
1070
     1
1070
     0
1002
}
  0
LINE
  5
57
  8
SPEC
  6
CONTINUOUS
 62
     7
 10
825.0
 20
1300.0
 30
0.0
 11
825.0
 21
1112.5
 31
0.0
  0
TEXT
  5
58
  8
SPEC
 62
     7
 10
91.645769209977146
 20
1117.59838482139
 30
0.0
 40
9.5015562499999984
  1
重量
 41
0.7
 11
91.645769209977146
 21
1127.09994107139
 31
0.0
 73
     3
1001
ACADANNOTATIVE
1000
AnnotativeData
1002
{
1070
     1
1070
     0
1002
}
  0
TEXT
  5
59
  8
SPEC
 62
     7
 10
329.67552073105247
 20
1172.713694478296
 30
0.0
 40
9.5015562499999984
  1
5V DC
 41
0.7
 11
329.67552073105247
 21
1182.215250728296
 31
0.0
 73
     3
1001
ACADANNOTATIVE
1000
AnnotativeData
1002
{
1070
     1
1070
     0
1002
}
  0
LINE
  5
5A
  8
SPEC
  6
CONTINUOUS
 62
     7
 10
87.5
 20
1300.0
 30
0.0
 11
87.5
 21
1112.5
 31
0.0
  0
TEXT
  5
5B
  8
SPEC
 62
     7
 10
91.664456741982065
 20
1174.1707451811569
 30
0.0
 40
9.5015562499999984
  1
電源
 41
0.7
 11
91.664456741982065
 21
1183.6723014311569
 31
0.0
 73
     3
1001
ACADANNOTATIVE
1000
AnnotativeData
1002
{
1070
     1
1070
     0
1002
}
  0
TEXT
  5
5C
  8
SPEC
 62
     7
 10
91.853758869610445
 20
1285.707907875244
 30
0.0
 40
9.5015562499999984
  1
入力ビデオ帯域
 41
0.7
 11
91.853758869610445
 21
1295.209464125244
 31
0.0
 73
     3
1001
ACADANNOTATIVE
1000
AnnotativeData
1002
{
1070
     1
1070
     0
1002
}
  0
TEXT
  5
5D
  8
SPEC
 62
     7
 10
328.82305961157323
 20
1285.9073778895711
 30
0.0
 40
9.5015562499999984
  1
165MHz\U+00D72
 41
0.7
 11
328.82305961157323
 21
1295.4089341395711
 31
0.0
 73
     3
1001
ACADANNOTATIVE
1000
AnnotativeData
1002
{
1070
     1
1070
     0
1002
}
  0
TEXT
  5
5E
  8
SPEC
 62
     7
 10
92.048951285205632
 20
1211.1867444119989
 30
0.0
 40
9.5015733506944464
  1
DVI入出力端子
 41
0.7
 11
92.048951285205632
 21
1220.688317762693
 31
0.0
 73
     3
1001
ACADANNOTATIVE
1000
AnnotativeData
1002
{
1070
     1
1070
     0
1002
}
  0
TEXT
  5
5F
  8
SPEC
 62
     7
 10
91.728120806867636
 20
1267.651641810211
 30
0.0
 40
9.5015733506944464
  1
入力ビデオ信号
 41
0.7
 11
91.728120806867636
 21
1277.153215160906
 31
0.0
 73
     3
1001
ACADANNOTATIVE
1000
AnnotativeData
1002
{
1070
     1
1070
     0
1002
}
  0
TEXT
  5
60
  8
SPEC
 62
     7
 10
329.64550019062023
 20
1211.3215840797341
 30
0.0
 40
9.5015733506944464
  1
DVI-I 29pin female(digital only)
 41
0.7
 11
329.64550019062023
 21
1220.823157430428
 31
0.0
 73
     3
1001
ACADANNOTATIVE
1000
AnnotativeData
1002
{
1070
     1
1070
     0
1002
}
  0
TEXT
  5
61
  8
SPEC
 62
     7
 10
91.693209341371244
 20
1248.505731854862
 30
0.0
 40
9.5015733506944464
  1
入力DDC信号
 41
0.7
 11
91.693209341371244
 21
1258.007305205557
 31
0.0
 73
     3
1001
ACADANNOTATIVE
1000
AnnotativeData
1002
{
1070
     1
1070
     0
1002
}
  0
TEXT
  5
62
  8
SPEC
 62
     7
 10
329.65050196437642
 20
1248.599806566174
 30
0.0
 40
9.5015733506944464
  1
5Vp-p(TTL)
 41
0.7
 11
329.65050196437642
 21
1258.1013799168679
 31
0.0
 73
     3
1001
ACADANNOTATIVE
1000
AnnotativeData
1002
{
1070
     1
1070
     0
1002
}
  0
TEXT
  5
63
  8
SPEC
 62
     7
 10
91.733169292584421
 20
1155.242692517463
 30
0.0
 40
9.5015562499999984
  1
消費電力
 41
0.7
 11
91.733169292584421
 21
1164.744248767463
 31
0.0
 73
     3
1001
ACADANNOTATIVE
1000
AnnotativeData
1002
{
1070
     1
1070
     0
1002
}
  0
TEXT
  5
64
  8
SPEC
 62
     7
 10
329.52027885349878
 20
1154.5407130310159
 30
0.0
 40
9.5015562499999984
  1
30W(最大)
 41
0.7
 11
329.52027885349878
 21
1164.0422692810159
 31
0.0
 73
     3
1001
ACADANNOTATIVE
1000
AnnotativeData
1002
{
1070
     1
1070
     0
1002
}
  0
TEXT
  5
65
  8
SPEC
 62
     7
 10
329.66951848201683
 20
1135.7779481789321
 30
0.0
 40
9.5015733506944464
  1
435(W)\U+00D744(H)\U+00D7109(D)mm(突起部含まず)
 41
0.7
 11
329.66951848201683
 21
1145.279521529626
 31
0.0
 73
     3
1001
ACADANNOTATIVE
1000
AnnotativeData
1002
{
1070
     1
1070
     0
1002
}
  0
TEXT
  5
66
  8
SPEC
 62
     7
 10
329.30678153183072
 20
1117.2515607280529
 30
0.0
 40
9.5015733506944464
  1
約800g
 41
0.7
 11
329.30678153183072
 21
1126.7531340787471
 31
0.0
 73
     3
1001
ACADANNOTATIVE
1000
AnnotativeData
1002
{
1070
     1
1070
     0
1002
}
  0
TEXT
  5
67
  8
SPEC
 62
     7
 10
92.011165367716259
 20
1230.1305648665609
 30
0.0
 40
9.5015733506944464
  1
最大対応解像度
 41
0.7
 11
92.011165367716259
 21
1239.6321382172559
 31
0.0
 73
     3
1001
ACADANNOTATIVE
1000
AnnotativeData
1002
{
1070
     1
1070
     0
1002
}
  0
TEXT
  5
68
  8
SPEC
 62
     7
 10
329.57481112554308
 20
1229.6754517945781
 30
0.0
 40
9.5015733506944464
  1
3840\U+00D72400
 41
0.7
 11
329.57481112554308
 21
1239.177025145272
 31
0.0
 73
     3
1001
ACADANNOTATIVE
1000
AnnotativeData
1002
{
1070
     1
1070
     0
1002
}
  0
TEXT
  5
69
  8
SPEC
 62
     7
 10
328.89261374234081
 20
1267.484505435443
 30
0.0
 40
9.5015562499999984
  1
1.2Vp-p
 41
0.7
 11
328.89261374234081
 21
1276.986061685443
 31
0.0
 73
     3
1001
ACADANNOTATIVE
1000
AnnotativeData
1002
{
1070
     1
1070
     0
1002
}
  0
LINE
  5
6A
  8
SPEC
  6
CONTINUOUS
 62
     7
 10
87.5
 20
1112.5
 30
0.0
 11
825.0
 21
1112.5
 31
0.0
  0
TEXT
  5
6B
  8
SPEC
 62
     7
 10
91.036271213008192
 20
1192.4367444119989
 30
0.0
 40
9.5015733506944464
  1
ラックマウントサイズ
 41
0.7
 11
91.036271213008192
 21
1201.938317762693
 31
0.0
 73
     3
1001
ACADANNOTATIVE
1000
AnnotativeData
1002
{
1070
     1
1070
     0
1002
}
  0
TEXT
  5
6C
  8
SPEC
 62
     7
 10
329.04506204477713
 20
1192.171291982505
 30
0.0
 40
9.5015733506944464
  1
1U
 41
0.7
 11
329.04506204477713
 21
1201.6728653332
 31
0.0
 73
     3
1001
ACADANNOTATIVE
1000
AnnotativeData
1002
{
1070
     1
1070
     0
1002
}
  0
TEXT
  5
6D
  8
DIMNSIONS
 62
     7
 10
400.0
 20
111.34744999999999
 30
0.0
 40
12.21630859375
  1
(単位：mm)
 41
0.7
 11
400.0
 21
123.5637585937499
 31
0.0
 73
     3
1001
ACADANNOTATIVE
1000
AnnotativeData
1002
{
1070
     1
1070
     0
1002
}
  0
LINE
  5
6E
  8
DIMNSIONS
  6
CONTINUOUS
 62
     7
 10
165.0
 20
362.5
 30
0.0
 11
127.5
 21
362.5
 31
0.0
  0
LINE
  5
6F
  8
DIMNSIONS
  6
CONTINUOUS
 62
     7
 10
165.0
 20
406.5
 30
0.0
 11
127.5
 21
406.5
 31
0.0
  0
LINE
  5
70
  8
DIMNSIONS
  6
CONTINUOUS
 62
     7
 10
137.5
 20
362.5
 30
0.0
 11
137.5
 21
406.5
 31
0.0
  0
LINE
  5
71
  8
DIMNSIONS
  6
CONTINUOUS
 62
     7
 10
137.5
 20
362.5
 30
0.0
 11
134.1498010242488
 21
375.00311279296881
 31
0.0
  0
LINE
  5
72
  8
DIMNSIONS
  6
CONTINUOUS
 62
     7
 10
137.5
 20
362.5
 30
0.0
 11
140.8501989757512
 21
375.00311279296881
 31
0.0
  0
LINE
  5
73
  8
DIMNSIONS
  6
CONTINUOUS
 62
     7
 10
137.5
 20
406.5
 30
0.0
 11
140.8501989757512
 21
393.99688720703131
 31
0.0
  0
LINE
  5
74
  8
DIMNSIONS
  6
CONTINUOUS
 62
     7
 10
137.5
 20
406.5
 30
0.0
 11
134.1498010242488
 21
393.99688720703131
 31
0.0
  0
TEXT
  5
75
  8
DIMNSIONS
 62
     7
 10
132.53055555555551
 20
375.68055555555549
 30
0.0
 40
13.57367621527778
  1
44
 50
90.0
 41
0.7
 11
118.95687934027769
 21
375.68055555555549
 31
0.0
 73
     3
1001
ACADANNOTATIVE
1000
AnnotativeData
1002
{
1070
     1
1070
     0
1002
}
  0
LINE
  5
76
  8
DIMNSIONS
  6
CONTINUOUS
 62
     7
 10
175.0
 20
352.5
 30
0.0
 11
175.0
 21
315.0
 31
0.0
  0
LINE
  5
77
  8
DIMNSIONS
  6
CONTINUOUS
 62
     7
 10
610.0
 20
352.5
 30
0.0
 11
610.0
 21
315.0
 31
0.0
  0
LINE
  5
78
  8
DIMNSIONS
  6
CONTINUOUS
 62
     7
 10
175.0
 20
325.0
 30
0.0
 11
610.0
 21
325.0
 31
0.0
  0
LINE
  5
79
  8
DIMNSIONS
  6
CONTINUOUS
 62
     7
 10
175.0
 20
325.0
 30
0.0
 11
187.50311279296869
 21
328.3501989757512
 31
0.0
  0
LINE
  5
7A
  8
DIMNSIONS
  6
CONTINUOUS
 62
     7
 10
175.0
 20
325.0
 30
0.0
 11
187.50311279296869
 21
321.6498010242488
 31
0.0
  0
LINE
  5
7B
  8
DIMNSIONS
  6
CONTINUOUS
 62
     7
 10
610.0
 20
325.0
 30
0.0
 11
597.49688720703125
 21
321.6498010242488
 31
0.0
  0
LINE
  5
7C
  8
DIMNSIONS
  6
CONTINUOUS
 62
     7
 10
610.0
 20
325.0
 30
0.0
 11
597.49688720703125
 21
328.3501989757512
 31
0.0
  0
TEXT
  5
7D
  8
DIMNSIONS
 62
     7
 10
379.27083333333331
 20
329.96944444444449
 30
0.0
 40
13.57367621527778
  1
435
 41
0.7
 11
379.27083333333331
 21
343.54312065972232
 31
0.0
 73
     3
1001
ACADANNOTATIVE
1000
AnnotativeData
1002
{
1070
     1
1070
     0
1002
}
  0
LINE
  5
7E
  8
DIMNSIONS
  6
CONTINUOUS
 62
     7
 10
169.5
 20
358.50000000004172
 30
0.0
 11
127.5
 21
358.50000000004172
 31
0.0
  0
LINE
  5
7F
  8
DIMNSIONS
  6
CONTINUOUS
 62
     7
 10
165.0
 20
362.5
 30
0.0
 11
127.5
 21
362.5
 31
0.0
  0
LINE
  5
80
  8
DIMNSIONS
  6
CONTINUOUS
 62
     7
 10
137.5
 20
362.5
 30
0.0
 11
137.5
 21
358.50000000004172
 31
0.0
  0
LINE
  5
81
  8
DIMNSIONS
  6
CONTINUOUS
 62
     7
 10
137.5
 20
358.50000000004172
 30
0.0
 11
137.5
 21
333.1805555555556
 31
0.0
  0
LINE
  5
82
  8
DIMNSIONS
  6
CONTINUOUS
 62
     7
 10
137.5
 20
358.50000000004172
 30
0.0
 11
140.8501989757512
 21
345.99688720707309
 31
0.0
  0
LINE
  5
83
  8
DIMNSIONS
  6
CONTINUOUS
 62
     7
 10
137.5
 20
358.50000000004172
 30
0.0
 11
134.1498010242488
 21
345.99688720707309
 31
0.0
  0
LINE
  5
84
  8
DIMNSIONS
  6
CONTINUOUS
 62
     7
 10
137.5
 20
362.5
 30
0.0
 11
137.5
 21
387.5
 31
0.0
  0
LINE
  5
85
  8
DIMNSIONS
  6
CONTINUOUS
 62
     7
 10
137.5
 20
362.5
 30
0.0
 11
134.1498010242488
 21
375.00311279296881
 31
0.0
  0
LINE
  5
86
  8
DIMNSIONS
  6
CONTINUOUS
 62
     7
 10
137.5
 20
362.5
 30
0.0
 11
140.8501989757512
 21
375.00311279296881
 31
0.0
  0
TEXT
  5
87
  8
DIMNSIONS
 62
     7
 10
132.53055555555551
 20
333.1805555555556
 30
0.0
 40
13.57367621527778
  1
4
 50
90.0
 41
0.7
 11
118.95687934027769
 21
333.1805555555556
 31
0.0
 73
     3
1001
ACADANNOTATIVE
1000
AnnotativeData
1002
{
1070
     1
1070
     0
1002
}
  0
LINE
  5
88
  8
DIMNSIONS
  6
CONTINUOUS
 62
     7
 10
165.0
 20
462.5
 30
0.0
 11
127.5
 21
462.5
 31
0.0
  0
LINE
  5
89
  8
DIMNSIONS
  6
CONTINUOUS
 62
     7
 10
165.0
 20
571.49999999999989
 30
0.0
 11
127.5
 21
571.49999999999989
 31
0.0
  0
LINE
  5
8A
  8
DIMNSIONS
  6
CONTINUOUS
 62
     7
 10
137.5
 20
462.5
 30
0.0
 11
137.5
 21
571.49999999999989
 31
0.0
  0
LINE
  5
8B
  8
DIMNSIONS
  6
CONTINUOUS
 62
     7
 10
137.5
 20
462.5
 30
0.0
 11
134.1498010242488
 21
475.00311279296881
 31
0.0
  0
LINE
  5
8C
  8
DIMNSIONS
  6
CONTINUOUS
 62
     7
 10
137.5
 20
462.5
 30
0.0
 11
140.8501989757512
 21
475.00311279296881
 31
0.0
  0
LINE
  5
8D
  8
DIMNSIONS
  6
CONTINUOUS
 62
     7
 10
137.5
 20
571.49999999999989
 30
0.0
 11
140.8501989757512
 21
558.99688720703125
 31
0.0
  0
LINE
  5
8E
  8
DIMNSIONS
  6
CONTINUOUS
 62
     7
 10
137.5
 20
571.49999999999989
 30
0.0
 11
134.1498010242488
 21
558.99688720703125
 31
0.0
  0
TEXT
  5
8F
  8
DIMNSIONS
 62
     7
 10
132.53055555555551
 20
503.7708333333332
 30
0.0
 40
13.57367621527778
  1
109
 50
90.0
 41
0.7
 11
118.95687934027769
 21
503.7708333333332
 31
0.0
 73
     3
1001
ACADANNOTATIVE
1000
AnnotativeData
1002
{
1070
     1
1070
     0
1002
}
  0
LINE
  5
90
  8
DIMNSIONS
  6
CONTINUOUS
 62
     7
 10
165.0
 20
571.49999999999989
 30
0.0
 11
127.5
 21
571.49999999999989
 31
0.0
  0
LINE
  5
91
  8
DIMNSIONS
  6
CONTINUOUS
 62
     7
 10
181.8140611851785
 20
577.49999999983845
 30
0.0
 11
127.5
 21
577.49999999983845
 31
0.0
  0
LINE
  5
92
  8
DIMNSIONS
  6
CONTINUOUS
 62
     7
 10
137.5
 20
577.49999999983845
 30
0.0
 11
137.5
 21
571.49999999999989
 31
0.0
  0
LINE
  5
93
  8
DIMNSIONS
  6
CONTINUOUS
 62
     7
 10
137.5
 20
571.49999999999989
 30
0.0
 11
137.5
 21
546.49999999999989
 31
0.0
  0
LINE
  5
94
  8
DIMNSIONS
  6
CONTINUOUS
 62
     7
 10
137.5
 20
571.49999999999989
 30
0.0
 11
140.8501989757512
 21
558.99688720703125
 31
0.0
  0
LINE
  5
95
  8
DIMNSIONS
  6
CONTINUOUS
 62
     7
 10
137.5
 20
571.49999999999989
 30
0.0
 11
134.1498010242488
 21
558.99688720703125
 31
0.0
  0
LINE
  5
96
  8
DIMNSIONS
  6
CONTINUOUS
 62
     7
 10
137.5
 20
577.49999999983845
 30
0.0
 11
137.5
 21
600.81944444444434
 31
0.0
  0
LINE
  5
97
  8
DIMNSIONS
  6
CONTINUOUS
 62
     7
 10
137.5
 20
577.49999999983845
 30
0.0
 11
134.1498010242488
 21
590.00311279280709
 31
0.0
  0
LINE
  5
98
  8
DIMNSIONS
  6
CONTINUOUS
 62
     7
 10
137.5
 20
577.49999999983845
 30
0.0
 11
140.8501989757512
 21
590.00311279280709
 31
0.0
  0
TEXT
  5
99
  8
DIMNSIONS
 62
     7
 10
132.53055555555551
 20
592.0
 30
0.0
 40
13.57367621527778
  1
6
 50
90.0
 41
0.7
 11
118.95687934027769
 21
592.0
 31
0.0
 73
     3
1001
ACADANNOTATIVE
1000
AnnotativeData
1002
{
1070
     1
1070
     0
1002
}
  0
TEXT
  5
9A
  8
DATA
 62
     7
 10
750.0
 20
106.0627619472923
 30
0.0
 40
12.21630859375
  1
EXT-DVI-444DL
 41
0.7
 11
750.0
 21
118.2790705410423
 31
0.0
 73
     3
1001
ACADANNOTATIVE
1000
AnnotativeData
1002
{
1070
     1
1070
     0
1002
}
  0
TEXT
  5
9B
  8
DATA
 62
     7
 10
741.45524542051191
 20
126.7321898582256
 30
0.0
 40
8.1442185546874981
  1
4\U+00D71 DVIMatrix切替機
 41
0.7
 11
741.45524542051191
 21
134.87640841291309
 31
0.0
 73
     3
1001
ACADANNOTATIVE
1000
AnnotativeData
1002
{
1070
     1
1070
     0
1002
}
  0
TEXT
  5
9C
  8
DATA
 62
     7
 10
100.0
 20
71.190000000000111
 30
0.0
 40
8.1442057291666661
  1
仕様および外観は予告なく変更されることがありますので、ご了承ください。
 41
0.7
 11
100.0
 21
79.334205729166783
 31
0.0
 73
     3
1001
ACADANNOTATIVE
1000
AnnotativeData
1002
{
1070
     1
1070
     0
1002
}
  0
TEXT
  5
9D
  8
DATA
 62
     7
 10
748.0
 20
144.68030417747681
 30
0.0
 40
12.21630859375
  1
Gefen
 41
0.7
 11
748.0
 21
156.89661277122681
 31
0.0
 73
     3
1001
ACADANNOTATIVE
1000
AnnotativeData
1002
{
1070
     1
1070
     0
1002
}
  0
LINE
  5
9E
  8
DATA
  6
CONTINUOUS
 62
     7
 10
175.0
 20
462.5
 30
0.0
 11
175.0
 21
571.49999999999989
 31
0.0
  0
LINE
  5
9F
  8
DATA
  6
CONTINUOUS
 62
     7
 10
175.0
 20
362.5
 30
0.0
 11
175.0
 21
406.5
 31
0.0
  0
LINE
  5
A0
  8
DATA
  6
CONTINUOUS
 62
     7
 10
610.0
 20
362.5
 30
0.0
 11
175.0
 21
362.5
 31
0.0
  0
LINE
  5
A1
  8
DATA
  6
CONTINUOUS
 62
     7
 10
175.0
 20
406.5
 30
0.0
 11
610.0
 21
406.5
 31
0.0
  0
LINE
  5
A2
  8
DATA
  6
CONTINUOUS
 62
     7
 10
175.0
 20
462.5
 30
0.0
 11
610.0
 21
462.5
 31
0.0
  0
LINE
  5
A3
  8
DATA
  6
CONTINUOUS
 62
     7
 10
610.0
 20
462.5
 30
0.0
 11
610.0
 21
571.49999999999989
 31
0.0
  0
LINE
  5
A4
  8
DATA
  6
CONTINUOUS
 62
     7
 10
675.79999999999995
 20
406.5
 30
0.0
 11
784.0
 21
406.5
 31
0.0
  0
LINE
  5
A5
  8
DATA
  6
CONTINUOUS
 62
     7
 10
675.0
 20
363.30000000000001
 30
0.0
 11
675.0
 21
405.69999999999999
 31
0.0
  0
LINE
  5
A6
  8
DATA
  6
CONTINUOUS
 62
     7
 10
784.0
 20
362.5
 30
0.0
 11
784.0
 21
406.5
 31
0.0
  0
LINE
  5
A7
  8
DATA
  6
CONTINUOUS
 62
     7
 10
784.0
 20
362.5
 30
0.0
 11
675.79999999999995
 21
362.5
 31
0.0
  0
LINE
  5
A8
  8
DATA
  6
CONTINUOUS
 62
     7
 10
175.0
 20
625.0
 30
0.0
 11
175.0
 21
669.0
 31
0.0
  0
LINE
  5
A9
  8
DATA
  6
CONTINUOUS
 62
     7
 10
610.0
 20
625.0
 30
0.0
 11
610.0
 21
669.0
 31
0.0
  0
LINE
  5
AA
  8
DATA
  6
CONTINUOUS
 62
     7
 10
175.0
 20
625.0
 30
0.0
 11
610.0
 21
625.0
 31
0.0
  0
LINE
  5
AB
  8
DATA
  6
CONTINUOUS
 62
     7
 10
175.0
 20
669.0
 30
0.0
 11
610.0
 21
669.0
 31
0.0
  0
LINE
  5
AC
  8
DATA
  6
CONTINUOUS
 62
     7
 10
175.0
 20
471.49999999999989
 30
0.0
 11
610.0
 21
471.49999999999989
 31
0.0
  0
CIRCLE
  5
AD
  8
DATA
  6
CONTINUOUS
 62
     7
 10
589.98452656047857
 20
377.44928867563522
 30
0.0
 40
1.5
  0
TEXT
  5
AE
  8
DATA
 62
     7
 10
501.90065767696359
 20
384.66679378079482
 30
0.0
 40
12.21630859375
  1
DVIDLMatrix
 41
0.7
 11
501.90065767696359
 21
396.88310237454482
 31
0.0
 73
     3
1001
ACADANNOTATIVE
1000
AnnotativeData
1002
{
1070
     1
1070
     0
1002
}
  0
TEXT
  5
AF
  8
DATA
 62
     7
 10
467.13184238573331
 20
384.54834263049207
 30
0.0
 40
12.21630859375
  1
4\U+00D74
 41
0.7
 11
467.13184238573331
 21
396.76465122424207
 31
0.0
 73
     3
1001
ACADANNOTATIVE
1000
AnnotativeData
1002
{
1070
     1
1070
     0
1002
}
  0
TEXT
  5
B0
  8
DATA
 62
     7
 10
585.0395799791122
 20
365.37808670847511
 30
0.0
 40
3.2576822916666659
  1
Power
 41
0.7
 11
585.0395799791122
 21
368.63576900014169
 31
0.0
 73
     3
1001
ACADANNOTATIVE
1000
AnnotativeData
1002
{
1070
     1
1070
     0
1002
}
  0
CIRCLE
  5
B1
  8
DATA
  6
CONTINUOUS
 62
     7
 10
549.76932452468213
 20
655.19023085895014
 30
0.0
 40
1.175000000000068
  0
POLYLINE
  5
B2
  8
DATA
  6
CONTINUOUS
 62
     7
 66
     1
 10
0.0
 20
0.0
 30
0.0
 70
     1
  0
VERTEX
  5
CE4
  8
DATA
  6
CONTINUOUS
 62
     7
 10
549.76932452468213
 20
652.4902308589501
 30
0.0
  0
VERTEX
  5
CE5
  8
DATA
  6
CONTINUOUS
 62
     7
 10
547.43105593446421
 20
653.84023085895012
 30
0.0
  0
VERTEX
  5
CE6
  8
DATA
  6
CONTINUOUS
 62
     7
 10
547.43105593446421
 20
656.54023085895017
 30
0.0
  0
VERTEX
  5
CE7
  8
DATA
  6
CONTINUOUS
 62
     7
 10
549.76932452468213
 20
657.89023085894996
 30
0.0
  0
VERTEX
  5
CE8
  8
DATA
  6
CONTINUOUS
 62
     7
 10
552.10759311490017
 20
656.54023085895017
 30
0.0
  0
VERTEX
  5
CE9
  8
DATA
  6
CONTINUOUS
 62
     7
 10
552.10759311490017
 20
653.84023085895012
 30
0.0
  0
SEQEND
  5
CEA
  8
DATA
  6
CONTINUOUS
 62
     7
  0
CIRCLE
  5
BB
  8
DATA
  6
CONTINUOUS
 62
     7
 10
582.26932452468236
 20
655.19023085895014
 30
0.0
 40
1.175000000000068
  0
POLYLINE
  5
BC
  8
DATA
  6
CONTINUOUS
 62
     7
 66
     1
 10
0.0
 20
0.0
 30
0.0
 70
     1
  0
VERTEX
  5
CEB
  8
DATA
  6
CONTINUOUS
 62
     7
 10
582.26932452468236
 20
652.4902308589501
 30
0.0
  0
VERTEX
  5
CEC
  8
DATA
  6
CONTINUOUS
 62
     7
 10
579.93105593446455
 20
653.84023085895012
 30
0.0
  0
VERTEX
  5
CED
  8
DATA
  6
CONTINUOUS
 62
     7
 10
579.93105593446455
 20
656.54023085895017
 30
0.0
  0
VERTEX
  5
CEE
  8
DATA
  6
CONTINUOUS
 62
     7
 10
582.26932452468236
 20
657.89023085894996
 30
0.0
  0
VERTEX
  5
CEF
  8
DATA
  6
CONTINUOUS
 62
     7
 10
584.6075931149004
 20
656.54023085895017
 30
0.0
  0
VERTEX
  5
CF0
  8
DATA
  6
CONTINUOUS
 62
     7
 10
584.6075931149004
 20
653.84023085895012
 30
0.0
  0
SEQEND
  5
CF1
  8
DATA
  6
CONTINUOUS
 62
     7
  0
LINE
  5
C5
  8
DATA
  6
CONTINUOUS
 62
     7
 10
576.9751267936
 20
651.26523085894996
 30
0.0
 11
555.07531701921607
 21
651.26523085894996
 31
0.0
  0
LINE
  5
C6
  8
DATA
  6
CONTINUOUS
 62
     7
 10
555.63423421666835
 20
659.11523085894999
 30
0.0
 11
576.41620959614795
 21
659.11523085894999
 31
0.0
  0
POLYLINE
  5
C7
  8
DATA
  6
CONTINUOUS
 62
     7
 66
     1
 10
0.0
 20
0.0
 30
0.0
 70
     1
  0
VERTEX
  5
CF2
  8
DATA
  6
CONTINUOUS
 62
     7
 10
575.49528807758793
 20
655.95523085895013
 30
0.0
  0
VERTEX
  5
CF3
  8
DATA
  6
CONTINUOUS
 62
     7
 10
577.02528807758779
 20
655.95523085895013
 30
0.0
  0
VERTEX
  5
CF4
  8
DATA
  6
CONTINUOUS
 62
     7
 10
577.02528807758779
 20
654.42523085895004
 30
0.0
  0
VERTEX
  5
CF5
  8
DATA
  6
CONTINUOUS
 62
     7
 10
575.49528807758793
 20
654.42523085895004
 30
0.0
  0
SEQEND
  5
CF6
  8
DATA
  6
CONTINUOUS
 62
     7
  0
POLYLINE
  5
CE
  8
DATA
  6
CONTINUOUS
 62
     7
 66
     1
 10
0.0
 20
0.0
 30
0.0
 70
     1
  0
VERTEX
  5
CF7
  8
DATA
  6
CONTINUOUS
 62
     7
 10
573.49528807758793
 20
655.95523085895013
 30
0.0
  0
VERTEX
  5
CF8
  8
DATA
  6
CONTINUOUS
 62
     7
 10
575.02528807758767
 20
655.95523085895013
 30
0.0
  0
VERTEX
  5
CF9
  8
DATA
  6
CONTINUOUS
 62
     7
 10
575.02528807758767
 20
654.42523085895004
 30
0.0
  0
VERTEX
  5
CFA
  8
DATA
  6
CONTINUOUS
 62
     7
 10
573.49528807758793
 20
654.42523085895004
 30
0.0
  0
SEQEND
  5
CFB
  8
DATA
  6
CONTINUOUS
 62
     7
  0
POLYLINE
  5
D5
  8
DATA
  6
CONTINUOUS
 62
     7
 66
     1
 10
0.0
 20
0.0
 30
0.0
 70
     1
  0
VERTEX
  5
CFC
  8
DATA
  6
CONTINUOUS
 62
     7
 10
571.49528807758793
 20
655.95523085895013
 30
0.0
  0
VERTEX
  5
CFD
  8
DATA
  6
CONTINUOUS
 62
     7
 10
573.02528807758779
 20
655.95523085895013
 30
0.0
  0
VERTEX
  5
CFE
  8
DATA
  6
CONTINUOUS
 62
     7
 10
573.02528807758779
 20
654.42523085895004
 30
0.0
  0
VERTEX
  5
CFF
  8
DATA
  6
CONTINUOUS
 62
     7
 10
571.49528807758793
 20
654.42523085895004
 30
0.0
  0
SEQEND
  5
D00
  8
DATA
  6
CONTINUOUS
 62
     7
  0
POLYLINE
  5
DC
  8
DATA
  6
CONTINUOUS
 62
     7
 66
     1
 10
0.0
 20
0.0
 30
0.0
 70
     1
  0
VERTEX
  5
D01
  8
DATA
  6
CONTINUOUS
 62
     7
 10
569.49528807758793
 20
655.95523085895013
 30
0.0
  0
VERTEX
  5
D02
  8
DATA
  6
CONTINUOUS
 62
     7
 10
571.02528807758767
 20
655.95523085895013
 30
0.0
  0
VERTEX
  5
D03
  8
DATA
  6
CONTINUOUS
 62
     7
 10
571.02528807758767
 20
654.42523085895004
 30
0.0
  0
VERTEX
  5
D04
  8
DATA
  6
CONTINUOUS
 62
     7
 10
569.49528807758793
 20
654.42523085895004
 30
0.0
  0
SEQEND
  5
D05
  8
DATA
  6
CONTINUOUS
 62
     7
  0
POLYLINE
  5
E3
  8
DATA
  6
CONTINUOUS
 62
     7
 66
     1
 10
0.0
 20
0.0
 30
0.0
 70
     1
  0
VERTEX
  5
D06
  8
DATA
  6
CONTINUOUS
 62
     7
 10
567.4952880775877
 20
655.95523085895013
 30
0.0
  0
VERTEX
  5
D07
  8
DATA
  6
CONTINUOUS
 62
     7
 10
569.02528807758779
 20
655.95523085895013
 30
0.0
  0
VERTEX
  5
D08
  8
DATA
  6
CONTINUOUS
 62
     7
 10
569.02528807758779
 20
654.42523085895004
 30
0.0
  0
VERTEX
  5
D09
  8
DATA
  6
CONTINUOUS
 62
     7
 10
567.4952880775877
 20
654.42523085895004
 30
0.0
  0
SEQEND
  5
D0A
  8
DATA
  6
CONTINUOUS
 62
     7
  0
POLYLINE
  5
EA
  8
DATA
  6
CONTINUOUS
 62
     7
 66
     1
 10
0.0
 20
0.0
 30
0.0
 70
     1
  0
VERTEX
  5
D0B
  8
DATA
  6
CONTINUOUS
 62
     7
 10
565.49528807758759
 20
655.95523085895013
 30
0.0
  0
VERTEX
  5
D0C
  8
DATA
  6
CONTINUOUS
 62
     7
 10
567.02528807758756
 20
655.95523085895013
 30
0.0
  0
VERTEX
  5
D0D
  8
DATA
  6
CONTINUOUS
 62
     7
 10
567.02528807758756
 20
654.42523085895004
 30
0.0
  0
VERTEX
  5
D0E
  8
DATA
  6
CONTINUOUS
 62
     7
 10
565.49528807758759
 20
654.42523085895004
 30
0.0
  0
SEQEND
  5
D0F
  8
DATA
  6
CONTINUOUS
 62
     7
  0
POLYLINE
  5
F1
  8
DATA
  6
CONTINUOUS
 62
     7
 66
     1
 10
0.0
 20
0.0
 30
0.0
 70
     1
  0
VERTEX
  5
D10
  8
DATA
  6
CONTINUOUS
 62
     7
 10
563.4952880775877
 20
655.95523085895013
 30
0.0
  0
VERTEX
  5
D11
  8
DATA
  6
CONTINUOUS
 62
     7
 10
565.02528807758767
 20
655.95523085895013
 30
0.0
  0
VERTEX
  5
D12
  8
DATA
  6
CONTINUOUS
 62
     7
 10
565.02528807758767
 20
654.42523085895004
 30
0.0
  0
VERTEX
  5
D13
  8
DATA
  6
CONTINUOUS
 62
     7
 10
563.4952880775877
 20
654.42523085895004
 30
0.0
  0
SEQEND
  5
D14
  8
DATA
  6
CONTINUOUS
 62
     7
  0
POLYLINE
  5
F8
  8
DATA
  6
CONTINUOUS
 62
     7
 66
     1
 10
0.0
 20
0.0
 30
0.0
 70
     1
  0
VERTEX
  5
D15
  8
DATA
  6
CONTINUOUS
 62
     7
 10
561.49528807758747
 20
655.95523085895013
 30
0.0
  0
VERTEX
  5
D16
  8
DATA
  6
CONTINUOUS
 62
     7
 10
563.02528807758756
 20
655.95523085895013
 30
0.0
  0
VERTEX
  5
D17
  8
DATA
  6
CONTINUOUS
 62
     7
 10
563.02528807758756
 20
654.42523085895004
 30
0.0
  0
VERTEX
  5
D18
  8
DATA
  6
CONTINUOUS
 62
     7
 10
561.49528807758747
 20
654.42523085895004
 30
0.0
  0
SEQEND
  5
D19
  8
DATA
  6
CONTINUOUS
 62
     7
  0
POLYLINE
  5
FF
  8
DATA
  6
CONTINUOUS
 62
     7
 66
     1
 10
0.0
 20
0.0
 30
0.0
 70
     1
  0
VERTEX
  5
D1A
  8
DATA
  6
CONTINUOUS
 62
     7
 10
575.49528807758793
 20
653.95523085895002
 30
0.0
  0
VERTEX
  5
D1B
  8
DATA
  6
CONTINUOUS
 62
     7
 10
577.02528807758779
 20
653.95523085895002
 30
0.0
  0
VERTEX
  5
D1C
  8
DATA
  6
CONTINUOUS
 62
     7
 10
577.02528807758779
 20
652.42523085895016
 30
0.0
  0
VERTEX
  5
D1D
  8
DATA
  6
CONTINUOUS
 62
     7
 10
575.49528807758793
 20
652.42523085895016
 30
0.0
  0
SEQEND
  5
D1E
  8
DATA
  6
CONTINUOUS
 62
     7
  0
POLYLINE
  5
106
  8
DATA
  6
CONTINUOUS
 62
     7
 66
     1
 10
0.0
 20
0.0
 30
0.0
 70
     1
  0
VERTEX
  5
D1F
  8
DATA
  6
CONTINUOUS
 62
     7
 10
573.49528807758793
 20
653.95523085895002
 30
0.0
  0
VERTEX
  5
D20
  8
DATA
  6
CONTINUOUS
 62
     7
 10
575.02528807758767
 20
653.95523085895002
 30
0.0
  0
VERTEX
  5
D21
  8
DATA
  6
CONTINUOUS
 62
     7
 10
575.02528807758767
 20
652.42523085895016
 30
0.0
  0
VERTEX
  5
D22
  8
DATA
  6
CONTINUOUS
 62
     7
 10
573.49528807758793
 20
652.42523085895016
 30
0.0
  0
SEQEND
  5
D23
  8
DATA
  6
CONTINUOUS
 62
     7
  0
POLYLINE
  5
10D
  8
DATA
  6
CONTINUOUS
 62
     7
 66
     1
 10
0.0
 20
0.0
 30
0.0
 70
     1
  0
VERTEX
  5
D24
  8
DATA
  6
CONTINUOUS
 62
     7
 10
571.49528807758793
 20
653.95523085895002
 30
0.0
  0
VERTEX
  5
D25
  8
DATA
  6
CONTINUOUS
 62
     7
 10
573.02528807758779
 20
653.95523085895002
 30
0.0
  0
VERTEX
  5
D26
  8
DATA
  6
CONTINUOUS
 62
     7
 10
573.02528807758779
 20
652.42523085895016
 30
0.0
  0
VERTEX
  5
D27
  8
DATA
  6
CONTINUOUS
 62
     7
 10
571.49528807758793
 20
652.42523085895016
 30
0.0
  0
SEQEND
  5
D28
  8
DATA
  6
CONTINUOUS
 62
     7
  0
POLYLINE
  5
114
  8
DATA
  6
CONTINUOUS
 62
     7
 66
     1
 10
0.0
 20
0.0
 30
0.0
 70
     1
  0
VERTEX
  5
D29
  8
DATA
  6
CONTINUOUS
 62
     7
 10
569.49528807758793
 20
653.95523085895002
 30
0.0
  0
VERTEX
  5
D2A
  8
DATA
  6
CONTINUOUS
 62
     7
 10
571.02528807758767
 20
653.95523085895002
 30
0.0
  0
VERTEX
  5
D2B
  8
DATA
  6
CONTINUOUS
 62
     7
 10
571.02528807758767
 20
652.42523085895016
 30
0.0
  0
VERTEX
  5
D2C
  8
DATA
  6
CONTINUOUS
 62
     7
 10
569.49528807758793
 20
652.42523085895016
 30
0.0
  0
SEQEND
  5
D2D
  8
DATA
  6
CONTINUOUS
 62
     7
  0
POLYLINE
  5
11B
  8
DATA
  6
CONTINUOUS
 62
     7
 66
     1
 10
0.0
 20
0.0
 30
0.0
 70
     1
  0
VERTEX
  5
D2E
  8
DATA
  6
CONTINUOUS
 62
     7
 10
567.4952880775877
 20
653.95523085895002
 30
0.0
  0
VERTEX
  5
D2F
  8
DATA
  6
CONTINUOUS
 62
     7
 10
569.02528807758779
 20
653.95523085895002
 30
0.0
  0
VERTEX
  5
D30
  8
DATA
  6
CONTINUOUS
 62
     7
 10
569.02528807758779
 20
652.42523085895016
 30
0.0
  0
VERTEX
  5
D31
  8
DATA
  6
CONTINUOUS
 62
     7
 10
567.4952880775877
 20
652.42523085895016
 30
0.0
  0
SEQEND
  5
D32
  8
DATA
  6
CONTINUOUS
 62
     7
  0
POLYLINE
  5
122
  8
DATA
  6
CONTINUOUS
 62
     7
 66
     1
 10
0.0
 20
0.0
 30
0.0
 70
     1
  0
VERTEX
  5
D33
  8
DATA
  6
CONTINUOUS
 62
     7
 10
565.49528807758759
 20
653.95523085895002
 30
0.0
  0
VERTEX
  5
D34
  8
DATA
  6
CONTINUOUS
 62
     7
 10
567.02528807758756
 20
653.95523085895002
 30
0.0
  0
VERTEX
  5
D35
  8
DATA
  6
CONTINUOUS
 62
     7
 10
567.02528807758756
 20
652.42523085895016
 30
0.0
  0
VERTEX
  5
D36
  8
DATA
  6
CONTINUOUS
 62
     7
 10
565.49528807758759
 20
652.42523085895016
 30
0.0
  0
SEQEND
  5
D37
  8
DATA
  6
CONTINUOUS
 62
     7
  0
POLYLINE
  5
129
  8
DATA
  6
CONTINUOUS
 62
     7
 66
     1
 10
0.0
 20
0.0
 30
0.0
 70
     1
  0
VERTEX
  5
D38
  8
DATA
  6
CONTINUOUS
 62
     7
 10
563.4952880775877
 20
653.95523085895002
 30
0.0
  0
VERTEX
  5
D39
  8
DATA
  6
CONTINUOUS
 62
     7
 10
565.02528807758767
 20
653.95523085895002
 30
0.0
  0
VERTEX
  5
D3A
  8
DATA
  6
CONTINUOUS
 62
     7
 10
565.02528807758767
 20
652.42523085895016
 30
0.0
  0
VERTEX
  5
D3B
  8
DATA
  6
CONTINUOUS
 62
     7
 10
563.4952880775877
 20
652.42523085895016
 30
0.0
  0
SEQEND
  5
D3C
  8
DATA
  6
CONTINUOUS
 62
     7
  0
POLYLINE
  5
130
  8
DATA
  6
CONTINUOUS
 62
     7
 66
     1
 10
0.0
 20
0.0
 30
0.0
 70
     1
  0
VERTEX
  5
D3D
  8
DATA
  6
CONTINUOUS
 62
     7
 10
561.49528807758747
 20
653.95523085895002
 30
0.0
  0
VERTEX
  5
D3E
  8
DATA
  6
CONTINUOUS
 62
     7
 10
563.02528807758756
 20
653.95523085895002
 30
0.0
  0
VERTEX
  5
D3F
  8
DATA
  6
CONTINUOUS
 62
     7
 10
563.02528807758756
 20
652.42523085895016
 30
0.0
  0
VERTEX
  5
D40
  8
DATA
  6
CONTINUOUS
 62
     7
 10
561.49528807758747
 20
652.42523085895016
 30
0.0
  0
SEQEND
  5
D41
  8
DATA
  6
CONTINUOUS
 62
     7
  0
POLYLINE
  5
137
  8
DATA
  6
CONTINUOUS
 62
     7
 66
     1
 10
0.0
 20
0.0
 30
0.0
 70
     1
  0
VERTEX
  5
D42
  8
DATA
  6
CONTINUOUS
 62
     7
 10
575.49528807758793
 20
657.95523085895013
 30
0.0
  0
VERTEX
  5
D43
  8
DATA
  6
CONTINUOUS
 62
     7
 10
577.02528807758779
 20
657.95523085895013
 30
0.0
  0
VERTEX
  5
D44
  8
DATA
  6
CONTINUOUS
 62
     7
 10
577.02528807758779
 20
656.42523085895016
 30
0.0
  0
VERTEX
  5
D45
  8
DATA
  6
CONTINUOUS
 62
     7
 10
575.49528807758793
 20
656.42523085895016
 30
0.0
  0
SEQEND
  5
D46
  8
DATA
  6
CONTINUOUS
 62
     7
  0
POLYLINE
  5
13E
  8
DATA
  6
CONTINUOUS
 62
     7
 66
     1
 10
0.0
 20
0.0
 30
0.0
 70
     1
  0
VERTEX
  5
D47
  8
DATA
  6
CONTINUOUS
 62
     7
 10
573.49528807758793
 20
657.95523085895013
 30
0.0
  0
VERTEX
  5
D48
  8
DATA
  6
CONTINUOUS
 62
     7
 10
575.02528807758767
 20
657.95523085895013
 30
0.0
  0
VERTEX
  5
D49
  8
DATA
  6
CONTINUOUS
 62
     7
 10
575.02528807758767
 20
656.42523085895016
 30
0.0
  0
VERTEX
  5
D4A
  8
DATA
  6
CONTINUOUS
 62
     7
 10
573.49528807758793
 20
656.42523085895016
 30
0.0
  0
SEQEND
  5
D4B
  8
DATA
  6
CONTINUOUS
 62
     7
  0
POLYLINE
  5
145
  8
DATA
  6
CONTINUOUS
 62
     7
 66
     1
 10
0.0
 20
0.0
 30
0.0
 70
     1
  0
VERTEX
  5
D4C
  8
DATA
  6
CONTINUOUS
 62
     7
 10
571.49528807758793
 20
657.95523085895013
 30
0.0
  0
VERTEX
  5
D4D
  8
DATA
  6
CONTINUOUS
 62
     7
 10
573.02528807758779
 20
657.95523085895013
 30
0.0
  0
VERTEX
  5
D4E
  8
DATA
  6
CONTINUOUS
 62
     7
 10
573.02528807758779
 20
656.42523085895016
 30
0.0
  0
VERTEX
  5
D4F
  8
DATA
  6
CONTINUOUS
 62
     7
 10
571.49528807758793
 20
656.42523085895016
 30
0.0
  0
SEQEND
  5
D50
  8
DATA
  6
CONTINUOUS
 62
     7
  0
POLYLINE
  5
14C
  8
DATA
  6
CONTINUOUS
 62
     7
 66
     1
 10
0.0
 20
0.0
 30
0.0
 70
     1
  0
VERTEX
  5
D51
  8
DATA
  6
CONTINUOUS
 62
     7
 10
569.49528807758793
 20
657.95523085895013
 30
0.0
  0
VERTEX
  5
D52
  8
DATA
  6
CONTINUOUS
 62
     7
 10
571.02528807758767
 20
657.95523085895013
 30
0.0
  0
VERTEX
  5
D53
  8
DATA
  6
CONTINUOUS
 62
     7
 10
571.02528807758767
 20
656.42523085895016
 30
0.0
  0
VERTEX
  5
D54
  8
DATA
  6
CONTINUOUS
 62
     7
 10
569.49528807758793
 20
656.42523085895016
 30
0.0
  0
SEQEND
  5
D55
  8
DATA
  6
CONTINUOUS
 62
     7
  0
POLYLINE
  5
153
  8
DATA
  6
CONTINUOUS
 62
     7
 66
     1
 10
0.0
 20
0.0
 30
0.0
 70
     1
  0
VERTEX
  5
D56
  8
DATA
  6
CONTINUOUS
 62
     7
 10
567.4952880775877
 20
657.95523085895013
 30
0.0
  0
VERTEX
  5
D57
  8
DATA
  6
CONTINUOUS
 62
     7
 10
569.02528807758779
 20
657.95523085895013
 30
0.0
  0
VERTEX
  5
D58
  8
DATA
  6
CONTINUOUS
 62
     7
 10
569.02528807758779
 20
656.42523085895016
 30
0.0
  0
VERTEX
  5
D59
  8
DATA
  6
CONTINUOUS
 62
     7
 10
567.4952880775877
 20
656.42523085895016
 30
0.0
  0
SEQEND
  5
D5A
  8
DATA
  6
CONTINUOUS
 62
     7
  0
POLYLINE
  5
15A
  8
DATA
  6
CONTINUOUS
 62
     7
 66
     1
 10
0.0
 20
0.0
 30
0.0
 70
     1
  0
VERTEX
  5
D5B
  8
DATA
  6
CONTINUOUS
 62
     7
 10
565.49528807758759
 20
657.95523085895013
 30
0.0
  0
VERTEX
  5
D5C
  8
DATA
  6
CONTINUOUS
 62
     7
 10
567.02528807758756
 20
657.95523085895013
 30
0.0
  0
VERTEX
  5
D5D
  8
DATA
  6
CONTINUOUS
 62
     7
 10
567.02528807758756
 20
656.42523085895016
 30
0.0
  0
VERTEX
  5
D5E
  8
DATA
  6
CONTINUOUS
 62
     7
 10
565.49528807758759
 20
656.42523085895016
 30
0.0
  0
SEQEND
  5
D5F
  8
DATA
  6
CONTINUOUS
 62
     7
  0
POLYLINE
  5
161
  8
DATA
  6
CONTINUOUS
 62
     7
 66
     1
 10
0.0
 20
0.0
 30
0.0
 70
     1
  0
VERTEX
  5
D60
  8
DATA
  6
CONTINUOUS
 62
     7
 10
563.4952880775877
 20
657.95523085895013
 30
0.0
  0
VERTEX
  5
D61
  8
DATA
  6
CONTINUOUS
 62
     7
 10
565.02528807758767
 20
657.95523085895013
 30
0.0
  0
VERTEX
  5
D62
  8
DATA
  6
CONTINUOUS
 62
     7
 10
565.02528807758767
 20
656.42523085895016
 30
0.0
  0
VERTEX
  5
D63
  8
DATA
  6
CONTINUOUS
 62
     7
 10
563.4952880775877
 20
656.42523085895016
 30
0.0
  0
SEQEND
  5
D64
  8
DATA
  6
CONTINUOUS
 62
     7
  0
POLYLINE
  5
168
  8
DATA
  6
CONTINUOUS
 62
     7
 66
     1
 10
0.0
 20
0.0
 30
0.0
 70
     1
  0
VERTEX
  5
D65
  8
DATA
  6
CONTINUOUS
 62
     7
 10
561.49528807758747
 20
657.95523085895013
 30
0.0
  0
VERTEX
  5
D66
  8
DATA
  6
CONTINUOUS
 62
     7
 10
563.02528807758756
 20
657.95523085895013
 30
0.0
  0
VERTEX
  5
D67
  8
DATA
  6
CONTINUOUS
 62
     7
 10
563.02528807758756
 20
656.42523085895016
 30
0.0
  0
VERTEX
  5
D68
  8
DATA
  6
CONTINUOUS
 62
     7
 10
561.49528807758747
 20
656.42523085895016
 30
0.0
  0
SEQEND
  5
D69
  8
DATA
  6
CONTINUOUS
 62
     7
  0
POLYLINE
  5
16F
  8
DATA
  6
CONTINUOUS
 62
     7
 66
     1
 10
0.0
 20
0.0
 30
0.0
  0
VERTEX
  5
D6A
  8
DATA
  6
CONTINUOUS
 62
     7
 10
557.47522190640768
 20
654.79023085895017
 30
0.0
  0
VERTEX
  5
D6B
  8
DATA
  6
CONTINUOUS
 62
     7
 10
555.37522190640777
 20
654.79023085895017
 30
0.0
  0
VERTEX
  5
D6C
  8
DATA
  6
CONTINUOUS
 62
     7
 10
555.37522190640777
 20
655.59023085895012
 30
0.0
  0
VERTEX
  5
D6D
  8
DATA
  6
CONTINUOUS
 62
     7
 10
557.47522190640768
 20
655.59023085895012
 30
0.0
  0
SEQEND
  5
D6E
  8
DATA
  6
CONTINUOUS
 62
     7
  0
POLYLINE
  5
176
  8
DATA
  6
CONTINUOUS
 62
     7
 66
     1
 10
0.0
 20
0.0
 30
0.0
  0
VERTEX
  5
D6F
  8
DATA
  6
CONTINUOUS
 62
     7
 10
558.27522190640775
 20
655.59023085895012
 30
0.0
  0
VERTEX
  5
D70
  8
DATA
  6
CONTINUOUS
 62
     7
 10
560.37522190640777
 20
655.59023085895012
 30
0.0
  0
VERTEX
  5
D71
  8
DATA
  6
CONTINUOUS
 62
     7
 10
560.37522190640777
 20
654.79023085895017
 30
0.0
  0
VERTEX
  5
D72
  8
DATA
  6
CONTINUOUS
 62
     7
 10
558.27522190640775
 20
654.79023085895017
 30
0.0
  0
SEQEND
  5
D73
  8
DATA
  6
CONTINUOUS
 62
     7
  0
POLYLINE
  5
17D
  8
DATA
  6
CONTINUOUS
 62
     7
 66
     1
 10
0.0
 20
0.0
 30
0.0
  0
VERTEX
  5
D74
  8
DATA
  6
CONTINUOUS
 62
     7
 10
557.47522190640768
 20
655.59023085895012
 30
0.0
  0
VERTEX
  5
D75
  8
DATA
  6
CONTINUOUS
 62
     7
 10
557.47522190640768
 20
657.69023085895014
 30
0.0
  0
VERTEX
  5
D76
  8
DATA
  6
CONTINUOUS
 62
     7
 10
558.27522190640775
 20
657.69023085895014
 30
0.0
  0
VERTEX
  5
D77
  8
DATA
  6
CONTINUOUS
 62
     7
 10
558.27522190640775
 20
655.59023085895012
 30
0.0
  0
SEQEND
  5
D78
  8
DATA
  6
CONTINUOUS
 62
     7
  0
POLYLINE
  5
184
  8
DATA
  6
CONTINUOUS
 62
     7
 66
     1
 10
0.0
 20
0.0
 30
0.0
  0
VERTEX
  5
D79
  8
DATA
  6
CONTINUOUS
 62
     7
 10
558.27522190640775
 20
654.79023085895017
 30
0.0
  0
VERTEX
  5
D7A
  8
DATA
  6
CONTINUOUS
 62
     7
 10
558.27522190640775
 20
652.69023085895014
 30
0.0
  0
VERTEX
  5
D7B
  8
DATA
  6
CONTINUOUS
 62
     7
 10
557.47522190640768
 20
652.69023085895014
 30
0.0
  0
VERTEX
  5
D7C
  8
DATA
  6
CONTINUOUS
 62
     7
 10
557.47522190640768
 20
654.79023085895017
 30
0.0
  0
SEQEND
  5
D7D
  8
DATA
  6
CONTINUOUS
 62
     7
  0
POLYLINE
  5
18B
  8
DATA
  6
CONTINUOUS
 62
     7
 66
     1
 10
0.0
 20
0.0
 30
0.0
 70
     1
  0
VERTEX
  5
D7E
  8
DATA
  6
CONTINUOUS
 62
     7
 10
558.73550633687933
 20
654.43080304830005
 30
0.0
  0
VERTEX
  5
D7F
  8
DATA
  6
CONTINUOUS
 62
     7
 10
559.73550633687955
 20
654.43080304830005
 30
0.0
  0
VERTEX
  5
D80
  8
DATA
  6
CONTINUOUS
 62
     7
 10
559.73550633687955
 20
653.43080304830005
 30
0.0
  0
VERTEX
  5
D81
  8
DATA
  6
CONTINUOUS
 62
     7
 10
558.73550633687933
 20
653.43080304830005
 30
0.0
  0
SEQEND
  5
D82
  8
DATA
  6
CONTINUOUS
 62
     7
  0
POLYLINE
  5
192
  8
DATA
  6
CONTINUOUS
 62
     7
 66
     1
 10
0.0
 20
0.0
 30
0.0
 70
     1
  0
VERTEX
  5
D83
  8
DATA
  6
CONTINUOUS
 62
     7
 10
556.01493747593599
 20
654.43080304830005
 30
0.0
  0
VERTEX
  5
D84
  8
DATA
  6
CONTINUOUS
 62
     7
 10
557.01493747593599
 20
654.43080304830005
 30
0.0
  0
VERTEX
  5
D85
  8
DATA
  6
CONTINUOUS
 62
     7
 10
557.01493747593599
 20
653.43080304830005
 30
0.0
  0
VERTEX
  5
D86
  8
DATA
  6
CONTINUOUS
 62
     7
 10
556.01493747593599
 20
653.43080304830005
 30
0.0
  0
SEQEND
  5
D87
  8
DATA
  6
CONTINUOUS
 62
     7
  0
POLYLINE
  5
199
  8
DATA
  6
CONTINUOUS
 62
     7
 66
     1
 10
0.0
 20
0.0
 30
0.0
 70
     1
  0
VERTEX
  5
D88
  8
DATA
  6
CONTINUOUS
 62
     7
 10
558.73550633687933
 20
656.94965866960001
 30
0.0
  0
VERTEX
  5
D89
  8
DATA
  6
CONTINUOUS
 62
     7
 10
559.73550633687955
 20
656.94965866960001
 30
0.0
  0
VERTEX
  5
D8A
  8
DATA
  6
CONTINUOUS
 62
     7
 10
559.73550633687955
 20
655.94965866960001
 30
0.0
  0
VERTEX
  5
D8B
  8
DATA
  6
CONTINUOUS
 62
     7
 10
558.73550633687933
 20
655.94965866960001
 30
0.0
  0
SEQEND
  5
D8C
  8
DATA
  6
CONTINUOUS
 62
     7
  0
POLYLINE
  5
1A0
  8
DATA
  6
CONTINUOUS
 62
     7
 66
     1
 10
0.0
 20
0.0
 30
0.0
 70
     1
  0
VERTEX
  5
D8D
  8
DATA
  6
CONTINUOUS
 62
     7
 10
556.01493747593599
 20
656.94965866960001
 30
0.0
  0
VERTEX
  5
D8E
  8
DATA
  6
CONTINUOUS
 62
     7
 10
557.01493747593599
 20
656.94965866960001
 30
0.0
  0
VERTEX
  5
D8F
  8
DATA
  6
CONTINUOUS
 62
     7
 10
557.01493747593599
 20
655.94965866960001
 30
0.0
  0
VERTEX
  5
D90
  8
DATA
  6
CONTINUOUS
 62
     7
 10
556.01493747593599
 20
655.94965866960001
 30
0.0
  0
SEQEND
  5
D91
  8
DATA
  6
CONTINUOUS
 62
     7
  0
LINE
  5
1A7
  8
DATA
  6
CONTINUOUS
 62
     7
 10
577.97059372435547
 20
652.36033916443625
 30
0.0
 11
577.41167652690319
 21
658.21033916443639
 31
0.0
  0
LINE
  5
1A8
  8
DATA
  6
CONTINUOUS
 62
     7
 10
554.07985008846083
 20
652.36033916443625
 30
0.0
 11
554.63876728591322
 21
658.21033916443639
 31
0.0
  0
ARC
  5
1A9
  8
DATA
  6
CONTINUOUS
 62
     7
 10
576.9751267936
 20
652.26523085894996
 30
0.0
 40
1.0
 50
270.0
 51
5.4575534851074963
  0
ARC
  5
1AA
  8
DATA
  6
CONTINUOUS
 62
     7
 10
555.07531701921607
 20
652.26523085894996
 30
0.0
 40
0.9999999999999051
 50
174.54244651489191
 51
270.0
  0
ARC
  5
1AB
  8
DATA
  6
CONTINUOUS
 62
     7
 10
576.41620959614795
 20
658.11523085894999
 30
0.0
 40
1.0000000000000031
 50
5.457553485107554
 51
89.999999999999986
  0
ARC
  5
1AC
  8
DATA
  6
CONTINUOUS
 62
     7
 10
555.63423421666835
 20
658.11523085894999
 30
0.0
 40
1.0
 50
90.0
 51
174.54244651489509
  0
CIRCLE
  5
1AD
  8
DATA
  6
CONTINUOUS
 62
     7
 10
195.7347746025352
 20
649.0
 30
0.0
 40
3.9000000000000332
  0
POLYLINE
  5
1AE
  8
DATA
  6
CONTINUOUS
 62
     7
 66
     1
 10
0.0
 20
0.0
 30
0.0
 70
     1
  0
VERTEX
  5
D92
  8
DATA
  6
CONTINUOUS
 62
     7
 10
192.84802325658711
 20
654.0
 30
0.0
  0
VERTEX
  5
D93
  8
DATA
  6
CONTINUOUS
 62
     7
 10
189.961271910639
 20
649.0
 30
0.0
  0
VERTEX
  5
D94
  8
DATA
  6
CONTINUOUS
 62
     7
 10
192.84802325658711
 20
644.0
 30
0.0
  0
VERTEX
  5
D95
  8
DATA
  6
CONTINUOUS
 62
     7
 10
198.6215259484834
 20
644.0
 30
0.0
  0
VERTEX
  5
D96
  8
DATA
  6
CONTINUOUS
 62
     7
 10
201.50827729443139
 20
649.0
 30
0.0
  0
VERTEX
  5
D97
  8
DATA
  6
CONTINUOUS
 62
     7
 10
198.6215259484834
 20
654.0
 30
0.0
  0
SEQEND
  5
D98
  8
DATA
  6
CONTINUOUS
 62
     7
  0
CIRCLE
  5
1B7
  8
DATA
  6
CONTINUOUS
 62
     7
 10
195.7347746025352
 20
649.0
 30
0.0
 40
2.9000000000000341
  0
CIRCLE
  5
1B8
  8
DATA
  6
CONTINUOUS
 62
     7
 10
195.7347746025352
 20
649.0
 30
0.0
 40
0.75
  0
TEXT
  5
1B9
  8
DATA
 62
     7
 10
199.6364412692019
 20
665.13503097719558
 30
0.0
 40
2.3455312500000001
  1
5V DC
 50
180.0
 41
0.7
 11
199.6364412692019
 21
662.78949972719556
 31
0.0
 73
     3
1001
ACADANNOTATIVE
1000
AnnotativeData
1002
{
1070
     1
1070
     0
1002
}
  0
TEXT
  5
1BA
  8
DATA
 62
     7
 10
570.30363850294339
 20
665.20107933497434
 30
0.0
 40
2.3455312500000001
  1
In 1
 50
180.0
 41
0.7
 11
570.30363850294339
 21
662.85554808497432
 31
0.0
 73
     3
1001
ACADANNOTATIVE
1000
AnnotativeData
1002
{
1070
     1
1070
     0
1002
}
  0
LINE
  5
1BB
  8
DATA
  6
CONTINUOUS
 62
     7
 10
547.36141544931422
 20
575.99999999983845
 30
0.0
 11
552.03795262975007
 21
575.99999999983845
 31
0.0
  0
LINE
  5
1BC
  8
DATA
  6
CONTINUOUS
 62
     7
 10
554.05683818334683
 20
575.99999999983845
 30
0.0
 11
577.85432465916995
 21
575.99999999983845
 31
0.0
  0
LINE
  5
1BD
  8
DATA
  6
CONTINUOUS
 62
     7
 10
579.86141544931502
 20
575.99999999983845
 30
0.0
 11
584.53795262975098
 21
575.99999999983845
 31
0.0
  0
LINE
  5
1BE
  8
DATA
  6
CONTINUOUS
 62
     7
 10
547.36141544931422
 20
575.99999999983845
 30
0.0
 11
547.36141544931422
 21
571.49999999983845
 31
0.0
  0
LINE
  5
1BF
  8
DATA
  6
CONTINUOUS
 62
     7
 10
552.03795262975007
 20
575.99999999983845
 30
0.0
 11
552.03795262975007
 21
571.49999999983845
 31
0.0
  0
LINE
  5
1C0
  8
DATA
  6
CONTINUOUS
 62
     7
 10
579.86141544931502
 20
575.99999999983845
 30
0.0
 11
579.86141544931502
 21
571.49999999983845
 31
0.0
  0
LINE
  5
1C1
  8
DATA
  6
CONTINUOUS
 62
     7
 10
584.53795262975098
 20
575.99999999983845
 30
0.0
 11
584.53795262975098
 21
571.49999999983845
 31
0.0
  0
LINE
  5
1C2
  8
DATA
  6
CONTINUOUS
 62
     7
 10
554.05683818334683
 20
575.99999999983845
 30
0.0
 11
554.05683818334683
 21
571.49999999983845
 31
0.0
  0
LINE
  5
1C3
  8
DATA
  6
CONTINUOUS
 62
     7
 10
577.85432465916995
 20
575.99999999983845
 30
0.0
 11
577.85432465916995
 21
571.49999999983845
 31
0.0
  0
LINE
  5
1C4
  8
DATA
  6
CONTINUOUS
 62
     7
 10
199.61406118517851
 20
577.49999999983845
 30
0.0
 11
191.8140611851785
 21
577.49999999983845
 31
0.0
  0
LINE
  5
1C5
  8
DATA
  6
CONTINUOUS
 62
     7
 10
189.94055849328231
 20
572.99999999983845
 30
0.0
 11
189.94055849328231
 21
571.49999999983845
 31
0.0
  0
LINE
  5
1C6
  8
DATA
  6
CONTINUOUS
 62
     7
 10
201.48756387707479
 20
572.99999999983845
 30
0.0
 11
201.48756387707479
 21
571.49999999983845
 31
0.0
  0
LINE
  5
1C7
  8
DATA
  6
CONTINUOUS
 62
     7
 10
189.94055849328231
 20
572.99999999983845
 30
0.0
 11
201.48756387707479
 21
572.99999999983845
 31
0.0
  0
LINE
  5
1C8
  8
DATA
  6
CONTINUOUS
 62
     7
 10
191.8140611851785
 20
577.49999999983845
 30
0.0
 11
191.8140611851785
 21
572.99999999983845
 31
0.0
  0
LINE
  5
1C9
  8
DATA
  6
CONTINUOUS
 62
     7
 10
199.61406118517851
 20
577.49999999983845
 30
0.0
 11
199.61406118517851
 21
572.99999999983845
 31
0.0
  0
TEXT
  5
1CA
  8
DATA
 62
     7
 10
649.73856647062723
 20
931.87321438064498
 30
0.0
 40
13.57367621527778
  1
DIPスイッチ拡大図
 41
0.7
 11
649.73856647062723
 21
945.4468905959227
 31
0.0
 73
     3
1001
ACADANNOTATIVE
1000
AnnotativeData
1002
{
1070
     1
1070
     0
1002
}
  0
LINE
  5
1CB
  8
DATA
  6
CONTINUOUS
 62
     7
 10
650.0
 20
925.0
 30
0.0
 11
800.0
 21
925.0
 31
0.0
  0
CIRCLE
  5
1CC
  8
DATA
  6
CONTINUOUS
 62
     7
 10
689.0
 20
369.0
 30
0.0
 40
2.5
  0
LINE
  5
1CD
  8
DATA
  6
CONTINUOUS
 62
     7
 10
687.9077546063271
 20
367.90775460632688
 30
0.0
 11
690.0922453936729
 21
370.09224539367301
 31
0.0
  0
LINE
  5
1CE
  8
DATA
  6
CONTINUOUS
 62
     7
 10
690.0922453936729
 20
367.90775460632688
 30
0.0
 11
687.9077546063271
 21
370.09224539367301
 31
0.0
  0
CIRCLE
  5
1CF
  8
DATA
  6
CONTINUOUS
 62
     7
 10
689.0
 20
399.0
 30
0.0
 40
2.5
  0
LINE
  5
1D0
  8
DATA
  6
CONTINUOUS
 62
     7
 10
687.9077546063271
 20
397.90775460632688
 30
0.0
 11
690.0922453936729
 21
400.0922453936729
 31
0.0
  0
LINE
  5
1D1
  8
DATA
  6
CONTINUOUS
 62
     7
 10
690.0922453936729
 20
397.90775460632688
 30
0.0
 11
687.9077546063271
 21
400.0922453936729
 31
0.0
  0
CIRCLE
  5
1D2
  8
DATA
  6
CONTINUOUS
 62
     7
 10
764.0
 20
369.0
 30
0.0
 40
2.5
  0
LINE
  5
1D3
  8
DATA
  6
CONTINUOUS
 62
     7
 10
762.9077546063271
 20
367.90775460632688
 30
0.0
 11
765.0922453936729
 21
370.09224539367301
 31
0.0
  0
LINE
  5
1D4
  8
DATA
  6
CONTINUOUS
 62
     7
 10
765.0922453936729
 20
367.90775460632688
 30
0.0
 11
762.9077546063271
 21
370.09224539367301
 31
0.0
  0
ARC
  5
1D5
  8
DATA
  6
CONTINUOUS
 62
     7
 10
675.23740376624266
 20
377.6420279028244
 30
0.0
 40
1.500000000000024
 50
99.106447352849955
 51
240.55403551476479
  0
LINE
  5
1D6
  8
DATA
  6
CONTINUOUS
 62
     7
 10
789.9999999998962
 20
378.72587573699002
 30
0.0
 11
789.9999999998962
 21
386.52587573698997
 31
0.0
  0
LINE
  5
1D7
  8
DATA
  6
CONTINUOUS
 62
     7
 10
785.4999999998962
 20
388.39937842888628
 30
0.0
 11
783.9999999998962
 21
388.39937842888628
 31
0.0
  0
LINE
  5
1D8
  8
DATA
  6
CONTINUOUS
 62
     7
 10
785.4999999998962
 20
388.39937842888628
 30
0.0
 11
785.4999999998962
 21
380.42500000000001
 31
0.0
  0
LINE
  5
1D9
  8
DATA
  6
CONTINUOUS
 62
     7
 10
789.9999999998962
 20
386.52587573698997
 30
0.0
 11
785.4999999998962
 21
386.52587573698997
 31
0.0
  0
LINE
  5
1DA
  8
DATA
  6
CONTINUOUS
 62
     7
 10
789.9999999998962
 20
378.72587573699002
 30
0.0
 11
788.49999999999989
 21
378.72587573699002
 31
0.0
  0
LINE
  5
1DB
  8
DATA
  6
CONTINUOUS
 62
     7
 10
610.0
 20
362.5
 30
0.0
 11
610.0
 21
406.5
 31
0.0
  0
LINE
  5
1DC
  8
DATA
  6
CONTINUOUS
 62
     7
 10
179.5
 20
358.50000000004172
 30
0.0
 11
178.0
 21
362.5
 31
0.0
  0
LINE
  5
1DD
  8
DATA
  6
CONTINUOUS
 62
     7
 10
195.5
 20
358.50000000004172
 30
0.0
 11
197.0
 21
362.5
 31
0.0
  0
LINE
  5
1DE
  8
DATA
  6
CONTINUOUS
 62
     7
 10
179.5
 20
358.50000000004172
 30
0.0
 11
195.5
 21
358.50000000004172
 31
0.0
  0
LINE
  5
1DF
  8
DATA
  6
CONTINUOUS
 62
     7
 10
605.49999999999989
 20
358.50000000004172
 30
0.0
 11
607.0
 21
362.5
 31
0.0
  0
LINE
  5
1E0
  8
DATA
  6
CONTINUOUS
 62
     7
 10
589.5
 20
358.50000000004172
 30
0.0
 11
588.0
 21
362.5
 31
0.0
  0
LINE
  5
1E1
  8
DATA
  6
CONTINUOUS
 62
     7
 10
605.49999999999989
 20
358.50000000004172
 30
0.0
 11
589.5
 21
358.50000000004172
 31
0.0
  0
CIRCLE
  5
1E2
  8
DATA
  6
CONTINUOUS
 62
     7
 10
460.0
 20
373.5
 30
0.0
 40
3.0
  0
CIRCLE
  5
1E3
  8
DATA
  6
CONTINUOUS
 62
     7
 10
460.0
 20
373.5
 30
0.0
 40
1.75
  0
CIRCLE
  5
1E4
  8
DATA
  6
CONTINUOUS
 62
     7
 10
430.0
 20
377.5
 30
0.0
 40
2.5
  0
TEXT
  5
1E5
  8
DATA
 62
     7
 10
454.62151303871462
 20
365.37808670847511
 30
0.0
 40
3.2576822916666659
  1
Ext-IR
 41
0.7
 11
454.62151303871462
 21
368.63576900014169
 31
0.0
 73
     3
1001
ACADANNOTATIVE
1000
AnnotativeData
1002
{
1070
     1
1070
     0
1002
}
  0
TEXT
  5
1E6
  8
DATA
 62
     7
 10
427.9337189971514
 20
365.37808670847511
 30
0.0
 40
3.2576822916666659
  1
IR
 41
0.7
 11
427.9337189971514
 21
368.63576900014169
 31
0.0
 73
     3
1001
ACADANNOTATIVE
1000
AnnotativeData
1002
{
1070
     1
1070
     0
1002
}
  0
CIRCLE
  5
1E7
  8
DATA
  6
CONTINUOUS
 62
     7
 10
219.0
 20
377.5
 30
0.0
 40
1.5
  0
TEXT
  5
1E8
  8
DATA
 62
     7
 10
217.9925586456142
 20
370.8123257557117
 30
0.0
 40
3.2576822916666659
  1
1
 41
0.7
 11
217.9925586456142
 21
374.07000804737828
 31
0.0
 73
     3
1001
ACADANNOTATIVE
1000
AnnotativeData
1002
{
1070
     1
1070
     0
1002
}
  0
CIRCLE
  5
1E9
  8
DATA
  6
CONTINUOUS
 62
     7
 10
229.0
 20
377.5
 30
0.0
 40
1.5
  0
TEXT
  5
1EA
  8
DATA
 62
     7
 10
227.9925586456142
 20
370.8123257557117
 30
0.0
 40
3.2576822916666659
  1
2
 41
0.7
 11
227.9925586456142
 21
374.07000804737828
 31
0.0
 73
     3
1001
ACADANNOTATIVE
1000
AnnotativeData
1002
{
1070
     1
1070
     0
1002
}
  0
CIRCLE
  5
1EB
  8
DATA
  6
CONTINUOUS
 62
     7
 10
239.0
 20
377.5
 30
0.0
 40
1.5
  0
TEXT
  5
1EC
  8
DATA
 62
     7
 10
237.9925586456142
 20
370.8123257557117
 30
0.0
 40
3.2576822916666659
  1
3
 41
0.7
 11
237.9925586456142
 21
374.07000804737828
 31
0.0
 73
     3
1001
ACADANNOTATIVE
1000
AnnotativeData
1002
{
1070
     1
1070
     0
1002
}
  0
CIRCLE
  5
1ED
  8
DATA
  6
CONTINUOUS
 62
     7
 10
249.0
 20
377.5
 30
0.0
 40
1.5
  0
TEXT
  5
1EE
  8
DATA
 62
     7
 10
247.9925586456142
 20
370.8123257557117
 30
0.0
 40
3.2576822916666659
  1
4
 41
0.7
 11
247.9925586456142
 21
374.07000804737828
 31
0.0
 73
     3
1001
ACADANNOTATIVE
1000
AnnotativeData
1002
{
1070
     1
1070
     0
1002
}
  0
TEXT
  5
1EF
  8
DATA
 62
     7
 10
225.3888450185197
 20
382.15307922487898
 30
0.0
 40
3.2576822916666659
  1
Output-1
 41
0.7
 11
225.3888450185197
 21
385.41076151654562
 31
0.0
 73
     3
1001
ACADANNOTATIVE
1000
AnnotativeData
1002
{
1070
     1
1070
     0
1002
}
  0
LINE
  5
1F0
  8
DATA
  6
CONTINUOUS
 62
     7
 10
217.5
 20
381.12531486803277
 30
0.0
 11
217.5
 21
383.5
 31
0.0
  0
LINE
  5
1F1
  8
DATA
  6
CONTINUOUS
 62
     7
 10
217.5
 20
383.5
 30
0.0
 11
223.69999999999999
 21
383.5
 31
0.0
  0
LINE
  5
1F2
  8
DATA
  6
CONTINUOUS
 62
     7
 10
250.22657434016449
 20
381.12531486803277
 30
0.0
 11
250.22657434016449
 21
383.5
 31
0.0
  0
LINE
  5
1F3
  8
DATA
  6
CONTINUOUS
 62
     7
 10
250.22657434016449
 20
383.5
 30
0.0
 11
244.02657434016459
 21
383.5
 31
0.0
  0
CIRCLE
  5
1F4
  8
DATA
  6
CONTINUOUS
 62
     7
 10
270.0
 20
377.5
 30
0.0
 40
1.5
  0
TEXT
  5
1F5
  8
DATA
 62
     7
 10
268.99255864561411
 20
370.8123257557117
 30
0.0
 40
3.2576822916666659
  1
1
 41
0.7
 11
268.99255864561411
 21
374.07000804737828
 31
0.0
 73
     3
1001
ACADANNOTATIVE
1000
AnnotativeData
1002
{
1070
     1
1070
     0
1002
}
  0
CIRCLE
  5
1F6
  8
DATA
  6
CONTINUOUS
 62
     7
 10
280.0
 20
377.5
 30
0.0
 40
1.5
  0
TEXT
  5
1F7
  8
DATA
 62
     7
 10
278.99255864561422
 20
370.8123257557117
 30
0.0
 40
3.2576822916666659
  1
2
 41
0.7
 11
278.99255864561422
 21
374.07000804737828
 31
0.0
 73
     3
1001
ACADANNOTATIVE
1000
AnnotativeData
1002
{
1070
     1
1070
     0
1002
}
  0
CIRCLE
  5
1F8
  8
DATA
  6
CONTINUOUS
 62
     7
 10
290.0
 20
377.5
 30
0.0
 40
1.5
  0
TEXT
  5
1F9
  8
DATA
 62
     7
 10
288.99255864561422
 20
370.8123257557117
 30
0.0
 40
3.2576822916666659
  1
3
 41
0.7
 11
288.99255864561422
 21
374.07000804737828
 31
0.0
 73
     3
1001
ACADANNOTATIVE
1000
AnnotativeData
1002
{
1070
     1
1070
     0
1002
}
  0
CIRCLE
  5
1FA
  8
DATA
  6
CONTINUOUS
 62
     7
 10
300.0
 20
377.5
 30
0.0
 40
1.5
  0
TEXT
  5
1FB
  8
DATA
 62
     7
 10
298.99255864561422
 20
370.8123257557117
 30
0.0
 40
3.2576822916666659
  1
4
 41
0.7
 11
298.99255864561422
 21
374.07000804737828
 31
0.0
 73
     3
1001
ACADANNOTATIVE
1000
AnnotativeData
1002
{
1070
     1
1070
     0
1002
}
  0
TEXT
  5
1FC
  8
DATA
 62
     7
 10
276.38884501851982
 20
382.15307922487898
 30
0.0
 40
3.2576822916666659
  1
Output-2
 41
0.7
 11
276.38884501851982
 21
385.41076151654562
 31
0.0
 73
     3
1001
ACADANNOTATIVE
1000
AnnotativeData
1002
{
1070
     1
1070
     0
1002
}
  0
LINE
  5
1FD
  8
DATA
  6
CONTINUOUS
 62
     7
 10
268.5
 20
381.12531486803277
 30
0.0
 11
268.5
 21
383.5
 31
0.0
  0
LINE
  5
1FE
  8
DATA
  6
CONTINUOUS
 62
     7
 10
268.5
 20
383.5
 30
0.0
 11
274.69999999999999
 21
383.5
 31
0.0
  0
LINE
  5
1FF
  8
DATA
  6
CONTINUOUS
 62
     7
 10
301.22657434016458
 20
381.12531486803277
 30
0.0
 11
301.22657434016458
 21
383.5
 31
0.0
  0
LINE
  5
200
  8
DATA
  6
CONTINUOUS
 62
     7
 10
301.22657434016458
 20
383.5
 30
0.0
 11
295.02657434016447
 21
383.5
 31
0.0
  0
CIRCLE
  5
201
  8
DATA
  6
CONTINUOUS
 62
     7
 10
321.0
 20
377.5
 30
0.0
 40
1.5
  0
TEXT
  5
202
  8
DATA
 62
     7
 10
319.99255864561422
 20
370.8123257557117
 30
0.0
 40
3.2576822916666659
  1
1
 41
0.7
 11
319.99255864561422
 21
374.07000804737828
 31
0.0
 73
     3
1001
ACADANNOTATIVE
1000
AnnotativeData
1002
{
1070
     1
1070
     0
1002
}
  0
CIRCLE
  5
203
  8
DATA
  6
CONTINUOUS
 62
     7
 10
331.0
 20
377.5
 30
0.0
 40
1.5
  0
TEXT
  5
204
  8
DATA
 62
     7
 10
329.99255864561422
 20
370.8123257557117
 30
0.0
 40
3.2576822916666659
  1
2
 41
0.7
 11
329.99255864561422
 21
374.07000804737828
 31
0.0
 73
     3
1001
ACADANNOTATIVE
1000
AnnotativeData
1002
{
1070
     1
1070
     0
1002
}
  0
CIRCLE
  5
205
  8
DATA
  6
CONTINUOUS
 62
     7
 10
341.0
 20
377.5
 30
0.0
 40
1.5
  0
TEXT
  5
206
  8
DATA
 62
     7
 10
339.99255864561422
 20
370.8123257557117
 30
0.0
 40
3.2576822916666659
  1
3
 41
0.7
 11
339.99255864561422
 21
374.07000804737828
 31
0.0
 73
     3
1001
ACADANNOTATIVE
1000
AnnotativeData
1002
{
1070
     1
1070
     0
1002
}
  0
CIRCLE
  5
207
  8
DATA
  6
CONTINUOUS
 62
     7
 10
351.0
 20
377.5
 30
0.0
 40
1.5
  0
TEXT
  5
208
  8
DATA
 62
     7
 10
349.99255864561422
 20
370.8123257557117
 30
0.0
 40
3.2576822916666659
  1
4
 41
0.7
 11
349.99255864561422
 21
374.07000804737828
 31
0.0
 73
     3
1001
ACADANNOTATIVE
1000
AnnotativeData
1002
{
1070
     1
1070
     0
1002
}
  0
TEXT
  5
209
  8
DATA
 62
     7
 10
327.3888450185197
 20
382.15307922487898
 30
0.0
 40
3.2576822916666659
  1
Output-3
 41
0.7
 11
327.3888450185197
 21
385.41076151654562
 31
0.0
 73
     3
1001
ACADANNOTATIVE
1000
AnnotativeData
1002
{
1070
     1
1070
     0
1002
}
  0
LINE
  5
20A
  8
DATA
  6
CONTINUOUS
 62
     7
 10
319.5
 20
381.12531486803277
 30
0.0
 11
319.5
 21
383.5
 31
0.0
  0
LINE
  5
20B
  8
DATA
  6
CONTINUOUS
 62
     7
 10
319.5
 20
383.5
 30
0.0
 11
325.69999999999999
 21
383.5
 31
0.0
  0
LINE
  5
20C
  8
DATA
  6
CONTINUOUS
 62
     7
 10
352.22657434016458
 20
381.12531486803277
 30
0.0
 11
352.22657434016458
 21
383.5
 31
0.0
  0
LINE
  5
20D
  8
DATA
  6
CONTINUOUS
 62
     7
 10
352.22657434016458
 20
383.5
 30
0.0
 11
346.02657434016447
 21
383.5
 31
0.0
  0
CIRCLE
  5
20E
  8
DATA
  6
CONTINUOUS
 62
     7
 10
372.0
 20
377.5
 30
0.0
 40
1.5
  0
TEXT
  5
20F
  8
DATA
 62
     7
 10
370.99255864561422
 20
370.8123257557117
 30
0.0
 40
3.2576822916666659
  1
1
 41
0.7
 11
370.99255864561422
 21
374.07000804737828
 31
0.0
 73
     3
1001
ACADANNOTATIVE
1000
AnnotativeData
1002
{
1070
     1
1070
     0
1002
}
  0
CIRCLE
  5
210
  8
DATA
  6
CONTINUOUS
 62
     7
 10
382.0
 20
377.5
 30
0.0
 40
1.5
  0
TEXT
  5
211
  8
DATA
 62
     7
 10
380.99255864561422
 20
370.8123257557117
 30
0.0
 40
3.2576822916666659
  1
2
 41
0.7
 11
380.99255864561422
 21
374.07000804737828
 31
0.0
 73
     3
1001
ACADANNOTATIVE
1000
AnnotativeData
1002
{
1070
     1
1070
     0
1002
}
  0
CIRCLE
  5
212
  8
DATA
  6
CONTINUOUS
 62
     7
 10
392.0
 20
377.5
 30
0.0
 40
1.5
  0
TEXT
  5
213
  8
DATA
 62
     7
 10
390.99255864561422
 20
370.8123257557117
 30
0.0
 40
3.2576822916666659
  1
3
 41
0.7
 11
390.99255864561422
 21
374.07000804737828
 31
0.0
 73
     3
1001
ACADANNOTATIVE
1000
AnnotativeData
1002
{
1070
     1
1070
     0
1002
}
  0
CIRCLE
  5
214
  8
DATA
  6
CONTINUOUS
 62
     7
 10
402.0
 20
377.5
 30
0.0
 40
1.5
  0
TEXT
  5
215
  8
DATA
 62
     7
 10
400.99255864561411
 20
370.8123257557117
 30
0.0
 40
3.2576822916666659
  1
4
 41
0.7
 11
400.99255864561411
 21
374.07000804737828
 31
0.0
 73
     3
1001
ACADANNOTATIVE
1000
AnnotativeData
1002
{
1070
     1
1070
     0
1002
}
  0
TEXT
  5
216
  8
DATA
 62
     7
 10
378.38884501851982
 20
382.15307922487898
 30
0.0
 40
3.2576822916666659
  1
Output-4
 41
0.7
 11
378.38884501851982
 21
385.41076151654562
 31
0.0
 73
     3
1001
ACADANNOTATIVE
1000
AnnotativeData
1002
{
1070
     1
1070
     0
1002
}
  0
LINE
  5
217
  8
DATA
  6
CONTINUOUS
 62
     7
 10
370.5
 20
381.12531486803277
 30
0.0
 11
370.5
 21
383.5
 31
0.0
  0
LINE
  5
218
  8
DATA
  6
CONTINUOUS
 62
     7
 10
370.5
 20
383.5
 30
0.0
 11
376.69999999999999
 21
383.5
 31
0.0
  0
LINE
  5
219
  8
DATA
  6
CONTINUOUS
 62
     7
 10
403.22657434016452
 20
381.12531486803277
 30
0.0
 11
403.22657434016452
 21
383.5
 31
0.0
  0
LINE
  5
21A
  8
DATA
  6
CONTINUOUS
 62
     7
 10
403.22657434016452
 20
383.5
 30
0.0
 11
397.02657434016447
 21
383.5
 31
0.0
  0
LINE
  5
21B
  8
DATA
  6
CONTINUOUS
 62
     7
 10
175.0
 20
571.49999999999989
 30
0.0
 11
610.0
 21
571.49999999999989
 31
0.0
  0
ARC
  5
21C
  8
DATA
  6
CONTINUOUS
 62
     7
 10
219.0
 20
462.82156601682681
 30
0.0
 40
1.4999999999999809
 50
192.37900005194581
 51
347.62099994805408
  0
ARC
  5
21D
  8
DATA
  6
CONTINUOUS
 62
     7
 10
229.0
 20
462.82156601682681
 30
0.0
 40
1.4999999999999809
 50
192.37900005194581
 51
347.62099994805408
  0
ARC
  5
21E
  8
DATA
  6
CONTINUOUS
 62
     7
 10
239.0
 20
462.82156601682681
 30
0.0
 40
1.4999999999999809
 50
192.37900005194581
 51
347.62099994805408
  0
ARC
  5
21F
  8
DATA
  6
CONTINUOUS
 62
     7
 10
249.0
 20
462.82156601682681
 30
0.0
 40
1.5000000000000091
 50
192.37900005194561
 51
347.6209999480543
  0
ARC
  5
220
  8
DATA
  6
CONTINUOUS
 62
     7
 10
270.0
 20
462.82156601682681
 30
0.0
 40
1.5000000000000091
 50
192.37900005194561
 51
347.6209999480543
  0
ARC
  5
221
  8
DATA
  6
CONTINUOUS
 62
     7
 10
280.0
 20
462.82156601682681
 30
0.0
 40
1.5000000000000111
 50
192.37900005196121
 51
347.62099994803867
  0
ARC
  5
222
  8
DATA
  6
CONTINUOUS
 62
     7
 10
290.0
 20
462.82156601682681
 30
0.0
 40
1.5000000000000111
 50
192.37900005196121
 51
347.62099994803867
  0
ARC
  5
223
  8
DATA
  6
CONTINUOUS
 62
     7
 10
300.0
 20
462.82156601682681
 30
0.0
 40
1.5000000000000111
 50
192.37900005196121
 51
347.62099994803867
  0
ARC
  5
224
  8
DATA
  6
CONTINUOUS
 62
     7
 10
321.0
 20
462.82156601682681
 30
0.0
 40
1.5000000000000091
 50
192.37900005194561
 51
347.6209999480543
  0
ARC
  5
225
  8
DATA
  6
CONTINUOUS
 62
     7
 10
331.0
 20
462.82156601682681
 30
0.0
 40
1.5000000000000111
 50
192.37900005196121
 51
347.62099994803867
  0
ARC
  5
226
  8
DATA
  6
CONTINUOUS
 62
     7
 10
341.0
 20
462.82156601682681
 30
0.0
 40
1.5000000000000111
 50
192.37900005196121
 51
347.62099994803867
  0
ARC
  5
227
  8
DATA
  6
CONTINUOUS
 62
     7
 10
351.0
 20
462.82156601682681
 30
0.0
 40
1.499999999999996
 50
192.3790000519534
 51
347.62099994804657
  0
ARC
  5
228
  8
DATA
  6
CONTINUOUS
 62
     7
 10
372.0
 20
462.82156601682681
 30
0.0
 40
1.5000000000000111
 50
192.37900005196121
 51
347.62099994803879
  0
ARC
  5
229
  8
DATA
  6
CONTINUOUS
 62
     7
 10
382.0
 20
462.82156601682681
 30
0.0
 40
1.499999999999998
 50
192.37900005196121
 51
347.62099994803879
  0
ARC
  5
22A
  8
DATA
  6
CONTINUOUS
 62
     7
 10
392.0
 20
462.82156601682681
 30
0.0
 40
1.499999999999998
 50
192.37900005196121
 51
347.62099994803879
  0
ARC
  5
22B
  8
DATA
  6
CONTINUOUS
 62
     7
 10
402.0
 20
462.82156601682681
 30
0.0
 40
1.499999999999998
 50
192.37900005196121
 51
347.62099994803879
  0
ARC
  5
22C
  8
DATA
  6
CONTINUOUS
 62
     7
 10
589.98452656047857
 20
462.71988656021642
 30
0.0
 40
1.500000000000006
 50
188.42942367189349
 51
351.57057632810648
  0
LINE
  5
22D
  8
DATA
  6
CONTINUOUS
 62
     7
 10
457.0
 20
462.0
 30
0.0
 11
457.0
 21
462.5
 31
0.0
  0
LINE
  5
22E
  8
DATA
  6
CONTINUOUS
 62
     7
 10
463.0
 20
462.0
 30
0.0
 11
463.0
 21
462.5
 31
0.0
  0
LINE
  5
22F
  8
DATA
  6
CONTINUOUS
 62
     7
 10
457.0
 20
462.0
 30
0.0
 11
463.0
 21
462.0
 31
0.0
  0
LINE
  5
230
  8
DATA
  6
CONTINUOUS
 62
     7
 10
497.36141544931428
 20
575.99999999983845
 30
0.0
 11
502.03795262975018
 21
575.99999999983845
 31
0.0
  0
LINE
  5
231
  8
DATA
  6
CONTINUOUS
 62
     7
 10
504.05683818334688
 20
575.99999999983845
 30
0.0
 11
527.85432465916995
 21
575.99999999983845
 31
0.0
  0
LINE
  5
232
  8
DATA
  6
CONTINUOUS
 62
     7
 10
529.86141544931502
 20
575.99999999983845
 30
0.0
 11
534.53795262975098
 21
575.99999999983845
 31
0.0
  0
LINE
  5
233
  8
DATA
  6
CONTINUOUS
 62
     7
 10
497.36141544931428
 20
575.99999999983845
 30
0.0
 11
497.36141544931428
 21
571.49999999983845
 31
0.0
  0
LINE
  5
234
  8
DATA
  6
CONTINUOUS
 62
     7
 10
502.03795262975018
 20
575.99999999983845
 30
0.0
 11
502.03795262975018
 21
571.49999999983845
 31
0.0
  0
LINE
  5
235
  8
DATA
  6
CONTINUOUS
 62
     7
 10
529.86141544931502
 20
575.99999999983845
 30
0.0
 11
529.86141544931502
 21
571.49999999983845
 31
0.0
  0
LINE
  5
236
  8
DATA
  6
CONTINUOUS
 62
     7
 10
534.53795262975098
 20
575.99999999983845
 30
0.0
 11
534.53795262975098
 21
571.49999999983845
 31
0.0
  0
LINE
  5
237
  8
DATA
  6
CONTINUOUS
 62
     7
 10
504.05683818334688
 20
575.99999999983845
 30
0.0
 11
504.05683818334688
 21
571.49999999983845
 31
0.0
  0
LINE
  5
238
  8
DATA
  6
CONTINUOUS
 62
     7
 10
527.85432465916995
 20
575.99999999983845
 30
0.0
 11
527.85432465916995
 21
571.49999999983845
 31
0.0
  0
LINE
  5
239
  8
DATA
  6
CONTINUOUS
 62
     7
 10
447.36141544931428
 20
575.99999999983845
 30
0.0
 11
452.03795262975018
 21
575.99999999983845
 31
0.0
  0
LINE
  5
23A
  8
DATA
  6
CONTINUOUS
 62
     7
 10
454.05683818334688
 20
575.99999999983845
 30
0.0
 11
477.85432465916989
 21
575.99999999983845
 31
0.0
  0
LINE
  5
23B
  8
DATA
  6
CONTINUOUS
 62
     7
 10
479.86141544931502
 20
575.99999999983845
 30
0.0
 11
484.53795262975098
 21
575.99999999983845
 31
0.0
  0
LINE
  5
23C
  8
DATA
  6
CONTINUOUS
 62
     7
 10
447.36141544931428
 20
575.99999999983845
 30
0.0
 11
447.36141544931428
 21
571.49999999983845
 31
0.0
  0
LINE
  5
23D
  8
DATA
  6
CONTINUOUS
 62
     7
 10
452.03795262975018
 20
575.99999999983845
 30
0.0
 11
452.03795262975018
 21
571.49999999983845
 31
0.0
  0
LINE
  5
23E
  8
DATA
  6
CONTINUOUS
 62
     7
 10
479.86141544931502
 20
575.99999999983845
 30
0.0
 11
479.86141544931502
 21
571.49999999983845
 31
0.0
  0
LINE
  5
23F
  8
DATA
  6
CONTINUOUS
 62
     7
 10
484.53795262975098
 20
575.99999999983845
 30
0.0
 11
484.53795262975098
 21
571.49999999983845
 31
0.0
  0
LINE
  5
240
  8
DATA
  6
CONTINUOUS
 62
     7
 10
454.05683818334688
 20
575.99999999983845
 30
0.0
 11
454.05683818334688
 21
571.49999999983845
 31
0.0
  0
LINE
  5
241
  8
DATA
  6
CONTINUOUS
 62
     7
 10
477.85432465916989
 20
575.99999999983845
 30
0.0
 11
477.85432465916989
 21
571.49999999983845
 31
0.0
  0
LINE
  5
242
  8
DATA
  6
CONTINUOUS
 62
     7
 10
397.36141544931428
 20
575.99999999983845
 30
0.0
 11
402.03795262975018
 21
575.99999999983845
 31
0.0
  0
LINE
  5
243
  8
DATA
  6
CONTINUOUS
 62
     7
 10
404.05683818334688
 20
575.99999999983845
 30
0.0
 11
427.85432465916989
 21
575.99999999983845
 31
0.0
  0
LINE
  5
244
  8
DATA
  6
CONTINUOUS
 62
     7
 10
429.86141544931502
 20
575.99999999983845
 30
0.0
 11
434.53795262975098
 21
575.99999999983845
 31
0.0
  0
LINE
  5
245
  8
DATA
  6
CONTINUOUS
 62
     7
 10
397.36141544931428
 20
575.99999999983845
 30
0.0
 11
397.36141544931428
 21
571.49999999983845
 31
0.0
  0
LINE
  5
246
  8
DATA
  6
CONTINUOUS
 62
     7
 10
402.03795262975018
 20
575.99999999983845
 30
0.0
 11
402.03795262975018
 21
571.49999999983845
 31
0.0
  0
LINE
  5
247
  8
DATA
  6
CONTINUOUS
 62
     7
 10
429.86141544931502
 20
575.99999999983845
 30
0.0
 11
429.86141544931502
 21
571.49999999983845
 31
0.0
  0
LINE
  5
248
  8
DATA
  6
CONTINUOUS
 62
     7
 10
434.53795262975098
 20
575.99999999983845
 30
0.0
 11
434.53795262975098
 21
571.49999999983845
 31
0.0
  0
LINE
  5
249
  8
DATA
  6
CONTINUOUS
 62
     7
 10
404.05683818334688
 20
575.99999999983845
 30
0.0
 11
404.05683818334688
 21
571.49999999983845
 31
0.0
  0
LINE
  5
24A
  8
DATA
  6
CONTINUOUS
 62
     7
 10
427.85432465916989
 20
575.99999999983845
 30
0.0
 11
427.85432465916989
 21
571.49999999983845
 31
0.0
  0
LINE
  5
24B
  8
DATA
  6
CONTINUOUS
 62
     7
 10
347.36141544931428
 20
575.99999999983845
 30
0.0
 11
352.03795262975029
 21
575.99999999983845
 31
0.0
  0
LINE
  5
24C
  8
DATA
  6
CONTINUOUS
 62
     7
 10
354.056838183347
 20
575.99999999983845
 30
0.0
 11
377.85432465917
 21
575.99999999983845
 31
0.0
  0
LINE
  5
24D
  8
DATA
  6
CONTINUOUS
 62
     7
 10
379.86141544931502
 20
575.99999999983845
 30
0.0
 11
384.53795262975098
 21
575.99999999983845
 31
0.0
  0
LINE
  5
24E
  8
DATA
  6
CONTINUOUS
 62
     7
 10
347.36141544931428
 20
575.99999999983845
 30
0.0
 11
347.36141544931428
 21
571.49999999983845
 31
0.0
  0
LINE
  5
24F
  8
DATA
  6
CONTINUOUS
 62
     7
 10
352.03795262975029
 20
575.99999999983845
 30
0.0
 11
352.03795262975029
 21
571.49999999983845
 31
0.0
  0
LINE
  5
250
  8
DATA
  6
CONTINUOUS
 62
     7
 10
379.86141544931502
 20
575.99999999983845
 30
0.0
 11
379.86141544931502
 21
571.49999999983845
 31
0.0
  0
LINE
  5
251
  8
DATA
  6
CONTINUOUS
 62
     7
 10
384.53795262975098
 20
575.99999999983845
 30
0.0
 11
384.53795262975098
 21
571.49999999983845
 31
0.0
  0
LINE
  5
252
  8
DATA
  6
CONTINUOUS
 62
     7
 10
354.056838183347
 20
575.99999999983845
 30
0.0
 11
354.056838183347
 21
571.49999999983845
 31
0.0
  0
LINE
  5
253
  8
DATA
  6
CONTINUOUS
 62
     7
 10
377.85432465917
 20
575.99999999983845
 30
0.0
 11
377.85432465917
 21
571.49999999983845
 31
0.0
  0
LINE
  5
254
  8
DATA
  6
CONTINUOUS
 62
     7
 10
303.36141544931422
 20
575.99999999983845
 30
0.0
 11
308.03795262975018
 21
575.99999999983845
 31
0.0
  0
LINE
  5
255
  8
DATA
  6
CONTINUOUS
 62
     7
 10
310.05683818334688
 20
575.99999999983845
 30
0.0
 11
333.85432465916989
 21
575.99999999983845
 31
0.0
  0
LINE
  5
256
  8
DATA
  6
CONTINUOUS
 62
     7
 10
335.86141544931507
 20
575.99999999983845
 30
0.0
 11
340.53795262975098
 21
575.99999999983845
 31
0.0
  0
LINE
  5
257
  8
DATA
  6
CONTINUOUS
 62
     7
 10
303.36141544931422
 20
575.99999999983845
 30
0.0
 11
303.36141544931422
 21
571.49999999983845
 31
0.0
  0
LINE
  5
258
  8
DATA
  6
CONTINUOUS
 62
     7
 10
308.03795262975018
 20
575.99999999983845
 30
0.0
 11
308.03795262975018
 21
571.49999999983845
 31
0.0
  0
LINE
  5
259
  8
DATA
  6
CONTINUOUS
 62
     7
 10
335.86141544931507
 20
575.99999999983845
 30
0.0
 11
335.86141544931507
 21
571.49999999983845
 31
0.0
  0
LINE
  5
25A
  8
DATA
  6
CONTINUOUS
 62
     7
 10
340.53795262975098
 20
575.99999999983845
 30
0.0
 11
340.53795262975098
 21
571.49999999983845
 31
0.0
  0
LINE
  5
25B
  8
DATA
  6
CONTINUOUS
 62
     7
 10
310.05683818334688
 20
575.99999999983845
 30
0.0
 11
310.05683818334688
 21
571.49999999983845
 31
0.0
  0
LINE
  5
25C
  8
DATA
  6
CONTINUOUS
 62
     7
 10
333.85432465916989
 20
575.99999999983845
 30
0.0
 11
333.85432465916989
 21
571.49999999983845
 31
0.0
  0
LINE
  5
25D
  8
DATA
  6
CONTINUOUS
 62
     7
 10
259.36141544931422
 20
575.99999999983845
 30
0.0
 11
264.03795262975012
 21
575.99999999983845
 31
0.0
  0
LINE
  5
25E
  8
DATA
  6
CONTINUOUS
 62
     7
 10
266.05683818334688
 20
575.99999999983845
 30
0.0
 11
289.85432465917
 21
575.99999999983845
 31
0.0
  0
LINE
  5
25F
  8
DATA
  6
CONTINUOUS
 62
     7
 10
291.86141544931507
 20
575.99999999983845
 30
0.0
 11
296.53795262975098
 21
575.99999999983845
 31
0.0
  0
LINE
  5
260
  8
DATA
  6
CONTINUOUS
 62
     7
 10
259.36141544931422
 20
575.99999999983845
 30
0.0
 11
259.36141544931422
 21
571.49999999983845
 31
0.0
  0
LINE
  5
261
  8
DATA
  6
CONTINUOUS
 62
     7
 10
264.03795262975012
 20
575.99999999983845
 30
0.0
 11
264.03795262975012
 21
571.49999999983845
 31
0.0
  0
LINE
  5
262
  8
DATA
  6
CONTINUOUS
 62
     7
 10
291.86141544931507
 20
575.99999999983845
 30
0.0
 11
291.86141544931507
 21
571.49999999983845
 31
0.0
  0
LINE
  5
263
  8
DATA
  6
CONTINUOUS
 62
     7
 10
296.53795262975098
 20
575.99999999983845
 30
0.0
 11
296.53795262975098
 21
571.49999999983845
 31
0.0
  0
LINE
  5
264
  8
DATA
  6
CONTINUOUS
 62
     7
 10
266.05683818334688
 20
575.99999999983845
 30
0.0
 11
266.05683818334688
 21
571.49999999983845
 31
0.0
  0
LINE
  5
265
  8
DATA
  6
CONTINUOUS
 62
     7
 10
289.85432465917
 20
575.99999999983845
 30
0.0
 11
289.85432465917
 21
571.49999999983845
 31
0.0
  0
LINE
  5
266
  8
DATA
  6
CONTINUOUS
 62
     7
 10
215.36141544931431
 20
575.99999999983845
 30
0.0
 11
220.03795262975029
 21
575.99999999983845
 31
0.0
  0
LINE
  5
267
  8
DATA
  6
CONTINUOUS
 62
     7
 10
222.0568381833468
 20
575.99999999983845
 30
0.0
 11
245.85432465917
 21
575.99999999983845
 31
0.0
  0
LINE
  5
268
  8
DATA
  6
CONTINUOUS
 62
     7
 10
247.8614154493151
 20
575.99999999983845
 30
0.0
 11
252.537952629751
 21
575.99999999983845
 31
0.0
  0
LINE
  5
269
  8
DATA
  6
CONTINUOUS
 62
     7
 10
215.36141544931431
 20
575.99999999983845
 30
0.0
 11
215.36141544931431
 21
571.49999999983845
 31
0.0
  0
LINE
  5
26A
  8
DATA
  6
CONTINUOUS
 62
     7
 10
252.537952629751
 20
575.99999999983845
 30
0.0
 11
252.537952629751
 21
571.49999999983845
 31
0.0
  0
LINE
  5
26B
  8
DATA
  6
CONTINUOUS
 62
     7
 10
219.843963681643
 20
575.99999999983845
 30
0.0
 11
224.52050086207899
 21
575.99999999983845
 31
0.0
  0
LINE
  5
26C
  8
DATA
  6
CONTINUOUS
 62
     7
 10
219.843963681643
 20
575.99999999983845
 30
0.0
 11
219.843963681643
 21
571.49999999983845
 31
0.0
  0
LINE
  5
26D
  8
DATA
  6
CONTINUOUS
 62
     7
 10
224.52050086207899
 20
575.99999999983845
 30
0.0
 11
224.52050086207899
 21
571.49999999983845
 31
0.0
  0
LINE
  5
26E
  8
DATA
  6
CONTINUOUS
 62
     7
 10
248.06719916087391
 20
575.99999999983845
 30
0.0
 11
243.39066198043801
 21
575.99999999983845
 31
0.0
  0
LINE
  5
26F
  8
DATA
  6
CONTINUOUS
 62
     7
 10
248.06719916087391
 20
575.99999999983845
 30
0.0
 11
248.06719916087391
 21
571.49999999983845
 31
0.0
  0
LINE
  5
270
  8
DATA
  6
CONTINUOUS
 62
     7
 10
243.39066198043801
 20
575.99999999983845
 30
0.0
 11
243.39066198043801
 21
571.49999999983845
 31
0.0
  0
LINE
  5
271
  8
DATA
  6
CONTINUOUS
 62
     7
 10
225.9555814212585
 20
571.49999999999989
 30
0.0
 11
225.9555814212585
 21
575.99999999983845
 31
0.0
  0
LINE
  5
272
  8
DATA
  6
CONTINUOUS
 62
     7
 10
241.95558142125839
 20
575.99999999983845
 30
0.0
 11
241.95558142125839
 21
571.49999999999989
 31
0.0
  0
CIRCLE
  5
273
  8
DATA
  6
CONTINUOUS
 62
     7
 10
499.76932452468208
 20
655.19023085895014
 30
0.0
 40
1.175000000000068
  0
POLYLINE
  5
274
  8
DATA
  6
CONTINUOUS
 62
     7
 66
     1
 10
0.0
 20
0.0
 30
0.0
 70
     1
  0
VERTEX
  5
D99
  8
DATA
  6
CONTINUOUS
 62
     7
 10
499.76932452468208
 20
652.4902308589501
 30
0.0
  0
VERTEX
  5
D9A
  8
DATA
  6
CONTINUOUS
 62
     7
 10
497.43105593446421
 20
653.84023085895012
 30
0.0
  0
VERTEX
  5
D9B
  8
DATA
  6
CONTINUOUS
 62
     7
 10
497.43105593446421
 20
656.54023085895017
 30
0.0
  0
VERTEX
  5
D9C
  8
DATA
  6
CONTINUOUS
 62
     7
 10
499.76932452468208
 20
657.89023085894996
 30
0.0
  0
VERTEX
  5
D9D
  8
DATA
  6
CONTINUOUS
 62
     7
 10
502.1075931149
 20
656.54023085895017
 30
0.0
  0
VERTEX
  5
D9E
  8
DATA
  6
CONTINUOUS
 62
     7
 10
502.1075931149
 20
653.84023085895012
 30
0.0
  0
SEQEND
  5
D9F
  8
DATA
  6
CONTINUOUS
 62
     7
  0
CIRCLE
  5
27D
  8
DATA
  6
CONTINUOUS
 62
     7
 10
532.26932452468247
 20
655.19023085895014
 30
0.0
 40
1.175000000000068
  0
POLYLINE
  5
27E
  8
DATA
  6
CONTINUOUS
 62
     7
 66
     1
 10
0.0
 20
0.0
 30
0.0
 70
     1
  0
VERTEX
  5
DA0
  8
DATA
  6
CONTINUOUS
 62
     7
 10
532.26932452468247
 20
652.4902308589501
 30
0.0
  0
VERTEX
  5
DA1
  8
DATA
  6
CONTINUOUS
 62
     7
 10
529.93105593446455
 20
653.84023085895012
 30
0.0
  0
VERTEX
  5
DA2
  8
DATA
  6
CONTINUOUS
 62
     7
 10
529.93105593446455
 20
656.54023085895017
 30
0.0
  0
VERTEX
  5
DA3
  8
DATA
  6
CONTINUOUS
 62
     7
 10
532.26932452468247
 20
657.89023085894996
 30
0.0
  0
VERTEX
  5
DA4
  8
DATA
  6
CONTINUOUS
 62
     7
 10
534.6075931149004
 20
656.54023085895017
 30
0.0
  0
VERTEX
  5
DA5
  8
DATA
  6
CONTINUOUS
 62
     7
 10
534.6075931149004
 20
653.84023085895012
 30
0.0
  0
SEQEND
  5
DA6
  8
DATA
  6
CONTINUOUS
 62
     7
  0
LINE
  5
287
  8
DATA
  6
CONTINUOUS
 62
     7
 10
526.9751267936
 20
651.26523085894996
 30
0.0
 11
505.07531701921607
 21
651.26523085894996
 31
0.0
  0
LINE
  5
288
  8
DATA
  6
CONTINUOUS
 62
     7
 10
505.6342342166684
 20
659.11523085894999
 30
0.0
 11
526.41620959614795
 21
659.11523085894999
 31
0.0
  0
POLYLINE
  5
289
  8
DATA
  6
CONTINUOUS
 62
     7
 66
     1
 10
0.0
 20
0.0
 30
0.0
 70
     1
  0
VERTEX
  5
DA7
  8
DATA
  6
CONTINUOUS
 62
     7
 10
525.49528807758782
 20
655.95523085895013
 30
0.0
  0
VERTEX
  5
DA8
  8
DATA
  6
CONTINUOUS
 62
     7
 10
527.02528807758779
 20
655.95523085895013
 30
0.0
  0
VERTEX
  5
DA9
  8
DATA
  6
CONTINUOUS
 62
     7
 10
527.02528807758779
 20
654.42523085895004
 30
0.0
  0
VERTEX
  5
DAA
  8
DATA
  6
CONTINUOUS
 62
     7
 10
525.49528807758782
 20
654.42523085895004
 30
0.0
  0
SEQEND
  5
DAB
  8
DATA
  6
CONTINUOUS
 62
     7
  0
POLYLINE
  5
290
  8
DATA
  6
CONTINUOUS
 62
     7
 66
     1
 10
0.0
 20
0.0
 30
0.0
 70
     1
  0
VERTEX
  5
DAC
  8
DATA
  6
CONTINUOUS
 62
     7
 10
523.4952880775877
 20
655.95523085895013
 30
0.0
  0
VERTEX
  5
DAD
  8
DATA
  6
CONTINUOUS
 62
     7
 10
525.02528807758767
 20
655.95523085895013
 30
0.0
  0
VERTEX
  5
DAE
  8
DATA
  6
CONTINUOUS
 62
     7
 10
525.02528807758767
 20
654.42523085895004
 30
0.0
  0
VERTEX
  5
DAF
  8
DATA
  6
CONTINUOUS
 62
     7
 10
523.4952880775877
 20
654.42523085895004
 30
0.0
  0
SEQEND
  5
DB0
  8
DATA
  6
CONTINUOUS
 62
     7
  0
POLYLINE
  5
297
  8
DATA
  6
CONTINUOUS
 62
     7
 66
     1
 10
0.0
 20
0.0
 30
0.0
 70
     1
  0
VERTEX
  5
DB1
  8
DATA
  6
CONTINUOUS
 62
     7
 10
521.49528807758782
 20
655.95523085895013
 30
0.0
  0
VERTEX
  5
DB2
  8
DATA
  6
CONTINUOUS
 62
     7
 10
523.02528807758779
 20
655.95523085895013
 30
0.0
  0
VERTEX
  5
DB3
  8
DATA
  6
CONTINUOUS
 62
     7
 10
523.02528807758779
 20
654.42523085895004
 30
0.0
  0
VERTEX
  5
DB4
  8
DATA
  6
CONTINUOUS
 62
     7
 10
521.49528807758782
 20
654.42523085895004
 30
0.0
  0
SEQEND
  5
DB5
  8
DATA
  6
CONTINUOUS
 62
     7
  0
POLYLINE
  5
29E
  8
DATA
  6
CONTINUOUS
 62
     7
 66
     1
 10
0.0
 20
0.0
 30
0.0
 70
     1
  0
VERTEX
  5
DB6
  8
DATA
  6
CONTINUOUS
 62
     7
 10
519.49528807758782
 20
655.95523085895013
 30
0.0
  0
VERTEX
  5
DB7
  8
DATA
  6
CONTINUOUS
 62
     7
 10
521.02528807758767
 20
655.95523085895013
 30
0.0
  0
VERTEX
  5
DB8
  8
DATA
  6
CONTINUOUS
 62
     7
 10
521.02528807758767
 20
654.42523085895004
 30
0.0
  0
VERTEX
  5
DB9
  8
DATA
  6
CONTINUOUS
 62
     7
 10
519.49528807758782
 20
654.42523085895004
 30
0.0
  0
SEQEND
  5
DBA
  8
DATA
  6
CONTINUOUS
 62
     7
  0
POLYLINE
  5
2A5
  8
DATA
  6
CONTINUOUS
 62
     7
 66
     1
 10
0.0
 20
0.0
 30
0.0
 70
     1
  0
VERTEX
  5
DBB
  8
DATA
  6
CONTINUOUS
 62
     7
 10
517.4952880775877
 20
655.95523085895013
 30
0.0
  0
VERTEX
  5
DBC
  8
DATA
  6
CONTINUOUS
 62
     7
 10
519.02528807758779
 20
655.95523085895013
 30
0.0
  0
VERTEX
  5
DBD
  8
DATA
  6
CONTINUOUS
 62
     7
 10
519.02528807758779
 20
654.42523085895004
 30
0.0
  0
VERTEX
  5
DBE
  8
DATA
  6
CONTINUOUS
 62
     7
 10
517.4952880775877
 20
654.42523085895004
 30
0.0
  0
SEQEND
  5
DBF
  8
DATA
  6
CONTINUOUS
 62
     7
  0
POLYLINE
  5
2AC
  8
DATA
  6
CONTINUOUS
 62
     7
 66
     1
 10
0.0
 20
0.0
 30
0.0
 70
     1
  0
VERTEX
  5
DC0
  8
DATA
  6
CONTINUOUS
 62
     7
 10
515.49528807758759
 20
655.95523085895013
 30
0.0
  0
VERTEX
  5
DC1
  8
DATA
  6
CONTINUOUS
 62
     7
 10
517.02528807758756
 20
655.95523085895013
 30
0.0
  0
VERTEX
  5
DC2
  8
DATA
  6
CONTINUOUS
 62
     7
 10
517.02528807758756
 20
654.42523085895004
 30
0.0
  0
VERTEX
  5
DC3
  8
DATA
  6
CONTINUOUS
 62
     7
 10
515.49528807758759
 20
654.42523085895004
 30
0.0
  0
SEQEND
  5
DC4
  8
DATA
  6
CONTINUOUS
 62
     7
  0
POLYLINE
  5
2B3
  8
DATA
  6
CONTINUOUS
 62
     7
 66
     1
 10
0.0
 20
0.0
 30
0.0
 70
     1
  0
VERTEX
  5
DC5
  8
DATA
  6
CONTINUOUS
 62
     7
 10
513.4952880775877
 20
655.95523085895013
 30
0.0
  0
VERTEX
  5
DC6
  8
DATA
  6
CONTINUOUS
 62
     7
 10
515.02528807758767
 20
655.95523085895013
 30
0.0
  0
VERTEX
  5
DC7
  8
DATA
  6
CONTINUOUS
 62
     7
 10
515.02528807758767
 20
654.42523085895004
 30
0.0
  0
VERTEX
  5
DC8
  8
DATA
  6
CONTINUOUS
 62
     7
 10
513.4952880775877
 20
654.42523085895004
 30
0.0
  0
SEQEND
  5
DC9
  8
DATA
  6
CONTINUOUS
 62
     7
  0
POLYLINE
  5
2BA
  8
DATA
  6
CONTINUOUS
 62
     7
 66
     1
 10
0.0
 20
0.0
 30
0.0
 70
     1
  0
VERTEX
  5
DCA
  8
DATA
  6
CONTINUOUS
 62
     7
 10
511.4952880775873
 20
655.95523085895013
 30
0.0
  0
VERTEX
  5
DCB
  8
DATA
  6
CONTINUOUS
 62
     7
 10
513.02528807758756
 20
655.95523085895013
 30
0.0
  0
VERTEX
  5
DCC
  8
DATA
  6
CONTINUOUS
 62
     7
 10
513.02528807758756
 20
654.42523085895004
 30
0.0
  0
VERTEX
  5
DCD
  8
DATA
  6
CONTINUOUS
 62
     7
 10
511.4952880775873
 20
654.42523085895004
 30
0.0
  0
SEQEND
  5
DCE
  8
DATA
  6
CONTINUOUS
 62
     7
  0
POLYLINE
  5
2C1
  8
DATA
  6
CONTINUOUS
 62
     7
 66
     1
 10
0.0
 20
0.0
 30
0.0
 70
     1
  0
VERTEX
  5
DCF
  8
DATA
  6
CONTINUOUS
 62
     7
 10
525.49528807758782
 20
653.95523085895002
 30
0.0
  0
VERTEX
  5
DD0
  8
DATA
  6
CONTINUOUS
 62
     7
 10
527.02528807758779
 20
653.95523085895002
 30
0.0
  0
VERTEX
  5
DD1
  8
DATA
  6
CONTINUOUS
 62
     7
 10
527.02528807758779
 20
652.42523085895016
 30
0.0
  0
VERTEX
  5
DD2
  8
DATA
  6
CONTINUOUS
 62
     7
 10
525.49528807758782
 20
652.42523085895016
 30
0.0
  0
SEQEND
  5
DD3
  8
DATA
  6
CONTINUOUS
 62
     7
  0
POLYLINE
  5
2C8
  8
DATA
  6
CONTINUOUS
 62
     7
 66
     1
 10
0.0
 20
0.0
 30
0.0
 70
     1
  0
VERTEX
  5
DD4
  8
DATA
  6
CONTINUOUS
 62
     7
 10
523.4952880775877
 20
653.95523085895002
 30
0.0
  0
VERTEX
  5
DD5
  8
DATA
  6
CONTINUOUS
 62
     7
 10
525.02528807758767
 20
653.95523085895002
 30
0.0
  0
VERTEX
  5
DD6
  8
DATA
  6
CONTINUOUS
 62
     7
 10
525.02528807758767
 20
652.42523085895016
 30
0.0
  0
VERTEX
  5
DD7
  8
DATA
  6
CONTINUOUS
 62
     7
 10
523.4952880775877
 20
652.42523085895016
 30
0.0
  0
SEQEND
  5
DD8
  8
DATA
  6
CONTINUOUS
 62
     7
  0
POLYLINE
  5
2CF
  8
DATA
  6
CONTINUOUS
 62
     7
 66
     1
 10
0.0
 20
0.0
 30
0.0
 70
     1
  0
VERTEX
  5
DD9
  8
DATA
  6
CONTINUOUS
 62
     7
 10
521.49528807758782
 20
653.95523085895002
 30
0.0
  0
VERTEX
  5
DDA
  8
DATA
  6
CONTINUOUS
 62
     7
 10
523.02528807758779
 20
653.95523085895002
 30
0.0
  0
VERTEX
  5
DDB
  8
DATA
  6
CONTINUOUS
 62
     7
 10
523.02528807758779
 20
652.42523085895016
 30
0.0
  0
VERTEX
  5
DDC
  8
DATA
  6
CONTINUOUS
 62
     7
 10
521.49528807758782
 20
652.42523085895016
 30
0.0
  0
SEQEND
  5
DDD
  8
DATA
  6
CONTINUOUS
 62
     7
  0
POLYLINE
  5
2D6
  8
DATA
  6
CONTINUOUS
 62
     7
 66
     1
 10
0.0
 20
0.0
 30
0.0
 70
     1
  0
VERTEX
  5
DDE
  8
DATA
  6
CONTINUOUS
 62
     7
 10
519.49528807758782
 20
653.95523085895002
 30
0.0
  0
VERTEX
  5
DDF
  8
DATA
  6
CONTINUOUS
 62
     7
 10
521.02528807758767
 20
653.95523085895002
 30
0.0
  0
VERTEX
  5
DE0
  8
DATA
  6
CONTINUOUS
 62
     7
 10
521.02528807758767
 20
652.42523085895016
 30
0.0
  0
VERTEX
  5
DE1
  8
DATA
  6
CONTINUOUS
 62
     7
 10
519.49528807758782
 20
652.42523085895016
 30
0.0
  0
SEQEND
  5
DE2
  8
DATA
  6
CONTINUOUS
 62
     7
  0
POLYLINE
  5
2DD
  8
DATA
  6
CONTINUOUS
 62
     7
 66
     1
 10
0.0
 20
0.0
 30
0.0
 70
     1
  0
VERTEX
  5
DE3
  8
DATA
  6
CONTINUOUS
 62
     7
 10
517.4952880775877
 20
653.95523085895002
 30
0.0
  0
VERTEX
  5
DE4
  8
DATA
  6
CONTINUOUS
 62
     7
 10
519.02528807758779
 20
653.95523085895002
 30
0.0
  0
VERTEX
  5
DE5
  8
DATA
  6
CONTINUOUS
 62
     7
 10
519.02528807758779
 20
652.42523085895016
 30
0.0
  0
VERTEX
  5
DE6
  8
DATA
  6
CONTINUOUS
 62
     7
 10
517.4952880775877
 20
652.42523085895016
 30
0.0
  0
SEQEND
  5
DE7
  8
DATA
  6
CONTINUOUS
 62
     7
  0
POLYLINE
  5
2E4
  8
DATA
  6
CONTINUOUS
 62
     7
 66
     1
 10
0.0
 20
0.0
 30
0.0
 70
     1
  0
VERTEX
  5
DE8
  8
DATA
  6
CONTINUOUS
 62
     7
 10
515.49528807758759
 20
653.95523085895002
 30
0.0
  0
VERTEX
  5
DE9
  8
DATA
  6
CONTINUOUS
 62
     7
 10
517.02528807758756
 20
653.95523085895002
 30
0.0
  0
VERTEX
  5
DEA
  8
DATA
  6
CONTINUOUS
 62
     7
 10
517.02528807758756
 20
652.42523085895016
 30
0.0
  0
VERTEX
  5
DEB
  8
DATA
  6
CONTINUOUS
 62
     7
 10
515.49528807758759
 20
652.42523085895016
 30
0.0
  0
SEQEND
  5
DEC
  8
DATA
  6
CONTINUOUS
 62
     7
  0
POLYLINE
  5
2EB
  8
DATA
  6
CONTINUOUS
 62
     7
 66
     1
 10
0.0
 20
0.0
 30
0.0
 70
     1
  0
VERTEX
  5
DED
  8
DATA
  6
CONTINUOUS
 62
     7
 10
513.4952880775877
 20
653.95523085895002
 30
0.0
  0
VERTEX
  5
DEE
  8
DATA
  6
CONTINUOUS
 62
     7
 10
515.02528807758767
 20
653.95523085895002
 30
0.0
  0
VERTEX
  5
DEF
  8
DATA
  6
CONTINUOUS
 62
     7
 10
515.02528807758767
 20
652.42523085895016
 30
0.0
  0
VERTEX
  5
DF0
  8
DATA
  6
CONTINUOUS
 62
     7
 10
513.4952880775877
 20
652.42523085895016
 30
0.0
  0
SEQEND
  5
DF1
  8
DATA
  6
CONTINUOUS
 62
     7
  0
POLYLINE
  5
2F2
  8
DATA
  6
CONTINUOUS
 62
     7
 66
     1
 10
0.0
 20
0.0
 30
0.0
 70
     1
  0
VERTEX
  5
DF2
  8
DATA
  6
CONTINUOUS
 62
     7
 10
511.4952880775873
 20
653.95523085895002
 30
0.0
  0
VERTEX
  5
DF3
  8
DATA
  6
CONTINUOUS
 62
     7
 10
513.02528807758756
 20
653.95523085895002
 30
0.0
  0
VERTEX
  5
DF4
  8
DATA
  6
CONTINUOUS
 62
     7
 10
513.02528807758756
 20
652.42523085895016
 30
0.0
  0
VERTEX
  5
DF5
  8
DATA
  6
CONTINUOUS
 62
     7
 10
511.4952880775873
 20
652.42523085895016
 30
0.0
  0
SEQEND
  5
DF6
  8
DATA
  6
CONTINUOUS
 62
     7
  0
POLYLINE
  5
2F9
  8
DATA
  6
CONTINUOUS
 62
     7
 66
     1
 10
0.0
 20
0.0
 30
0.0
 70
     1
  0
VERTEX
  5
DF7
  8
DATA
  6
CONTINUOUS
 62
     7
 10
525.49528807758782
 20
657.95523085895013
 30
0.0
  0
VERTEX
  5
DF8
  8
DATA
  6
CONTINUOUS
 62
     7
 10
527.02528807758779
 20
657.95523085895013
 30
0.0
  0
VERTEX
  5
DF9
  8
DATA
  6
CONTINUOUS
 62
     7
 10
527.02528807758779
 20
656.42523085895016
 30
0.0
  0
VERTEX
  5
DFA
  8
DATA
  6
CONTINUOUS
 62
     7
 10
525.49528807758782
 20
656.42523085895016
 30
0.0
  0
SEQEND
  5
DFB
  8
DATA
  6
CONTINUOUS
 62
     7
  0
POLYLINE
  5
300
  8
DATA
  6
CONTINUOUS
 62
     7
 66
     1
 10
0.0
 20
0.0
 30
0.0
 70
     1
  0
VERTEX
  5
DFC
  8
DATA
  6
CONTINUOUS
 62
     7
 10
523.4952880775877
 20
657.95523085895013
 30
0.0
  0
VERTEX
  5
DFD
  8
DATA
  6
CONTINUOUS
 62
     7
 10
525.02528807758767
 20
657.95523085895013
 30
0.0
  0
VERTEX
  5
DFE
  8
DATA
  6
CONTINUOUS
 62
     7
 10
525.02528807758767
 20
656.42523085895016
 30
0.0
  0
VERTEX
  5
DFF
  8
DATA
  6
CONTINUOUS
 62
     7
 10
523.4952880775877
 20
656.42523085895016
 30
0.0
  0
SEQEND
  5
E00
  8
DATA
  6
CONTINUOUS
 62
     7
  0
POLYLINE
  5
307
  8
DATA
  6
CONTINUOUS
 62
     7
 66
     1
 10
0.0
 20
0.0
 30
0.0
 70
     1
  0
VERTEX
  5
E01
  8
DATA
  6
CONTINUOUS
 62
     7
 10
521.49528807758782
 20
657.95523085895013
 30
0.0
  0
VERTEX
  5
E02
  8
DATA
  6
CONTINUOUS
 62
     7
 10
523.02528807758779
 20
657.95523085895013
 30
0.0
  0
VERTEX
  5
E03
  8
DATA
  6
CONTINUOUS
 62
     7
 10
523.02528807758779
 20
656.42523085895016
 30
0.0
  0
VERTEX
  5
E04
  8
DATA
  6
CONTINUOUS
 62
     7
 10
521.49528807758782
 20
656.42523085895016
 30
0.0
  0
SEQEND
  5
E05
  8
DATA
  6
CONTINUOUS
 62
     7
  0
POLYLINE
  5
30E
  8
DATA
  6
CONTINUOUS
 62
     7
 66
     1
 10
0.0
 20
0.0
 30
0.0
 70
     1
  0
VERTEX
  5
E06
  8
DATA
  6
CONTINUOUS
 62
     7
 10
519.49528807758782
 20
657.95523085895013
 30
0.0
  0
VERTEX
  5
E07
  8
DATA
  6
CONTINUOUS
 62
     7
 10
521.02528807758767
 20
657.95523085895013
 30
0.0
  0
VERTEX
  5
E08
  8
DATA
  6
CONTINUOUS
 62
     7
 10
521.02528807758767
 20
656.42523085895016
 30
0.0
  0
VERTEX
  5
E09
  8
DATA
  6
CONTINUOUS
 62
     7
 10
519.49528807758782
 20
656.42523085895016
 30
0.0
  0
SEQEND
  5
E0A
  8
DATA
  6
CONTINUOUS
 62
     7
  0
POLYLINE
  5
315
  8
DATA
  6
CONTINUOUS
 62
     7
 66
     1
 10
0.0
 20
0.0
 30
0.0
 70
     1
  0
VERTEX
  5
E0B
  8
DATA
  6
CONTINUOUS
 62
     7
 10
517.4952880775877
 20
657.95523085895013
 30
0.0
  0
VERTEX
  5
E0C
  8
DATA
  6
CONTINUOUS
 62
     7
 10
519.02528807758779
 20
657.95523085895013
 30
0.0
  0
VERTEX
  5
E0D
  8
DATA
  6
CONTINUOUS
 62
     7
 10
519.02528807758779
 20
656.42523085895016
 30
0.0
  0
VERTEX
  5
E0E
  8
DATA
  6
CONTINUOUS
 62
     7
 10
517.4952880775877
 20
656.42523085895016
 30
0.0
  0
SEQEND
  5
E0F
  8
DATA
  6
CONTINUOUS
 62
     7
  0
POLYLINE
  5
31C
  8
DATA
  6
CONTINUOUS
 62
     7
 66
     1
 10
0.0
 20
0.0
 30
0.0
 70
     1
  0
VERTEX
  5
E10
  8
DATA
  6
CONTINUOUS
 62
     7
 10
515.49528807758759
 20
657.95523085895013
 30
0.0
  0
VERTEX
  5
E11
  8
DATA
  6
CONTINUOUS
 62
     7
 10
517.02528807758756
 20
657.95523085895013
 30
0.0
  0
VERTEX
  5
E12
  8
DATA
  6
CONTINUOUS
 62
     7
 10
517.02528807758756
 20
656.42523085895016
 30
0.0
  0
VERTEX
  5
E13
  8
DATA
  6
CONTINUOUS
 62
     7
 10
515.49528807758759
 20
656.42523085895016
 30
0.0
  0
SEQEND
  5
E14
  8
DATA
  6
CONTINUOUS
 62
     7
  0
POLYLINE
  5
323
  8
DATA
  6
CONTINUOUS
 62
     7
 66
     1
 10
0.0
 20
0.0
 30
0.0
 70
     1
  0
VERTEX
  5
E15
  8
DATA
  6
CONTINUOUS
 62
     7
 10
513.4952880775877
 20
657.95523085895013
 30
0.0
  0
VERTEX
  5
E16
  8
DATA
  6
CONTINUOUS
 62
     7
 10
515.02528807758767
 20
657.95523085895013
 30
0.0
  0
VERTEX
  5
E17
  8
DATA
  6
CONTINUOUS
 62
     7
 10
515.02528807758767
 20
656.42523085895016
 30
0.0
  0
VERTEX
  5
E18
  8
DATA
  6
CONTINUOUS
 62
     7
 10
513.4952880775877
 20
656.42523085895016
 30
0.0
  0
SEQEND
  5
E19
  8
DATA
  6
CONTINUOUS
 62
     7
  0
POLYLINE
  5
32A
  8
DATA
  6
CONTINUOUS
 62
     7
 66
     1
 10
0.0
 20
0.0
 30
0.0
 70
     1
  0
VERTEX
  5
E1A
  8
DATA
  6
CONTINUOUS
 62
     7
 10
511.4952880775873
 20
657.95523085895013
 30
0.0
  0
VERTEX
  5
E1B
  8
DATA
  6
CONTINUOUS
 62
     7
 10
513.02528807758756
 20
657.95523085895013
 30
0.0
  0
VERTEX
  5
E1C
  8
DATA
  6
CONTINUOUS
 62
     7
 10
513.02528807758756
 20
656.42523085895016
 30
0.0
  0
VERTEX
  5
E1D
  8
DATA
  6
CONTINUOUS
 62
     7
 10
511.4952880775873
 20
656.42523085895016
 30
0.0
  0
SEQEND
  5
E1E
  8
DATA
  6
CONTINUOUS
 62
     7
  0
POLYLINE
  5
331
  8
DATA
  6
CONTINUOUS
 62
     7
 66
     1
 10
0.0
 20
0.0
 30
0.0
  0
VERTEX
  5
E1F
  8
DATA
  6
CONTINUOUS
 62
     7
 10
507.47522190640768
 20
654.79023085895017
 30
0.0
  0
VERTEX
  5
E20
  8
DATA
  6
CONTINUOUS
 62
     7
 10
505.37522190640777
 20
654.79023085895017
 30
0.0
  0
VERTEX
  5
E21
  8
DATA
  6
CONTINUOUS
 62
     7
 10
505.37522190640777
 20
655.59023085895012
 30
0.0
  0
VERTEX
  5
E22
  8
DATA
  6
CONTINUOUS
 62
     7
 10
507.47522190640768
 20
655.59023085895012
 30
0.0
  0
SEQEND
  5
E23
  8
DATA
  6
CONTINUOUS
 62
     7
  0
POLYLINE
  5
338
  8
DATA
  6
CONTINUOUS
 62
     7
 66
     1
 10
0.0
 20
0.0
 30
0.0
  0
VERTEX
  5
E24
  8
DATA
  6
CONTINUOUS
 62
     7
 10
508.27522190640769
 20
655.59023085895012
 30
0.0
  0
VERTEX
  5
E25
  8
DATA
  6
CONTINUOUS
 62
     7
 10
510.37522190640789
 20
655.59023085895012
 30
0.0
  0
VERTEX
  5
E26
  8
DATA
  6
CONTINUOUS
 62
     7
 10
510.37522190640789
 20
654.79023085895017
 30
0.0
  0
VERTEX
  5
E27
  8
DATA
  6
CONTINUOUS
 62
     7
 10
508.27522190640769
 20
654.79023085895017
 30
0.0
  0
SEQEND
  5
E28
  8
DATA
  6
CONTINUOUS
 62
     7
  0
POLYLINE
  5
33F
  8
DATA
  6
CONTINUOUS
 62
     7
 66
     1
 10
0.0
 20
0.0
 30
0.0
  0
VERTEX
  5
E29
  8
DATA
  6
CONTINUOUS
 62
     7
 10
507.47522190640768
 20
655.59023085895012
 30
0.0
  0
VERTEX
  5
E2A
  8
DATA
  6
CONTINUOUS
 62
     7
 10
507.47522190640768
 20
657.69023085895014
 30
0.0
  0
VERTEX
  5
E2B
  8
DATA
  6
CONTINUOUS
 62
     7
 10
508.27522190640769
 20
657.69023085895014
 30
0.0
  0
VERTEX
  5
E2C
  8
DATA
  6
CONTINUOUS
 62
     7
 10
508.27522190640769
 20
655.59023085895012
 30
0.0
  0
SEQEND
  5
E2D
  8
DATA
  6
CONTINUOUS
 62
     7
  0
POLYLINE
  5
346
  8
DATA
  6
CONTINUOUS
 62
     7
 66
     1
 10
0.0
 20
0.0
 30
0.0
  0
VERTEX
  5
E2E
  8
DATA
  6
CONTINUOUS
 62
     7
 10
508.27522190640769
 20
654.79023085895017
 30
0.0
  0
VERTEX
  5
E2F
  8
DATA
  6
CONTINUOUS
 62
     7
 10
508.27522190640769
 20
652.69023085895014
 30
0.0
  0
VERTEX
  5
E30
  8
DATA
  6
CONTINUOUS
 62
     7
 10
507.47522190640768
 20
652.69023085895014
 30
0.0
  0
VERTEX
  5
E31
  8
DATA
  6
CONTINUOUS
 62
     7
 10
507.47522190640768
 20
654.79023085895017
 30
0.0
  0
SEQEND
  5
E32
  8
DATA
  6
CONTINUOUS
 62
     7
  0
POLYLINE
  5
34D
  8
DATA
  6
CONTINUOUS
 62
     7
 66
     1
 10
0.0
 20
0.0
 30
0.0
 70
     1
  0
VERTEX
  5
E33
  8
DATA
  6
CONTINUOUS
 62
     7
 10
508.73550633687933
 20
654.43080304830005
 30
0.0
  0
VERTEX
  5
E34
  8
DATA
  6
CONTINUOUS
 62
     7
 10
509.73550633687938
 20
654.43080304830005
 30
0.0
  0
VERTEX
  5
E35
  8
DATA
  6
CONTINUOUS
 62
     7
 10
509.73550633687938
 20
653.43080304830005
 30
0.0
  0
VERTEX
  5
E36
  8
DATA
  6
CONTINUOUS
 62
     7
 10
508.73550633687933
 20
653.43080304830005
 30
0.0
  0
SEQEND
  5
E37
  8
DATA
  6
CONTINUOUS
 62
     7
  0
POLYLINE
  5
354
  8
DATA
  6
CONTINUOUS
 62
     7
 66
     1
 10
0.0
 20
0.0
 30
0.0
 70
     1
  0
VERTEX
  5
E38
  8
DATA
  6
CONTINUOUS
 62
     7
 10
506.01493747593599
 20
654.43080304830005
 30
0.0
  0
VERTEX
  5
E39
  8
DATA
  6
CONTINUOUS
 62
     7
 10
507.01493747593599
 20
654.43080304830005
 30
0.0
  0
VERTEX
  5
E3A
  8
DATA
  6
CONTINUOUS
 62
     7
 10
507.01493747593599
 20
653.43080304830005
 30
0.0
  0
VERTEX
  5
E3B
  8
DATA
  6
CONTINUOUS
 62
     7
 10
506.01493747593599
 20
653.43080304830005
 30
0.0
  0
SEQEND
  5
E3C
  8
DATA
  6
CONTINUOUS
 62
     7
  0
POLYLINE
  5
35B
  8
DATA
  6
CONTINUOUS
 62
     7
 66
     1
 10
0.0
 20
0.0
 30
0.0
 70
     1
  0
VERTEX
  5
E3D
  8
DATA
  6
CONTINUOUS
 62
     7
 10
508.73550633687933
 20
656.94965866960001
 30
0.0
  0
VERTEX
  5
E3E
  8
DATA
  6
CONTINUOUS
 62
     7
 10
509.73550633687938
 20
656.94965866960001
 30
0.0
  0
VERTEX
  5
E3F
  8
DATA
  6
CONTINUOUS
 62
     7
 10
509.73550633687938
 20
655.94965866960001
 30
0.0
  0
VERTEX
  5
E40
  8
DATA
  6
CONTINUOUS
 62
     7
 10
508.73550633687933
 20
655.94965866960001
 30
0.0
  0
SEQEND
  5
E41
  8
DATA
  6
CONTINUOUS
 62
     7
  0
POLYLINE
  5
362
  8
DATA
  6
CONTINUOUS
 62
     7
 66
     1
 10
0.0
 20
0.0
 30
0.0
 70
     1
  0
VERTEX
  5
E42
  8
DATA
  6
CONTINUOUS
 62
     7
 10
506.01493747593599
 20
656.94965866960001
 30
0.0
  0
VERTEX
  5
E43
  8
DATA
  6
CONTINUOUS
 62
     7
 10
507.01493747593599
 20
656.94965866960001
 30
0.0
  0
VERTEX
  5
E44
  8
DATA
  6
CONTINUOUS
 62
     7
 10
507.01493747593599
 20
655.94965866960001
 30
0.0
  0
VERTEX
  5
E45
  8
DATA
  6
CONTINUOUS
 62
     7
 10
506.01493747593599
 20
655.94965866960001
 30
0.0
  0
SEQEND
  5
E46
  8
DATA
  6
CONTINUOUS
 62
     7
  0
LINE
  5
369
  8
DATA
  6
CONTINUOUS
 62
     7
 10
527.97059372435547
 20
652.36033916443625
 30
0.0
 11
527.41167652690319
 21
658.21033916443639
 31
0.0
  0
LINE
  5
36A
  8
DATA
  6
CONTINUOUS
 62
     7
 10
504.07985008846077
 20
652.36033916443625
 30
0.0
 11
504.6387672859131
 21
658.21033916443639
 31
0.0
  0
ARC
  5
36B
  8
DATA
  6
CONTINUOUS
 62
     7
 10
526.9751267936
 20
652.26523085894996
 30
0.0
 40
1.0
 50
270.0
 51
5.4575534851074963
  0
ARC
  5
36C
  8
DATA
  6
CONTINUOUS
 62
     7
 10
505.07531701921607
 20
652.26523085894996
 30
0.0
 40
0.9999999999999051
 50
174.54244651489191
 51
270.0
  0
ARC
  5
36D
  8
DATA
  6
CONTINUOUS
 62
     7
 10
526.41620959614795
 20
658.11523085894999
 30
0.0
 40
1.0000000000000031
 50
5.457553485107554
 51
89.999999999999986
  0
ARC
  5
36E
  8
DATA
  6
CONTINUOUS
 62
     7
 10
505.6342342166684
 20
658.11523085894999
 30
0.0
 40
1.0
 50
90.0
 51
174.54244651489509
  0
CIRCLE
  5
36F
  8
DATA
  6
CONTINUOUS
 62
     7
 10
449.76932452468208
 20
655.19023085895014
 30
0.0
 40
1.175000000000068
  0
POLYLINE
  5
370
  8
DATA
  6
CONTINUOUS
 62
     7
 66
     1
 10
0.0
 20
0.0
 30
0.0
 70
     1
  0
VERTEX
  5
E47
  8
DATA
  6
CONTINUOUS
 62
     7
 10
449.76932452468208
 20
652.4902308589501
 30
0.0
  0
VERTEX
  5
E48
  8
DATA
  6
CONTINUOUS
 62
     7
 10
447.43105593446421
 20
653.84023085895012
 30
0.0
  0
VERTEX
  5
E49
  8
DATA
  6
CONTINUOUS
 62
     7
 10
447.43105593446421
 20
656.54023085895017
 30
0.0
  0
VERTEX
  5
E4A
  8
DATA
  6
CONTINUOUS
 62
     7
 10
449.76932452468208
 20
657.89023085894996
 30
0.0
  0
VERTEX
  5
E4B
  8
DATA
  6
CONTINUOUS
 62
     7
 10
452.1075931149
 20
656.54023085895017
 30
0.0
  0
VERTEX
  5
E4C
  8
DATA
  6
CONTINUOUS
 62
     7
 10
452.1075931149
 20
653.84023085895012
 30
0.0
  0
SEQEND
  5
E4D
  8
DATA
  6
CONTINUOUS
 62
     7
  0
CIRCLE
  5
379
  8
DATA
  6
CONTINUOUS
 62
     7
 10
482.26932452468242
 20
655.19023085895014
 30
0.0
 40
1.175000000000068
  0
POLYLINE
  5
37A
  8
DATA
  6
CONTINUOUS
 62
     7
 66
     1
 10
0.0
 20
0.0
 30
0.0
 70
     1
  0
VERTEX
  5
E4E
  8
DATA
  6
CONTINUOUS
 62
     7
 10
482.26932452468242
 20
652.4902308589501
 30
0.0
  0
VERTEX
  5
E4F
  8
DATA
  6
CONTINUOUS
 62
     7
 10
479.93105593446461
 20
653.84023085895012
 30
0.0
  0
VERTEX
  5
E50
  8
DATA
  6
CONTINUOUS
 62
     7
 10
479.93105593446461
 20
656.54023085895017
 30
0.0
  0
VERTEX
  5
E51
  8
DATA
  6
CONTINUOUS
 62
     7
 10
482.26932452468242
 20
657.89023085894996
 30
0.0
  0
VERTEX
  5
E52
  8
DATA
  6
CONTINUOUS
 62
     7
 10
484.60759311490051
 20
656.54023085895017
 30
0.0
  0
VERTEX
  5
E53
  8
DATA
  6
CONTINUOUS
 62
     7
 10
484.60759311490051
 20
653.84023085895012
 30
0.0
  0
SEQEND
  5
E54
  8
DATA
  6
CONTINUOUS
 62
     7
  0
LINE
  5
383
  8
DATA
  6
CONTINUOUS
 62
     7
 10
476.97512679360011
 20
651.26523085894996
 30
0.0
 11
455.07531701921607
 21
651.26523085894996
 31
0.0
  0
LINE
  5
384
  8
DATA
  6
CONTINUOUS
 62
     7
 10
455.6342342166684
 20
659.11523085894999
 30
0.0
 11
476.41620959614789
 21
659.11523085894999
 31
0.0
  0
POLYLINE
  5
385
  8
DATA
  6
CONTINUOUS
 62
     7
 66
     1
 10
0.0
 20
0.0
 30
0.0
 70
     1
  0
VERTEX
  5
E55
  8
DATA
  6
CONTINUOUS
 62
     7
 10
475.49528807758782
 20
655.95523085895013
 30
0.0
  0
VERTEX
  5
E56
  8
DATA
  6
CONTINUOUS
 62
     7
 10
477.02528807758767
 20
655.95523085895013
 30
0.0
  0
VERTEX
  5
E57
  8
DATA
  6
CONTINUOUS
 62
     7
 10
477.02528807758767
 20
654.42523085895004
 30
0.0
  0
VERTEX
  5
E58
  8
DATA
  6
CONTINUOUS
 62
     7
 10
475.49528807758782
 20
654.42523085895004
 30
0.0
  0
SEQEND
  5
E59
  8
DATA
  6
CONTINUOUS
 62
     7
  0
POLYLINE
  5
38C
  8
DATA
  6
CONTINUOUS
 62
     7
 66
     1
 10
0.0
 20
0.0
 30
0.0
 70
     1
  0
VERTEX
  5
E5A
  8
DATA
  6
CONTINUOUS
 62
     7
 10
473.4952880775877
 20
655.95523085895013
 30
0.0
  0
VERTEX
  5
E5B
  8
DATA
  6
CONTINUOUS
 62
     7
 10
475.02528807758762
 20
655.95523085895013
 30
0.0
  0
VERTEX
  5
E5C
  8
DATA
  6
CONTINUOUS
 62
     7
 10
475.02528807758762
 20
654.42523085895004
 30
0.0
  0
VERTEX
  5
E5D
  8
DATA
  6
CONTINUOUS
 62
     7
 10
473.4952880775877
 20
654.42523085895004
 30
0.0
  0
SEQEND
  5
E5E
  8
DATA
  6
CONTINUOUS
 62
     7
  0
POLYLINE
  5
393
  8
DATA
  6
CONTINUOUS
 62
     7
 66
     1
 10
0.0
 20
0.0
 30
0.0
 70
     1
  0
VERTEX
  5
E5F
  8
DATA
  6
CONTINUOUS
 62
     7
 10
471.4952880775877
 20
655.95523085895013
 30
0.0
  0
VERTEX
  5
E60
  8
DATA
  6
CONTINUOUS
 62
     7
 10
473.02528807758767
 20
655.95523085895013
 30
0.0
  0
VERTEX
  5
E61
  8
DATA
  6
CONTINUOUS
 62
     7
 10
473.02528807758767
 20
654.42523085895004
 30
0.0
  0
VERTEX
  5
E62
  8
DATA
  6
CONTINUOUS
 62
     7
 10
471.4952880775877
 20
654.42523085895004
 30
0.0
  0
SEQEND
  5
E63
  8
DATA
  6
CONTINUOUS
 62
     7
  0
POLYLINE
  5
39A
  8
DATA
  6
CONTINUOUS
 62
     7
 66
     1
 10
0.0
 20
0.0
 30
0.0
 70
     1
  0
VERTEX
  5
E64
  8
DATA
  6
CONTINUOUS
 62
     7
 10
469.49528807758782
 20
655.95523085895013
 30
0.0
  0
VERTEX
  5
E65
  8
DATA
  6
CONTINUOUS
 62
     7
 10
471.02528807758767
 20
655.95523085895013
 30
0.0
  0
VERTEX
  5
E66
  8
DATA
  6
CONTINUOUS
 62
     7
 10
471.02528807758767
 20
654.42523085895004
 30
0.0
  0
VERTEX
  5
E67
  8
DATA
  6
CONTINUOUS
 62
     7
 10
469.49528807758782
 20
654.42523085895004
 30
0.0
  0
SEQEND
  5
E68
  8
DATA
  6
CONTINUOUS
 62
     7
  0
POLYLINE
  5
3A1
  8
DATA
  6
CONTINUOUS
 62
     7
 66
     1
 10
0.0
 20
0.0
 30
0.0
 70
     1
  0
VERTEX
  5
E69
  8
DATA
  6
CONTINUOUS
 62
     7
 10
467.4952880775877
 20
655.95523085895013
 30
0.0
  0
VERTEX
  5
E6A
  8
DATA
  6
CONTINUOUS
 62
     7
 10
469.02528807758767
 20
655.95523085895013
 30
0.0
  0
VERTEX
  5
E6B
  8
DATA
  6
CONTINUOUS
 62
     7
 10
469.02528807758767
 20
654.42523085895004
 30
0.0
  0
VERTEX
  5
E6C
  8
DATA
  6
CONTINUOUS
 62
     7
 10
467.4952880775877
 20
654.42523085895004
 30
0.0
  0
SEQEND
  5
E6D
  8
DATA
  6
CONTINUOUS
 62
     7
  0
POLYLINE
  5
3A8
  8
DATA
  6
CONTINUOUS
 62
     7
 66
     1
 10
0.0
 20
0.0
 30
0.0
 70
     1
  0
VERTEX
  5
E6E
  8
DATA
  6
CONTINUOUS
 62
     7
 10
465.49528807758759
 20
655.95523085895013
 30
0.0
  0
VERTEX
  5
E6F
  8
DATA
  6
CONTINUOUS
 62
     7
 10
467.02528807758762
 20
655.95523085895013
 30
0.0
  0
VERTEX
  5
E70
  8
DATA
  6
CONTINUOUS
 62
     7
 10
467.02528807758762
 20
654.42523085895004
 30
0.0
  0
VERTEX
  5
E71
  8
DATA
  6
CONTINUOUS
 62
     7
 10
465.49528807758759
 20
654.42523085895004
 30
0.0
  0
SEQEND
  5
E72
  8
DATA
  6
CONTINUOUS
 62
     7
  0
POLYLINE
  5
3AF
  8
DATA
  6
CONTINUOUS
 62
     7
 66
     1
 10
0.0
 20
0.0
 30
0.0
 70
     1
  0
VERTEX
  5
E73
  8
DATA
  6
CONTINUOUS
 62
     7
 10
463.49528807758759
 20
655.95523085895013
 30
0.0
  0
VERTEX
  5
E74
  8
DATA
  6
CONTINUOUS
 62
     7
 10
465.02528807758767
 20
655.95523085895013
 30
0.0
  0
VERTEX
  5
E75
  8
DATA
  6
CONTINUOUS
 62
     7
 10
465.02528807758767
 20
654.42523085895004
 30
0.0
  0
VERTEX
  5
E76
  8
DATA
  6
CONTINUOUS
 62
     7
 10
463.49528807758759
 20
654.42523085895004
 30
0.0
  0
SEQEND
  5
E77
  8
DATA
  6
CONTINUOUS
 62
     7
  0
POLYLINE
  5
3B6
  8
DATA
  6
CONTINUOUS
 62
     7
 66
     1
 10
0.0
 20
0.0
 30
0.0
 70
     1
  0
VERTEX
  5
E78
  8
DATA
  6
CONTINUOUS
 62
     7
 10
461.4952880775873
 20
655.95523085895013
 30
0.0
  0
VERTEX
  5
E79
  8
DATA
  6
CONTINUOUS
 62
     7
 10
463.02528807758739
 20
655.95523085895013
 30
0.0
  0
VERTEX
  5
E7A
  8
DATA
  6
CONTINUOUS
 62
     7
 10
463.02528807758739
 20
654.42523085895004
 30
0.0
  0
VERTEX
  5
E7B
  8
DATA
  6
CONTINUOUS
 62
     7
 10
461.4952880775873
 20
654.42523085895004
 30
0.0
  0
SEQEND
  5
E7C
  8
DATA
  6
CONTINUOUS
 62
     7
  0
POLYLINE
  5
3BD
  8
DATA
  6
CONTINUOUS
 62
     7
 66
     1
 10
0.0
 20
0.0
 30
0.0
 70
     1
  0
VERTEX
  5
E7D
  8
DATA
  6
CONTINUOUS
 62
     7
 10
475.49528807758782
 20
653.95523085895002
 30
0.0
  0
VERTEX
  5
E7E
  8
DATA
  6
CONTINUOUS
 62
     7
 10
477.02528807758767
 20
653.95523085895002
 30
0.0
  0
VERTEX
  5
E7F
  8
DATA
  6
CONTINUOUS
 62
     7
 10
477.02528807758767
 20
652.42523085895016
 30
0.0
  0
VERTEX
  5
E80
  8
DATA
  6
CONTINUOUS
 62
     7
 10
475.49528807758782
 20
652.42523085895016
 30
0.0
  0
SEQEND
  5
E81
  8
DATA
  6
CONTINUOUS
 62
     7
  0
POLYLINE
  5
3C4
  8
DATA
  6
CONTINUOUS
 62
     7
 66
     1
 10
0.0
 20
0.0
 30
0.0
 70
     1
  0
VERTEX
  5
E82
  8
DATA
  6
CONTINUOUS
 62
     7
 10
473.4952880775877
 20
653.95523085895002
 30
0.0
  0
VERTEX
  5
E83
  8
DATA
  6
CONTINUOUS
 62
     7
 10
475.02528807758762
 20
653.95523085895002
 30
0.0
  0
VERTEX
  5
E84
  8
DATA
  6
CONTINUOUS
 62
     7
 10
475.02528807758762
 20
652.42523085895016
 30
0.0
  0
VERTEX
  5
E85
  8
DATA
  6
CONTINUOUS
 62
     7
 10
473.4952880775877
 20
652.42523085895016
 30
0.0
  0
SEQEND
  5
E86
  8
DATA
  6
CONTINUOUS
 62
     7
  0
POLYLINE
  5
3CB
  8
DATA
  6
CONTINUOUS
 62
     7
 66
     1
 10
0.0
 20
0.0
 30
0.0
 70
     1
  0
VERTEX
  5
E87
  8
DATA
  6
CONTINUOUS
 62
     7
 10
471.4952880775877
 20
653.95523085895002
 30
0.0
  0
VERTEX
  5
E88
  8
DATA
  6
CONTINUOUS
 62
     7
 10
473.02528807758767
 20
653.95523085895002
 30
0.0
  0
VERTEX
  5
E89
  8
DATA
  6
CONTINUOUS
 62
     7
 10
473.02528807758767
 20
652.42523085895016
 30
0.0
  0
VERTEX
  5
E8A
  8
DATA
  6
CONTINUOUS
 62
     7
 10
471.4952880775877
 20
652.42523085895016
 30
0.0
  0
SEQEND
  5
E8B
  8
DATA
  6
CONTINUOUS
 62
     7
  0
POLYLINE
  5
3D2
  8
DATA
  6
CONTINUOUS
 62
     7
 66
     1
 10
0.0
 20
0.0
 30
0.0
 70
     1
  0
VERTEX
  5
E8C
  8
DATA
  6
CONTINUOUS
 62
     7
 10
469.49528807758782
 20
653.95523085895002
 30
0.0
  0
VERTEX
  5
E8D
  8
DATA
  6
CONTINUOUS
 62
     7
 10
471.02528807758767
 20
653.95523085895002
 30
0.0
  0
VERTEX
  5
E8E
  8
DATA
  6
CONTINUOUS
 62
     7
 10
471.02528807758767
 20
652.42523085895016
 30
0.0
  0
VERTEX
  5
E8F
  8
DATA
  6
CONTINUOUS
 62
     7
 10
469.49528807758782
 20
652.42523085895016
 30
0.0
  0
SEQEND
  5
E90
  8
DATA
  6
CONTINUOUS
 62
     7
  0
POLYLINE
  5
3D9
  8
DATA
  6
CONTINUOUS
 62
     7
 66
     1
 10
0.0
 20
0.0
 30
0.0
 70
     1
  0
VERTEX
  5
E91
  8
DATA
  6
CONTINUOUS
 62
     7
 10
467.4952880775877
 20
653.95523085895002
 30
0.0
  0
VERTEX
  5
E92
  8
DATA
  6
CONTINUOUS
 62
     7
 10
469.02528807758767
 20
653.95523085895002
 30
0.0
  0
VERTEX
  5
E93
  8
DATA
  6
CONTINUOUS
 62
     7
 10
469.02528807758767
 20
652.42523085895016
 30
0.0
  0
VERTEX
  5
E94
  8
DATA
  6
CONTINUOUS
 62
     7
 10
467.4952880775877
 20
652.42523085895016
 30
0.0
  0
SEQEND
  5
E95
  8
DATA
  6
CONTINUOUS
 62
     7
  0
POLYLINE
  5
3E0
  8
DATA
  6
CONTINUOUS
 62
     7
 66
     1
 10
0.0
 20
0.0
 30
0.0
 70
     1
  0
VERTEX
  5
E96
  8
DATA
  6
CONTINUOUS
 62
     7
 10
465.49528807758759
 20
653.95523085895002
 30
0.0
  0
VERTEX
  5
E97
  8
DATA
  6
CONTINUOUS
 62
     7
 10
467.02528807758762
 20
653.95523085895002
 30
0.0
  0
VERTEX
  5
E98
  8
DATA
  6
CONTINUOUS
 62
     7
 10
467.02528807758762
 20
652.42523085895016
 30
0.0
  0
VERTEX
  5
E99
  8
DATA
  6
CONTINUOUS
 62
     7
 10
465.49528807758759
 20
652.42523085895016
 30
0.0
  0
SEQEND
  5
E9A
  8
DATA
  6
CONTINUOUS
 62
     7
  0
POLYLINE
  5
3E7
  8
DATA
  6
CONTINUOUS
 62
     7
 66
     1
 10
0.0
 20
0.0
 30
0.0
 70
     1
  0
VERTEX
  5
E9B
  8
DATA
  6
CONTINUOUS
 62
     7
 10
463.49528807758759
 20
653.95523085895002
 30
0.0
  0
VERTEX
  5
E9C
  8
DATA
  6
CONTINUOUS
 62
     7
 10
465.02528807758767
 20
653.95523085895002
 30
0.0
  0
VERTEX
  5
E9D
  8
DATA
  6
CONTINUOUS
 62
     7
 10
465.02528807758767
 20
652.42523085895016
 30
0.0
  0
VERTEX
  5
E9E
  8
DATA
  6
CONTINUOUS
 62
     7
 10
463.49528807758759
 20
652.42523085895016
 30
0.0
  0
SEQEND
  5
E9F
  8
DATA
  6
CONTINUOUS
 62
     7
  0
POLYLINE
  5
3EE
  8
DATA
  6
CONTINUOUS
 62
     7
 66
     1
 10
0.0
 20
0.0
 30
0.0
 70
     1
  0
VERTEX
  5
EA0
  8
DATA
  6
CONTINUOUS
 62
     7
 10
461.4952880775873
 20
653.95523085895002
 30
0.0
  0
VERTEX
  5
EA1
  8
DATA
  6
CONTINUOUS
 62
     7
 10
463.02528807758739
 20
653.95523085895002
 30
0.0
  0
VERTEX
  5
EA2
  8
DATA
  6
CONTINUOUS
 62
     7
 10
463.02528807758739
 20
652.42523085895016
 30
0.0
  0
VERTEX
  5
EA3
  8
DATA
  6
CONTINUOUS
 62
     7
 10
461.4952880775873
 20
652.42523085895016
 30
0.0
  0
SEQEND
  5
EA4
  8
DATA
  6
CONTINUOUS
 62
     7
  0
POLYLINE
  5
3F5
  8
DATA
  6
CONTINUOUS
 62
     7
 66
     1
 10
0.0
 20
0.0
 30
0.0
 70
     1
  0
VERTEX
  5
EA5
  8
DATA
  6
CONTINUOUS
 62
     7
 10
475.49528807758782
 20
657.95523085895013
 30
0.0
  0
VERTEX
  5
EA6
  8
DATA
  6
CONTINUOUS
 62
     7
 10
477.02528807758767
 20
657.95523085895013
 30
0.0
  0
VERTEX
  5
EA7
  8
DATA
  6
CONTINUOUS
 62
     7
 10
477.02528807758767
 20
656.42523085895016
 30
0.0
  0
VERTEX
  5
EA8
  8
DATA
  6
CONTINUOUS
 62
     7
 10
475.49528807758782
 20
656.42523085895016
 30
0.0
  0
SEQEND
  5
EA9
  8
DATA
  6
CONTINUOUS
 62
     7
  0
POLYLINE
  5
3FC
  8
DATA
  6
CONTINUOUS
 62
     7
 66
     1
 10
0.0
 20
0.0
 30
0.0
 70
     1
  0
VERTEX
  5
EAA
  8
DATA
  6
CONTINUOUS
 62
     7
 10
473.4952880775877
 20
657.95523085895013
 30
0.0
  0
VERTEX
  5
EAB
  8
DATA
  6
CONTINUOUS
 62
     7
 10
475.02528807758762
 20
657.95523085895013
 30
0.0
  0
VERTEX
  5
EAC
  8
DATA
  6
CONTINUOUS
 62
     7
 10
475.02528807758762
 20
656.42523085895016
 30
0.0
  0
VERTEX
  5
EAD
  8
DATA
  6
CONTINUOUS
 62
     7
 10
473.4952880775877
 20
656.42523085895016
 30
0.0
  0
SEQEND
  5
EAE
  8
DATA
  6
CONTINUOUS
 62
     7
  0
POLYLINE
  5
403
  8
DATA
  6
CONTINUOUS
 62
     7
 66
     1
 10
0.0
 20
0.0
 30
0.0
 70
     1
  0
VERTEX
  5
EAF
  8
DATA
  6
CONTINUOUS
 62
     7
 10
471.4952880775877
 20
657.95523085895013
 30
0.0
  0
VERTEX
  5
EB0
  8
DATA
  6
CONTINUOUS
 62
     7
 10
473.02528807758767
 20
657.95523085895013
 30
0.0
  0
VERTEX
  5
EB1
  8
DATA
  6
CONTINUOUS
 62
     7
 10
473.02528807758767
 20
656.42523085895016
 30
0.0
  0
VERTEX
  5
EB2
  8
DATA
  6
CONTINUOUS
 62
     7
 10
471.4952880775877
 20
656.42523085895016
 30
0.0
  0
SEQEND
  5
EB3
  8
DATA
  6
CONTINUOUS
 62
     7
  0
POLYLINE
  5
40A
  8
DATA
  6
CONTINUOUS
 62
     7
 66
     1
 10
0.0
 20
0.0
 30
0.0
 70
     1
  0
VERTEX
  5
EB4
  8
DATA
  6
CONTINUOUS
 62
     7
 10
469.49528807758782
 20
657.95523085895013
 30
0.0
  0
VERTEX
  5
EB5
  8
DATA
  6
CONTINUOUS
 62
     7
 10
471.02528807758767
 20
657.95523085895013
 30
0.0
  0
VERTEX
  5
EB6
  8
DATA
  6
CONTINUOUS
 62
     7
 10
471.02528807758767
 20
656.42523085895016
 30
0.0
  0
VERTEX
  5
EB7
  8
DATA
  6
CONTINUOUS
 62
     7
 10
469.49528807758782
 20
656.42523085895016
 30
0.0
  0
SEQEND
  5
EB8
  8
DATA
  6
CONTINUOUS
 62
     7
  0
POLYLINE
  5
411
  8
DATA
  6
CONTINUOUS
 62
     7
 66
     1
 10
0.0
 20
0.0
 30
0.0
 70
     1
  0
VERTEX
  5
EB9
  8
DATA
  6
CONTINUOUS
 62
     7
 10
467.4952880775877
 20
657.95523085895013
 30
0.0
  0
VERTEX
  5
EBA
  8
DATA
  6
CONTINUOUS
 62
     7
 10
469.02528807758767
 20
657.95523085895013
 30
0.0
  0
VERTEX
  5
EBB
  8
DATA
  6
CONTINUOUS
 62
     7
 10
469.02528807758767
 20
656.42523085895016
 30
0.0
  0
VERTEX
  5
EBC
  8
DATA
  6
CONTINUOUS
 62
     7
 10
467.4952880775877
 20
656.42523085895016
 30
0.0
  0
SEQEND
  5
EBD
  8
DATA
  6
CONTINUOUS
 62
     7
  0
POLYLINE
  5
418
  8
DATA
  6
CONTINUOUS
 62
     7
 66
     1
 10
0.0
 20
0.0
 30
0.0
 70
     1
  0
VERTEX
  5
EBE
  8
DATA
  6
CONTINUOUS
 62
     7
 10
465.49528807758759
 20
657.95523085895013
 30
0.0
  0
VERTEX
  5
EBF
  8
DATA
  6
CONTINUOUS
 62
     7
 10
467.02528807758762
 20
657.95523085895013
 30
0.0
  0
VERTEX
  5
EC0
  8
DATA
  6
CONTINUOUS
 62
     7
 10
467.02528807758762
 20
656.42523085895016
 30
0.0
  0
VERTEX
  5
EC1
  8
DATA
  6
CONTINUOUS
 62
     7
 10
465.49528807758759
 20
656.42523085895016
 30
0.0
  0
SEQEND
  5
EC2
  8
DATA
  6
CONTINUOUS
 62
     7
  0
POLYLINE
  5
41F
  8
DATA
  6
CONTINUOUS
 62
     7
 66
     1
 10
0.0
 20
0.0
 30
0.0
 70
     1
  0
VERTEX
  5
EC3
  8
DATA
  6
CONTINUOUS
 62
     7
 10
463.49528807758759
 20
657.95523085895013
 30
0.0
  0
VERTEX
  5
EC4
  8
DATA
  6
CONTINUOUS
 62
     7
 10
465.02528807758767
 20
657.95523085895013
 30
0.0
  0
VERTEX
  5
EC5
  8
DATA
  6
CONTINUOUS
 62
     7
 10
465.02528807758767
 20
656.42523085895016
 30
0.0
  0
VERTEX
  5
EC6
  8
DATA
  6
CONTINUOUS
 62
     7
 10
463.49528807758759
 20
656.42523085895016
 30
0.0
  0
SEQEND
  5
EC7
  8
DATA
  6
CONTINUOUS
 62
     7
  0
POLYLINE
  5
426
  8
DATA
  6
CONTINUOUS
 62
     7
 66
     1
 10
0.0
 20
0.0
 30
0.0
 70
     1
  0
VERTEX
  5
EC8
  8
DATA
  6
CONTINUOUS
 62
     7
 10
461.4952880775873
 20
657.95523085895013
 30
0.0
  0
VERTEX
  5
EC9
  8
DATA
  6
CONTINUOUS
 62
     7
 10
463.02528807758739
 20
657.95523085895013
 30
0.0
  0
VERTEX
  5
ECA
  8
DATA
  6
CONTINUOUS
 62
     7
 10
463.02528807758739
 20
656.42523085895016
 30
0.0
  0
VERTEX
  5
ECB
  8
DATA
  6
CONTINUOUS
 62
     7
 10
461.4952880775873
 20
656.42523085895016
 30
0.0
  0
SEQEND
  5
ECC
  8
DATA
  6
CONTINUOUS
 62
     7
  0
POLYLINE
  5
42D
  8
DATA
  6
CONTINUOUS
 62
     7
 66
     1
 10
0.0
 20
0.0
 30
0.0
  0
VERTEX
  5
ECD
  8
DATA
  6
CONTINUOUS
 62
     7
 10
457.47522190640768
 20
654.79023085895017
 30
0.0
  0
VERTEX
  5
ECE
  8
DATA
  6
CONTINUOUS
 62
     7
 10
455.37522190640777
 20
654.79023085895017
 30
0.0
  0
VERTEX
  5
ECF
  8
DATA
  6
CONTINUOUS
 62
     7
 10
455.37522190640777
 20
655.59023085895012
 30
0.0
  0
VERTEX
  5
ED0
  8
DATA
  6
CONTINUOUS
 62
     7
 10
457.47522190640768
 20
655.59023085895012
 30
0.0
  0
SEQEND
  5
ED1
  8
DATA
  6
CONTINUOUS
 62
     7
  0
POLYLINE
  5
434
  8
DATA
  6
CONTINUOUS
 62
     7
 66
     1
 10
0.0
 20
0.0
 30
0.0
  0
VERTEX
  5
ED2
  8
DATA
  6
CONTINUOUS
 62
     7
 10
458.27522190640769
 20
655.59023085895012
 30
0.0
  0
VERTEX
  5
ED3
  8
DATA
  6
CONTINUOUS
 62
     7
 10
460.37522190640789
 20
655.59023085895012
 30
0.0
  0
VERTEX
  5
ED4
  8
DATA
  6
CONTINUOUS
 62
     7
 10
460.37522190640789
 20
654.79023085895017
 30
0.0
  0
VERTEX
  5
ED5
  8
DATA
  6
CONTINUOUS
 62
     7
 10
458.27522190640769
 20
654.79023085895017
 30
0.0
  0
SEQEND
  5
ED6
  8
DATA
  6
CONTINUOUS
 62
     7
  0
POLYLINE
  5
43B
  8
DATA
  6
CONTINUOUS
 62
     7
 66
     1
 10
0.0
 20
0.0
 30
0.0
  0
VERTEX
  5
ED7
  8
DATA
  6
CONTINUOUS
 62
     7
 10
457.47522190640768
 20
655.59023085895012
 30
0.0
  0
VERTEX
  5
ED8
  8
DATA
  6
CONTINUOUS
 62
     7
 10
457.47522190640768
 20
657.69023085895014
 30
0.0
  0
VERTEX
  5
ED9
  8
DATA
  6
CONTINUOUS
 62
     7
 10
458.27522190640769
 20
657.69023085895014
 30
0.0
  0
VERTEX
  5
EDA
  8
DATA
  6
CONTINUOUS
 62
     7
 10
458.27522190640769
 20
655.59023085895012
 30
0.0
  0
SEQEND
  5
EDB
  8
DATA
  6
CONTINUOUS
 62
     7
  0
POLYLINE
  5
442
  8
DATA
  6
CONTINUOUS
 62
     7
 66
     1
 10
0.0
 20
0.0
 30
0.0
  0
VERTEX
  5
EDC
  8
DATA
  6
CONTINUOUS
 62
     7
 10
458.27522190640769
 20
654.79023085895017
 30
0.0
  0
VERTEX
  5
EDD
  8
DATA
  6
CONTINUOUS
 62
     7
 10
458.27522190640769
 20
652.69023085895014
 30
0.0
  0
VERTEX
  5
EDE
  8
DATA
  6
CONTINUOUS
 62
     7
 10
457.47522190640768
 20
652.69023085895014
 30
0.0
  0
VERTEX
  5
EDF
  8
DATA
  6
CONTINUOUS
 62
     7
 10
457.47522190640768
 20
654.79023085895017
 30
0.0
  0
SEQEND
  5
EE0
  8
DATA
  6
CONTINUOUS
 62
     7
  0
POLYLINE
  5
449
  8
DATA
  6
CONTINUOUS
 62
     7
 66
     1
 10
0.0
 20
0.0
 30
0.0
 70
     1
  0
VERTEX
  5
EE1
  8
DATA
  6
CONTINUOUS
 62
     7
 10
458.73550633687933
 20
654.43080304830005
 30
0.0
  0
VERTEX
  5
EE2
  8
DATA
  6
CONTINUOUS
 62
     7
 10
459.73550633687938
 20
654.43080304830005
 30
0.0
  0
VERTEX
  5
EE3
  8
DATA
  6
CONTINUOUS
 62
     7
 10
459.73550633687938
 20
653.43080304830005
 30
0.0
  0
VERTEX
  5
EE4
  8
DATA
  6
CONTINUOUS
 62
     7
 10
458.73550633687933
 20
653.43080304830005
 30
0.0
  0
SEQEND
  5
EE5
  8
DATA
  6
CONTINUOUS
 62
     7
  0
POLYLINE
  5
450
  8
DATA
  6
CONTINUOUS
 62
     7
 66
     1
 10
0.0
 20
0.0
 30
0.0
 70
     1
  0
VERTEX
  5
EE6
  8
DATA
  6
CONTINUOUS
 62
     7
 10
456.01493747593599
 20
654.43080304830005
 30
0.0
  0
VERTEX
  5
EE7
  8
DATA
  6
CONTINUOUS
 62
     7
 10
457.01493747593599
 20
654.43080304830005
 30
0.0
  0
VERTEX
  5
EE8
  8
DATA
  6
CONTINUOUS
 62
     7
 10
457.01493747593599
 20
653.43080304830005
 30
0.0
  0
VERTEX
  5
EE9
  8
DATA
  6
CONTINUOUS
 62
     7
 10
456.01493747593599
 20
653.43080304830005
 30
0.0
  0
SEQEND
  5
EEA
  8
DATA
  6
CONTINUOUS
 62
     7
  0
POLYLINE
  5
457
  8
DATA
  6
CONTINUOUS
 62
     7
 66
     1
 10
0.0
 20
0.0
 30
0.0
 70
     1
  0
VERTEX
  5
EEB
  8
DATA
  6
CONTINUOUS
 62
     7
 10
458.73550633687933
 20
656.94965866960001
 30
0.0
  0
VERTEX
  5
EEC
  8
DATA
  6
CONTINUOUS
 62
     7
 10
459.73550633687938
 20
656.94965866960001
 30
0.0
  0
VERTEX
  5
EED
  8
DATA
  6
CONTINUOUS
 62
     7
 10
459.73550633687938
 20
655.94965866960001
 30
0.0
  0
VERTEX
  5
EEE
  8
DATA
  6
CONTINUOUS
 62
     7
 10
458.73550633687933
 20
655.94965866960001
 30
0.0
  0
SEQEND
  5
EEF
  8
DATA
  6
CONTINUOUS
 62
     7
  0
POLYLINE
  5
45E
  8
DATA
  6
CONTINUOUS
 62
     7
 66
     1
 10
0.0
 20
0.0
 30
0.0
 70
     1
  0
VERTEX
  5
EF0
  8
DATA
  6
CONTINUOUS
 62
     7
 10
456.01493747593599
 20
656.94965866960001
 30
0.0
  0
VERTEX
  5
EF1
  8
DATA
  6
CONTINUOUS
 62
     7
 10
457.01493747593599
 20
656.94965866960001
 30
0.0
  0
VERTEX
  5
EF2
  8
DATA
  6
CONTINUOUS
 62
     7
 10
457.01493747593599
 20
655.94965866960001
 30
0.0
  0
VERTEX
  5
EF3
  8
DATA
  6
CONTINUOUS
 62
     7
 10
456.01493747593599
 20
655.94965866960001
 30
0.0
  0
SEQEND
  5
EF4
  8
DATA
  6
CONTINUOUS
 62
     7
  0
LINE
  5
465
  8
DATA
  6
CONTINUOUS
 62
     7
 10
477.97059372435558
 20
652.36033916443625
 30
0.0
 11
477.41167652690319
 21
658.21033916443639
 31
0.0
  0
LINE
  5
466
  8
DATA
  6
CONTINUOUS
 62
     7
 10
454.07985008846077
 20
652.36033916443625
 30
0.0
 11
454.6387672859131
 21
658.21033916443639
 31
0.0
  0
ARC
  5
467
  8
DATA
  6
CONTINUOUS
 62
     7
 10
476.97512679360011
 20
652.26523085894996
 30
0.0
 40
1.0
 50
270.0
 51
5.4575534851074963
  0
ARC
  5
468
  8
DATA
  6
CONTINUOUS
 62
     7
 10
455.07531701921607
 20
652.26523085894996
 30
0.0
 40
0.9999999999999051
 50
174.54244651489191
 51
270.0
  0
ARC
  5
469
  8
DATA
  6
CONTINUOUS
 62
     7
 10
476.41620959614789
 20
658.11523085894999
 30
0.0
 40
1.0000000000000031
 50
5.457553485107554
 51
89.999999999999986
  0
ARC
  5
46A
  8
DATA
  6
CONTINUOUS
 62
     7
 10
455.6342342166684
 20
658.11523085894999
 30
0.0
 40
1.0
 50
90.0
 51
174.54244651489509
  0
CIRCLE
  5
46B
  8
DATA
  6
CONTINUOUS
 62
     7
 10
399.76932452468208
 20
655.19023085895014
 30
0.0
 40
1.175000000000068
  0
POLYLINE
  5
46C
  8
DATA
  6
CONTINUOUS
 62
     7
 66
     1
 10
0.0
 20
0.0
 30
0.0
 70
     1
  0
VERTEX
  5
EF5
  8
DATA
  6
CONTINUOUS
 62
     7
 10
399.76932452468208
 20
652.4902308589501
 30
0.0
  0
VERTEX
  5
EF6
  8
DATA
  6
CONTINUOUS
 62
     7
 10
397.43105593446421
 20
653.84023085895012
 30
0.0
  0
VERTEX
  5
EF7
  8
DATA
  6
CONTINUOUS
 62
     7
 10
397.43105593446421
 20
656.54023085895017
 30
0.0
  0
VERTEX
  5
EF8
  8
DATA
  6
CONTINUOUS
 62
     7
 10
399.76932452468208
 20
657.89023085894996
 30
0.0
  0
VERTEX
  5
EF9
  8
DATA
  6
CONTINUOUS
 62
     7
 10
402.1075931149
 20
656.54023085895017
 30
0.0
  0
VERTEX
  5
EFA
  8
DATA
  6
CONTINUOUS
 62
     7
 10
402.1075931149
 20
653.84023085895012
 30
0.0
  0
SEQEND
  5
EFB
  8
DATA
  6
CONTINUOUS
 62
     7
  0
CIRCLE
  5
475
  8
DATA
  6
CONTINUOUS
 62
     7
 10
432.26932452468242
 20
655.19023085895014
 30
0.0
 40
1.175000000000068
  0
POLYLINE
  5
476
  8
DATA
  6
CONTINUOUS
 62
     7
 66
     1
 10
0.0
 20
0.0
 30
0.0
 70
     1
  0
VERTEX
  5
EFC
  8
DATA
  6
CONTINUOUS
 62
     7
 10
432.26932452468242
 20
652.4902308589501
 30
0.0
  0
VERTEX
  5
EFD
  8
DATA
  6
CONTINUOUS
 62
     7
 10
429.93105593446461
 20
653.84023085895012
 30
0.0
  0
VERTEX
  5
EFE
  8
DATA
  6
CONTINUOUS
 62
     7
 10
429.93105593446461
 20
656.54023085895017
 30
0.0
  0
VERTEX
  5
EFF
  8
DATA
  6
CONTINUOUS
 62
     7
 10
432.26932452468242
 20
657.89023085894996
 30
0.0
  0
VERTEX
  5
F00
  8
DATA
  6
CONTINUOUS
 62
     7
 10
434.60759311490051
 20
656.54023085895017
 30
0.0
  0
VERTEX
  5
F01
  8
DATA
  6
CONTINUOUS
 62
     7
 10
434.60759311490051
 20
653.84023085895012
 30
0.0
  0
SEQEND
  5
F02
  8
DATA
  6
CONTINUOUS
 62
     7
  0
LINE
  5
47F
  8
DATA
  6
CONTINUOUS
 62
     7
 10
426.97512679360011
 20
651.26523085894996
 30
0.0
 11
405.07531701921607
 21
651.26523085894996
 31
0.0
  0
LINE
  5
480
  8
DATA
  6
CONTINUOUS
 62
     7
 10
405.6342342166684
 20
659.11523085894999
 30
0.0
 11
426.41620959614789
 21
659.11523085894999
 31
0.0
  0
POLYLINE
  5
481
  8
DATA
  6
CONTINUOUS
 62
     7
 66
     1
 10
0.0
 20
0.0
 30
0.0
 70
     1
  0
VERTEX
  5
F03
  8
DATA
  6
CONTINUOUS
 62
     7
 10
425.49528807758782
 20
655.95523085895013
 30
0.0
  0
VERTEX
  5
F04
  8
DATA
  6
CONTINUOUS
 62
     7
 10
427.02528807758767
 20
655.95523085895013
 30
0.0
  0
VERTEX
  5
F05
  8
DATA
  6
CONTINUOUS
 62
     7
 10
427.02528807758767
 20
654.42523085895004
 30
0.0
  0
VERTEX
  5
F06
  8
DATA
  6
CONTINUOUS
 62
     7
 10
425.49528807758782
 20
654.42523085895004
 30
0.0
  0
SEQEND
  5
F07
  8
DATA
  6
CONTINUOUS
 62
     7
  0
POLYLINE
  5
488
  8
DATA
  6
CONTINUOUS
 62
     7
 66
     1
 10
0.0
 20
0.0
 30
0.0
 70
     1
  0
VERTEX
  5
F08
  8
DATA
  6
CONTINUOUS
 62
     7
 10
423.4952880775877
 20
655.95523085895013
 30
0.0
  0
VERTEX
  5
F09
  8
DATA
  6
CONTINUOUS
 62
     7
 10
425.02528807758762
 20
655.95523085895013
 30
0.0
  0
VERTEX
  5
F0A
  8
DATA
  6
CONTINUOUS
 62
     7
 10
425.02528807758762
 20
654.42523085895004
 30
0.0
  0
VERTEX
  5
F0B
  8
DATA
  6
CONTINUOUS
 62
     7
 10
423.4952880775877
 20
654.42523085895004
 30
0.0
  0
SEQEND
  5
F0C
  8
DATA
  6
CONTINUOUS
 62
     7
  0
POLYLINE
  5
48F
  8
DATA
  6
CONTINUOUS
 62
     7
 66
     1
 10
0.0
 20
0.0
 30
0.0
 70
     1
  0
VERTEX
  5
F0D
  8
DATA
  6
CONTINUOUS
 62
     7
 10
421.4952880775877
 20
655.95523085895013
 30
0.0
  0
VERTEX
  5
F0E
  8
DATA
  6
CONTINUOUS
 62
     7
 10
423.02528807758767
 20
655.95523085895013
 30
0.0
  0
VERTEX
  5
F0F
  8
DATA
  6
CONTINUOUS
 62
     7
 10
423.02528807758767
 20
654.42523085895004
 30
0.0
  0
VERTEX
  5
F10
  8
DATA
  6
CONTINUOUS
 62
     7
 10
421.4952880775877
 20
654.42523085895004
 30
0.0
  0
SEQEND
  5
F11
  8
DATA
  6
CONTINUOUS
 62
     7
  0
POLYLINE
  5
496
  8
DATA
  6
CONTINUOUS
 62
     7
 66
     1
 10
0.0
 20
0.0
 30
0.0
 70
     1
  0
VERTEX
  5
F12
  8
DATA
  6
CONTINUOUS
 62
     7
 10
419.4952880775877
 20
655.95523085895013
 30
0.0
  0
VERTEX
  5
F13
  8
DATA
  6
CONTINUOUS
 62
     7
 10
421.02528807758767
 20
655.95523085895013
 30
0.0
  0
VERTEX
  5
F14
  8
DATA
  6
CONTINUOUS
 62
     7
 10
421.02528807758767
 20
654.42523085895004
 30
0.0
  0
VERTEX
  5
F15
  8
DATA
  6
CONTINUOUS
 62
     7
 10
419.4952880775877
 20
654.42523085895004
 30
0.0
  0
SEQEND
  5
F16
  8
DATA
  6
CONTINUOUS
 62
     7
  0
POLYLINE
  5
49D
  8
DATA
  6
CONTINUOUS
 62
     7
 66
     1
 10
0.0
 20
0.0
 30
0.0
 70
     1
  0
VERTEX
  5
F17
  8
DATA
  6
CONTINUOUS
 62
     7
 10
417.4952880775877
 20
655.95523085895013
 30
0.0
  0
VERTEX
  5
F18
  8
DATA
  6
CONTINUOUS
 62
     7
 10
419.02528807758767
 20
655.95523085895013
 30
0.0
  0
VERTEX
  5
F19
  8
DATA
  6
CONTINUOUS
 62
     7
 10
419.02528807758767
 20
654.42523085895004
 30
0.0
  0
VERTEX
  5
F1A
  8
DATA
  6
CONTINUOUS
 62
     7
 10
417.4952880775877
 20
654.42523085895004
 30
0.0
  0
SEQEND
  5
F1B
  8
DATA
  6
CONTINUOUS
 62
     7
  0
POLYLINE
  5
4A4
  8
DATA
  6
CONTINUOUS
 62
     7
 66
     1
 10
0.0
 20
0.0
 30
0.0
 70
     1
  0
VERTEX
  5
F1C
  8
DATA
  6
CONTINUOUS
 62
     7
 10
415.49528807758759
 20
655.95523085895013
 30
0.0
  0
VERTEX
  5
F1D
  8
DATA
  6
CONTINUOUS
 62
     7
 10
417.02528807758762
 20
655.95523085895013
 30
0.0
  0
VERTEX
  5
F1E
  8
DATA
  6
CONTINUOUS
 62
     7
 10
417.02528807758762
 20
654.42523085895004
 30
0.0
  0
VERTEX
  5
F1F
  8
DATA
  6
CONTINUOUS
 62
     7
 10
415.49528807758759
 20
654.42523085895004
 30
0.0
  0
SEQEND
  5
F20
  8
DATA
  6
CONTINUOUS
 62
     7
  0
POLYLINE
  5
4AB
  8
DATA
  6
CONTINUOUS
 62
     7
 66
     1
 10
0.0
 20
0.0
 30
0.0
 70
     1
  0
VERTEX
  5
F21
  8
DATA
  6
CONTINUOUS
 62
     7
 10
413.49528807758759
 20
655.95523085895013
 30
0.0
  0
VERTEX
  5
F22
  8
DATA
  6
CONTINUOUS
 62
     7
 10
415.02528807758767
 20
655.95523085895013
 30
0.0
  0
VERTEX
  5
F23
  8
DATA
  6
CONTINUOUS
 62
     7
 10
415.02528807758767
 20
654.42523085895004
 30
0.0
  0
VERTEX
  5
F24
  8
DATA
  6
CONTINUOUS
 62
     7
 10
413.49528807758759
 20
654.42523085895004
 30
0.0
  0
SEQEND
  5
F25
  8
DATA
  6
CONTINUOUS
 62
     7
  0
POLYLINE
  5
4B2
  8
DATA
  6
CONTINUOUS
 62
     7
 66
     1
 10
0.0
 20
0.0
 30
0.0
 70
     1
  0
VERTEX
  5
F26
  8
DATA
  6
CONTINUOUS
 62
     7
 10
411.4952880775873
 20
655.95523085895013
 30
0.0
  0
VERTEX
  5
F27
  8
DATA
  6
CONTINUOUS
 62
     7
 10
413.02528807758739
 20
655.95523085895013
 30
0.0
  0
VERTEX
  5
F28
  8
DATA
  6
CONTINUOUS
 62
     7
 10
413.02528807758739
 20
654.42523085895004
 30
0.0
  0
VERTEX
  5
F29
  8
DATA
  6
CONTINUOUS
 62
     7
 10
411.4952880775873
 20
654.42523085895004
 30
0.0
  0
SEQEND
  5
F2A
  8
DATA
  6
CONTINUOUS
 62
     7
  0
POLYLINE
  5
4B9
  8
DATA
  6
CONTINUOUS
 62
     7
 66
     1
 10
0.0
 20
0.0
 30
0.0
 70
     1
  0
VERTEX
  5
F2B
  8
DATA
  6
CONTINUOUS
 62
     7
 10
425.49528807758782
 20
653.95523085895002
 30
0.0
  0
VERTEX
  5
F2C
  8
DATA
  6
CONTINUOUS
 62
     7
 10
427.02528807758767
 20
653.95523085895002
 30
0.0
  0
VERTEX
  5
F2D
  8
DATA
  6
CONTINUOUS
 62
     7
 10
427.02528807758767
 20
652.42523085895016
 30
0.0
  0
VERTEX
  5
F2E
  8
DATA
  6
CONTINUOUS
 62
     7
 10
425.49528807758782
 20
652.42523085895016
 30
0.0
  0
SEQEND
  5
F2F
  8
DATA
  6
CONTINUOUS
 62
     7
  0
POLYLINE
  5
4C0
  8
DATA
  6
CONTINUOUS
 62
     7
 66
     1
 10
0.0
 20
0.0
 30
0.0
 70
     1
  0
VERTEX
  5
F30
  8
DATA
  6
CONTINUOUS
 62
     7
 10
423.4952880775877
 20
653.95523085895002
 30
0.0
  0
VERTEX
  5
F31
  8
DATA
  6
CONTINUOUS
 62
     7
 10
425.02528807758762
 20
653.95523085895002
 30
0.0
  0
VERTEX
  5
F32
  8
DATA
  6
CONTINUOUS
 62
     7
 10
425.02528807758762
 20
652.42523085895016
 30
0.0
  0
VERTEX
  5
F33
  8
DATA
  6
CONTINUOUS
 62
     7
 10
423.4952880775877
 20
652.42523085895016
 30
0.0
  0
SEQEND
  5
F34
  8
DATA
  6
CONTINUOUS
 62
     7
  0
POLYLINE
  5
4C7
  8
DATA
  6
CONTINUOUS
 62
     7
 66
     1
 10
0.0
 20
0.0
 30
0.0
 70
     1
  0
VERTEX
  5
F35
  8
DATA
  6
CONTINUOUS
 62
     7
 10
421.4952880775877
 20
653.95523085895002
 30
0.0
  0
VERTEX
  5
F36
  8
DATA
  6
CONTINUOUS
 62
     7
 10
423.02528807758767
 20
653.95523085895002
 30
0.0
  0
VERTEX
  5
F37
  8
DATA
  6
CONTINUOUS
 62
     7
 10
423.02528807758767
 20
652.42523085895016
 30
0.0
  0
VERTEX
  5
F38
  8
DATA
  6
CONTINUOUS
 62
     7
 10
421.4952880775877
 20
652.42523085895016
 30
0.0
  0
SEQEND
  5
F39
  8
DATA
  6
CONTINUOUS
 62
     7
  0
POLYLINE
  5
4CE
  8
DATA
  6
CONTINUOUS
 62
     7
 66
     1
 10
0.0
 20
0.0
 30
0.0
 70
     1
  0
VERTEX
  5
F3A
  8
DATA
  6
CONTINUOUS
 62
     7
 10
419.4952880775877
 20
653.95523085895002
 30
0.0
  0
VERTEX
  5
F3B
  8
DATA
  6
CONTINUOUS
 62
     7
 10
421.02528807758767
 20
653.95523085895002
 30
0.0
  0
VERTEX
  5
F3C
  8
DATA
  6
CONTINUOUS
 62
     7
 10
421.02528807758767
 20
652.42523085895016
 30
0.0
  0
VERTEX
  5
F3D
  8
DATA
  6
CONTINUOUS
 62
     7
 10
419.4952880775877
 20
652.42523085895016
 30
0.0
  0
SEQEND
  5
F3E
  8
DATA
  6
CONTINUOUS
 62
     7
  0
POLYLINE
  5
4D5
  8
DATA
  6
CONTINUOUS
 62
     7
 66
     1
 10
0.0
 20
0.0
 30
0.0
 70
     1
  0
VERTEX
  5
F3F
  8
DATA
  6
CONTINUOUS
 62
     7
 10
417.4952880775877
 20
653.95523085895002
 30
0.0
  0
VERTEX
  5
F40
  8
DATA
  6
CONTINUOUS
 62
     7
 10
419.02528807758767
 20
653.95523085895002
 30
0.0
  0
VERTEX
  5
F41
  8
DATA
  6
CONTINUOUS
 62
     7
 10
419.02528807758767
 20
652.42523085895016
 30
0.0
  0
VERTEX
  5
F42
  8
DATA
  6
CONTINUOUS
 62
     7
 10
417.4952880775877
 20
652.42523085895016
 30
0.0
  0
SEQEND
  5
F43
  8
DATA
  6
CONTINUOUS
 62
     7
  0
POLYLINE
  5
4DC
  8
DATA
  6
CONTINUOUS
 62
     7
 66
     1
 10
0.0
 20
0.0
 30
0.0
 70
     1
  0
VERTEX
  5
F44
  8
DATA
  6
CONTINUOUS
 62
     7
 10
415.49528807758759
 20
653.95523085895002
 30
0.0
  0
VERTEX
  5
F45
  8
DATA
  6
CONTINUOUS
 62
     7
 10
417.02528807758762
 20
653.95523085895002
 30
0.0
  0
VERTEX
  5
F46
  8
DATA
  6
CONTINUOUS
 62
     7
 10
417.02528807758762
 20
652.42523085895016
 30
0.0
  0
VERTEX
  5
F47
  8
DATA
  6
CONTINUOUS
 62
     7
 10
415.49528807758759
 20
652.42523085895016
 30
0.0
  0
SEQEND
  5
F48
  8
DATA
  6
CONTINUOUS
 62
     7
  0
POLYLINE
  5
4E3
  8
DATA
  6
CONTINUOUS
 62
     7
 66
     1
 10
0.0
 20
0.0
 30
0.0
 70
     1
  0
VERTEX
  5
F49
  8
DATA
  6
CONTINUOUS
 62
     7
 10
413.49528807758759
 20
653.95523085895002
 30
0.0
  0
VERTEX
  5
F4A
  8
DATA
  6
CONTINUOUS
 62
     7
 10
415.02528807758767
 20
653.95523085895002
 30
0.0
  0
VERTEX
  5
F4B
  8
DATA
  6
CONTINUOUS
 62
     7
 10
415.02528807758767
 20
652.42523085895016
 30
0.0
  0
VERTEX
  5
F4C
  8
DATA
  6
CONTINUOUS
 62
     7
 10
413.49528807758759
 20
652.42523085895016
 30
0.0
  0
SEQEND
  5
F4D
  8
DATA
  6
CONTINUOUS
 62
     7
  0
POLYLINE
  5
4EA
  8
DATA
  6
CONTINUOUS
 62
     7
 66
     1
 10
0.0
 20
0.0
 30
0.0
 70
     1
  0
VERTEX
  5
F4E
  8
DATA
  6
CONTINUOUS
 62
     7
 10
411.4952880775873
 20
653.95523085895002
 30
0.0
  0
VERTEX
  5
F4F
  8
DATA
  6
CONTINUOUS
 62
     7
 10
413.02528807758739
 20
653.95523085895002
 30
0.0
  0
VERTEX
  5
F50
  8
DATA
  6
CONTINUOUS
 62
     7
 10
413.02528807758739
 20
652.42523085895016
 30
0.0
  0
VERTEX
  5
F51
  8
DATA
  6
CONTINUOUS
 62
     7
 10
411.4952880775873
 20
652.42523085895016
 30
0.0
  0
SEQEND
  5
F52
  8
DATA
  6
CONTINUOUS
 62
     7
  0
POLYLINE
  5
4F1
  8
DATA
  6
CONTINUOUS
 62
     7
 66
     1
 10
0.0
 20
0.0
 30
0.0
 70
     1
  0
VERTEX
  5
F53
  8
DATA
  6
CONTINUOUS
 62
     7
 10
425.49528807758782
 20
657.95523085895013
 30
0.0
  0
VERTEX
  5
F54
  8
DATA
  6
CONTINUOUS
 62
     7
 10
427.02528807758767
 20
657.95523085895013
 30
0.0
  0
VERTEX
  5
F55
  8
DATA
  6
CONTINUOUS
 62
     7
 10
427.02528807758767
 20
656.42523085895016
 30
0.0
  0
VERTEX
  5
F56
  8
DATA
  6
CONTINUOUS
 62
     7
 10
425.49528807758782
 20
656.42523085895016
 30
0.0
  0
SEQEND
  5
F57
  8
DATA
  6
CONTINUOUS
 62
     7
  0
POLYLINE
  5
4F8
  8
DATA
  6
CONTINUOUS
 62
     7
 66
     1
 10
0.0
 20
0.0
 30
0.0
 70
     1
  0
VERTEX
  5
F58
  8
DATA
  6
CONTINUOUS
 62
     7
 10
423.4952880775877
 20
657.95523085895013
 30
0.0
  0
VERTEX
  5
F59
  8
DATA
  6
CONTINUOUS
 62
     7
 10
425.02528807758762
 20
657.95523085895013
 30
0.0
  0
VERTEX
  5
F5A
  8
DATA
  6
CONTINUOUS
 62
     7
 10
425.02528807758762
 20
656.42523085895016
 30
0.0
  0
VERTEX
  5
F5B
  8
DATA
  6
CONTINUOUS
 62
     7
 10
423.4952880775877
 20
656.42523085895016
 30
0.0
  0
SEQEND
  5
F5C
  8
DATA
  6
CONTINUOUS
 62
     7
  0
POLYLINE
  5
4FF
  8
DATA
  6
CONTINUOUS
 62
     7
 66
     1
 10
0.0
 20
0.0
 30
0.0
 70
     1
  0
VERTEX
  5
F5D
  8
DATA
  6
CONTINUOUS
 62
     7
 10
421.4952880775877
 20
657.95523085895013
 30
0.0
  0
VERTEX
  5
F5E
  8
DATA
  6
CONTINUOUS
 62
     7
 10
423.02528807758767
 20
657.95523085895013
 30
0.0
  0
VERTEX
  5
F5F
  8
DATA
  6
CONTINUOUS
 62
     7
 10
423.02528807758767
 20
656.42523085895016
 30
0.0
  0
VERTEX
  5
F60
  8
DATA
  6
CONTINUOUS
 62
     7
 10
421.4952880775877
 20
656.42523085895016
 30
0.0
  0
SEQEND
  5
F61
  8
DATA
  6
CONTINUOUS
 62
     7
  0
POLYLINE
  5
506
  8
DATA
  6
CONTINUOUS
 62
     7
 66
     1
 10
0.0
 20
0.0
 30
0.0
 70
     1
  0
VERTEX
  5
F62
  8
DATA
  6
CONTINUOUS
 62
     7
 10
419.4952880775877
 20
657.95523085895013
 30
0.0
  0
VERTEX
  5
F63
  8
DATA
  6
CONTINUOUS
 62
     7
 10
421.02528807758767
 20
657.95523085895013
 30
0.0
  0
VERTEX
  5
F64
  8
DATA
  6
CONTINUOUS
 62
     7
 10
421.02528807758767
 20
656.42523085895016
 30
0.0
  0
VERTEX
  5
F65
  8
DATA
  6
CONTINUOUS
 62
     7
 10
419.4952880775877
 20
656.42523085895016
 30
0.0
  0
SEQEND
  5
F66
  8
DATA
  6
CONTINUOUS
 62
     7
  0
POLYLINE
  5
50D
  8
DATA
  6
CONTINUOUS
 62
     7
 66
     1
 10
0.0
 20
0.0
 30
0.0
 70
     1
  0
VERTEX
  5
F67
  8
DATA
  6
CONTINUOUS
 62
     7
 10
417.4952880775877
 20
657.95523085895013
 30
0.0
  0
VERTEX
  5
F68
  8
DATA
  6
CONTINUOUS
 62
     7
 10
419.02528807758767
 20
657.95523085895013
 30
0.0
  0
VERTEX
  5
F69
  8
DATA
  6
CONTINUOUS
 62
     7
 10
419.02528807758767
 20
656.42523085895016
 30
0.0
  0
VERTEX
  5
F6A
  8
DATA
  6
CONTINUOUS
 62
     7
 10
417.4952880775877
 20
656.42523085895016
 30
0.0
  0
SEQEND
  5
F6B
  8
DATA
  6
CONTINUOUS
 62
     7
  0
POLYLINE
  5
514
  8
DATA
  6
CONTINUOUS
 62
     7
 66
     1
 10
0.0
 20
0.0
 30
0.0
 70
     1
  0
VERTEX
  5
F6C
  8
DATA
  6
CONTINUOUS
 62
     7
 10
415.49528807758759
 20
657.95523085895013
 30
0.0
  0
VERTEX
  5
F6D
  8
DATA
  6
CONTINUOUS
 62
     7
 10
417.02528807758762
 20
657.95523085895013
 30
0.0
  0
VERTEX
  5
F6E
  8
DATA
  6
CONTINUOUS
 62
     7
 10
417.02528807758762
 20
656.42523085895016
 30
0.0
  0
VERTEX
  5
F6F
  8
DATA
  6
CONTINUOUS
 62
     7
 10
415.49528807758759
 20
656.42523085895016
 30
0.0
  0
SEQEND
  5
F70
  8
DATA
  6
CONTINUOUS
 62
     7
  0
POLYLINE
  5
51B
  8
DATA
  6
CONTINUOUS
 62
     7
 66
     1
 10
0.0
 20
0.0
 30
0.0
 70
     1
  0
VERTEX
  5
F71
  8
DATA
  6
CONTINUOUS
 62
     7
 10
413.49528807758759
 20
657.95523085895013
 30
0.0
  0
VERTEX
  5
F72
  8
DATA
  6
CONTINUOUS
 62
     7
 10
415.02528807758767
 20
657.95523085895013
 30
0.0
  0
VERTEX
  5
F73
  8
DATA
  6
CONTINUOUS
 62
     7
 10
415.02528807758767
 20
656.42523085895016
 30
0.0
  0
VERTEX
  5
F74
  8
DATA
  6
CONTINUOUS
 62
     7
 10
413.49528807758759
 20
656.42523085895016
 30
0.0
  0
SEQEND
  5
F75
  8
DATA
  6
CONTINUOUS
 62
     7
  0
POLYLINE
  5
522
  8
DATA
  6
CONTINUOUS
 62
     7
 66
     1
 10
0.0
 20
0.0
 30
0.0
 70
     1
  0
VERTEX
  5
F76
  8
DATA
  6
CONTINUOUS
 62
     7
 10
411.4952880775873
 20
657.95523085895013
 30
0.0
  0
VERTEX
  5
F77
  8
DATA
  6
CONTINUOUS
 62
     7
 10
413.02528807758739
 20
657.95523085895013
 30
0.0
  0
VERTEX
  5
F78
  8
DATA
  6
CONTINUOUS
 62
     7
 10
413.02528807758739
 20
656.42523085895016
 30
0.0
  0
VERTEX
  5
F79
  8
DATA
  6
CONTINUOUS
 62
     7
 10
411.4952880775873
 20
656.42523085895016
 30
0.0
  0
SEQEND
  5
F7A
  8
DATA
  6
CONTINUOUS
 62
     7
  0
POLYLINE
  5
529
  8
DATA
  6
CONTINUOUS
 62
     7
 66
     1
 10
0.0
 20
0.0
 30
0.0
  0
VERTEX
  5
F7B
  8
DATA
  6
CONTINUOUS
 62
     7
 10
407.47522190640768
 20
654.79023085895017
 30
0.0
  0
VERTEX
  5
F7C
  8
DATA
  6
CONTINUOUS
 62
     7
 10
405.37522190640777
 20
654.79023085895017
 30
0.0
  0
VERTEX
  5
F7D
  8
DATA
  6
CONTINUOUS
 62
     7
 10
405.37522190640777
 20
655.59023085895012
 30
0.0
  0
VERTEX
  5
F7E
  8
DATA
  6
CONTINUOUS
 62
     7
 10
407.47522190640768
 20
655.59023085895012
 30
0.0
  0
SEQEND
  5
F7F
  8
DATA
  6
CONTINUOUS
 62
     7
  0
POLYLINE
  5
530
  8
DATA
  6
CONTINUOUS
 62
     7
 66
     1
 10
0.0
 20
0.0
 30
0.0
  0
VERTEX
  5
F80
  8
DATA
  6
CONTINUOUS
 62
     7
 10
408.27522190640769
 20
655.59023085895012
 30
0.0
  0
VERTEX
  5
F81
  8
DATA
  6
CONTINUOUS
 62
     7
 10
410.37522190640789
 20
655.59023085895012
 30
0.0
  0
VERTEX
  5
F82
  8
DATA
  6
CONTINUOUS
 62
     7
 10
410.37522190640789
 20
654.79023085895017
 30
0.0
  0
VERTEX
  5
F83
  8
DATA
  6
CONTINUOUS
 62
     7
 10
408.27522190640769
 20
654.79023085895017
 30
0.0
  0
SEQEND
  5
F84
  8
DATA
  6
CONTINUOUS
 62
     7
  0
POLYLINE
  5
537
  8
DATA
  6
CONTINUOUS
 62
     7
 66
     1
 10
0.0
 20
0.0
 30
0.0
  0
VERTEX
  5
F85
  8
DATA
  6
CONTINUOUS
 62
     7
 10
407.47522190640768
 20
655.59023085895012
 30
0.0
  0
VERTEX
  5
F86
  8
DATA
  6
CONTINUOUS
 62
     7
 10
407.47522190640768
 20
657.69023085895014
 30
0.0
  0
VERTEX
  5
F87
  8
DATA
  6
CONTINUOUS
 62
     7
 10
408.27522190640769
 20
657.69023085895014
 30
0.0
  0
VERTEX
  5
F88
  8
DATA
  6
CONTINUOUS
 62
     7
 10
408.27522190640769
 20
655.59023085895012
 30
0.0
  0
SEQEND
  5
F89
  8
DATA
  6
CONTINUOUS
 62
     7
  0
POLYLINE
  5
53E
  8
DATA
  6
CONTINUOUS
 62
     7
 66
     1
 10
0.0
 20
0.0
 30
0.0
  0
VERTEX
  5
F8A
  8
DATA
  6
CONTINUOUS
 62
     7
 10
408.27522190640769
 20
654.79023085895017
 30
0.0
  0
VERTEX
  5
F8B
  8
DATA
  6
CONTINUOUS
 62
     7
 10
408.27522190640769
 20
652.69023085895014
 30
0.0
  0
VERTEX
  5
F8C
  8
DATA
  6
CONTINUOUS
 62
     7
 10
407.47522190640768
 20
652.69023085895014
 30
0.0
  0
VERTEX
  5
F8D
  8
DATA
  6
CONTINUOUS
 62
     7
 10
407.47522190640768
 20
654.79023085895017
 30
0.0
  0
SEQEND
  5
F8E
  8
DATA
  6
CONTINUOUS
 62
     7
  0
POLYLINE
  5
545
  8
DATA
  6
CONTINUOUS
 62
     7
 66
     1
 10
0.0
 20
0.0
 30
0.0
 70
     1
  0
VERTEX
  5
F8F
  8
DATA
  6
CONTINUOUS
 62
     7
 10
408.73550633687933
 20
654.43080304830005
 30
0.0
  0
VERTEX
  5
F90
  8
DATA
  6
CONTINUOUS
 62
     7
 10
409.73550633687938
 20
654.43080304830005
 30
0.0
  0
VERTEX
  5
F91
  8
DATA
  6
CONTINUOUS
 62
     7
 10
409.73550633687938
 20
653.43080304830005
 30
0.0
  0
VERTEX
  5
F92
  8
DATA
  6
CONTINUOUS
 62
     7
 10
408.73550633687933
 20
653.43080304830005
 30
0.0
  0
SEQEND
  5
F93
  8
DATA
  6
CONTINUOUS
 62
     7
  0
POLYLINE
  5
54C
  8
DATA
  6
CONTINUOUS
 62
     7
 66
     1
 10
0.0
 20
0.0
 30
0.0
 70
     1
  0
VERTEX
  5
F94
  8
DATA
  6
CONTINUOUS
 62
     7
 10
406.01493747593599
 20
654.43080304830005
 30
0.0
  0
VERTEX
  5
F95
  8
DATA
  6
CONTINUOUS
 62
     7
 10
407.01493747593599
 20
654.43080304830005
 30
0.0
  0
VERTEX
  5
F96
  8
DATA
  6
CONTINUOUS
 62
     7
 10
407.01493747593599
 20
653.43080304830005
 30
0.0
  0
VERTEX
  5
F97
  8
DATA
  6
CONTINUOUS
 62
     7
 10
406.01493747593599
 20
653.43080304830005
 30
0.0
  0
SEQEND
  5
F98
  8
DATA
  6
CONTINUOUS
 62
     7
  0
POLYLINE
  5
553
  8
DATA
  6
CONTINUOUS
 62
     7
 66
     1
 10
0.0
 20
0.0
 30
0.0
 70
     1
  0
VERTEX
  5
F99
  8
DATA
  6
CONTINUOUS
 62
     7
 10
408.73550633687933
 20
656.94965866960001
 30
0.0
  0
VERTEX
  5
F9A
  8
DATA
  6
CONTINUOUS
 62
     7
 10
409.73550633687938
 20
656.94965866960001
 30
0.0
  0
VERTEX
  5
F9B
  8
DATA
  6
CONTINUOUS
 62
     7
 10
409.73550633687938
 20
655.94965866960001
 30
0.0
  0
VERTEX
  5
F9C
  8
DATA
  6
CONTINUOUS
 62
     7
 10
408.73550633687933
 20
655.94965866960001
 30
0.0
  0
SEQEND
  5
F9D
  8
DATA
  6
CONTINUOUS
 62
     7
  0
POLYLINE
  5
55A
  8
DATA
  6
CONTINUOUS
 62
     7
 66
     1
 10
0.0
 20
0.0
 30
0.0
 70
     1
  0
VERTEX
  5
F9E
  8
DATA
  6
CONTINUOUS
 62
     7
 10
406.01493747593599
 20
656.94965866960001
 30
0.0
  0
VERTEX
  5
F9F
  8
DATA
  6
CONTINUOUS
 62
     7
 10
407.01493747593599
 20
656.94965866960001
 30
0.0
  0
VERTEX
  5
FA0
  8
DATA
  6
CONTINUOUS
 62
     7
 10
407.01493747593599
 20
655.94965866960001
 30
0.0
  0
VERTEX
  5
FA1
  8
DATA
  6
CONTINUOUS
 62
     7
 10
406.01493747593599
 20
655.94965866960001
 30
0.0
  0
SEQEND
  5
FA2
  8
DATA
  6
CONTINUOUS
 62
     7
  0
LINE
  5
561
  8
DATA
  6
CONTINUOUS
 62
     7
 10
427.97059372435558
 20
652.36033916443625
 30
0.0
 11
427.41167652690319
 21
658.21033916443639
 31
0.0
  0
LINE
  5
562
  8
DATA
  6
CONTINUOUS
 62
     7
 10
404.07985008846077
 20
652.36033916443625
 30
0.0
 11
404.6387672859131
 21
658.21033916443639
 31
0.0
  0
ARC
  5
563
  8
DATA
  6
CONTINUOUS
 62
     7
 10
426.97512679360011
 20
652.26523085894996
 30
0.0
 40
1.0
 50
270.0
 51
5.4575534851074963
  0
ARC
  5
564
  8
DATA
  6
CONTINUOUS
 62
     7
 10
405.07531701921607
 20
652.26523085894996
 30
0.0
 40
0.9999999999998908
 50
174.54244651489179
 51
270.0
  0
ARC
  5
565
  8
DATA
  6
CONTINUOUS
 62
     7
 10
426.41620959614789
 20
658.11523085894999
 30
0.0
 40
1.0000000000000031
 50
5.457553485107554
 51
89.999999999999986
  0
ARC
  5
566
  8
DATA
  6
CONTINUOUS
 62
     7
 10
405.6342342166684
 20
658.11523085894999
 30
0.0
 40
1.0
 50
90.0
 51
174.54244651489509
  0
CIRCLE
  5
567
  8
DATA
  6
CONTINUOUS
 62
     7
 10
349.76932452468208
 20
655.19023085895014
 30
0.0
 40
1.175000000000068
  0
POLYLINE
  5
568
  8
DATA
  6
CONTINUOUS
 62
     7
 66
     1
 10
0.0
 20
0.0
 30
0.0
 70
     1
  0
VERTEX
  5
FA3
  8
DATA
  6
CONTINUOUS
 62
     7
 10
349.76932452468208
 20
652.4902308589501
 30
0.0
  0
VERTEX
  5
FA4
  8
DATA
  6
CONTINUOUS
 62
     7
 10
347.4310559344641
 20
653.84023085895012
 30
0.0
  0
VERTEX
  5
FA5
  8
DATA
  6
CONTINUOUS
 62
     7
 10
347.4310559344641
 20
656.54023085895017
 30
0.0
  0
VERTEX
  5
FA6
  8
DATA
  6
CONTINUOUS
 62
     7
 10
349.76932452468208
 20
657.89023085894996
 30
0.0
  0
VERTEX
  5
FA7
  8
DATA
  6
CONTINUOUS
 62
     7
 10
352.10759311490011
 20
656.54023085895017
 30
0.0
  0
VERTEX
  5
FA8
  8
DATA
  6
CONTINUOUS
 62
     7
 10
352.10759311490011
 20
653.84023085895012
 30
0.0
  0
SEQEND
  5
FA9
  8
DATA
  6
CONTINUOUS
 62
     7
  0
CIRCLE
  5
571
  8
DATA
  6
CONTINUOUS
 62
     7
 10
382.26932452468247
 20
655.19023085895014
 30
0.0
 40
1.175000000000068
  0
POLYLINE
  5
572
  8
DATA
  6
CONTINUOUS
 62
     7
 66
     1
 10
0.0
 20
0.0
 30
0.0
 70
     1
  0
VERTEX
  5
FAA
  8
DATA
  6
CONTINUOUS
 62
     7
 10
382.26932452468247
 20
652.4902308589501
 30
0.0
  0
VERTEX
  5
FAB
  8
DATA
  6
CONTINUOUS
 62
     7
 10
379.93105593446472
 20
653.84023085895012
 30
0.0
  0
VERTEX
  5
FAC
  8
DATA
  6
CONTINUOUS
 62
     7
 10
379.93105593446472
 20
656.54023085895017
 30
0.0
  0
VERTEX
  5
FAD
  8
DATA
  6
CONTINUOUS
 62
     7
 10
382.26932452468247
 20
657.89023085894996
 30
0.0
  0
VERTEX
  5
FAE
  8
DATA
  6
CONTINUOUS
 62
     7
 10
384.60759311490062
 20
656.54023085895017
 30
0.0
  0
VERTEX
  5
FAF
  8
DATA
  6
CONTINUOUS
 62
     7
 10
384.60759311490062
 20
653.84023085895012
 30
0.0
  0
SEQEND
  5
FB0
  8
DATA
  6
CONTINUOUS
 62
     7
  0
LINE
  5
57B
  8
DATA
  6
CONTINUOUS
 62
     7
 10
376.97512679360023
 20
651.26523085894996
 30
0.0
 11
355.07531701921607
 21
651.26523085894996
 31
0.0
  0
LINE
  5
57C
  8
DATA
  6
CONTINUOUS
 62
     7
 10
355.6342342166684
 20
659.11523085894999
 30
0.0
 11
376.41620959614789
 21
659.11523085894999
 31
0.0
  0
POLYLINE
  5
57D
  8
DATA
  6
CONTINUOUS
 62
     7
 66
     1
 10
0.0
 20
0.0
 30
0.0
 70
     1
  0
VERTEX
  5
FB1
  8
DATA
  6
CONTINUOUS
 62
     7
 10
375.49528807758782
 20
655.95523085895013
 30
0.0
  0
VERTEX
  5
FB2
  8
DATA
  6
CONTINUOUS
 62
     7
 10
377.02528807758767
 20
655.95523085895013
 30
0.0
  0
VERTEX
  5
FB3
  8
DATA
  6
CONTINUOUS
 62
     7
 10
377.02528807758767
 20
654.42523085895004
 30
0.0
  0
VERTEX
  5
FB4
  8
DATA
  6
CONTINUOUS
 62
     7
 10
375.49528807758782
 20
654.42523085895004
 30
0.0
  0
SEQEND
  5
FB5
  8
DATA
  6
CONTINUOUS
 62
     7
  0
POLYLINE
  5
584
  8
DATA
  6
CONTINUOUS
 62
     7
 66
     1
 10
0.0
 20
0.0
 30
0.0
 70
     1
  0
VERTEX
  5
FB6
  8
DATA
  6
CONTINUOUS
 62
     7
 10
373.49528807758782
 20
655.95523085895013
 30
0.0
  0
VERTEX
  5
FB7
  8
DATA
  6
CONTINUOUS
 62
     7
 10
375.02528807758767
 20
655.95523085895013
 30
0.0
  0
VERTEX
  5
FB8
  8
DATA
  6
CONTINUOUS
 62
     7
 10
375.02528807758767
 20
654.42523085895004
 30
0.0
  0
VERTEX
  5
FB9
  8
DATA
  6
CONTINUOUS
 62
     7
 10
373.49528807758782
 20
654.42523085895004
 30
0.0
  0
SEQEND
  5
FBA
  8
DATA
  6
CONTINUOUS
 62
     7
  0
POLYLINE
  5
58B
  8
DATA
  6
CONTINUOUS
 62
     7
 66
     1
 10
0.0
 20
0.0
 30
0.0
 70
     1
  0
VERTEX
  5
FBB
  8
DATA
  6
CONTINUOUS
 62
     7
 10
371.49528807758782
 20
655.95523085895013
 30
0.0
  0
VERTEX
  5
FBC
  8
DATA
  6
CONTINUOUS
 62
     7
 10
373.02528807758767
 20
655.95523085895013
 30
0.0
  0
VERTEX
  5
FBD
  8
DATA
  6
CONTINUOUS
 62
     7
 10
373.02528807758767
 20
654.42523085895004
 30
0.0
  0
VERTEX
  5
FBE
  8
DATA
  6
CONTINUOUS
 62
     7
 10
371.49528807758782
 20
654.42523085895004
 30
0.0
  0
SEQEND
  5
FBF
  8
DATA
  6
CONTINUOUS
 62
     7
  0
POLYLINE
  5
592
  8
DATA
  6
CONTINUOUS
 62
     7
 66
     1
 10
0.0
 20
0.0
 30
0.0
 70
     1
  0
VERTEX
  5
FC0
  8
DATA
  6
CONTINUOUS
 62
     7
 10
369.49528807758782
 20
655.95523085895013
 30
0.0
  0
VERTEX
  5
FC1
  8
DATA
  6
CONTINUOUS
 62
     7
 10
371.02528807758767
 20
655.95523085895013
 30
0.0
  0
VERTEX
  5
FC2
  8
DATA
  6
CONTINUOUS
 62
     7
 10
371.02528807758767
 20
654.42523085895004
 30
0.0
  0
VERTEX
  5
FC3
  8
DATA
  6
CONTINUOUS
 62
     7
 10
369.49528807758782
 20
654.42523085895004
 30
0.0
  0
SEQEND
  5
FC4
  8
DATA
  6
CONTINUOUS
 62
     7
  0
POLYLINE
  5
599
  8
DATA
  6
CONTINUOUS
 62
     7
 66
     1
 10
0.0
 20
0.0
 30
0.0
 70
     1
  0
VERTEX
  5
FC5
  8
DATA
  6
CONTINUOUS
 62
     7
 10
367.49528807758782
 20
655.95523085895013
 30
0.0
  0
VERTEX
  5
FC6
  8
DATA
  6
CONTINUOUS
 62
     7
 10
369.02528807758767
 20
655.95523085895013
 30
0.0
  0
VERTEX
  5
FC7
  8
DATA
  6
CONTINUOUS
 62
     7
 10
369.02528807758767
 20
654.42523085895004
 30
0.0
  0
VERTEX
  5
FC8
  8
DATA
  6
CONTINUOUS
 62
     7
 10
367.49528807758782
 20
654.42523085895004
 30
0.0
  0
SEQEND
  5
FC9
  8
DATA
  6
CONTINUOUS
 62
     7
  0
POLYLINE
  5
5A0
  8
DATA
  6
CONTINUOUS
 62
     7
 66
     1
 10
0.0
 20
0.0
 30
0.0
 70
     1
  0
VERTEX
  5
FCA
  8
DATA
  6
CONTINUOUS
 62
     7
 10
365.49528807758759
 20
655.95523085895013
 30
0.0
  0
VERTEX
  5
FCB
  8
DATA
  6
CONTINUOUS
 62
     7
 10
367.02528807758767
 20
655.95523085895013
 30
0.0
  0
VERTEX
  5
FCC
  8
DATA
  6
CONTINUOUS
 62
     7
 10
367.02528807758767
 20
654.42523085895004
 30
0.0
  0
VERTEX
  5
FCD
  8
DATA
  6
CONTINUOUS
 62
     7
 10
365.49528807758759
 20
654.42523085895004
 30
0.0
  0
SEQEND
  5
FCE
  8
DATA
  6
CONTINUOUS
 62
     7
  0
POLYLINE
  5
5A7
  8
DATA
  6
CONTINUOUS
 62
     7
 66
     1
 10
0.0
 20
0.0
 30
0.0
 70
     1
  0
VERTEX
  5
FCF
  8
DATA
  6
CONTINUOUS
 62
     7
 10
363.49528807758759
 20
655.95523085895013
 30
0.0
  0
VERTEX
  5
FD0
  8
DATA
  6
CONTINUOUS
 62
     7
 10
365.02528807758767
 20
655.95523085895013
 30
0.0
  0
VERTEX
  5
FD1
  8
DATA
  6
CONTINUOUS
 62
     7
 10
365.02528807758767
 20
654.42523085895004
 30
0.0
  0
VERTEX
  5
FD2
  8
DATA
  6
CONTINUOUS
 62
     7
 10
363.49528807758759
 20
654.42523085895004
 30
0.0
  0
SEQEND
  5
FD3
  8
DATA
  6
CONTINUOUS
 62
     7
  0
POLYLINE
  5
5AE
  8
DATA
  6
CONTINUOUS
 62
     7
 66
     1
 10
0.0
 20
0.0
 30
0.0
 70
     1
  0
VERTEX
  5
FD4
  8
DATA
  6
CONTINUOUS
 62
     7
 10
361.49528807758742
 20
655.95523085895013
 30
0.0
  0
VERTEX
  5
FD5
  8
DATA
  6
CONTINUOUS
 62
     7
 10
363.0252880775875
 20
655.95523085895013
 30
0.0
  0
VERTEX
  5
FD6
  8
DATA
  6
CONTINUOUS
 62
     7
 10
363.0252880775875
 20
654.42523085895004
 30
0.0
  0
VERTEX
  5
FD7
  8
DATA
  6
CONTINUOUS
 62
     7
 10
361.49528807758742
 20
654.42523085895004
 30
0.0
  0
SEQEND
  5
FD8
  8
DATA
  6
CONTINUOUS
 62
     7
  0
POLYLINE
  5
5B5
  8
DATA
  6
CONTINUOUS
 62
     7
 66
     1
 10
0.0
 20
0.0
 30
0.0
 70
     1
  0
VERTEX
  5
FD9
  8
DATA
  6
CONTINUOUS
 62
     7
 10
375.49528807758782
 20
653.95523085895002
 30
0.0
  0
VERTEX
  5
FDA
  8
DATA
  6
CONTINUOUS
 62
     7
 10
377.02528807758767
 20
653.95523085895002
 30
0.0
  0
VERTEX
  5
FDB
  8
DATA
  6
CONTINUOUS
 62
     7
 10
377.02528807758767
 20
652.42523085895016
 30
0.0
  0
VERTEX
  5
FDC
  8
DATA
  6
CONTINUOUS
 62
     7
 10
375.49528807758782
 20
652.42523085895016
 30
0.0
  0
SEQEND
  5
FDD
  8
DATA
  6
CONTINUOUS
 62
     7
  0
POLYLINE
  5
5BC
  8
DATA
  6
CONTINUOUS
 62
     7
 66
     1
 10
0.0
 20
0.0
 30
0.0
 70
     1
  0
VERTEX
  5
FDE
  8
DATA
  6
CONTINUOUS
 62
     7
 10
373.49528807758782
 20
653.95523085895002
 30
0.0
  0
VERTEX
  5
FDF
  8
DATA
  6
CONTINUOUS
 62
     7
 10
375.02528807758767
 20
653.95523085895002
 30
0.0
  0
VERTEX
  5
FE0
  8
DATA
  6
CONTINUOUS
 62
     7
 10
375.02528807758767
 20
652.42523085895016
 30
0.0
  0
VERTEX
  5
FE1
  8
DATA
  6
CONTINUOUS
 62
     7
 10
373.49528807758782
 20
652.42523085895016
 30
0.0
  0
SEQEND
  5
FE2
  8
DATA
  6
CONTINUOUS
 62
     7
  0
POLYLINE
  5
5C3
  8
DATA
  6
CONTINUOUS
 62
     7
 66
     1
 10
0.0
 20
0.0
 30
0.0
 70
     1
  0
VERTEX
  5
FE3
  8
DATA
  6
CONTINUOUS
 62
     7
 10
371.49528807758782
 20
653.95523085895002
 30
0.0
  0
VERTEX
  5
FE4
  8
DATA
  6
CONTINUOUS
 62
     7
 10
373.02528807758767
 20
653.95523085895002
 30
0.0
  0
VERTEX
  5
FE5
  8
DATA
  6
CONTINUOUS
 62
     7
 10
373.02528807758767
 20
652.42523085895016
 30
0.0
  0
VERTEX
  5
FE6
  8
DATA
  6
CONTINUOUS
 62
     7
 10
371.49528807758782
 20
652.42523085895016
 30
0.0
  0
SEQEND
  5
FE7
  8
DATA
  6
CONTINUOUS
 62
     7
  0
POLYLINE
  5
5CA
  8
DATA
  6
CONTINUOUS
 62
     7
 66
     1
 10
0.0
 20
0.0
 30
0.0
 70
     1
  0
VERTEX
  5
FE8
  8
DATA
  6
CONTINUOUS
 62
     7
 10
369.49528807758782
 20
653.95523085895002
 30
0.0
  0
VERTEX
  5
FE9
  8
DATA
  6
CONTINUOUS
 62
     7
 10
371.02528807758767
 20
653.95523085895002
 30
0.0
  0
VERTEX
  5
FEA
  8
DATA
  6
CONTINUOUS
 62
     7
 10
371.02528807758767
 20
652.42523085895016
 30
0.0
  0
VERTEX
  5
FEB
  8
DATA
  6
CONTINUOUS
 62
     7
 10
369.49528807758782
 20
652.42523085895016
 30
0.0
  0
SEQEND
  5
FEC
  8
DATA
  6
CONTINUOUS
 62
     7
  0
POLYLINE
  5
5D1
  8
DATA
  6
CONTINUOUS
 62
     7
 66
     1
 10
0.0
 20
0.0
 30
0.0
 70
     1
  0
VERTEX
  5
FED
  8
DATA
  6
CONTINUOUS
 62
     7
 10
367.49528807758782
 20
653.95523085895002
 30
0.0
  0
VERTEX
  5
FEE
  8
DATA
  6
CONTINUOUS
 62
     7
 10
369.02528807758767
 20
653.95523085895002
 30
0.0
  0
VERTEX
  5
FEF
  8
DATA
  6
CONTINUOUS
 62
     7
 10
369.02528807758767
 20
652.42523085895016
 30
0.0
  0
VERTEX
  5
FF0
  8
DATA
  6
CONTINUOUS
 62
     7
 10
367.49528807758782
 20
652.42523085895016
 30
0.0
  0
SEQEND
  5
FF1
  8
DATA
  6
CONTINUOUS
 62
     7
  0
POLYLINE
  5
5D8
  8
DATA
  6
CONTINUOUS
 62
     7
 66
     1
 10
0.0
 20
0.0
 30
0.0
 70
     1
  0
VERTEX
  5
FF2
  8
DATA
  6
CONTINUOUS
 62
     7
 10
365.49528807758759
 20
653.95523085895002
 30
0.0
  0
VERTEX
  5
FF3
  8
DATA
  6
CONTINUOUS
 62
     7
 10
367.02528807758767
 20
653.95523085895002
 30
0.0
  0
VERTEX
  5
FF4
  8
DATA
  6
CONTINUOUS
 62
     7
 10
367.02528807758767
 20
652.42523085895016
 30
0.0
  0
VERTEX
  5
FF5
  8
DATA
  6
CONTINUOUS
 62
     7
 10
365.49528807758759
 20
652.42523085895016
 30
0.0
  0
SEQEND
  5
FF6
  8
DATA
  6
CONTINUOUS
 62
     7
  0
POLYLINE
  5
5DF
  8
DATA
  6
CONTINUOUS
 62
     7
 66
     1
 10
0.0
 20
0.0
 30
0.0
 70
     1
  0
VERTEX
  5
FF7
  8
DATA
  6
CONTINUOUS
 62
     7
 10
363.49528807758759
 20
653.95523085895002
 30
0.0
  0
VERTEX
  5
FF8
  8
DATA
  6
CONTINUOUS
 62
     7
 10
365.02528807758767
 20
653.95523085895002
 30
0.0
  0
VERTEX
  5
FF9
  8
DATA
  6
CONTINUOUS
 62
     7
 10
365.02528807758767
 20
652.42523085895016
 30
0.0
  0
VERTEX
  5
FFA
  8
DATA
  6
CONTINUOUS
 62
     7
 10
363.49528807758759
 20
652.42523085895016
 30
0.0
  0
SEQEND
  5
FFB
  8
DATA
  6
CONTINUOUS
 62
     7
  0
POLYLINE
  5
5E6
  8
DATA
  6
CONTINUOUS
 62
     7
 66
     1
 10
0.0
 20
0.0
 30
0.0
 70
     1
  0
VERTEX
  5
FFC
  8
DATA
  6
CONTINUOUS
 62
     7
 10
361.49528807758742
 20
653.95523085895002
 30
0.0
  0
VERTEX
  5
FFD
  8
DATA
  6
CONTINUOUS
 62
     7
 10
363.0252880775875
 20
653.95523085895002
 30
0.0
  0
VERTEX
  5
FFE
  8
DATA
  6
CONTINUOUS
 62
     7
 10
363.0252880775875
 20
652.42523085895016
 30
0.0
  0
VERTEX
  5
FFF
  8
DATA
  6
CONTINUOUS
 62
     7
 10
361.49528807758742
 20
652.42523085895016
 30
0.0
  0
SEQEND
  5
1000
  8
DATA
  6
CONTINUOUS
 62
     7
  0
POLYLINE
  5
5ED
  8
DATA
  6
CONTINUOUS
 62
     7
 66
     1
 10
0.0
 20
0.0
 30
0.0
 70
     1
  0
VERTEX
  5
1001
  8
DATA
  6
CONTINUOUS
 62
     7
 10
375.49528807758782
 20
657.95523085895013
 30
0.0
  0
VERTEX
  5
1002
  8
DATA
  6
CONTINUOUS
 62
     7
 10
377.02528807758767
 20
657.95523085895013
 30
0.0
  0
VERTEX
  5
1003
  8
DATA
  6
CONTINUOUS
 62
     7
 10
377.02528807758767
 20
656.42523085895016
 30
0.0
  0
VERTEX
  5
1004
  8
DATA
  6
CONTINUOUS
 62
     7
 10
375.49528807758782
 20
656.42523085895016
 30
0.0
  0
SEQEND
  5
1005
  8
DATA
  6
CONTINUOUS
 62
     7
  0
POLYLINE
  5
5F4
  8
DATA
  6
CONTINUOUS
 62
     7
 66
     1
 10
0.0
 20
0.0
 30
0.0
 70
     1
  0
VERTEX
  5
1006
  8
DATA
  6
CONTINUOUS
 62
     7
 10
373.49528807758782
 20
657.95523085895013
 30
0.0
  0
VERTEX
  5
1007
  8
DATA
  6
CONTINUOUS
 62
     7
 10
375.02528807758767
 20
657.95523085895013
 30
0.0
  0
VERTEX
  5
1008
  8
DATA
  6
CONTINUOUS
 62
     7
 10
375.02528807758767
 20
656.42523085895016
 30
0.0
  0
VERTEX
  5
1009
  8
DATA
  6
CONTINUOUS
 62
     7
 10
373.49528807758782
 20
656.42523085895016
 30
0.0
  0
SEQEND
  5
100A
  8
DATA
  6
CONTINUOUS
 62
     7
  0
POLYLINE
  5
5FB
  8
DATA
  6
CONTINUOUS
 62
     7
 66
     1
 10
0.0
 20
0.0
 30
0.0
 70
     1
  0
VERTEX
  5
100B
  8
DATA
  6
CONTINUOUS
 62
     7
 10
371.49528807758782
 20
657.95523085895013
 30
0.0
  0
VERTEX
  5
100C
  8
DATA
  6
CONTINUOUS
 62
     7
 10
373.02528807758767
 20
657.95523085895013
 30
0.0
  0
VERTEX
  5
100D
  8
DATA
  6
CONTINUOUS
 62
     7
 10
373.02528807758767
 20
656.42523085895016
 30
0.0
  0
VERTEX
  5
100E
  8
DATA
  6
CONTINUOUS
 62
     7
 10
371.49528807758782
 20
656.42523085895016
 30
0.0
  0
SEQEND
  5
100F
  8
DATA
  6
CONTINUOUS
 62
     7
  0
POLYLINE
  5
602
  8
DATA
  6
CONTINUOUS
 62
     7
 66
     1
 10
0.0
 20
0.0
 30
0.0
 70
     1
  0
VERTEX
  5
1010
  8
DATA
  6
CONTINUOUS
 62
     7
 10
369.49528807758782
 20
657.95523085895013
 30
0.0
  0
VERTEX
  5
1011
  8
DATA
  6
CONTINUOUS
 62
     7
 10
371.02528807758767
 20
657.95523085895013
 30
0.0
  0
VERTEX
  5
1012
  8
DATA
  6
CONTINUOUS
 62
     7
 10
371.02528807758767
 20
656.42523085895016
 30
0.0
  0
VERTEX
  5
1013
  8
DATA
  6
CONTINUOUS
 62
     7
 10
369.49528807758782
 20
656.42523085895016
 30
0.0
  0
SEQEND
  5
1014
  8
DATA
  6
CONTINUOUS
 62
     7
  0
POLYLINE
  5
609
  8
DATA
  6
CONTINUOUS
 62
     7
 66
     1
 10
0.0
 20
0.0
 30
0.0
 70
     1
  0
VERTEX
  5
1015
  8
DATA
  6
CONTINUOUS
 62
     7
 10
367.49528807758782
 20
657.95523085895013
 30
0.0
  0
VERTEX
  5
1016
  8
DATA
  6
CONTINUOUS
 62
     7
 10
369.02528807758767
 20
657.95523085895013
 30
0.0
  0
VERTEX
  5
1017
  8
DATA
  6
CONTINUOUS
 62
     7
 10
369.02528807758767
 20
656.42523085895016
 30
0.0
  0
VERTEX
  5
1018
  8
DATA
  6
CONTINUOUS
 62
     7
 10
367.49528807758782
 20
656.42523085895016
 30
0.0
  0
SEQEND
  5
1019
  8
DATA
  6
CONTINUOUS
 62
     7
  0
POLYLINE
  5
610
  8
DATA
  6
CONTINUOUS
 62
     7
 66
     1
 10
0.0
 20
0.0
 30
0.0
 70
     1
  0
VERTEX
  5
101A
  8
DATA
  6
CONTINUOUS
 62
     7
 10
365.49528807758759
 20
657.95523085895013
 30
0.0
  0
VERTEX
  5
101B
  8
DATA
  6
CONTINUOUS
 62
     7
 10
367.02528807758767
 20
657.95523085895013
 30
0.0
  0
VERTEX
  5
101C
  8
DATA
  6
CONTINUOUS
 62
     7
 10
367.02528807758767
 20
656.42523085895016
 30
0.0
  0
VERTEX
  5
101D
  8
DATA
  6
CONTINUOUS
 62
     7
 10
365.49528807758759
 20
656.42523085895016
 30
0.0
  0
SEQEND
  5
101E
  8
DATA
  6
CONTINUOUS
 62
     7
  0
POLYLINE
  5
617
  8
DATA
  6
CONTINUOUS
 62
     7
 66
     1
 10
0.0
 20
0.0
 30
0.0
 70
     1
  0
VERTEX
  5
101F
  8
DATA
  6
CONTINUOUS
 62
     7
 10
363.49528807758759
 20
657.95523085895013
 30
0.0
  0
VERTEX
  5
1020
  8
DATA
  6
CONTINUOUS
 62
     7
 10
365.02528807758767
 20
657.95523085895013
 30
0.0
  0
VERTEX
  5
1021
  8
DATA
  6
CONTINUOUS
 62
     7
 10
365.02528807758767
 20
656.42523085895016
 30
0.0
  0
VERTEX
  5
1022
  8
DATA
  6
CONTINUOUS
 62
     7
 10
363.49528807758759
 20
656.42523085895016
 30
0.0
  0
SEQEND
  5
1023
  8
DATA
  6
CONTINUOUS
 62
     7
  0
POLYLINE
  5
61E
  8
DATA
  6
CONTINUOUS
 62
     7
 66
     1
 10
0.0
 20
0.0
 30
0.0
 70
     1
  0
VERTEX
  5
1024
  8
DATA
  6
CONTINUOUS
 62
     7
 10
361.49528807758742
 20
657.95523085895013
 30
0.0
  0
VERTEX
  5
1025
  8
DATA
  6
CONTINUOUS
 62
     7
 10
363.0252880775875
 20
657.95523085895013
 30
0.0
  0
VERTEX
  5
1026
  8
DATA
  6
CONTINUOUS
 62
     7
 10
363.0252880775875
 20
656.42523085895016
 30
0.0
  0
VERTEX
  5
1027
  8
DATA
  6
CONTINUOUS
 62
     7
 10
361.49528807758742
 20
656.42523085895016
 30
0.0
  0
SEQEND
  5
1028
  8
DATA
  6
CONTINUOUS
 62
     7
  0
POLYLINE
  5
625
  8
DATA
  6
CONTINUOUS
 62
     7
 66
     1
 10
0.0
 20
0.0
 30
0.0
  0
VERTEX
  5
1029
  8
DATA
  6
CONTINUOUS
 62
     7
 10
357.47522190640768
 20
654.79023085895017
 30
0.0
  0
VERTEX
  5
102A
  8
DATA
  6
CONTINUOUS
 62
     7
 10
355.37522190640777
 20
654.79023085895017
 30
0.0
  0
VERTEX
  5
102B
  8
DATA
  6
CONTINUOUS
 62
     7
 10
355.37522190640777
 20
655.59023085895012
 30
0.0
  0
VERTEX
  5
102C
  8
DATA
  6
CONTINUOUS
 62
     7
 10
357.47522190640768
 20
655.59023085895012
 30
0.0
  0
SEQEND
  5
102D
  8
DATA
  6
CONTINUOUS
 62
     7
  0
POLYLINE
  5
62C
  8
DATA
  6
CONTINUOUS
 62
     7
 66
     1
 10
0.0
 20
0.0
 30
0.0
  0
VERTEX
  5
102E
  8
DATA
  6
CONTINUOUS
 62
     7
 10
358.27522190640758
 20
655.59023085895012
 30
0.0
  0
VERTEX
  5
102F
  8
DATA
  6
CONTINUOUS
 62
     7
 10
360.37522190640789
 20
655.59023085895012
 30
0.0
  0
VERTEX
  5
1030
  8
DATA
  6
CONTINUOUS
 62
     7
 10
360.37522190640789
 20
654.79023085895017
 30
0.0
  0
VERTEX
  5
1031
  8
DATA
  6
CONTINUOUS
 62
     7
 10
358.27522190640758
 20
654.79023085895017
 30
0.0
  0
SEQEND
  5
1032
  8
DATA
  6
CONTINUOUS
 62
     7
  0
POLYLINE
  5
633
  8
DATA
  6
CONTINUOUS
 62
     7
 66
     1
 10
0.0
 20
0.0
 30
0.0
  0
VERTEX
  5
1033
  8
DATA
  6
CONTINUOUS
 62
     7
 10
357.47522190640768
 20
655.59023085895012
 30
0.0
  0
VERTEX
  5
1034
  8
DATA
  6
CONTINUOUS
 62
     7
 10
357.47522190640768
 20
657.69023085895014
 30
0.0
  0
VERTEX
  5
1035
  8
DATA
  6
CONTINUOUS
 62
     7
 10
358.27522190640758
 20
657.69023085895014
 30
0.0
  0
VERTEX
  5
1036
  8
DATA
  6
CONTINUOUS
 62
     7
 10
358.27522190640758
 20
655.59023085895012
 30
0.0
  0
SEQEND
  5
1037
  8
DATA
  6
CONTINUOUS
 62
     7
  0
POLYLINE
  5
63A
  8
DATA
  6
CONTINUOUS
 62
     7
 66
     1
 10
0.0
 20
0.0
 30
0.0
  0
VERTEX
  5
1038
  8
DATA
  6
CONTINUOUS
 62
     7
 10
358.27522190640758
 20
654.79023085895017
 30
0.0
  0
VERTEX
  5
1039
  8
DATA
  6
CONTINUOUS
 62
     7
 10
358.27522190640758
 20
652.69023085895014
 30
0.0
  0
VERTEX
  5
103A
  8
DATA
  6
CONTINUOUS
 62
     7
 10
357.47522190640768
 20
652.69023085895014
 30
0.0
  0
VERTEX
  5
103B
  8
DATA
  6
CONTINUOUS
 62
     7
 10
357.47522190640768
 20
654.79023085895017
 30
0.0
  0
SEQEND
  5
103C
  8
DATA
  6
CONTINUOUS
 62
     7
  0
POLYLINE
  5
641
  8
DATA
  6
CONTINUOUS
 62
     7
 66
     1
 10
0.0
 20
0.0
 30
0.0
 70
     1
  0
VERTEX
  5
103D
  8
DATA
  6
CONTINUOUS
 62
     7
 10
358.73550633687938
 20
654.43080304830005
 30
0.0
  0
VERTEX
  5
103E
  8
DATA
  6
CONTINUOUS
 62
     7
 10
359.7355063368795
 20
654.43080304830005
 30
0.0
  0
VERTEX
  5
103F
  8
DATA
  6
CONTINUOUS
 62
     7
 10
359.7355063368795
 20
653.43080304830005
 30
0.0
  0
VERTEX
  5
1040
  8
DATA
  6
CONTINUOUS
 62
     7
 10
358.73550633687938
 20
653.43080304830005
 30
0.0
  0
SEQEND
  5
1041
  8
DATA
  6
CONTINUOUS
 62
     7
  0
POLYLINE
  5
648
  8
DATA
  6
CONTINUOUS
 62
     7
 66
     1
 10
0.0
 20
0.0
 30
0.0
 70
     1
  0
VERTEX
  5
1042
  8
DATA
  6
CONTINUOUS
 62
     7
 10
356.01493747593599
 20
654.43080304830005
 30
0.0
  0
VERTEX
  5
1043
  8
DATA
  6
CONTINUOUS
 62
     7
 10
357.01493747593599
 20
654.43080304830005
 30
0.0
  0
VERTEX
  5
1044
  8
DATA
  6
CONTINUOUS
 62
     7
 10
357.01493747593599
 20
653.43080304830005
 30
0.0
  0
VERTEX
  5
1045
  8
DATA
  6
CONTINUOUS
 62
     7
 10
356.01493747593599
 20
653.43080304830005
 30
0.0
  0
SEQEND
  5
1046
  8
DATA
  6
CONTINUOUS
 62
     7
  0
POLYLINE
  5
64F
  8
DATA
  6
CONTINUOUS
 62
     7
 66
     1
 10
0.0
 20
0.0
 30
0.0
 70
     1
  0
VERTEX
  5
1047
  8
DATA
  6
CONTINUOUS
 62
     7
 10
358.73550633687938
 20
656.94965866960001
 30
0.0
  0
VERTEX
  5
1048
  8
DATA
  6
CONTINUOUS
 62
     7
 10
359.7355063368795
 20
656.94965866960001
 30
0.0
  0
VERTEX
  5
1049
  8
DATA
  6
CONTINUOUS
 62
     7
 10
359.7355063368795
 20
655.94965866960001
 30
0.0
  0
VERTEX
  5
104A
  8
DATA
  6
CONTINUOUS
 62
     7
 10
358.73550633687938
 20
655.94965866960001
 30
0.0
  0
SEQEND
  5
104B
  8
DATA
  6
CONTINUOUS
 62
     7
  0
POLYLINE
  5
656
  8
DATA
  6
CONTINUOUS
 62
     7
 66
     1
 10
0.0
 20
0.0
 30
0.0
 70
     1
  0
VERTEX
  5
104C
  8
DATA
  6
CONTINUOUS
 62
     7
 10
356.01493747593599
 20
656.94965866960001
 30
0.0
  0
VERTEX
  5
104D
  8
DATA
  6
CONTINUOUS
 62
     7
 10
357.01493747593599
 20
656.94965866960001
 30
0.0
  0
VERTEX
  5
104E
  8
DATA
  6
CONTINUOUS
 62
     7
 10
357.01493747593599
 20
655.94965866960001
 30
0.0
  0
VERTEX
  5
104F
  8
DATA
  6
CONTINUOUS
 62
     7
 10
356.01493747593599
 20
655.94965866960001
 30
0.0
  0
SEQEND
  5
1050
  8
DATA
  6
CONTINUOUS
 62
     7
  0
LINE
  5
65D
  8
DATA
  6
CONTINUOUS
 62
     7
 10
377.97059372435558
 20
652.36033916443625
 30
0.0
 11
377.41167652690319
 21
658.21033916443639
 31
0.0
  0
LINE
  5
65E
  8
DATA
  6
CONTINUOUS
 62
     7
 10
354.07985008846089
 20
652.36033916443625
 30
0.0
 11
354.6387672859131
 21
658.21033916443639
 31
0.0
  0
ARC
  5
65F
  8
DATA
  6
CONTINUOUS
 62
     7
 10
376.97512679360023
 20
652.26523085894996
 30
0.0
 40
1.0
 50
270.0
 51
5.4575534851074963
  0
ARC
  5
660
  8
DATA
  6
CONTINUOUS
 62
     7
 10
355.07531701921607
 20
652.26523085894996
 30
0.0
 40
0.9999999999998908
 50
174.54244651489179
 51
270.0
  0
ARC
  5
661
  8
DATA
  6
CONTINUOUS
 62
     7
 10
376.41620959614789
 20
658.11523085894999
 30
0.0
 40
1.0000000000000031
 50
5.457553485107554
 51
89.999999999999986
  0
ARC
  5
662
  8
DATA
  6
CONTINUOUS
 62
     7
 10
355.6342342166684
 20
658.11523085894999
 30
0.0
 40
1.0
 50
90.0
 51
174.54244651489509
  0
CIRCLE
  5
663
  8
DATA
  6
CONTINUOUS
 62
     7
 10
305.76932452468202
 20
655.19023085895014
 30
0.0
 40
1.175000000000068
  0
POLYLINE
  5
664
  8
DATA
  6
CONTINUOUS
 62
     7
 66
     1
 10
0.0
 20
0.0
 30
0.0
 70
     1
  0
VERTEX
  5
1051
  8
DATA
  6
CONTINUOUS
 62
     7
 10
305.76932452468202
 20
652.4902308589501
 30
0.0
  0
VERTEX
  5
1052
  8
DATA
  6
CONTINUOUS
 62
     7
 10
303.4310559344641
 20
653.84023085895012
 30
0.0
  0
VERTEX
  5
1053
  8
DATA
  6
CONTINUOUS
 62
     7
 10
303.4310559344641
 20
656.54023085895017
 30
0.0
  0
VERTEX
  5
1054
  8
DATA
  6
CONTINUOUS
 62
     7
 10
305.76932452468202
 20
657.89023085894996
 30
0.0
  0
VERTEX
  5
1055
  8
DATA
  6
CONTINUOUS
 62
     7
 10
308.10759311490011
 20
656.54023085895017
 30
0.0
  0
VERTEX
  5
1056
  8
DATA
  6
CONTINUOUS
 62
     7
 10
308.10759311490011
 20
653.84023085895012
 30
0.0
  0
SEQEND
  5
1057
  8
DATA
  6
CONTINUOUS
 62
     7
  0
CIRCLE
  5
66D
  8
DATA
  6
CONTINUOUS
 62
     7
 10
338.26932452468247
 20
655.19023085895014
 30
0.0
 40
1.175000000000068
  0
POLYLINE
  5
66E
  8
DATA
  6
CONTINUOUS
 62
     7
 66
     1
 10
0.0
 20
0.0
 30
0.0
 70
     1
  0
VERTEX
  5
1058
  8
DATA
  6
CONTINUOUS
 62
     7
 10
338.26932452468247
 20
652.4902308589501
 30
0.0
  0
VERTEX
  5
1059
  8
DATA
  6
CONTINUOUS
 62
     7
 10
335.93105593446461
 20
653.84023085895012
 30
0.0
  0
VERTEX
  5
105A
  8
DATA
  6
CONTINUOUS
 62
     7
 10
335.93105593446461
 20
656.54023085895017
 30
0.0
  0
VERTEX
  5
105B
  8
DATA
  6
CONTINUOUS
 62
     7
 10
338.26932452468247
 20
657.89023085894996
 30
0.0
  0
VERTEX
  5
105C
  8
DATA
  6
CONTINUOUS
 62
     7
 10
340.60759311490062
 20
656.54023085895017
 30
0.0
  0
VERTEX
  5
105D
  8
DATA
  6
CONTINUOUS
 62
     7
 10
340.60759311490062
 20
653.84023085895012
 30
0.0
  0
SEQEND
  5
105E
  8
DATA
  6
CONTINUOUS
 62
     7
  0
LINE
  5
677
  8
DATA
  6
CONTINUOUS
 62
     7
 10
332.97512679360023
 20
651.26523085894996
 30
0.0
 11
311.07531701921607
 21
651.26523085894996
 31
0.0
  0
LINE
  5
678
  8
DATA
  6
CONTINUOUS
 62
     7
 10
311.63423421666829
 20
659.11523085894999
 30
0.0
 11
332.41620959614789
 21
659.11523085894999
 31
0.0
  0
POLYLINE
  5
679
  8
DATA
  6
CONTINUOUS
 62
     7
 66
     1
 10
0.0
 20
0.0
 30
0.0
 70
     1
  0
VERTEX
  5
105F
  8
DATA
  6
CONTINUOUS
 62
     7
 10
331.49528807758782
 20
655.95523085895013
 30
0.0
  0
VERTEX
  5
1060
  8
DATA
  6
CONTINUOUS
 62
     7
 10
333.02528807758767
 20
655.95523085895013
 30
0.0
  0
VERTEX
  5
1061
  8
DATA
  6
CONTINUOUS
 62
     7
 10
333.02528807758767
 20
654.42523085895004
 30
0.0
  0
VERTEX
  5
1062
  8
DATA
  6
CONTINUOUS
 62
     7
 10
331.49528807758782
 20
654.42523085895004
 30
0.0
  0
SEQEND
  5
1063
  8
DATA
  6
CONTINUOUS
 62
     7
  0
POLYLINE
  5
680
  8
DATA
  6
CONTINUOUS
 62
     7
 66
     1
 10
0.0
 20
0.0
 30
0.0
 70
     1
  0
VERTEX
  5
1064
  8
DATA
  6
CONTINUOUS
 62
     7
 10
329.4952880775877
 20
655.95523085895013
 30
0.0
  0
VERTEX
  5
1065
  8
DATA
  6
CONTINUOUS
 62
     7
 10
331.02528807758767
 20
655.95523085895013
 30
0.0
  0
VERTEX
  5
1066
  8
DATA
  6
CONTINUOUS
 62
     7
 10
331.02528807758767
 20
654.42523085895004
 30
0.0
  0
VERTEX
  5
1067
  8
DATA
  6
CONTINUOUS
 62
     7
 10
329.4952880775877
 20
654.42523085895004
 30
0.0
  0
SEQEND
  5
1068
  8
DATA
  6
CONTINUOUS
 62
     7
  0
POLYLINE
  5
687
  8
DATA
  6
CONTINUOUS
 62
     7
 66
     1
 10
0.0
 20
0.0
 30
0.0
 70
     1
  0
VERTEX
  5
1069
  8
DATA
  6
CONTINUOUS
 62
     7
 10
327.49528807758782
 20
655.95523085895013
 30
0.0
  0
VERTEX
  5
106A
  8
DATA
  6
CONTINUOUS
 62
     7
 10
329.02528807758767
 20
655.95523085895013
 30
0.0
  0
VERTEX
  5
106B
  8
DATA
  6
CONTINUOUS
 62
     7
 10
329.02528807758767
 20
654.42523085895004
 30
0.0
  0
VERTEX
  5
106C
  8
DATA
  6
CONTINUOUS
 62
     7
 10
327.49528807758782
 20
654.42523085895004
 30
0.0
  0
SEQEND
  5
106D
  8
DATA
  6
CONTINUOUS
 62
     7
  0
POLYLINE
  5
68E
  8
DATA
  6
CONTINUOUS
 62
     7
 66
     1
 10
0.0
 20
0.0
 30
0.0
 70
     1
  0
VERTEX
  5
106E
  8
DATA
  6
CONTINUOUS
 62
     7
 10
325.49528807758782
 20
655.95523085895013
 30
0.0
  0
VERTEX
  5
106F
  8
DATA
  6
CONTINUOUS
 62
     7
 10
327.02528807758767
 20
655.95523085895013
 30
0.0
  0
VERTEX
  5
1070
  8
DATA
  6
CONTINUOUS
 62
     7
 10
327.02528807758767
 20
654.42523085895004
 30
0.0
  0
VERTEX
  5
1071
  8
DATA
  6
CONTINUOUS
 62
     7
 10
325.49528807758782
 20
654.42523085895004
 30
0.0
  0
SEQEND
  5
1072
  8
DATA
  6
CONTINUOUS
 62
     7
  0
POLYLINE
  5
695
  8
DATA
  6
CONTINUOUS
 62
     7
 66
     1
 10
0.0
 20
0.0
 30
0.0
 70
     1
  0
VERTEX
  5
1073
  8
DATA
  6
CONTINUOUS
 62
     7
 10
323.49528807758782
 20
655.95523085895013
 30
0.0
  0
VERTEX
  5
1074
  8
DATA
  6
CONTINUOUS
 62
     7
 10
325.02528807758767
 20
655.95523085895013
 30
0.0
  0
VERTEX
  5
1075
  8
DATA
  6
CONTINUOUS
 62
     7
 10
325.02528807758767
 20
654.42523085895004
 30
0.0
  0
VERTEX
  5
1076
  8
DATA
  6
CONTINUOUS
 62
     7
 10
323.49528807758782
 20
654.42523085895004
 30
0.0
  0
SEQEND
  5
1077
  8
DATA
  6
CONTINUOUS
 62
     7
  0
POLYLINE
  5
69C
  8
DATA
  6
CONTINUOUS
 62
     7
 66
     1
 10
0.0
 20
0.0
 30
0.0
 70
     1
  0
VERTEX
  5
1078
  8
DATA
  6
CONTINUOUS
 62
     7
 10
321.49528807758759
 20
655.95523085895013
 30
0.0
  0
VERTEX
  5
1079
  8
DATA
  6
CONTINUOUS
 62
     7
 10
323.02528807758767
 20
655.95523085895013
 30
0.0
  0
VERTEX
  5
107A
  8
DATA
  6
CONTINUOUS
 62
     7
 10
323.02528807758767
 20
654.42523085895004
 30
0.0
  0
VERTEX
  5
107B
  8
DATA
  6
CONTINUOUS
 62
     7
 10
321.49528807758759
 20
654.42523085895004
 30
0.0
  0
SEQEND
  5
107C
  8
DATA
  6
CONTINUOUS
 62
     7
  0
POLYLINE
  5
6A3
  8
DATA
  6
CONTINUOUS
 62
     7
 66
     1
 10
0.0
 20
0.0
 30
0.0
 70
     1
  0
VERTEX
  5
107D
  8
DATA
  6
CONTINUOUS
 62
     7
 10
319.49528807758759
 20
655.95523085895013
 30
0.0
  0
VERTEX
  5
107E
  8
DATA
  6
CONTINUOUS
 62
     7
 10
321.02528807758762
 20
655.95523085895013
 30
0.0
  0
VERTEX
  5
107F
  8
DATA
  6
CONTINUOUS
 62
     7
 10
321.02528807758762
 20
654.42523085895004
 30
0.0
  0
VERTEX
  5
1080
  8
DATA
  6
CONTINUOUS
 62
     7
 10
319.49528807758759
 20
654.42523085895004
 30
0.0
  0
SEQEND
  5
1081
  8
DATA
  6
CONTINUOUS
 62
     7
  0
POLYLINE
  5
6AA
  8
DATA
  6
CONTINUOUS
 62
     7
 66
     1
 10
0.0
 20
0.0
 30
0.0
 70
     1
  0
VERTEX
  5
1082
  8
DATA
  6
CONTINUOUS
 62
     7
 10
317.49528807758742
 20
655.95523085895013
 30
0.0
  0
VERTEX
  5
1083
  8
DATA
  6
CONTINUOUS
 62
     7
 10
319.0252880775875
 20
655.95523085895013
 30
0.0
  0
VERTEX
  5
1084
  8
DATA
  6
CONTINUOUS
 62
     7
 10
319.0252880775875
 20
654.42523085895004
 30
0.0
  0
VERTEX
  5
1085
  8
DATA
  6
CONTINUOUS
 62
     7
 10
317.49528807758742
 20
654.42523085895004
 30
0.0
  0
SEQEND
  5
1086
  8
DATA
  6
CONTINUOUS
 62
     7
  0
POLYLINE
  5
6B1
  8
DATA
  6
CONTINUOUS
 62
     7
 66
     1
 10
0.0
 20
0.0
 30
0.0
 70
     1
  0
VERTEX
  5
1087
  8
DATA
  6
CONTINUOUS
 62
     7
 10
331.49528807758782
 20
653.95523085895002
 30
0.0
  0
VERTEX
  5
1088
  8
DATA
  6
CONTINUOUS
 62
     7
 10
333.02528807758767
 20
653.95523085895002
 30
0.0
  0
VERTEX
  5
1089
  8
DATA
  6
CONTINUOUS
 62
     7
 10
333.02528807758767
 20
652.42523085895016
 30
0.0
  0
VERTEX
  5
108A
  8
DATA
  6
CONTINUOUS
 62
     7
 10
331.49528807758782
 20
652.42523085895016
 30
0.0
  0
SEQEND
  5
108B
  8
DATA
  6
CONTINUOUS
 62
     7
  0
POLYLINE
  5
6B8
  8
DATA
  6
CONTINUOUS
 62
     7
 66
     1
 10
0.0
 20
0.0
 30
0.0
 70
     1
  0
VERTEX
  5
108C
  8
DATA
  6
CONTINUOUS
 62
     7
 10
329.4952880775877
 20
653.95523085895002
 30
0.0
  0
VERTEX
  5
108D
  8
DATA
  6
CONTINUOUS
 62
     7
 10
331.02528807758767
 20
653.95523085895002
 30
0.0
  0
VERTEX
  5
108E
  8
DATA
  6
CONTINUOUS
 62
     7
 10
331.02528807758767
 20
652.42523085895016
 30
0.0
  0
VERTEX
  5
108F
  8
DATA
  6
CONTINUOUS
 62
     7
 10
329.4952880775877
 20
652.42523085895016
 30
0.0
  0
SEQEND
  5
1090
  8
DATA
  6
CONTINUOUS
 62
     7
  0
POLYLINE
  5
6BF
  8
DATA
  6
CONTINUOUS
 62
     7
 66
     1
 10
0.0
 20
0.0
 30
0.0
 70
     1
  0
VERTEX
  5
1091
  8
DATA
  6
CONTINUOUS
 62
     7
 10
327.49528807758782
 20
653.95523085895002
 30
0.0
  0
VERTEX
  5
1092
  8
DATA
  6
CONTINUOUS
 62
     7
 10
329.02528807758767
 20
653.95523085895002
 30
0.0
  0
VERTEX
  5
1093
  8
DATA
  6
CONTINUOUS
 62
     7
 10
329.02528807758767
 20
652.42523085895016
 30
0.0
  0
VERTEX
  5
1094
  8
DATA
  6
CONTINUOUS
 62
     7
 10
327.49528807758782
 20
652.42523085895016
 30
0.0
  0
SEQEND
  5
1095
  8
DATA
  6
CONTINUOUS
 62
     7
  0
POLYLINE
  5
6C6
  8
DATA
  6
CONTINUOUS
 62
     7
 66
     1
 10
0.0
 20
0.0
 30
0.0
 70
     1
  0
VERTEX
  5
1096
  8
DATA
  6
CONTINUOUS
 62
     7
 10
325.49528807758782
 20
653.95523085895002
 30
0.0
  0
VERTEX
  5
1097
  8
DATA
  6
CONTINUOUS
 62
     7
 10
327.02528807758767
 20
653.95523085895002
 30
0.0
  0
VERTEX
  5
1098
  8
DATA
  6
CONTINUOUS
 62
     7
 10
327.02528807758767
 20
652.42523085895016
 30
0.0
  0
VERTEX
  5
1099
  8
DATA
  6
CONTINUOUS
 62
     7
 10
325.49528807758782
 20
652.42523085895016
 30
0.0
  0
SEQEND
  5
109A
  8
DATA
  6
CONTINUOUS
 62
     7
  0
POLYLINE
  5
6CD
  8
DATA
  6
CONTINUOUS
 62
     7
 66
     1
 10
0.0
 20
0.0
 30
0.0
 70
     1
  0
VERTEX
  5
109B
  8
DATA
  6
CONTINUOUS
 62
     7
 10
323.49528807758782
 20
653.95523085895002
 30
0.0
  0
VERTEX
  5
109C
  8
DATA
  6
CONTINUOUS
 62
     7
 10
325.02528807758767
 20
653.95523085895002
 30
0.0
  0
VERTEX
  5
109D
  8
DATA
  6
CONTINUOUS
 62
     7
 10
325.02528807758767
 20
652.42523085895016
 30
0.0
  0
VERTEX
  5
109E
  8
DATA
  6
CONTINUOUS
 62
     7
 10
323.49528807758782
 20
652.42523085895016
 30
0.0
  0
SEQEND
  5
109F
  8
DATA
  6
CONTINUOUS
 62
     7
  0
POLYLINE
  5
6D4
  8
DATA
  6
CONTINUOUS
 62
     7
 66
     1
 10
0.0
 20
0.0
 30
0.0
 70
     1
  0
VERTEX
  5
10A0
  8
DATA
  6
CONTINUOUS
 62
     7
 10
321.49528807758759
 20
653.95523085895002
 30
0.0
  0
VERTEX
  5
10A1
  8
DATA
  6
CONTINUOUS
 62
     7
 10
323.02528807758767
 20
653.95523085895002
 30
0.0
  0
VERTEX
  5
10A2
  8
DATA
  6
CONTINUOUS
 62
     7
 10
323.02528807758767
 20
652.42523085895016
 30
0.0
  0
VERTEX
  5
10A3
  8
DATA
  6
CONTINUOUS
 62
     7
 10
321.49528807758759
 20
652.42523085895016
 30
0.0
  0
SEQEND
  5
10A4
  8
DATA
  6
CONTINUOUS
 62
     7
  0
POLYLINE
  5
6DB
  8
DATA
  6
CONTINUOUS
 62
     7
 66
     1
 10
0.0
 20
0.0
 30
0.0
 70
     1
  0
VERTEX
  5
10A5
  8
DATA
  6
CONTINUOUS
 62
     7
 10
319.49528807758759
 20
653.95523085895002
 30
0.0
  0
VERTEX
  5
10A6
  8
DATA
  6
CONTINUOUS
 62
     7
 10
321.02528807758762
 20
653.95523085895002
 30
0.0
  0
VERTEX
  5
10A7
  8
DATA
  6
CONTINUOUS
 62
     7
 10
321.02528807758762
 20
652.42523085895016
 30
0.0
  0
VERTEX
  5
10A8
  8
DATA
  6
CONTINUOUS
 62
     7
 10
319.49528807758759
 20
652.42523085895016
 30
0.0
  0
SEQEND
  5
10A9
  8
DATA
  6
CONTINUOUS
 62
     7
  0
POLYLINE
  5
6E2
  8
DATA
  6
CONTINUOUS
 62
     7
 66
     1
 10
0.0
 20
0.0
 30
0.0
 70
     1
  0
VERTEX
  5
10AA
  8
DATA
  6
CONTINUOUS
 62
     7
 10
317.49528807758742
 20
653.95523085895002
 30
0.0
  0
VERTEX
  5
10AB
  8
DATA
  6
CONTINUOUS
 62
     7
 10
319.0252880775875
 20
653.95523085895002
 30
0.0
  0
VERTEX
  5
10AC
  8
DATA
  6
CONTINUOUS
 62
     7
 10
319.0252880775875
 20
652.42523085895016
 30
0.0
  0
VERTEX
  5
10AD
  8
DATA
  6
CONTINUOUS
 62
     7
 10
317.49528807758742
 20
652.42523085895016
 30
0.0
  0
SEQEND
  5
10AE
  8
DATA
  6
CONTINUOUS
 62
     7
  0
POLYLINE
  5
6E9
  8
DATA
  6
CONTINUOUS
 62
     7
 66
     1
 10
0.0
 20
0.0
 30
0.0
 70
     1
  0
VERTEX
  5
10AF
  8
DATA
  6
CONTINUOUS
 62
     7
 10
331.49528807758782
 20
657.95523085895013
 30
0.0
  0
VERTEX
  5
10B0
  8
DATA
  6
CONTINUOUS
 62
     7
 10
333.02528807758767
 20
657.95523085895013
 30
0.0
  0
VERTEX
  5
10B1
  8
DATA
  6
CONTINUOUS
 62
     7
 10
333.02528807758767
 20
656.42523085895016
 30
0.0
  0
VERTEX
  5
10B2
  8
DATA
  6
CONTINUOUS
 62
     7
 10
331.49528807758782
 20
656.42523085895016
 30
0.0
  0
SEQEND
  5
10B3
  8
DATA
  6
CONTINUOUS
 62
     7
  0
POLYLINE
  5
6F0
  8
DATA
  6
CONTINUOUS
 62
     7
 66
     1
 10
0.0
 20
0.0
 30
0.0
 70
     1
  0
VERTEX
  5
10B4
  8
DATA
  6
CONTINUOUS
 62
     7
 10
329.4952880775877
 20
657.95523085895013
 30
0.0
  0
VERTEX
  5
10B5
  8
DATA
  6
CONTINUOUS
 62
     7
 10
331.02528807758767
 20
657.95523085895013
 30
0.0
  0
VERTEX
  5
10B6
  8
DATA
  6
CONTINUOUS
 62
     7
 10
331.02528807758767
 20
656.42523085895016
 30
0.0
  0
VERTEX
  5
10B7
  8
DATA
  6
CONTINUOUS
 62
     7
 10
329.4952880775877
 20
656.42523085895016
 30
0.0
  0
SEQEND
  5
10B8
  8
DATA
  6
CONTINUOUS
 62
     7
  0
POLYLINE
  5
6F7
  8
DATA
  6
CONTINUOUS
 62
     7
 66
     1
 10
0.0
 20
0.0
 30
0.0
 70
     1
  0
VERTEX
  5
10B9
  8
DATA
  6
CONTINUOUS
 62
     7
 10
327.49528807758782
 20
657.95523085895013
 30
0.0
  0
VERTEX
  5
10BA
  8
DATA
  6
CONTINUOUS
 62
     7
 10
329.02528807758767
 20
657.95523085895013
 30
0.0
  0
VERTEX
  5
10BB
  8
DATA
  6
CONTINUOUS
 62
     7
 10
329.02528807758767
 20
656.42523085895016
 30
0.0
  0
VERTEX
  5
10BC
  8
DATA
  6
CONTINUOUS
 62
     7
 10
327.49528807758782
 20
656.42523085895016
 30
0.0
  0
SEQEND
  5
10BD
  8
DATA
  6
CONTINUOUS
 62
     7
  0
POLYLINE
  5
6FE
  8
DATA
  6
CONTINUOUS
 62
     7
 66
     1
 10
0.0
 20
0.0
 30
0.0
 70
     1
  0
VERTEX
  5
10BE
  8
DATA
  6
CONTINUOUS
 62
     7
 10
325.49528807758782
 20
657.95523085895013
 30
0.0
  0
VERTEX
  5
10BF
  8
DATA
  6
CONTINUOUS
 62
     7
 10
327.02528807758767
 20
657.95523085895013
 30
0.0
  0
VERTEX
  5
10C0
  8
DATA
  6
CONTINUOUS
 62
     7
 10
327.02528807758767
 20
656.42523085895016
 30
0.0
  0
VERTEX
  5
10C1
  8
DATA
  6
CONTINUOUS
 62
     7
 10
325.49528807758782
 20
656.42523085895016
 30
0.0
  0
SEQEND
  5
10C2
  8
DATA
  6
CONTINUOUS
 62
     7
  0
POLYLINE
  5
705
  8
DATA
  6
CONTINUOUS
 62
     7
 66
     1
 10
0.0
 20
0.0
 30
0.0
 70
     1
  0
VERTEX
  5
10C3
  8
DATA
  6
CONTINUOUS
 62
     7
 10
323.49528807758782
 20
657.95523085895013
 30
0.0
  0
VERTEX
  5
10C4
  8
DATA
  6
CONTINUOUS
 62
     7
 10
325.02528807758767
 20
657.95523085895013
 30
0.0
  0
VERTEX
  5
10C5
  8
DATA
  6
CONTINUOUS
 62
     7
 10
325.02528807758767
 20
656.42523085895016
 30
0.0
  0
VERTEX
  5
10C6
  8
DATA
  6
CONTINUOUS
 62
     7
 10
323.49528807758782
 20
656.42523085895016
 30
0.0
  0
SEQEND
  5
10C7
  8
DATA
  6
CONTINUOUS
 62
     7
  0
POLYLINE
  5
70C
  8
DATA
  6
CONTINUOUS
 62
     7
 66
     1
 10
0.0
 20
0.0
 30
0.0
 70
     1
  0
VERTEX
  5
10C8
  8
DATA
  6
CONTINUOUS
 62
     7
 10
321.49528807758759
 20
657.95523085895013
 30
0.0
  0
VERTEX
  5
10C9
  8
DATA
  6
CONTINUOUS
 62
     7
 10
323.02528807758767
 20
657.95523085895013
 30
0.0
  0
VERTEX
  5
10CA
  8
DATA
  6
CONTINUOUS
 62
     7
 10
323.02528807758767
 20
656.42523085895016
 30
0.0
  0
VERTEX
  5
10CB
  8
DATA
  6
CONTINUOUS
 62
     7
 10
321.49528807758759
 20
656.42523085895016
 30
0.0
  0
SEQEND
  5
10CC
  8
DATA
  6
CONTINUOUS
 62
     7
  0
POLYLINE
  5
713
  8
DATA
  6
CONTINUOUS
 62
     7
 66
     1
 10
0.0
 20
0.0
 30
0.0
 70
     1
  0
VERTEX
  5
10CD
  8
DATA
  6
CONTINUOUS
 62
     7
 10
319.49528807758759
 20
657.95523085895013
 30
0.0
  0
VERTEX
  5
10CE
  8
DATA
  6
CONTINUOUS
 62
     7
 10
321.02528807758762
 20
657.95523085895013
 30
0.0
  0
VERTEX
  5
10CF
  8
DATA
  6
CONTINUOUS
 62
     7
 10
321.02528807758762
 20
656.42523085895016
 30
0.0
  0
VERTEX
  5
10D0
  8
DATA
  6
CONTINUOUS
 62
     7
 10
319.49528807758759
 20
656.42523085895016
 30
0.0
  0
SEQEND
  5
10D1
  8
DATA
  6
CONTINUOUS
 62
     7
  0
POLYLINE
  5
71A
  8
DATA
  6
CONTINUOUS
 62
     7
 66
     1
 10
0.0
 20
0.0
 30
0.0
 70
     1
  0
VERTEX
  5
10D2
  8
DATA
  6
CONTINUOUS
 62
     7
 10
317.49528807758742
 20
657.95523085895013
 30
0.0
  0
VERTEX
  5
10D3
  8
DATA
  6
CONTINUOUS
 62
     7
 10
319.0252880775875
 20
657.95523085895013
 30
0.0
  0
VERTEX
  5
10D4
  8
DATA
  6
CONTINUOUS
 62
     7
 10
319.0252880775875
 20
656.42523085895016
 30
0.0
  0
VERTEX
  5
10D5
  8
DATA
  6
CONTINUOUS
 62
     7
 10
317.49528807758742
 20
656.42523085895016
 30
0.0
  0
SEQEND
  5
10D6
  8
DATA
  6
CONTINUOUS
 62
     7
  0
POLYLINE
  5
721
  8
DATA
  6
CONTINUOUS
 62
     7
 66
     1
 10
0.0
 20
0.0
 30
0.0
  0
VERTEX
  5
10D7
  8
DATA
  6
CONTINUOUS
 62
     7
 10
313.47522190640768
 20
654.79023085895017
 30
0.0
  0
VERTEX
  5
10D8
  8
DATA
  6
CONTINUOUS
 62
     7
 10
311.37522190640772
 20
654.79023085895017
 30
0.0
  0
VERTEX
  5
10D9
  8
DATA
  6
CONTINUOUS
 62
     7
 10
311.37522190640772
 20
655.59023085895012
 30
0.0
  0
VERTEX
  5
10DA
  8
DATA
  6
CONTINUOUS
 62
     7
 10
313.47522190640768
 20
655.59023085895012
 30
0.0
  0
SEQEND
  5
10DB
  8
DATA
  6
CONTINUOUS
 62
     7
  0
POLYLINE
  5
728
  8
DATA
  6
CONTINUOUS
 62
     7
 66
     1
 10
0.0
 20
0.0
 30
0.0
  0
VERTEX
  5
10DC
  8
DATA
  6
CONTINUOUS
 62
     7
 10
314.27522190640758
 20
655.59023085895012
 30
0.0
  0
VERTEX
  5
10DD
  8
DATA
  6
CONTINUOUS
 62
     7
 10
316.37522190640789
 20
655.59023085895012
 30
0.0
  0
VERTEX
  5
10DE
  8
DATA
  6
CONTINUOUS
 62
     7
 10
316.37522190640789
 20
654.79023085895017
 30
0.0
  0
VERTEX
  5
10DF
  8
DATA
  6
CONTINUOUS
 62
     7
 10
314.27522190640758
 20
654.79023085895017
 30
0.0
  0
SEQEND
  5
10E0
  8
DATA
  6
CONTINUOUS
 62
     7
  0
POLYLINE
  5
72F
  8
DATA
  6
CONTINUOUS
 62
     7
 66
     1
 10
0.0
 20
0.0
 30
0.0
  0
VERTEX
  5
10E1
  8
DATA
  6
CONTINUOUS
 62
     7
 10
313.47522190640768
 20
655.59023085895012
 30
0.0
  0
VERTEX
  5
10E2
  8
DATA
  6
CONTINUOUS
 62
     7
 10
313.47522190640768
 20
657.69023085895014
 30
0.0
  0
VERTEX
  5
10E3
  8
DATA
  6
CONTINUOUS
 62
     7
 10
314.27522190640758
 20
657.69023085895014
 30
0.0
  0
VERTEX
  5
10E4
  8
DATA
  6
CONTINUOUS
 62
     7
 10
314.27522190640758
 20
655.59023085895012
 30
0.0
  0
SEQEND
  5
10E5
  8
DATA
  6
CONTINUOUS
 62
     7
  0
POLYLINE
  5
736
  8
DATA
  6
CONTINUOUS
 62
     7
 66
     1
 10
0.0
 20
0.0
 30
0.0
  0
VERTEX
  5
10E6
  8
DATA
  6
CONTINUOUS
 62
     7
 10
314.27522190640758
 20
654.79023085895017
 30
0.0
  0
VERTEX
  5
10E7
  8
DATA
  6
CONTINUOUS
 62
     7
 10
314.27522190640758
 20
652.69023085895014
 30
0.0
  0
VERTEX
  5
10E8
  8
DATA
  6
CONTINUOUS
 62
     7
 10
313.47522190640768
 20
652.69023085895014
 30
0.0
  0
VERTEX
  5
10E9
  8
DATA
  6
CONTINUOUS
 62
     7
 10
313.47522190640768
 20
654.79023085895017
 30
0.0
  0
SEQEND
  5
10EA
  8
DATA
  6
CONTINUOUS
 62
     7
  0
POLYLINE
  5
73D
  8
DATA
  6
CONTINUOUS
 62
     7
 66
     1
 10
0.0
 20
0.0
 30
0.0
 70
     1
  0
VERTEX
  5
10EB
  8
DATA
  6
CONTINUOUS
 62
     7
 10
314.73550633687938
 20
654.43080304830005
 30
0.0
  0
VERTEX
  5
10EC
  8
DATA
  6
CONTINUOUS
 62
     7
 10
315.7355063368795
 20
654.43080304830005
 30
0.0
  0
VERTEX
  5
10ED
  8
DATA
  6
CONTINUOUS
 62
     7
 10
315.7355063368795
 20
653.43080304830005
 30
0.0
  0
VERTEX
  5
10EE
  8
DATA
  6
CONTINUOUS
 62
     7
 10
314.73550633687938
 20
653.43080304830005
 30
0.0
  0
SEQEND
  5
10EF
  8
DATA
  6
CONTINUOUS
 62
     7
  0
POLYLINE
  5
744
  8
DATA
  6
CONTINUOUS
 62
     7
 66
     1
 10
0.0
 20
0.0
 30
0.0
 70
     1
  0
VERTEX
  5
10F0
  8
DATA
  6
CONTINUOUS
 62
     7
 10
312.01493747593599
 20
654.43080304830005
 30
0.0
  0
VERTEX
  5
10F1
  8
DATA
  6
CONTINUOUS
 62
     7
 10
313.01493747593599
 20
654.43080304830005
 30
0.0
  0
VERTEX
  5
10F2
  8
DATA
  6
CONTINUOUS
 62
     7
 10
313.01493747593599
 20
653.43080304830005
 30
0.0
  0
VERTEX
  5
10F3
  8
DATA
  6
CONTINUOUS
 62
     7
 10
312.01493747593599
 20
653.43080304830005
 30
0.0
  0
SEQEND
  5
10F4
  8
DATA
  6
CONTINUOUS
 62
     7
  0
POLYLINE
  5
74B
  8
DATA
  6
CONTINUOUS
 62
     7
 66
     1
 10
0.0
 20
0.0
 30
0.0
 70
     1
  0
VERTEX
  5
10F5
  8
DATA
  6
CONTINUOUS
 62
     7
 10
314.73550633687938
 20
656.94965866960001
 30
0.0
  0
VERTEX
  5
10F6
  8
DATA
  6
CONTINUOUS
 62
     7
 10
315.7355063368795
 20
656.94965866960001
 30
0.0
  0
VERTEX
  5
10F7
  8
DATA
  6
CONTINUOUS
 62
     7
 10
315.7355063368795
 20
655.94965866960001
 30
0.0
  0
VERTEX
  5
10F8
  8
DATA
  6
CONTINUOUS
 62
     7
 10
314.73550633687938
 20
655.94965866960001
 30
0.0
  0
SEQEND
  5
10F9
  8
DATA
  6
CONTINUOUS
 62
     7
  0
POLYLINE
  5
752
  8
DATA
  6
CONTINUOUS
 62
     7
 66
     1
 10
0.0
 20
0.0
 30
0.0
 70
     1
  0
VERTEX
  5
10FA
  8
DATA
  6
CONTINUOUS
 62
     7
 10
312.01493747593599
 20
656.94965866960001
 30
0.0
  0
VERTEX
  5
10FB
  8
DATA
  6
CONTINUOUS
 62
     7
 10
313.01493747593599
 20
656.94965866960001
 30
0.0
  0
VERTEX
  5
10FC
  8
DATA
  6
CONTINUOUS
 62
     7
 10
313.01493747593599
 20
655.94965866960001
 30
0.0
  0
VERTEX
  5
10FD
  8
DATA
  6
CONTINUOUS
 62
     7
 10
312.01493747593599
 20
655.94965866960001
 30
0.0
  0
SEQEND
  5
10FE
  8
DATA
  6
CONTINUOUS
 62
     7
  0
LINE
  5
759
  8
DATA
  6
CONTINUOUS
 62
     7
 10
333.97059372435558
 20
652.36033916443625
 30
0.0
 11
333.41167652690319
 21
658.21033916443639
 31
0.0
  0
LINE
  5
75A
  8
DATA
  6
CONTINUOUS
 62
     7
 10
310.07985008846077
 20
652.36033916443625
 30
0.0
 11
310.63876728591299
 21
658.21033916443639
 31
0.0
  0
ARC
  5
75B
  8
DATA
  6
CONTINUOUS
 62
     7
 10
332.97512679360023
 20
652.26523085894996
 30
0.0
 40
1.0
 50
270.0
 51
5.4575534851075531
  0
ARC
  5
75C
  8
DATA
  6
CONTINUOUS
 62
     7
 10
311.07531701921607
 20
652.26523085894996
 30
0.0
 40
0.9999999999998908
 50
174.54244651489179
 51
270.0
  0
ARC
  5
75D
  8
DATA
  6
CONTINUOUS
 62
     7
 10
332.41620959614789
 20
658.11523085894999
 30
0.0
 40
1.000000000000032
 50
5.4575534851074012
 51
90.0
  0
ARC
  5
75E
  8
DATA
  6
CONTINUOUS
 62
     7
 10
311.63423421666829
 20
658.11523085894999
 30
0.0
 40
1.0
 50
90.0
 51
174.54244651489509
  0
CIRCLE
  5
75F
  8
DATA
  6
CONTINUOUS
 62
     7
 10
261.76932452468208
 20
655.19023085895014
 30
0.0
 40
1.175000000000068
  0
POLYLINE
  5
760
  8
DATA
  6
CONTINUOUS
 62
     7
 66
     1
 10
0.0
 20
0.0
 30
0.0
 70
     1
  0
VERTEX
  5
10FF
  8
DATA
  6
CONTINUOUS
 62
     7
 10
261.76932452468208
 20
652.4902308589501
 30
0.0
  0
VERTEX
  5
1100
  8
DATA
  6
CONTINUOUS
 62
     7
 10
259.4310559344641
 20
653.84023085895012
 30
0.0
  0
VERTEX
  5
1101
  8
DATA
  6
CONTINUOUS
 62
     7
 10
259.4310559344641
 20
656.54023085895017
 30
0.0
  0
VERTEX
  5
1102
  8
DATA
  6
CONTINUOUS
 62
     7
 10
261.76932452468208
 20
657.89023085894996
 30
0.0
  0
VERTEX
  5
1103
  8
DATA
  6
CONTINUOUS
 62
     7
 10
264.10759311490011
 20
656.54023085895017
 30
0.0
  0
VERTEX
  5
1104
  8
DATA
  6
CONTINUOUS
 62
     7
 10
264.10759311490011
 20
653.84023085895012
 30
0.0
  0
SEQEND
  5
1105
  8
DATA
  6
CONTINUOUS
 62
     7
  0
CIRCLE
  5
769
  8
DATA
  6
CONTINUOUS
 62
     7
 10
294.26932452468247
 20
655.19023085895014
 30
0.0
 40
1.175000000000068
  0
POLYLINE
  5
76A
  8
DATA
  6
CONTINUOUS
 62
     7
 66
     1
 10
0.0
 20
0.0
 30
0.0
 70
     1
  0
VERTEX
  5
1106
  8
DATA
  6
CONTINUOUS
 62
     7
 10
294.26932452468247
 20
652.4902308589501
 30
0.0
  0
VERTEX
  5
1107
  8
DATA
  6
CONTINUOUS
 62
     7
 10
291.93105593446461
 20
653.84023085895012
 30
0.0
  0
VERTEX
  5
1108
  8
DATA
  6
CONTINUOUS
 62
     7
 10
291.93105593446461
 20
656.54023085895017
 30
0.0
  0
VERTEX
  5
1109
  8
DATA
  6
CONTINUOUS
 62
     7
 10
294.26932452468247
 20
657.89023085894996
 30
0.0
  0
VERTEX
  5
110A
  8
DATA
  6
CONTINUOUS
 62
     7
 10
296.60759311490062
 20
656.54023085895017
 30
0.0
  0
VERTEX
  5
110B
  8
DATA
  6
CONTINUOUS
 62
     7
 10
296.60759311490062
 20
653.84023085895012
 30
0.0
  0
SEQEND
  5
110C
  8
DATA
  6
CONTINUOUS
 62
     7
  0
LINE
  5
773
  8
DATA
  6
CONTINUOUS
 62
     7
 10
288.97512679360023
 20
651.26523085894996
 30
0.0
 11
267.07531701921607
 21
651.26523085894996
 31
0.0
  0
LINE
  5
774
  8
DATA
  6
CONTINUOUS
 62
     7
 10
267.63423421666829
 20
659.11523085894999
 30
0.0
 11
288.41620959614789
 21
659.11523085894999
 31
0.0
  0
POLYLINE
  5
775
  8
DATA
  6
CONTINUOUS
 62
     7
 66
     1
 10
0.0
 20
0.0
 30
0.0
 70
     1
  0
VERTEX
  5
110D
  8
DATA
  6
CONTINUOUS
 62
     7
 10
287.49528807758782
 20
655.95523085895013
 30
0.0
  0
VERTEX
  5
110E
  8
DATA
  6
CONTINUOUS
 62
     7
 10
289.02528807758767
 20
655.95523085895013
 30
0.0
  0
VERTEX
  5
110F
  8
DATA
  6
CONTINUOUS
 62
     7
 10
289.02528807758767
 20
654.42523085895004
 30
0.0
  0
VERTEX
  5
1110
  8
DATA
  6
CONTINUOUS
 62
     7
 10
287.49528807758782
 20
654.42523085895004
 30
0.0
  0
SEQEND
  5
1111
  8
DATA
  6
CONTINUOUS
 62
     7
  0
POLYLINE
  5
77C
  8
DATA
  6
CONTINUOUS
 62
     7
 66
     1
 10
0.0
 20
0.0
 30
0.0
 70
     1
  0
VERTEX
  5
1112
  8
DATA
  6
CONTINUOUS
 62
     7
 10
285.4952880775877
 20
655.95523085895013
 30
0.0
  0
VERTEX
  5
1113
  8
DATA
  6
CONTINUOUS
 62
     7
 10
287.02528807758767
 20
655.95523085895013
 30
0.0
  0
VERTEX
  5
1114
  8
DATA
  6
CONTINUOUS
 62
     7
 10
287.02528807758767
 20
654.42523085895004
 30
0.0
  0
VERTEX
  5
1115
  8
DATA
  6
CONTINUOUS
 62
     7
 10
285.4952880775877
 20
654.42523085895004
 30
0.0
  0
SEQEND
  5
1116
  8
DATA
  6
CONTINUOUS
 62
     7
  0
POLYLINE
  5
783
  8
DATA
  6
CONTINUOUS
 62
     7
 66
     1
 10
0.0
 20
0.0
 30
0.0
 70
     1
  0
VERTEX
  5
1117
  8
DATA
  6
CONTINUOUS
 62
     7
 10
283.49528807758782
 20
655.95523085895013
 30
0.0
  0
VERTEX
  5
1118
  8
DATA
  6
CONTINUOUS
 62
     7
 10
285.02528807758767
 20
655.95523085895013
 30
0.0
  0
VERTEX
  5
1119
  8
DATA
  6
CONTINUOUS
 62
     7
 10
285.02528807758767
 20
654.42523085895004
 30
0.0
  0
VERTEX
  5
111A
  8
DATA
  6
CONTINUOUS
 62
     7
 10
283.49528807758782
 20
654.42523085895004
 30
0.0
  0
SEQEND
  5
111B
  8
DATA
  6
CONTINUOUS
 62
     7
  0
POLYLINE
  5
78A
  8
DATA
  6
CONTINUOUS
 62
     7
 66
     1
 10
0.0
 20
0.0
 30
0.0
 70
     1
  0
VERTEX
  5
111C
  8
DATA
  6
CONTINUOUS
 62
     7
 10
281.49528807758782
 20
655.95523085895013
 30
0.0
  0
VERTEX
  5
111D
  8
DATA
  6
CONTINUOUS
 62
     7
 10
283.02528807758767
 20
655.95523085895013
 30
0.0
  0
VERTEX
  5
111E
  8
DATA
  6
CONTINUOUS
 62
     7
 10
283.02528807758767
 20
654.42523085895004
 30
0.0
  0
VERTEX
  5
111F
  8
DATA
  6
CONTINUOUS
 62
     7
 10
281.49528807758782
 20
654.42523085895004
 30
0.0
  0
SEQEND
  5
1120
  8
DATA
  6
CONTINUOUS
 62
     7
  0
POLYLINE
  5
791
  8
DATA
  6
CONTINUOUS
 62
     7
 66
     1
 10
0.0
 20
0.0
 30
0.0
 70
     1
  0
VERTEX
  5
1121
  8
DATA
  6
CONTINUOUS
 62
     7
 10
279.4952880775877
 20
655.95523085895013
 30
0.0
  0
VERTEX
  5
1122
  8
DATA
  6
CONTINUOUS
 62
     7
 10
281.02528807758767
 20
655.95523085895013
 30
0.0
  0
VERTEX
  5
1123
  8
DATA
  6
CONTINUOUS
 62
     7
 10
281.02528807758767
 20
654.42523085895004
 30
0.0
  0
VERTEX
  5
1124
  8
DATA
  6
CONTINUOUS
 62
     7
 10
279.4952880775877
 20
654.42523085895004
 30
0.0
  0
SEQEND
  5
1125
  8
DATA
  6
CONTINUOUS
 62
     7
  0
POLYLINE
  5
798
  8
DATA
  6
CONTINUOUS
 62
     7
 66
     1
 10
0.0
 20
0.0
 30
0.0
 70
     1
  0
VERTEX
  5
1126
  8
DATA
  6
CONTINUOUS
 62
     7
 10
277.49528807758759
 20
655.95523085895013
 30
0.0
  0
VERTEX
  5
1127
  8
DATA
  6
CONTINUOUS
 62
     7
 10
279.02528807758767
 20
655.95523085895013
 30
0.0
  0
VERTEX
  5
1128
  8
DATA
  6
CONTINUOUS
 62
     7
 10
279.02528807758767
 20
654.42523085895004
 30
0.0
  0
VERTEX
  5
1129
  8
DATA
  6
CONTINUOUS
 62
     7
 10
277.49528807758759
 20
654.42523085895004
 30
0.0
  0
SEQEND
  5
112A
  8
DATA
  6
CONTINUOUS
 62
     7
  0
POLYLINE
  5
79F
  8
DATA
  6
CONTINUOUS
 62
     7
 66
     1
 10
0.0
 20
0.0
 30
0.0
 70
     1
  0
VERTEX
  5
112B
  8
DATA
  6
CONTINUOUS
 62
     7
 10
275.49528807758759
 20
655.95523085895013
 30
0.0
  0
VERTEX
  5
112C
  8
DATA
  6
CONTINUOUS
 62
     7
 10
277.0252880775875
 20
655.95523085895013
 30
0.0
  0
VERTEX
  5
112D
  8
DATA
  6
CONTINUOUS
 62
     7
 10
277.0252880775875
 20
654.42523085895004
 30
0.0
  0
VERTEX
  5
112E
  8
DATA
  6
CONTINUOUS
 62
     7
 10
275.49528807758759
 20
654.42523085895004
 30
0.0
  0
SEQEND
  5
112F
  8
DATA
  6
CONTINUOUS
 62
     7
  0
POLYLINE
  5
7A6
  8
DATA
  6
CONTINUOUS
 62
     7
 66
     1
 10
0.0
 20
0.0
 30
0.0
 70
     1
  0
VERTEX
  5
1130
  8
DATA
  6
CONTINUOUS
 62
     7
 10
273.49528807758742
 20
655.95523085895013
 30
0.0
  0
VERTEX
  5
1131
  8
DATA
  6
CONTINUOUS
 62
     7
 10
275.0252880775875
 20
655.95523085895013
 30
0.0
  0
VERTEX
  5
1132
  8
DATA
  6
CONTINUOUS
 62
     7
 10
275.0252880775875
 20
654.42523085895004
 30
0.0
  0
VERTEX
  5
1133
  8
DATA
  6
CONTINUOUS
 62
     7
 10
273.49528807758742
 20
654.42523085895004
 30
0.0
  0
SEQEND
  5
1134
  8
DATA
  6
CONTINUOUS
 62
     7
  0
POLYLINE
  5
7AD
  8
DATA
  6
CONTINUOUS
 62
     7
 66
     1
 10
0.0
 20
0.0
 30
0.0
 70
     1
  0
VERTEX
  5
1135
  8
DATA
  6
CONTINUOUS
 62
     7
 10
287.49528807758782
 20
653.95523085895002
 30
0.0
  0
VERTEX
  5
1136
  8
DATA
  6
CONTINUOUS
 62
     7
 10
289.02528807758767
 20
653.95523085895002
 30
0.0
  0
VERTEX
  5
1137
  8
DATA
  6
CONTINUOUS
 62
     7
 10
289.02528807758767
 20
652.42523085895016
 30
0.0
  0
VERTEX
  5
1138
  8
DATA
  6
CONTINUOUS
 62
     7
 10
287.49528807758782
 20
652.42523085895016
 30
0.0
  0
SEQEND
  5
1139
  8
DATA
  6
CONTINUOUS
 62
     7
  0
POLYLINE
  5
7B4
  8
DATA
  6
CONTINUOUS
 62
     7
 66
     1
 10
0.0
 20
0.0
 30
0.0
 70
     1
  0
VERTEX
  5
113A
  8
DATA
  6
CONTINUOUS
 62
     7
 10
285.4952880775877
 20
653.95523085895002
 30
0.0
  0
VERTEX
  5
113B
  8
DATA
  6
CONTINUOUS
 62
     7
 10
287.02528807758767
 20
653.95523085895002
 30
0.0
  0
VERTEX
  5
113C
  8
DATA
  6
CONTINUOUS
 62
     7
 10
287.02528807758767
 20
652.42523085895016
 30
0.0
  0
VERTEX
  5
113D
  8
DATA
  6
CONTINUOUS
 62
     7
 10
285.4952880775877
 20
652.42523085895016
 30
0.0
  0
SEQEND
  5
113E
  8
DATA
  6
CONTINUOUS
 62
     7
  0
POLYLINE
  5
7BB
  8
DATA
  6
CONTINUOUS
 62
     7
 66
     1
 10
0.0
 20
0.0
 30
0.0
 70
     1
  0
VERTEX
  5
113F
  8
DATA
  6
CONTINUOUS
 62
     7
 10
283.49528807758782
 20
653.95523085895002
 30
0.0
  0
VERTEX
  5
1140
  8
DATA
  6
CONTINUOUS
 62
     7
 10
285.02528807758767
 20
653.95523085895002
 30
0.0
  0
VERTEX
  5
1141
  8
DATA
  6
CONTINUOUS
 62
     7
 10
285.02528807758767
 20
652.42523085895016
 30
0.0
  0
VERTEX
  5
1142
  8
DATA
  6
CONTINUOUS
 62
     7
 10
283.49528807758782
 20
652.42523085895016
 30
0.0
  0
SEQEND
  5
1143
  8
DATA
  6
CONTINUOUS
 62
     7
  0
POLYLINE
  5
7C2
  8
DATA
  6
CONTINUOUS
 62
     7
 66
     1
 10
0.0
 20
0.0
 30
0.0
 70
     1
  0
VERTEX
  5
1144
  8
DATA
  6
CONTINUOUS
 62
     7
 10
281.49528807758782
 20
653.95523085895002
 30
0.0
  0
VERTEX
  5
1145
  8
DATA
  6
CONTINUOUS
 62
     7
 10
283.02528807758767
 20
653.95523085895002
 30
0.0
  0
VERTEX
  5
1146
  8
DATA
  6
CONTINUOUS
 62
     7
 10
283.02528807758767
 20
652.42523085895016
 30
0.0
  0
VERTEX
  5
1147
  8
DATA
  6
CONTINUOUS
 62
     7
 10
281.49528807758782
 20
652.42523085895016
 30
0.0
  0
SEQEND
  5
1148
  8
DATA
  6
CONTINUOUS
 62
     7
  0
POLYLINE
  5
7C9
  8
DATA
  6
CONTINUOUS
 62
     7
 66
     1
 10
0.0
 20
0.0
 30
0.0
 70
     1
  0
VERTEX
  5
1149
  8
DATA
  6
CONTINUOUS
 62
     7
 10
279.4952880775877
 20
653.95523085895002
 30
0.0
  0
VERTEX
  5
114A
  8
DATA
  6
CONTINUOUS
 62
     7
 10
281.02528807758767
 20
653.95523085895002
 30
0.0
  0
VERTEX
  5
114B
  8
DATA
  6
CONTINUOUS
 62
     7
 10
281.02528807758767
 20
652.42523085895016
 30
0.0
  0
VERTEX
  5
114C
  8
DATA
  6
CONTINUOUS
 62
     7
 10
279.4952880775877
 20
652.42523085895016
 30
0.0
  0
SEQEND
  5
114D
  8
DATA
  6
CONTINUOUS
 62
     7
  0
POLYLINE
  5
7D0
  8
DATA
  6
CONTINUOUS
 62
     7
 66
     1
 10
0.0
 20
0.0
 30
0.0
 70
     1
  0
VERTEX
  5
114E
  8
DATA
  6
CONTINUOUS
 62
     7
 10
277.49528807758759
 20
653.95523085895002
 30
0.0
  0
VERTEX
  5
114F
  8
DATA
  6
CONTINUOUS
 62
     7
 10
279.02528807758767
 20
653.95523085895002
 30
0.0
  0
VERTEX
  5
1150
  8
DATA
  6
CONTINUOUS
 62
     7
 10
279.02528807758767
 20
652.42523085895016
 30
0.0
  0
VERTEX
  5
1151
  8
DATA
  6
CONTINUOUS
 62
     7
 10
277.49528807758759
 20
652.42523085895016
 30
0.0
  0
SEQEND
  5
1152
  8
DATA
  6
CONTINUOUS
 62
     7
  0
POLYLINE
  5
7D7
  8
DATA
  6
CONTINUOUS
 62
     7
 66
     1
 10
0.0
 20
0.0
 30
0.0
 70
     1
  0
VERTEX
  5
1153
  8
DATA
  6
CONTINUOUS
 62
     7
 10
275.49528807758759
 20
653.95523085895002
 30
0.0
  0
VERTEX
  5
1154
  8
DATA
  6
CONTINUOUS
 62
     7
 10
277.0252880775875
 20
653.95523085895002
 30
0.0
  0
VERTEX
  5
1155
  8
DATA
  6
CONTINUOUS
 62
     7
 10
277.0252880775875
 20
652.42523085895016
 30
0.0
  0
VERTEX
  5
1156
  8
DATA
  6
CONTINUOUS
 62
     7
 10
275.49528807758759
 20
652.42523085895016
 30
0.0
  0
SEQEND
  5
1157
  8
DATA
  6
CONTINUOUS
 62
     7
  0
POLYLINE
  5
7DE
  8
DATA
  6
CONTINUOUS
 62
     7
 66
     1
 10
0.0
 20
0.0
 30
0.0
 70
     1
  0
VERTEX
  5
1158
  8
DATA
  6
CONTINUOUS
 62
     7
 10
273.49528807758742
 20
653.95523085895002
 30
0.0
  0
VERTEX
  5
1159
  8
DATA
  6
CONTINUOUS
 62
     7
 10
275.0252880775875
 20
653.95523085895002
 30
0.0
  0
VERTEX
  5
115A
  8
DATA
  6
CONTINUOUS
 62
     7
 10
275.0252880775875
 20
652.42523085895016
 30
0.0
  0
VERTEX
  5
115B
  8
DATA
  6
CONTINUOUS
 62
     7
 10
273.49528807758742
 20
652.42523085895016
 30
0.0
  0
SEQEND
  5
115C
  8
DATA
  6
CONTINUOUS
 62
     7
  0
POLYLINE
  5
7E5
  8
DATA
  6
CONTINUOUS
 62
     7
 66
     1
 10
0.0
 20
0.0
 30
0.0
 70
     1
  0
VERTEX
  5
115D
  8
DATA
  6
CONTINUOUS
 62
     7
 10
287.49528807758782
 20
657.95523085895013
 30
0.0
  0
VERTEX
  5
115E
  8
DATA
  6
CONTINUOUS
 62
     7
 10
289.02528807758767
 20
657.95523085895013
 30
0.0
  0
VERTEX
  5
115F
  8
DATA
  6
CONTINUOUS
 62
     7
 10
289.02528807758767
 20
656.42523085895016
 30
0.0
  0
VERTEX
  5
1160
  8
DATA
  6
CONTINUOUS
 62
     7
 10
287.49528807758782
 20
656.42523085895016
 30
0.0
  0
SEQEND
  5
1161
  8
DATA
  6
CONTINUOUS
 62
     7
  0
POLYLINE
  5
7EC
  8
DATA
  6
CONTINUOUS
 62
     7
 66
     1
 10
0.0
 20
0.0
 30
0.0
 70
     1
  0
VERTEX
  5
1162
  8
DATA
  6
CONTINUOUS
 62
     7
 10
285.4952880775877
 20
657.95523085895013
 30
0.0
  0
VERTEX
  5
1163
  8
DATA
  6
CONTINUOUS
 62
     7
 10
287.02528807758767
 20
657.95523085895013
 30
0.0
  0
VERTEX
  5
1164
  8
DATA
  6
CONTINUOUS
 62
     7
 10
287.02528807758767
 20
656.42523085895016
 30
0.0
  0
VERTEX
  5
1165
  8
DATA
  6
CONTINUOUS
 62
     7
 10
285.4952880775877
 20
656.42523085895016
 30
0.0
  0
SEQEND
  5
1166
  8
DATA
  6
CONTINUOUS
 62
     7
  0
POLYLINE
  5
7F3
  8
DATA
  6
CONTINUOUS
 62
     7
 66
     1
 10
0.0
 20
0.0
 30
0.0
 70
     1
  0
VERTEX
  5
1167
  8
DATA
  6
CONTINUOUS
 62
     7
 10
283.49528807758782
 20
657.95523085895013
 30
0.0
  0
VERTEX
  5
1168
  8
DATA
  6
CONTINUOUS
 62
     7
 10
285.02528807758767
 20
657.95523085895013
 30
0.0
  0
VERTEX
  5
1169
  8
DATA
  6
CONTINUOUS
 62
     7
 10
285.02528807758767
 20
656.42523085895016
 30
0.0
  0
VERTEX
  5
116A
  8
DATA
  6
CONTINUOUS
 62
     7
 10
283.49528807758782
 20
656.42523085895016
 30
0.0
  0
SEQEND
  5
116B
  8
DATA
  6
CONTINUOUS
 62
     7
  0
POLYLINE
  5
7FA
  8
DATA
  6
CONTINUOUS
 62
     7
 66
     1
 10
0.0
 20
0.0
 30
0.0
 70
     1
  0
VERTEX
  5
116C
  8
DATA
  6
CONTINUOUS
 62
     7
 10
281.49528807758782
 20
657.95523085895013
 30
0.0
  0
VERTEX
  5
116D
  8
DATA
  6
CONTINUOUS
 62
     7
 10
283.02528807758767
 20
657.95523085895013
 30
0.0
  0
VERTEX
  5
116E
  8
DATA
  6
CONTINUOUS
 62
     7
 10
283.02528807758767
 20
656.42523085895016
 30
0.0
  0
VERTEX
  5
116F
  8
DATA
  6
CONTINUOUS
 62
     7
 10
281.49528807758782
 20
656.42523085895016
 30
0.0
  0
SEQEND
  5
1170
  8
DATA
  6
CONTINUOUS
 62
     7
  0
POLYLINE
  5
801
  8
DATA
  6
CONTINUOUS
 62
     7
 66
     1
 10
0.0
 20
0.0
 30
0.0
 70
     1
  0
VERTEX
  5
1171
  8
DATA
  6
CONTINUOUS
 62
     7
 10
279.4952880775877
 20
657.95523085895013
 30
0.0
  0
VERTEX
  5
1172
  8
DATA
  6
CONTINUOUS
 62
     7
 10
281.02528807758767
 20
657.95523085895013
 30
0.0
  0
VERTEX
  5
1173
  8
DATA
  6
CONTINUOUS
 62
     7
 10
281.02528807758767
 20
656.42523085895016
 30
0.0
  0
VERTEX
  5
1174
  8
DATA
  6
CONTINUOUS
 62
     7
 10
279.4952880775877
 20
656.42523085895016
 30
0.0
  0
SEQEND
  5
1175
  8
DATA
  6
CONTINUOUS
 62
     7
  0
POLYLINE
  5
808
  8
DATA
  6
CONTINUOUS
 62
     7
 66
     1
 10
0.0
 20
0.0
 30
0.0
 70
     1
  0
VERTEX
  5
1176
  8
DATA
  6
CONTINUOUS
 62
     7
 10
277.49528807758759
 20
657.95523085895013
 30
0.0
  0
VERTEX
  5
1177
  8
DATA
  6
CONTINUOUS
 62
     7
 10
279.02528807758767
 20
657.95523085895013
 30
0.0
  0
VERTEX
  5
1178
  8
DATA
  6
CONTINUOUS
 62
     7
 10
279.02528807758767
 20
656.42523085895016
 30
0.0
  0
VERTEX
  5
1179
  8
DATA
  6
CONTINUOUS
 62
     7
 10
277.49528807758759
 20
656.42523085895016
 30
0.0
  0
SEQEND
  5
117A
  8
DATA
  6
CONTINUOUS
 62
     7
  0
POLYLINE
  5
80F
  8
DATA
  6
CONTINUOUS
 62
     7
 66
     1
 10
0.0
 20
0.0
 30
0.0
 70
     1
  0
VERTEX
  5
117B
  8
DATA
  6
CONTINUOUS
 62
     7
 10
275.49528807758759
 20
657.95523085895013
 30
0.0
  0
VERTEX
  5
117C
  8
DATA
  6
CONTINUOUS
 62
     7
 10
277.0252880775875
 20
657.95523085895013
 30
0.0
  0
VERTEX
  5
117D
  8
DATA
  6
CONTINUOUS
 62
     7
 10
277.0252880775875
 20
656.42523085895016
 30
0.0
  0
VERTEX
  5
117E
  8
DATA
  6
CONTINUOUS
 62
     7
 10
275.49528807758759
 20
656.42523085895016
 30
0.0
  0
SEQEND
  5
117F
  8
DATA
  6
CONTINUOUS
 62
     7
  0
POLYLINE
  5
816
  8
DATA
  6
CONTINUOUS
 62
     7
 66
     1
 10
0.0
 20
0.0
 30
0.0
 70
     1
  0
VERTEX
  5
1180
  8
DATA
  6
CONTINUOUS
 62
     7
 10
273.49528807758742
 20
657.95523085895013
 30
0.0
  0
VERTEX
  5
1181
  8
DATA
  6
CONTINUOUS
 62
     7
 10
275.0252880775875
 20
657.95523085895013
 30
0.0
  0
VERTEX
  5
1182
  8
DATA
  6
CONTINUOUS
 62
     7
 10
275.0252880775875
 20
656.42523085895016
 30
0.0
  0
VERTEX
  5
1183
  8
DATA
  6
CONTINUOUS
 62
     7
 10
273.49528807758742
 20
656.42523085895016
 30
0.0
  0
SEQEND
  5
1184
  8
DATA
  6
CONTINUOUS
 62
     7
  0
POLYLINE
  5
81D
  8
DATA
  6
CONTINUOUS
 62
     7
 66
     1
 10
0.0
 20
0.0
 30
0.0
  0
VERTEX
  5
1185
  8
DATA
  6
CONTINUOUS
 62
     7
 10
269.47522190640768
 20
654.79023085895017
 30
0.0
  0
VERTEX
  5
1186
  8
DATA
  6
CONTINUOUS
 62
     7
 10
267.37522190640772
 20
654.79023085895017
 30
0.0
  0
VERTEX
  5
1187
  8
DATA
  6
CONTINUOUS
 62
     7
 10
267.37522190640772
 20
655.59023085895012
 30
0.0
  0
VERTEX
  5
1188
  8
DATA
  6
CONTINUOUS
 62
     7
 10
269.47522190640768
 20
655.59023085895012
 30
0.0
  0
SEQEND
  5
1189
  8
DATA
  6
CONTINUOUS
 62
     7
  0
POLYLINE
  5
824
  8
DATA
  6
CONTINUOUS
 62
     7
 66
     1
 10
0.0
 20
0.0
 30
0.0
  0
VERTEX
  5
118A
  8
DATA
  6
CONTINUOUS
 62
     7
 10
270.27522190640758
 20
655.59023085895012
 30
0.0
  0
VERTEX
  5
118B
  8
DATA
  6
CONTINUOUS
 62
     7
 10
272.37522190640789
 20
655.59023085895012
 30
0.0
  0
VERTEX
  5
118C
  8
DATA
  6
CONTINUOUS
 62
     7
 10
272.37522190640789
 20
654.79023085895017
 30
0.0
  0
VERTEX
  5
118D
  8
DATA
  6
CONTINUOUS
 62
     7
 10
270.27522190640758
 20
654.79023085895017
 30
0.0
  0
SEQEND
  5
118E
  8
DATA
  6
CONTINUOUS
 62
     7
  0
POLYLINE
  5
82B
  8
DATA
  6
CONTINUOUS
 62
     7
 66
     1
 10
0.0
 20
0.0
 30
0.0
  0
VERTEX
  5
118F
  8
DATA
  6
CONTINUOUS
 62
     7
 10
269.47522190640768
 20
655.59023085895012
 30
0.0
  0
VERTEX
  5
1190
  8
DATA
  6
CONTINUOUS
 62
     7
 10
269.47522190640768
 20
657.69023085895014
 30
0.0
  0
VERTEX
  5
1191
  8
DATA
  6
CONTINUOUS
 62
     7
 10
270.27522190640758
 20
657.69023085895014
 30
0.0
  0
VERTEX
  5
1192
  8
DATA
  6
CONTINUOUS
 62
     7
 10
270.27522190640758
 20
655.59023085895012
 30
0.0
  0
SEQEND
  5
1193
  8
DATA
  6
CONTINUOUS
 62
     7
  0
POLYLINE
  5
832
  8
DATA
  6
CONTINUOUS
 62
     7
 66
     1
 10
0.0
 20
0.0
 30
0.0
  0
VERTEX
  5
1194
  8
DATA
  6
CONTINUOUS
 62
     7
 10
270.27522190640758
 20
654.79023085895017
 30
0.0
  0
VERTEX
  5
1195
  8
DATA
  6
CONTINUOUS
 62
     7
 10
270.27522190640758
 20
652.69023085895014
 30
0.0
  0
VERTEX
  5
1196
  8
DATA
  6
CONTINUOUS
 62
     7
 10
269.47522190640768
 20
652.69023085895014
 30
0.0
  0
VERTEX
  5
1197
  8
DATA
  6
CONTINUOUS
 62
     7
 10
269.47522190640768
 20
654.79023085895017
 30
0.0
  0
SEQEND
  5
1198
  8
DATA
  6
CONTINUOUS
 62
     7
  0
POLYLINE
  5
839
  8
DATA
  6
CONTINUOUS
 62
     7
 66
     1
 10
0.0
 20
0.0
 30
0.0
 70
     1
  0
VERTEX
  5
1199
  8
DATA
  6
CONTINUOUS
 62
     7
 10
270.73550633687938
 20
654.43080304830005
 30
0.0
  0
VERTEX
  5
119A
  8
DATA
  6
CONTINUOUS
 62
     7
 10
271.7355063368795
 20
654.43080304830005
 30
0.0
  0
VERTEX
  5
119B
  8
DATA
  6
CONTINUOUS
 62
     7
 10
271.7355063368795
 20
653.43080304830005
 30
0.0
  0
VERTEX
  5
119C
  8
DATA
  6
CONTINUOUS
 62
     7
 10
270.73550633687938
 20
653.43080304830005
 30
0.0
  0
SEQEND
  5
119D
  8
DATA
  6
CONTINUOUS
 62
     7
  0
POLYLINE
  5
840
  8
DATA
  6
CONTINUOUS
 62
     7
 66
     1
 10
0.0
 20
0.0
 30
0.0
 70
     1
  0
VERTEX
  5
119E
  8
DATA
  6
CONTINUOUS
 62
     7
 10
268.01493747593599
 20
654.43080304830005
 30
0.0
  0
VERTEX
  5
119F
  8
DATA
  6
CONTINUOUS
 62
     7
 10
269.01493747593599
 20
654.43080304830005
 30
0.0
  0
VERTEX
  5
11A0
  8
DATA
  6
CONTINUOUS
 62
     7
 10
269.01493747593599
 20
653.43080304830005
 30
0.0
  0
VERTEX
  5
11A1
  8
DATA
  6
CONTINUOUS
 62
     7
 10
268.01493747593599
 20
653.43080304830005
 30
0.0
  0
SEQEND
  5
11A2
  8
DATA
  6
CONTINUOUS
 62
     7
  0
POLYLINE
  5
847
  8
DATA
  6
CONTINUOUS
 62
     7
 66
     1
 10
0.0
 20
0.0
 30
0.0
 70
     1
  0
VERTEX
  5
11A3
  8
DATA
  6
CONTINUOUS
 62
     7
 10
270.73550633687938
 20
656.94965866960001
 30
0.0
  0
VERTEX
  5
11A4
  8
DATA
  6
CONTINUOUS
 62
     7
 10
271.7355063368795
 20
656.94965866960001
 30
0.0
  0
VERTEX
  5
11A5
  8
DATA
  6
CONTINUOUS
 62
     7
 10
271.7355063368795
 20
655.94965866960001
 30
0.0
  0
VERTEX
  5
11A6
  8
DATA
  6
CONTINUOUS
 62
     7
 10
270.73550633687938
 20
655.94965866960001
 30
0.0
  0
SEQEND
  5
11A7
  8
DATA
  6
CONTINUOUS
 62
     7
  0
POLYLINE
  5
84E
  8
DATA
  6
CONTINUOUS
 62
     7
 66
     1
 10
0.0
 20
0.0
 30
0.0
 70
     1
  0
VERTEX
  5
11A8
  8
DATA
  6
CONTINUOUS
 62
     7
 10
268.01493747593599
 20
656.94965866960001
 30
0.0
  0
VERTEX
  5
11A9
  8
DATA
  6
CONTINUOUS
 62
     7
 10
269.01493747593599
 20
656.94965866960001
 30
0.0
  0
VERTEX
  5
11AA
  8
DATA
  6
CONTINUOUS
 62
     7
 10
269.01493747593599
 20
655.94965866960001
 30
0.0
  0
VERTEX
  5
11AB
  8
DATA
  6
CONTINUOUS
 62
     7
 10
268.01493747593599
 20
655.94965866960001
 30
0.0
  0
SEQEND
  5
11AC
  8
DATA
  6
CONTINUOUS
 62
     7
  0
LINE
  5
855
  8
DATA
  6
CONTINUOUS
 62
     7
 10
289.97059372435558
 20
652.36033916443625
 30
0.0
 11
289.41167652690319
 21
658.21033916443639
 31
0.0
  0
LINE
  5
856
  8
DATA
  6
CONTINUOUS
 62
     7
 10
266.07985008846077
 20
652.36033916443625
 30
0.0
 11
266.63876728591299
 21
658.21033916443639
 31
0.0
  0
ARC
  5
857
  8
DATA
  6
CONTINUOUS
 62
     7
 10
288.97512679360023
 20
652.26523085894996
 30
0.0
 40
1.0
 50
270.0
 51
5.4575534851075531
  0
ARC
  5
858
  8
DATA
  6
CONTINUOUS
 62
     7
 10
267.07531701921607
 20
652.26523085894996
 30
0.0
 40
0.9999999999998908
 50
174.54244651489179
 51
270.0
  0
ARC
  5
859
  8
DATA
  6
CONTINUOUS
 62
     7
 10
288.41620959614789
 20
658.11523085894999
 30
0.0
 40
1.000000000000032
 50
5.4575534851074012
 51
90.0
  0
ARC
  5
85A
  8
DATA
  6
CONTINUOUS
 62
     7
 10
267.63423421666829
 20
658.11523085894999
 30
0.0
 40
1.0
 50
90.0
 51
174.54244651489509
  0
CIRCLE
  5
85B
  8
DATA
  6
CONTINUOUS
 62
     7
 10
217.7693245246821
 20
655.19023085895014
 30
0.0
 40
1.175000000000068
  0
POLYLINE
  5
85C
  8
DATA
  6
CONTINUOUS
 62
     7
 66
     1
 10
0.0
 20
0.0
 30
0.0
 70
     1
  0
VERTEX
  5
11AD
  8
DATA
  6
CONTINUOUS
 62
     7
 10
217.7693245246821
 20
652.4902308589501
 30
0.0
  0
VERTEX
  5
11AE
  8
DATA
  6
CONTINUOUS
 62
     7
 10
215.4310559344641
 20
653.84023085895012
 30
0.0
  0
VERTEX
  5
11AF
  8
DATA
  6
CONTINUOUS
 62
     7
 10
215.4310559344641
 20
656.54023085895017
 30
0.0
  0
VERTEX
  5
11B0
  8
DATA
  6
CONTINUOUS
 62
     7
 10
217.7693245246821
 20
657.89023085894996
 30
0.0
  0
VERTEX
  5
11B1
  8
DATA
  6
CONTINUOUS
 62
     7
 10
220.10759311490011
 20
656.54023085895017
 30
0.0
  0
VERTEX
  5
11B2
  8
DATA
  6
CONTINUOUS
 62
     7
 10
220.10759311490011
 20
653.84023085895012
 30
0.0
  0
SEQEND
  5
11B3
  8
DATA
  6
CONTINUOUS
 62
     7
  0
CIRCLE
  5
865
  8
DATA
  6
CONTINUOUS
 62
     7
 10
250.2693245246825
 20
655.19023085895014
 30
0.0
 40
1.175000000000068
  0
POLYLINE
  5
866
  8
DATA
  6
CONTINUOUS
 62
     7
 66
     1
 10
0.0
 20
0.0
 30
0.0
 70
     1
  0
VERTEX
  5
11B4
  8
DATA
  6
CONTINUOUS
 62
     7
 10
250.2693245246825
 20
652.4902308589501
 30
0.0
  0
VERTEX
  5
11B5
  8
DATA
  6
CONTINUOUS
 62
     7
 10
247.93105593446461
 20
653.84023085895012
 30
0.0
  0
VERTEX
  5
11B6
  8
DATA
  6
CONTINUOUS
 62
     7
 10
247.93105593446461
 20
656.54023085895017
 30
0.0
  0
VERTEX
  5
11B7
  8
DATA
  6
CONTINUOUS
 62
     7
 10
250.2693245246825
 20
657.89023085894996
 30
0.0
  0
VERTEX
  5
11B8
  8
DATA
  6
CONTINUOUS
 62
     7
 10
252.60759311490051
 20
656.54023085895017
 30
0.0
  0
VERTEX
  5
11B9
  8
DATA
  6
CONTINUOUS
 62
     7
 10
252.60759311490051
 20
653.84023085895012
 30
0.0
  0
SEQEND
  5
11BA
  8
DATA
  6
CONTINUOUS
 62
     7
  0
LINE
  5
86F
  8
DATA
  6
CONTINUOUS
 62
     7
 10
244.9751267936002
 20
651.26523085894996
 30
0.0
 11
223.0753170192161
 21
651.26523085894996
 31
0.0
  0
LINE
  5
870
  8
DATA
  6
CONTINUOUS
 62
     7
 10
223.63423421666829
 20
659.11523085894999
 30
0.0
 11
244.41620959614789
 21
659.11523085894999
 31
0.0
  0
POLYLINE
  5
871
  8
DATA
  6
CONTINUOUS
 62
     7
 66
     1
 10
0.0
 20
0.0
 30
0.0
 70
     1
  0
VERTEX
  5
11BB
  8
DATA
  6
CONTINUOUS
 62
     7
 10
243.49528807758779
 20
655.95523085895013
 30
0.0
  0
VERTEX
  5
11BC
  8
DATA
  6
CONTINUOUS
 62
     7
 10
245.0252880775877
 20
655.95523085895013
 30
0.0
  0
VERTEX
  5
11BD
  8
DATA
  6
CONTINUOUS
 62
     7
 10
245.0252880775877
 20
654.42523085895004
 30
0.0
  0
VERTEX
  5
11BE
  8
DATA
  6
CONTINUOUS
 62
     7
 10
243.49528807758779
 20
654.42523085895004
 30
0.0
  0
SEQEND
  5
11BF
  8
DATA
  6
CONTINUOUS
 62
     7
  0
POLYLINE
  5
878
  8
DATA
  6
CONTINUOUS
 62
     7
 66
     1
 10
0.0
 20
0.0
 30
0.0
 70
     1
  0
VERTEX
  5
11C0
  8
DATA
  6
CONTINUOUS
 62
     7
 10
241.4952880775877
 20
655.95523085895013
 30
0.0
  0
VERTEX
  5
11C1
  8
DATA
  6
CONTINUOUS
 62
     7
 10
243.0252880775877
 20
655.95523085895013
 30
0.0
  0
VERTEX
  5
11C2
  8
DATA
  6
CONTINUOUS
 62
     7
 10
243.0252880775877
 20
654.42523085895004
 30
0.0
  0
VERTEX
  5
11C3
  8
DATA
  6
CONTINUOUS
 62
     7
 10
241.4952880775877
 20
654.42523085895004
 30
0.0
  0
SEQEND
  5
11C4
  8
DATA
  6
CONTINUOUS
 62
     7
  0
POLYLINE
  5
87F
  8
DATA
  6
CONTINUOUS
 62
     7
 66
     1
 10
0.0
 20
0.0
 30
0.0
 70
     1
  0
VERTEX
  5
11C5
  8
DATA
  6
CONTINUOUS
 62
     7
 10
239.4952880775877
 20
655.95523085895013
 30
0.0
  0
VERTEX
  5
11C6
  8
DATA
  6
CONTINUOUS
 62
     7
 10
241.0252880775877
 20
655.95523085895013
 30
0.0
  0
VERTEX
  5
11C7
  8
DATA
  6
CONTINUOUS
 62
     7
 10
241.0252880775877
 20
654.42523085895004
 30
0.0
  0
VERTEX
  5
11C8
  8
DATA
  6
CONTINUOUS
 62
     7
 10
239.4952880775877
 20
654.42523085895004
 30
0.0
  0
SEQEND
  5
11C9
  8
DATA
  6
CONTINUOUS
 62
     7
  0
POLYLINE
  5
886
  8
DATA
  6
CONTINUOUS
 62
     7
 66
     1
 10
0.0
 20
0.0
 30
0.0
 70
     1
  0
VERTEX
  5
11CA
  8
DATA
  6
CONTINUOUS
 62
     7
 10
237.4952880775877
 20
655.95523085895013
 30
0.0
  0
VERTEX
  5
11CB
  8
DATA
  6
CONTINUOUS
 62
     7
 10
239.0252880775877
 20
655.95523085895013
 30
0.0
  0
VERTEX
  5
11CC
  8
DATA
  6
CONTINUOUS
 62
     7
 10
239.0252880775877
 20
654.42523085895004
 30
0.0
  0
VERTEX
  5
11CD
  8
DATA
  6
CONTINUOUS
 62
     7
 10
237.4952880775877
 20
654.42523085895004
 30
0.0
  0
SEQEND
  5
11CE
  8
DATA
  6
CONTINUOUS
 62
     7
  0
POLYLINE
  5
88D
  8
DATA
  6
CONTINUOUS
 62
     7
 66
     1
 10
0.0
 20
0.0
 30
0.0
 70
     1
  0
VERTEX
  5
11CF
  8
DATA
  6
CONTINUOUS
 62
     7
 10
235.4952880775877
 20
655.95523085895013
 30
0.0
  0
VERTEX
  5
11D0
  8
DATA
  6
CONTINUOUS
 62
     7
 10
237.0252880775877
 20
655.95523085895013
 30
0.0
  0
VERTEX
  5
11D1
  8
DATA
  6
CONTINUOUS
 62
     7
 10
237.0252880775877
 20
654.42523085895004
 30
0.0
  0
VERTEX
  5
11D2
  8
DATA
  6
CONTINUOUS
 62
     7
 10
235.4952880775877
 20
654.42523085895004
 30
0.0
  0
SEQEND
  5
11D3
  8
DATA
  6
CONTINUOUS
 62
     7
  0
POLYLINE
  5
894
  8
DATA
  6
CONTINUOUS
 62
     7
 66
     1
 10
0.0
 20
0.0
 30
0.0
 70
     1
  0
VERTEX
  5
11D4
  8
DATA
  6
CONTINUOUS
 62
     7
 10
233.49528807758759
 20
655.95523085895013
 30
0.0
  0
VERTEX
  5
11D5
  8
DATA
  6
CONTINUOUS
 62
     7
 10
235.0252880775877
 20
655.95523085895013
 30
0.0
  0
VERTEX
  5
11D6
  8
DATA
  6
CONTINUOUS
 62
     7
 10
235.0252880775877
 20
654.42523085895004
 30
0.0
  0
VERTEX
  5
11D7
  8
DATA
  6
CONTINUOUS
 62
     7
 10
233.49528807758759
 20
654.42523085895004
 30
0.0
  0
SEQEND
  5
11D8
  8
DATA
  6
CONTINUOUS
 62
     7
  0
POLYLINE
  5
89B
  8
DATA
  6
CONTINUOUS
 62
     7
 66
     1
 10
0.0
 20
0.0
 30
0.0
 70
     1
  0
VERTEX
  5
11D9
  8
DATA
  6
CONTINUOUS
 62
     7
 10
231.49528807758759
 20
655.95523085895013
 30
0.0
  0
VERTEX
  5
11DA
  8
DATA
  6
CONTINUOUS
 62
     7
 10
233.02528807758759
 20
655.95523085895013
 30
0.0
  0
VERTEX
  5
11DB
  8
DATA
  6
CONTINUOUS
 62
     7
 10
233.02528807758759
 20
654.42523085895004
 30
0.0
  0
VERTEX
  5
11DC
  8
DATA
  6
CONTINUOUS
 62
     7
 10
231.49528807758759
 20
654.42523085895004
 30
0.0
  0
SEQEND
  5
11DD
  8
DATA
  6
CONTINUOUS
 62
     7
  0
POLYLINE
  5
8A2
  8
DATA
  6
CONTINUOUS
 62
     7
 66
     1
 10
0.0
 20
0.0
 30
0.0
 70
     1
  0
VERTEX
  5
11DE
  8
DATA
  6
CONTINUOUS
 62
     7
 10
229.49528807758739
 20
655.95523085895013
 30
0.0
  0
VERTEX
  5
11DF
  8
DATA
  6
CONTINUOUS
 62
     7
 10
231.0252880775875
 20
655.95523085895013
 30
0.0
  0
VERTEX
  5
11E0
  8
DATA
  6
CONTINUOUS
 62
     7
 10
231.0252880775875
 20
654.42523085895004
 30
0.0
  0
VERTEX
  5
11E1
  8
DATA
  6
CONTINUOUS
 62
     7
 10
229.49528807758739
 20
654.42523085895004
 30
0.0
  0
SEQEND
  5
11E2
  8
DATA
  6
CONTINUOUS
 62
     7
  0
POLYLINE
  5
8A9
  8
DATA
  6
CONTINUOUS
 62
     7
 66
     1
 10
0.0
 20
0.0
 30
0.0
 70
     1
  0
VERTEX
  5
11E3
  8
DATA
  6
CONTINUOUS
 62
     7
 10
243.49528807758779
 20
653.95523085895002
 30
0.0
  0
VERTEX
  5
11E4
  8
DATA
  6
CONTINUOUS
 62
     7
 10
245.0252880775877
 20
653.95523085895002
 30
0.0
  0
VERTEX
  5
11E5
  8
DATA
  6
CONTINUOUS
 62
     7
 10
245.0252880775877
 20
652.42523085895016
 30
0.0
  0
VERTEX
  5
11E6
  8
DATA
  6
CONTINUOUS
 62
     7
 10
243.49528807758779
 20
652.42523085895016
 30
0.0
  0
SEQEND
  5
11E7
  8
DATA
  6
CONTINUOUS
 62
     7
  0
POLYLINE
  5
8B0
  8
DATA
  6
CONTINUOUS
 62
     7
 66
     1
 10
0.0
 20
0.0
 30
0.0
 70
     1
  0
VERTEX
  5
11E8
  8
DATA
  6
CONTINUOUS
 62
     7
 10
241.4952880775877
 20
653.95523085895002
 30
0.0
  0
VERTEX
  5
11E9
  8
DATA
  6
CONTINUOUS
 62
     7
 10
243.0252880775877
 20
653.95523085895002
 30
0.0
  0
VERTEX
  5
11EA
  8
DATA
  6
CONTINUOUS
 62
     7
 10
243.0252880775877
 20
652.42523085895016
 30
0.0
  0
VERTEX
  5
11EB
  8
DATA
  6
CONTINUOUS
 62
     7
 10
241.4952880775877
 20
652.42523085895016
 30
0.0
  0
SEQEND
  5
11EC
  8
DATA
  6
CONTINUOUS
 62
     7
  0
POLYLINE
  5
8B7
  8
DATA
  6
CONTINUOUS
 62
     7
 66
     1
 10
0.0
 20
0.0
 30
0.0
 70
     1
  0
VERTEX
  5
11ED
  8
DATA
  6
CONTINUOUS
 62
     7
 10
239.4952880775877
 20
653.95523085895002
 30
0.0
  0
VERTEX
  5
11EE
  8
DATA
  6
CONTINUOUS
 62
     7
 10
241.0252880775877
 20
653.95523085895002
 30
0.0
  0
VERTEX
  5
11EF
  8
DATA
  6
CONTINUOUS
 62
     7
 10
241.0252880775877
 20
652.42523085895016
 30
0.0
  0
VERTEX
  5
11F0
  8
DATA
  6
CONTINUOUS
 62
     7
 10
239.4952880775877
 20
652.42523085895016
 30
0.0
  0
SEQEND
  5
11F1
  8
DATA
  6
CONTINUOUS
 62
     7
  0
POLYLINE
  5
8BE
  8
DATA
  6
CONTINUOUS
 62
     7
 66
     1
 10
0.0
 20
0.0
 30
0.0
 70
     1
  0
VERTEX
  5
11F2
  8
DATA
  6
CONTINUOUS
 62
     7
 10
237.4952880775877
 20
653.95523085895002
 30
0.0
  0
VERTEX
  5
11F3
  8
DATA
  6
CONTINUOUS
 62
     7
 10
239.0252880775877
 20
653.95523085895002
 30
0.0
  0
VERTEX
  5
11F4
  8
DATA
  6
CONTINUOUS
 62
     7
 10
239.0252880775877
 20
652.42523085895016
 30
0.0
  0
VERTEX
  5
11F5
  8
DATA
  6
CONTINUOUS
 62
     7
 10
237.4952880775877
 20
652.42523085895016
 30
0.0
  0
SEQEND
  5
11F6
  8
DATA
  6
CONTINUOUS
 62
     7
  0
POLYLINE
  5
8C5
  8
DATA
  6
CONTINUOUS
 62
     7
 66
     1
 10
0.0
 20
0.0
 30
0.0
 70
     1
  0
VERTEX
  5
11F7
  8
DATA
  6
CONTINUOUS
 62
     7
 10
235.4952880775877
 20
653.95523085895002
 30
0.0
  0
VERTEX
  5
11F8
  8
DATA
  6
CONTINUOUS
 62
     7
 10
237.0252880775877
 20
653.95523085895002
 30
0.0
  0
VERTEX
  5
11F9
  8
DATA
  6
CONTINUOUS
 62
     7
 10
237.0252880775877
 20
652.42523085895016
 30
0.0
  0
VERTEX
  5
11FA
  8
DATA
  6
CONTINUOUS
 62
     7
 10
235.4952880775877
 20
652.42523085895016
 30
0.0
  0
SEQEND
  5
11FB
  8
DATA
  6
CONTINUOUS
 62
     7
  0
POLYLINE
  5
8CC
  8
DATA
  6
CONTINUOUS
 62
     7
 66
     1
 10
0.0
 20
0.0
 30
0.0
 70
     1
  0
VERTEX
  5
11FC
  8
DATA
  6
CONTINUOUS
 62
     7
 10
233.49528807758759
 20
653.95523085895002
 30
0.0
  0
VERTEX
  5
11FD
  8
DATA
  6
CONTINUOUS
 62
     7
 10
235.0252880775877
 20
653.95523085895002
 30
0.0
  0
VERTEX
  5
11FE
  8
DATA
  6
CONTINUOUS
 62
     7
 10
235.0252880775877
 20
652.42523085895016
 30
0.0
  0
VERTEX
  5
11FF
  8
DATA
  6
CONTINUOUS
 62
     7
 10
233.49528807758759
 20
652.42523085895016
 30
0.0
  0
SEQEND
  5
1200
  8
DATA
  6
CONTINUOUS
 62
     7
  0
POLYLINE
  5
8D3
  8
DATA
  6
CONTINUOUS
 62
     7
 66
     1
 10
0.0
 20
0.0
 30
0.0
 70
     1
  0
VERTEX
  5
1201
  8
DATA
  6
CONTINUOUS
 62
     7
 10
231.49528807758759
 20
653.95523085895002
 30
0.0
  0
VERTEX
  5
1202
  8
DATA
  6
CONTINUOUS
 62
     7
 10
233.02528807758759
 20
653.95523085895002
 30
0.0
  0
VERTEX
  5
1203
  8
DATA
  6
CONTINUOUS
 62
     7
 10
233.02528807758759
 20
652.42523085895016
 30
0.0
  0
VERTEX
  5
1204
  8
DATA
  6
CONTINUOUS
 62
     7
 10
231.49528807758759
 20
652.42523085895016
 30
0.0
  0
SEQEND
  5
1205
  8
DATA
  6
CONTINUOUS
 62
     7
  0
POLYLINE
  5
8DA
  8
DATA
  6
CONTINUOUS
 62
     7
 66
     1
 10
0.0
 20
0.0
 30
0.0
 70
     1
  0
VERTEX
  5
1206
  8
DATA
  6
CONTINUOUS
 62
     7
 10
229.49528807758739
 20
653.95523085895002
 30
0.0
  0
VERTEX
  5
1207
  8
DATA
  6
CONTINUOUS
 62
     7
 10
231.0252880775875
 20
653.95523085895002
 30
0.0
  0
VERTEX
  5
1208
  8
DATA
  6
CONTINUOUS
 62
     7
 10
231.0252880775875
 20
652.42523085895016
 30
0.0
  0
VERTEX
  5
1209
  8
DATA
  6
CONTINUOUS
 62
     7
 10
229.49528807758739
 20
652.42523085895016
 30
0.0
  0
SEQEND
  5
120A
  8
DATA
  6
CONTINUOUS
 62
     7
  0
POLYLINE
  5
8E1
  8
DATA
  6
CONTINUOUS
 62
     7
 66
     1
 10
0.0
 20
0.0
 30
0.0
 70
     1
  0
VERTEX
  5
120B
  8
DATA
  6
CONTINUOUS
 62
     7
 10
243.49528807758779
 20
657.95523085895013
 30
0.0
  0
VERTEX
  5
120C
  8
DATA
  6
CONTINUOUS
 62
     7
 10
245.0252880775877
 20
657.95523085895013
 30
0.0
  0
VERTEX
  5
120D
  8
DATA
  6
CONTINUOUS
 62
     7
 10
245.0252880775877
 20
656.42523085895016
 30
0.0
  0
VERTEX
  5
120E
  8
DATA
  6
CONTINUOUS
 62
     7
 10
243.49528807758779
 20
656.42523085895016
 30
0.0
  0
SEQEND
  5
120F
  8
DATA
  6
CONTINUOUS
 62
     7
  0
POLYLINE
  5
8E8
  8
DATA
  6
CONTINUOUS
 62
     7
 66
     1
 10
0.0
 20
0.0
 30
0.0
 70
     1
  0
VERTEX
  5
1210
  8
DATA
  6
CONTINUOUS
 62
     7
 10
241.4952880775877
 20
657.95523085895013
 30
0.0
  0
VERTEX
  5
1211
  8
DATA
  6
CONTINUOUS
 62
     7
 10
243.0252880775877
 20
657.95523085895013
 30
0.0
  0
VERTEX
  5
1212
  8
DATA
  6
CONTINUOUS
 62
     7
 10
243.0252880775877
 20
656.42523085895016
 30
0.0
  0
VERTEX
  5
1213
  8
DATA
  6
CONTINUOUS
 62
     7
 10
241.4952880775877
 20
656.42523085895016
 30
0.0
  0
SEQEND
  5
1214
  8
DATA
  6
CONTINUOUS
 62
     7
  0
POLYLINE
  5
8EF
  8
DATA
  6
CONTINUOUS
 62
     7
 66
     1
 10
0.0
 20
0.0
 30
0.0
 70
     1
  0
VERTEX
  5
1215
  8
DATA
  6
CONTINUOUS
 62
     7
 10
239.4952880775877
 20
657.95523085895013
 30
0.0
  0
VERTEX
  5
1216
  8
DATA
  6
CONTINUOUS
 62
     7
 10
241.0252880775877
 20
657.95523085895013
 30
0.0
  0
VERTEX
  5
1217
  8
DATA
  6
CONTINUOUS
 62
     7
 10
241.0252880775877
 20
656.42523085895016
 30
0.0
  0
VERTEX
  5
1218
  8
DATA
  6
CONTINUOUS
 62
     7
 10
239.4952880775877
 20
656.42523085895016
 30
0.0
  0
SEQEND
  5
1219
  8
DATA
  6
CONTINUOUS
 62
     7
  0
POLYLINE
  5
8F6
  8
DATA
  6
CONTINUOUS
 62
     7
 66
     1
 10
0.0
 20
0.0
 30
0.0
 70
     1
  0
VERTEX
  5
121A
  8
DATA
  6
CONTINUOUS
 62
     7
 10
237.4952880775877
 20
657.95523085895013
 30
0.0
  0
VERTEX
  5
121B
  8
DATA
  6
CONTINUOUS
 62
     7
 10
239.0252880775877
 20
657.95523085895013
 30
0.0
  0
VERTEX
  5
121C
  8
DATA
  6
CONTINUOUS
 62
     7
 10
239.0252880775877
 20
656.42523085895016
 30
0.0
  0
VERTEX
  5
121D
  8
DATA
  6
CONTINUOUS
 62
     7
 10
237.4952880775877
 20
656.42523085895016
 30
0.0
  0
SEQEND
  5
121E
  8
DATA
  6
CONTINUOUS
 62
     7
  0
POLYLINE
  5
8FD
  8
DATA
  6
CONTINUOUS
 62
     7
 66
     1
 10
0.0
 20
0.0
 30
0.0
 70
     1
  0
VERTEX
  5
121F
  8
DATA
  6
CONTINUOUS
 62
     7
 10
235.4952880775877
 20
657.95523085895013
 30
0.0
  0
VERTEX
  5
1220
  8
DATA
  6
CONTINUOUS
 62
     7
 10
237.0252880775877
 20
657.95523085895013
 30
0.0
  0
VERTEX
  5
1221
  8
DATA
  6
CONTINUOUS
 62
     7
 10
237.0252880775877
 20
656.42523085895016
 30
0.0
  0
VERTEX
  5
1222
  8
DATA
  6
CONTINUOUS
 62
     7
 10
235.4952880775877
 20
656.42523085895016
 30
0.0
  0
SEQEND
  5
1223
  8
DATA
  6
CONTINUOUS
 62
     7
  0
POLYLINE
  5
904
  8
DATA
  6
CONTINUOUS
 62
     7
 66
     1
 10
0.0
 20
0.0
 30
0.0
 70
     1
  0
VERTEX
  5
1224
  8
DATA
  6
CONTINUOUS
 62
     7
 10
233.49528807758759
 20
657.95523085895013
 30
0.0
  0
VERTEX
  5
1225
  8
DATA
  6
CONTINUOUS
 62
     7
 10
235.0252880775877
 20
657.95523085895013
 30
0.0
  0
VERTEX
  5
1226
  8
DATA
  6
CONTINUOUS
 62
     7
 10
235.0252880775877
 20
656.42523085895016
 30
0.0
  0
VERTEX
  5
1227
  8
DATA
  6
CONTINUOUS
 62
     7
 10
233.49528807758759
 20
656.42523085895016
 30
0.0
  0
SEQEND
  5
1228
  8
DATA
  6
CONTINUOUS
 62
     7
  0
POLYLINE
  5
90B
  8
DATA
  6
CONTINUOUS
 62
     7
 66
     1
 10
0.0
 20
0.0
 30
0.0
 70
     1
  0
VERTEX
  5
1229
  8
DATA
  6
CONTINUOUS
 62
     7
 10
231.49528807758759
 20
657.95523085895013
 30
0.0
  0
VERTEX
  5
122A
  8
DATA
  6
CONTINUOUS
 62
     7
 10
233.02528807758759
 20
657.95523085895013
 30
0.0
  0
VERTEX
  5
122B
  8
DATA
  6
CONTINUOUS
 62
     7
 10
233.02528807758759
 20
656.42523085895016
 30
0.0
  0
VERTEX
  5
122C
  8
DATA
  6
CONTINUOUS
 62
     7
 10
231.49528807758759
 20
656.42523085895016
 30
0.0
  0
SEQEND
  5
122D
  8
DATA
  6
CONTINUOUS
 62
     7
  0
POLYLINE
  5
912
  8
DATA
  6
CONTINUOUS
 62
     7
 66
     1
 10
0.0
 20
0.0
 30
0.0
 70
     1
  0
VERTEX
  5
122E
  8
DATA
  6
CONTINUOUS
 62
     7
 10
229.49528807758739
 20
657.95523085895013
 30
0.0
  0
VERTEX
  5
122F
  8
DATA
  6
CONTINUOUS
 62
     7
 10
231.0252880775875
 20
657.95523085895013
 30
0.0
  0
VERTEX
  5
1230
  8
DATA
  6
CONTINUOUS
 62
     7
 10
231.0252880775875
 20
656.42523085895016
 30
0.0
  0
VERTEX
  5
1231
  8
DATA
  6
CONTINUOUS
 62
     7
 10
229.49528807758739
 20
656.42523085895016
 30
0.0
  0
SEQEND
  5
1232
  8
DATA
  6
CONTINUOUS
 62
     7
  0
POLYLINE
  5
919
  8
DATA
  6
CONTINUOUS
 62
     7
 66
     1
 10
0.0
 20
0.0
 30
0.0
  0
VERTEX
  5
1233
  8
DATA
  6
CONTINUOUS
 62
     7
 10
225.47522190640771
 20
654.79023085895017
 30
0.0
  0
VERTEX
  5
1234
  8
DATA
  6
CONTINUOUS
 62
     7
 10
223.37522190640769
 20
654.79023085895017
 30
0.0
  0
VERTEX
  5
1235
  8
DATA
  6
CONTINUOUS
 62
     7
 10
223.37522190640769
 20
655.59023085895012
 30
0.0
  0
VERTEX
  5
1236
  8
DATA
  6
CONTINUOUS
 62
     7
 10
225.47522190640771
 20
655.59023085895012
 30
0.0
  0
SEQEND
  5
1237
  8
DATA
  6
CONTINUOUS
 62
     7
  0
POLYLINE
  5
920
  8
DATA
  6
CONTINUOUS
 62
     7
 66
     1
 10
0.0
 20
0.0
 30
0.0
  0
VERTEX
  5
1238
  8
DATA
  6
CONTINUOUS
 62
     7
 10
226.27522190640761
 20
655.59023085895012
 30
0.0
  0
VERTEX
  5
1239
  8
DATA
  6
CONTINUOUS
 62
     7
 10
228.37522190640789
 20
655.59023085895012
 30
0.0
  0
VERTEX
  5
123A
  8
DATA
  6
CONTINUOUS
 62
     7
 10
228.37522190640789
 20
654.79023085895017
 30
0.0
  0
VERTEX
  5
123B
  8
DATA
  6
CONTINUOUS
 62
     7
 10
226.27522190640761
 20
654.79023085895017
 30
0.0
  0
SEQEND
  5
123C
  8
DATA
  6
CONTINUOUS
 62
     7
  0
POLYLINE
  5
927
  8
DATA
  6
CONTINUOUS
 62
     7
 66
     1
 10
0.0
 20
0.0
 30
0.0
  0
VERTEX
  5
123D
  8
DATA
  6
CONTINUOUS
 62
     7
 10
225.47522190640771
 20
655.59023085895012
 30
0.0
  0
VERTEX
  5
123E
  8
DATA
  6
CONTINUOUS
 62
     7
 10
225.47522190640771
 20
657.69023085895014
 30
0.0
  0
VERTEX
  5
123F
  8
DATA
  6
CONTINUOUS
 62
     7
 10
226.27522190640761
 20
657.69023085895014
 30
0.0
  0
VERTEX
  5
1240
  8
DATA
  6
CONTINUOUS
 62
     7
 10
226.27522190640761
 20
655.59023085895012
 30
0.0
  0
SEQEND
  5
1241
  8
DATA
  6
CONTINUOUS
 62
     7
  0
POLYLINE
  5
92E
  8
DATA
  6
CONTINUOUS
 62
     7
 66
     1
 10
0.0
 20
0.0
 30
0.0
  0
VERTEX
  5
1242
  8
DATA
  6
CONTINUOUS
 62
     7
 10
226.27522190640761
 20
654.79023085895017
 30
0.0
  0
VERTEX
  5
1243
  8
DATA
  6
CONTINUOUS
 62
     7
 10
226.27522190640761
 20
652.69023085895014
 30
0.0
  0
VERTEX
  5
1244
  8
DATA
  6
CONTINUOUS
 62
     7
 10
225.47522190640771
 20
652.69023085895014
 30
0.0
  0
VERTEX
  5
1245
  8
DATA
  6
CONTINUOUS
 62
     7
 10
225.47522190640771
 20
654.79023085895017
 30
0.0
  0
SEQEND
  5
1246
  8
DATA
  6
CONTINUOUS
 62
     7
  0
POLYLINE
  5
935
  8
DATA
  6
CONTINUOUS
 62
     7
 66
     1
 10
0.0
 20
0.0
 30
0.0
 70
     1
  0
VERTEX
  5
1247
  8
DATA
  6
CONTINUOUS
 62
     7
 10
226.73550633687941
 20
654.43080304830005
 30
0.0
  0
VERTEX
  5
1248
  8
DATA
  6
CONTINUOUS
 62
     7
 10
227.7355063368795
 20
654.43080304830005
 30
0.0
  0
VERTEX
  5
1249
  8
DATA
  6
CONTINUOUS
 62
     7
 10
227.7355063368795
 20
653.43080304830005
 30
0.0
  0
VERTEX
  5
124A
  8
DATA
  6
CONTINUOUS
 62
     7
 10
226.73550633687941
 20
653.43080304830005
 30
0.0
  0
SEQEND
  5
124B
  8
DATA
  6
CONTINUOUS
 62
     7
  0
POLYLINE
  5
93C
  8
DATA
  6
CONTINUOUS
 62
     7
 66
     1
 10
0.0
 20
0.0
 30
0.0
 70
     1
  0
VERTEX
  5
124C
  8
DATA
  6
CONTINUOUS
 62
     7
 10
224.01493747593599
 20
654.43080304830005
 30
0.0
  0
VERTEX
  5
124D
  8
DATA
  6
CONTINUOUS
 62
     7
 10
225.01493747593591
 20
654.43080304830005
 30
0.0
  0
VERTEX
  5
124E
  8
DATA
  6
CONTINUOUS
 62
     7
 10
225.01493747593591
 20
653.43080304830005
 30
0.0
  0
VERTEX
  5
124F
  8
DATA
  6
CONTINUOUS
 62
     7
 10
224.01493747593599
 20
653.43080304830005
 30
0.0
  0
SEQEND
  5
1250
  8
DATA
  6
CONTINUOUS
 62
     7
  0
POLYLINE
  5
943
  8
DATA
  6
CONTINUOUS
 62
     7
 66
     1
 10
0.0
 20
0.0
 30
0.0
 70
     1
  0
VERTEX
  5
1251
  8
DATA
  6
CONTINUOUS
 62
     7
 10
226.73550633687941
 20
656.94965866960001
 30
0.0
  0
VERTEX
  5
1252
  8
DATA
  6
CONTINUOUS
 62
     7
 10
227.7355063368795
 20
656.94965866960001
 30
0.0
  0
VERTEX
  5
1253
  8
DATA
  6
CONTINUOUS
 62
     7
 10
227.7355063368795
 20
655.94965866960001
 30
0.0
  0
VERTEX
  5
1254
  8
DATA
  6
CONTINUOUS
 62
     7
 10
226.73550633687941
 20
655.94965866960001
 30
0.0
  0
SEQEND
  5
1255
  8
DATA
  6
CONTINUOUS
 62
     7
  0
POLYLINE
  5
94A
  8
DATA
  6
CONTINUOUS
 62
     7
 66
     1
 10
0.0
 20
0.0
 30
0.0
 70
     1
  0
VERTEX
  5
1256
  8
DATA
  6
CONTINUOUS
 62
     7
 10
224.01493747593599
 20
656.94965866960001
 30
0.0
  0
VERTEX
  5
1257
  8
DATA
  6
CONTINUOUS
 62
     7
 10
225.01493747593591
 20
656.94965866960001
 30
0.0
  0
VERTEX
  5
1258
  8
DATA
  6
CONTINUOUS
 62
     7
 10
225.01493747593591
 20
655.94965866960001
 30
0.0
  0
VERTEX
  5
1259
  8
DATA
  6
CONTINUOUS
 62
     7
 10
224.01493747593599
 20
655.94965866960001
 30
0.0
  0
SEQEND
  5
125A
  8
DATA
  6
CONTINUOUS
 62
     7
  0
LINE
  5
951
  8
DATA
  6
CONTINUOUS
 62
     7
 10
245.97059372435561
 20
652.36033916443625
 30
0.0
 11
245.41167652690331
 21
658.21033916443639
 31
0.0
  0
LINE
  5
952
  8
DATA
  6
CONTINUOUS
 62
     7
 10
222.07985008846089
 20
652.36033916443625
 30
0.0
 11
222.63876728591299
 21
658.21033916443639
 31
0.0
  0
ARC
  5
953
  8
DATA
  6
CONTINUOUS
 62
     7
 10
244.9751267936002
 20
652.26523085894996
 30
0.0
 40
1.0
 50
270.0
 51
5.4575534851075531
  0
ARC
  5
954
  8
DATA
  6
CONTINUOUS
 62
     7
 10
223.0753170192161
 20
652.26523085894996
 30
0.0
 40
0.9999999999999191
 50
174.54244651489199
 51
270.0
  0
ARC
  5
955
  8
DATA
  6
CONTINUOUS
 62
     7
 10
244.41620959614789
 20
658.11523085894999
 30
0.0
 40
1.000000000000032
 50
5.4575534851074012
 51
90.0
  0
ARC
  5
956
  8
DATA
  6
CONTINUOUS
 62
     7
 10
223.63423421666829
 20
658.11523085894999
 30
0.0
 40
1.0
 50
90.0
 51
174.542446514895
  0
TEXT
  5
957
  8
DATA
 62
     7
 10
520.30363850294339
 20
665.20107933497434
 30
0.0
 40
2.3455312500000001
  1
In 2
 50
180.0
 41
0.7
 11
520.30363850294339
 21
662.85554808497432
 31
0.0
 73
     3
1001
ACADANNOTATIVE
1000
AnnotativeData
1002
{
1070
     1
1070
     0
1002
}
  0
TEXT
  5
958
  8
DATA
 62
     7
 10
470.30363850294339
 20
665.20107933497434
 30
0.0
 40
2.3455312500000001
  1
In 3
 50
180.0
 41
0.7
 11
470.30363850294339
 21
662.85554808497432
 31
0.0
 73
     3
1001
ACADANNOTATIVE
1000
AnnotativeData
1002
{
1070
     1
1070
     0
1002
}
  0
TEXT
  5
959
  8
DATA
 62
     7
 10
420.30363850294339
 20
665.20107933497434
 30
0.0
 40
2.3455312500000001
  1
In 4
 50
180.0
 41
0.7
 11
420.30363850294339
 21
662.85554808497432
 31
0.0
 73
     3
1001
ACADANNOTATIVE
1000
AnnotativeData
1002
{
1070
     1
1070
     0
1002
}
  0
TEXT
  5
95A
  8
DATA
 62
     7
 10
370.96019530256609
 20
665.20107933497434
 30
0.0
 40
2.3455312500000001
  1
Out 1
 50
180.0
 41
0.7
 11
370.96019530256609
 21
662.85554808497432
 31
0.0
 73
     3
1001
ACADANNOTATIVE
1000
AnnotativeData
1002
{
1070
     1
1070
     0
1002
}
  0
TEXT
  5
95B
  8
DATA
 62
     7
 10
326.96019530256609
 20
665.20107933497434
 30
0.0
 40
2.3455312500000001
  1
Out 2
 50
180.0
 41
0.7
 11
326.96019530256609
 21
662.85554808497432
 31
0.0
 73
     3
1001
ACADANNOTATIVE
1000
AnnotativeData
1002
{
1070
     1
1070
     0
1002
}
  0
TEXT
  5
95C
  8
DATA
 62
     7
 10
282.96019530256609
 20
665.20107933497434
 30
0.0
 40
2.3455312500000001
  1
Out 3
 50
180.0
 41
0.7
 11
282.96019530256609
 21
662.85554808497432
 31
0.0
 73
     3
1001
ACADANNOTATIVE
1000
AnnotativeData
1002
{
1070
     1
1070
     0
1002
}
  0
TEXT
  5
95D
  8
DATA
 62
     7
 10
238.96019530256601
 20
665.20107933497434
 30
0.0
 40
2.3455312500000001
  1
Out 4
 50
180.0
 41
0.7
 11
238.96019530256601
 21
662.85554808497432
 31
0.0
 73
     3
1001
ACADANNOTATIVE
1000
AnnotativeData
1002
{
1070
     1
1070
     0
1002
}
  0
CIRCLE
  5
95E
  8
DATA
  6
CONTINUOUS
 62
     7
 10
221.3262506158834
 20
634.4992530999649
 30
0.0
 40
1.1750000000000109
  0
POLYLINE
  5
95F
  8
DATA
  6
CONTINUOUS
 62
     7
 66
     1
 10
0.0
 20
0.0
 30
0.0
 70
     1
  0
VERTEX
  5
125B
  8
DATA
  6
CONTINUOUS
 62
     7
 10
221.3262506158834
 20
631.79925309996486
 30
0.0
  0
VERTEX
  5
125C
  8
DATA
  6
CONTINUOUS
 62
     7
 10
223.6645192061012
 20
633.14925309996511
 30
0.0
  0
VERTEX
  5
125D
  8
DATA
  6
CONTINUOUS
 62
     7
 10
223.6645192061012
 20
635.84925309996459
 30
0.0
  0
VERTEX
  5
125E
  8
DATA
  6
CONTINUOUS
 62
     7
 10
221.3262506158834
 20
637.19925309996472
 30
0.0
  0
VERTEX
  5
125F
  8
DATA
  6
CONTINUOUS
 62
     7
 10
218.98798202566539
 20
635.84925309996459
 30
0.0
  0
VERTEX
  5
1260
  8
DATA
  6
CONTINUOUS
 62
     7
 10
218.98798202566539
 20
633.14925309996511
 30
0.0
  0
SEQEND
  5
1261
  8
DATA
  6
CONTINUOUS
 62
     7
  0
CIRCLE
  5
968
  8
DATA
  6
CONTINUOUS
 62
     7
 10
246.32625061588351
 20
634.4992530999649
 30
0.0
 40
1.1750000000000389
  0
POLYLINE
  5
969
  8
DATA
  6
CONTINUOUS
 62
     7
 66
     1
 10
0.0
 20
0.0
 30
0.0
 70
     1
  0
VERTEX
  5
1262
  8
DATA
  6
CONTINUOUS
 62
     7
 10
246.32625061588351
 20
631.79925309996486
 30
0.0
  0
VERTEX
  5
1263
  8
DATA
  6
CONTINUOUS
 62
     7
 10
248.6645192061014
 20
633.14925309996511
 30
0.0
  0
VERTEX
  5
1264
  8
DATA
  6
CONTINUOUS
 62
     7
 10
248.6645192061014
 20
635.84925309996459
 30
0.0
  0
VERTEX
  5
1265
  8
DATA
  6
CONTINUOUS
 62
     7
 10
246.32625061588351
 20
637.19925309996472
 30
0.0
  0
VERTEX
  5
1266
  8
DATA
  6
CONTINUOUS
 62
     7
 10
243.9879820256655
 20
635.84925309996459
 30
0.0
  0
VERTEX
  5
1267
  8
DATA
  6
CONTINUOUS
 62
     7
 10
243.9879820256655
 20
633.14925309996511
 30
0.0
  0
SEQEND
  5
1268
  8
DATA
  6
CONTINUOUS
 62
     7
  0
LINE
  5
972
  8
DATA
  6
CONTINUOUS
 62
     7
 10
228.2244874056947
 20
638.49925309996479
 30
0.0
 11
239.428013826072
 21
638.49925309996479
 31
0.0
  0
LINE
  5
973
  8
DATA
  6
CONTINUOUS
 62
     7
 10
240.24051382607189
 20
630.49925309996513
 30
0.0
 11
227.4119874056947
 21
630.49925309996513
 31
0.0
  0
LINE
  5
974
  8
DATA
  6
CONTINUOUS
 62
     7
 10
240.81123067332351
 20
637.31538073234765
 30
0.0
 11
241.62373067332339
 21
632.11538073234794
 31
0.0
  0
LINE
  5
975
  8
DATA
  6
CONTINUOUS
 62
     7
 10
226.0287705584432
 20
632.11538073234794
 30
0.0
 11
226.8412705584432
 21
637.31538073234765
 31
0.0
  0
CIRCLE
  5
976
  8
DATA
  6
CONTINUOUS
 62
     7
 10
233.85288038635829
 20
632.86294492881132
 30
0.0
 40
0.5
  0
ARC
  5
977
  8
DATA
  6
CONTINUOUS
 62
     7
 10
240.24051382607189
 20
631.89925309996511
 30
0.0
 40
1.399999999999977
 50
270.0
 51
8.8806591505205574
  0
ARC
  5
978
  8
DATA
  6
CONTINUOUS
 62
     7
 10
227.4119874056947
 20
631.89925309996511
 30
0.0
 40
1.400000000000019
 50
171.1193408494795
 51
270.0
  0
ARC
  5
979
  8
DATA
  6
CONTINUOUS
 62
     7
 10
239.428013826072
 20
637.0992530999647
 30
0.0
 40
1.4000000000000281
 50
8.8806591505228312
 51
90.0
  0
ARC
  5
97A
  8
DATA
  6
CONTINUOUS
 62
     7
 10
228.2244874056947
 20
637.0992530999647
 30
0.0
 40
1.4000000000001469
 50
90.0
 51
171.11934084947711
  0
CIRCLE
  5
97B
  8
DATA
  6
CONTINUOUS
 62
     7
 10
236.35288038635829
 20
632.86294492881132
 30
0.0
 40
0.5
  0
CIRCLE
  5
97C
  8
DATA
  6
CONTINUOUS
 62
     7
 10
238.85288038635829
 20
632.86294492881132
 30
0.0
 40
0.5
  0
CIRCLE
  5
97D
  8
DATA
  6
CONTINUOUS
 62
     7
 10
231.35288038635829
 20
632.86294492881132
 30
0.0
 40
0.5
  0
CIRCLE
  5
97E
  8
DATA
  6
CONTINUOUS
 62
     7
 10
228.85288038635829
 20
632.86294492881132
 30
0.0
 40
0.5
  0
CIRCLE
  5
97F
  8
DATA
  6
CONTINUOUS
 62
     7
 10
235.0483915624296
 20
636.48146534757382
 30
0.0
 40
0.5
  0
CIRCLE
  5
980
  8
DATA
  6
CONTINUOUS
 62
     7
 10
237.54839156242949
 20
636.48146534757382
 30
0.0
 40
0.5
  0
CIRCLE
  5
981
  8
DATA
  6
CONTINUOUS
 62
     7
 10
232.5483915624296
 20
636.48146534757382
 30
0.0
 40
0.5
  0
CIRCLE
  5
982
  8
DATA
  6
CONTINUOUS
 62
     7
 10
230.04839156242949
 20
636.48146534757382
 30
0.0
 40
0.5
  0
TEXT
  5
983
  8
DATA
 62
     7
 10
238.02543243386239
 20
644.76751797433462
 30
0.0
 40
2.4432617187500001
  1
RS-232
 50
180.0
 41
0.7
 11
238.02543243386239
 21
642.3242562555846
 31
0.0
 73
     3
1001
ACADANNOTATIVE
1000
AnnotativeData
1002
{
1070
     1
1070
     0
1002
}
  0
LINE
  5
984
  8
DATA
  6
CONTINUOUS
 62
     7
 10
179.5
 20
672.99999999977274
 30
0.0
 11
178.0
 21
668.99999999981446
 31
0.0
  0
LINE
  5
985
  8
DATA
  6
CONTINUOUS
 62
     7
 10
195.5
 20
672.99999999977274
 30
0.0
 11
197.0
 21
668.99999999981446
 31
0.0
  0
LINE
  5
986
  8
DATA
  6
CONTINUOUS
 62
     7
 10
179.5
 20
672.99999999977274
 30
0.0
 11
195.5
 21
672.99999999977274
 31
0.0
  0
LINE
  5
987
  8
DATA
  6
CONTINUOUS
 62
     7
 10
605.49999999999989
 20
672.99999999977274
 30
0.0
 11
607.0
 21
668.99999999981446
 31
0.0
  0
LINE
  5
988
  8
DATA
  6
CONTINUOUS
 62
     7
 10
589.5
 20
672.99999999977274
 30
0.0
 11
588.0
 21
668.99999999981446
 31
0.0
  0
LINE
  5
989
  8
DATA
  6
CONTINUOUS
 62
     7
 10
605.49999999999989
 20
672.99999999977274
 30
0.0
 11
589.5
 21
672.99999999977274
 31
0.0
  0
LINE
  5
98A
  8
DATA
  6
CONTINUOUS
 62
     7
 10
175.0
 20
871.49999999999989
 30
0.0
 11
175.0
 21
762.5
 31
0.0
  0
LINE
  5
98B
  8
DATA
  6
CONTINUOUS
 62
     7
 10
175.0
 20
871.49999999999989
 30
0.0
 11
610.0
 21
871.49999999999989
 31
0.0
  0
LINE
  5
98C
  8
DATA
  6
CONTINUOUS
 62
     7
 10
610.0
 20
871.49999999999989
 30
0.0
 11
610.0
 21
762.5
 31
0.0
  0
LINE
  5
98D
  8
DATA
  6
CONTINUOUS
 62
     7
 10
547.36141544931422
 20
758.00000000016155
 30
0.0
 11
552.03795262975007
 21
758.00000000016155
 31
0.0
  0
LINE
  5
98E
  8
DATA
  6
CONTINUOUS
 62
     7
 10
554.05683818334683
 20
758.00000000016155
 30
0.0
 11
577.85432465916995
 21
758.00000000016155
 31
0.0
  0
LINE
  5
98F
  8
DATA
  6
CONTINUOUS
 62
     7
 10
579.86141544931502
 20
758.00000000016155
 30
0.0
 11
584.53795262975098
 21
758.00000000016155
 31
0.0
  0
LINE
  5
990
  8
DATA
  6
CONTINUOUS
 62
     7
 10
547.36141544931422
 20
758.00000000016155
 30
0.0
 11
547.36141544931422
 21
762.50000000016155
 31
0.0
  0
LINE
  5
991
  8
DATA
  6
CONTINUOUS
 62
     7
 10
552.03795262975007
 20
758.00000000016155
 30
0.0
 11
552.03795262975007
 21
762.50000000016155
 31
0.0
  0
LINE
  5
992
  8
DATA
  6
CONTINUOUS
 62
     7
 10
579.86141544931502
 20
758.00000000016155
 30
0.0
 11
579.86141544931502
 21
762.50000000016155
 31
0.0
  0
LINE
  5
993
  8
DATA
  6
CONTINUOUS
 62
     7
 10
584.53795262975098
 20
758.00000000016155
 30
0.0
 11
584.53795262975098
 21
762.50000000016155
 31
0.0
  0
LINE
  5
994
  8
DATA
  6
CONTINUOUS
 62
     7
 10
554.05683818334683
 20
758.00000000016155
 30
0.0
 11
554.05683818334683
 21
762.50000000016155
 31
0.0
  0
LINE
  5
995
  8
DATA
  6
CONTINUOUS
 62
     7
 10
577.85432465916995
 20
758.00000000016155
 30
0.0
 11
577.85432465916995
 21
762.50000000016155
 31
0.0
  0
LINE
  5
996
  8
DATA
  6
CONTINUOUS
 62
     7
 10
199.61406118517851
 20
756.50000000016155
 30
0.0
 11
191.8140611851785
 21
756.50000000016155
 31
0.0
  0
LINE
  5
997
  8
DATA
  6
CONTINUOUS
 62
     7
 10
189.94055849328231
 20
761.00000000016155
 30
0.0
 11
189.94055849328231
 21
762.50000000016155
 31
0.0
  0
LINE
  5
998
  8
DATA
  6
CONTINUOUS
 62
     7
 10
201.48756387707479
 20
761.00000000016155
 30
0.0
 11
201.48756387707479
 21
762.50000000016155
 31
0.0
  0
LINE
  5
999
  8
DATA
  6
CONTINUOUS
 62
     7
 10
189.94055849328231
 20
761.00000000016155
 30
0.0
 11
201.48756387707479
 21
761.00000000016155
 31
0.0
  0
LINE
  5
99A
  8
DATA
  6
CONTINUOUS
 62
     7
 10
191.8140611851785
 20
756.50000000016155
 30
0.0
 11
191.8140611851785
 21
761.00000000016155
 31
0.0
  0
LINE
  5
99B
  8
DATA
  6
CONTINUOUS
 62
     7
 10
199.61406118517851
 20
756.50000000016155
 30
0.0
 11
199.61406118517851
 21
761.00000000016155
 31
0.0
  0
LINE
  5
99C
  8
DATA
  6
CONTINUOUS
 62
     7
 10
175.0
 20
762.5
 30
0.0
 11
610.0
 21
762.5
 31
0.0
  0
ARC
  5
99D
  8
DATA
  6
CONTINUOUS
 62
     7
 10
219.0
 20
871.17843398317302
 30
0.0
 40
1.4999999999999809
 50
12.379000051945839
 51
167.62099994805411
  0
ARC
  5
99E
  8
DATA
  6
CONTINUOUS
 62
     7
 10
229.0
 20
871.17843398317302
 30
0.0
 40
1.4999999999999809
 50
12.379000051945839
 51
167.62099994805411
  0
ARC
  5
99F
  8
DATA
  6
CONTINUOUS
 62
     7
 10
239.0
 20
871.17843398317302
 30
0.0
 40
1.4999999999999809
 50
12.379000051945839
 51
167.62099994805411
  0
ARC
  5
9A0
  8
DATA
  6
CONTINUOUS
 62
     7
 10
249.0
 20
871.17843398317302
 30
0.0
 40
1.5000000000000091
 50
12.379000051945599
 51
167.62099994805439
  0
ARC
  5
9A1
  8
DATA
  6
CONTINUOUS
 62
     7
 10
270.0
 20
871.17843398317302
 30
0.0
 40
1.5000000000000091
 50
12.379000051945599
 51
167.62099994805439
  0
ARC
  5
9A2
  8
DATA
  6
CONTINUOUS
 62
     7
 10
280.0
 20
871.17843398317302
 30
0.0
 40
1.499999999999984
 50
12.379000051961381
 51
167.6209999480389
  0
ARC
  5
9A3
  8
DATA
  6
CONTINUOUS
 62
     7
 10
290.0
 20
871.17843398317302
 30
0.0
 40
1.499999999999984
 50
12.379000051961381
 51
167.6209999480389
  0
ARC
  5
9A4
  8
DATA
  6
CONTINUOUS
 62
     7
 10
300.0
 20
871.17843398317302
 30
0.0
 40
1.499999999999984
 50
12.379000051961381
 51
167.6209999480389
  0
ARC
  5
9A5
  8
DATA
  6
CONTINUOUS
 62
     7
 10
321.0
 20
871.17843398317302
 30
0.0
 40
1.5000000000000091
 50
12.379000051945599
 51
167.62099994805439
  0
ARC
  5
9A6
  8
DATA
  6
CONTINUOUS
 62
     7
 10
331.0
 20
871.17843398317302
 30
0.0
 40
1.499999999999984
 50
12.379000051961381
 51
167.6209999480389
  0
ARC
  5
9A7
  8
DATA
  6
CONTINUOUS
 62
     7
 10
341.0
 20
871.17843398317302
 30
0.0
 40
1.499999999999984
 50
12.379000051961381
 51
167.6209999480389
  0
ARC
  5
9A8
  8
DATA
  6
CONTINUOUS
 62
     7
 10
351.0
 20
871.17843398317302
 30
0.0
 40
1.499999999999996
 50
12.37900005195349
 51
167.62099994804649
  0
ARC
  5
9A9
  8
DATA
  6
CONTINUOUS
 62
     7
 10
372.0
 20
871.17843398317302
 30
0.0
 40
1.499999999999998
 50
12.37900005196126
 51
167.6209999480389
  0
ARC
  5
9AA
  8
DATA
  6
CONTINUOUS
 62
     7
 10
382.0
 20
871.17843398317302
 30
0.0
 40
1.499999999999998
 50
12.37900005196126
 51
167.6209999480387
  0
ARC
  5
9AB
  8
DATA
  6
CONTINUOUS
 62
     7
 10
392.0
 20
871.17843398317302
 30
0.0
 40
1.499999999999998
 50
12.37900005196126
 51
167.6209999480387
  0
ARC
  5
9AC
  8
DATA
  6
CONTINUOUS
 62
     7
 10
402.0
 20
871.17843398317302
 30
0.0
 40
1.499999999999998
 50
12.37900005196126
 51
167.6209999480387
  0
ARC
  5
9AD
  8
DATA
  6
CONTINUOUS
 62
     7
 10
589.98452656047857
 20
871.28011343978346
 30
0.0
 40
1.500000000000006
 50
8.4294236718935363
 51
171.57057632810651
  0
LINE
  5
9AE
  8
DATA
  6
CONTINUOUS
 62
     7
 10
457.0
 20
872.0
 30
0.0
 11
457.0
 21
871.49999999999989
 31
0.0
  0
LINE
  5
9AF
  8
DATA
  6
CONTINUOUS
 62
     7
 10
463.0
 20
872.0
 30
0.0
 11
463.0
 21
871.49999999999989
 31
0.0
  0
LINE
  5
9B0
  8
DATA
  6
CONTINUOUS
 62
     7
 10
457.0
 20
872.0
 30
0.0
 11
463.0
 21
872.0
 31
0.0
  0
LINE
  5
9B1
  8
DATA
  6
CONTINUOUS
 62
     7
 10
497.36141544931428
 20
758.00000000016155
 30
0.0
 11
502.03795262975018
 21
758.00000000016155
 31
0.0
  0
LINE
  5
9B2
  8
DATA
  6
CONTINUOUS
 62
     7
 10
504.05683818334688
 20
758.00000000016155
 30
0.0
 11
527.85432465916995
 21
758.00000000016155
 31
0.0
  0
LINE
  5
9B3
  8
DATA
  6
CONTINUOUS
 62
     7
 10
529.86141544931502
 20
758.00000000016155
 30
0.0
 11
534.53795262975098
 21
758.00000000016155
 31
0.0
  0
LINE
  5
9B4
  8
DATA
  6
CONTINUOUS
 62
     7
 10
497.36141544931428
 20
758.00000000016155
 30
0.0
 11
497.36141544931428
 21
762.50000000016155
 31
0.0
  0
LINE
  5
9B5
  8
DATA
  6
CONTINUOUS
 62
     7
 10
502.03795262975018
 20
758.00000000016155
 30
0.0
 11
502.03795262975018
 21
762.50000000016155
 31
0.0
  0
LINE
  5
9B6
  8
DATA
  6
CONTINUOUS
 62
     7
 10
529.86141544931502
 20
758.00000000016155
 30
0.0
 11
529.86141544931502
 21
762.50000000016155
 31
0.0
  0
LINE
  5
9B7
  8
DATA
  6
CONTINUOUS
 62
     7
 10
534.53795262975098
 20
758.00000000016155
 30
0.0
 11
534.53795262975098
 21
762.50000000016155
 31
0.0
  0
LINE
  5
9B8
  8
DATA
  6
CONTINUOUS
 62
     7
 10
504.05683818334688
 20
758.00000000016155
 30
0.0
 11
504.05683818334688
 21
762.50000000016155
 31
0.0
  0
LINE
  5
9B9
  8
DATA
  6
CONTINUOUS
 62
     7
 10
527.85432465916995
 20
758.00000000016155
 30
0.0
 11
527.85432465916995
 21
762.50000000016155
 31
0.0
  0
LINE
  5
9BA
  8
DATA
  6
CONTINUOUS
 62
     7
 10
447.36141544931428
 20
758.00000000016155
 30
0.0
 11
452.03795262975018
 21
758.00000000016155
 31
0.0
  0
LINE
  5
9BB
  8
DATA
  6
CONTINUOUS
 62
     7
 10
454.05683818334688
 20
758.00000000016155
 30
0.0
 11
477.85432465916989
 21
758.00000000016155
 31
0.0
  0
LINE
  5
9BC
  8
DATA
  6
CONTINUOUS
 62
     7
 10
479.86141544931502
 20
758.00000000016155
 30
0.0
 11
484.53795262975098
 21
758.00000000016155
 31
0.0
  0
LINE
  5
9BD
  8
DATA
  6
CONTINUOUS
 62
     7
 10
447.36141544931428
 20
758.00000000016155
 30
0.0
 11
447.36141544931428
 21
762.50000000016155
 31
0.0
  0
LINE
  5
9BE
  8
DATA
  6
CONTINUOUS
 62
     7
 10
452.03795262975018
 20
758.00000000016155
 30
0.0
 11
452.03795262975018
 21
762.50000000016155
 31
0.0
  0
LINE
  5
9BF
  8
DATA
  6
CONTINUOUS
 62
     7
 10
479.86141544931502
 20
758.00000000016155
 30
0.0
 11
479.86141544931502
 21
762.50000000016155
 31
0.0
  0
LINE
  5
9C0
  8
DATA
  6
CONTINUOUS
 62
     7
 10
484.53795262975098
 20
758.00000000016155
 30
0.0
 11
484.53795262975098
 21
762.50000000016155
 31
0.0
  0
LINE
  5
9C1
  8
DATA
  6
CONTINUOUS
 62
     7
 10
454.05683818334688
 20
758.00000000016155
 30
0.0
 11
454.05683818334688
 21
762.50000000016155
 31
0.0
  0
LINE
  5
9C2
  8
DATA
  6
CONTINUOUS
 62
     7
 10
477.85432465916989
 20
758.00000000016155
 30
0.0
 11
477.85432465916989
 21
762.50000000016155
 31
0.0
  0
LINE
  5
9C3
  8
DATA
  6
CONTINUOUS
 62
     7
 10
397.36141544931428
 20
758.00000000016155
 30
0.0
 11
402.03795262975018
 21
758.00000000016155
 31
0.0
  0
LINE
  5
9C4
  8
DATA
  6
CONTINUOUS
 62
     7
 10
404.05683818334688
 20
758.00000000016155
 30
0.0
 11
427.85432465916989
 21
758.00000000016155
 31
0.0
  0
LINE
  5
9C5
  8
DATA
  6
CONTINUOUS
 62
     7
 10
429.86141544931502
 20
758.00000000016155
 30
0.0
 11
434.53795262975098
 21
758.00000000016155
 31
0.0
  0
LINE
  5
9C6
  8
DATA
  6
CONTINUOUS
 62
     7
 10
397.36141544931428
 20
758.00000000016155
 30
0.0
 11
397.36141544931428
 21
762.50000000016155
 31
0.0
  0
LINE
  5
9C7
  8
DATA
  6
CONTINUOUS
 62
     7
 10
402.03795262975018
 20
758.00000000016155
 30
0.0
 11
402.03795262975018
 21
762.50000000016155
 31
0.0
  0
LINE
  5
9C8
  8
DATA
  6
CONTINUOUS
 62
     7
 10
429.86141544931502
 20
758.00000000016155
 30
0.0
 11
429.86141544931502
 21
762.50000000016155
 31
0.0
  0
LINE
  5
9C9
  8
DATA
  6
CONTINUOUS
 62
     7
 10
434.53795262975098
 20
758.00000000016155
 30
0.0
 11
434.53795262975098
 21
762.50000000016155
 31
0.0
  0
LINE
  5
9CA
  8
DATA
  6
CONTINUOUS
 62
     7
 10
404.05683818334688
 20
758.00000000016155
 30
0.0
 11
404.05683818334688
 21
762.50000000016155
 31
0.0
  0
LINE
  5
9CB
  8
DATA
  6
CONTINUOUS
 62
     7
 10
427.85432465916989
 20
758.00000000016155
 30
0.0
 11
427.85432465916989
 21
762.50000000016155
 31
0.0
  0
LINE
  5
9CC
  8
DATA
  6
CONTINUOUS
 62
     7
 10
347.36141544931428
 20
758.00000000016155
 30
0.0
 11
352.03795262975029
 21
758.00000000016155
 31
0.0
  0
LINE
  5
9CD
  8
DATA
  6
CONTINUOUS
 62
     7
 10
354.056838183347
 20
758.00000000016155
 30
0.0
 11
377.85432465917
 21
758.00000000016155
 31
0.0
  0
LINE
  5
9CE
  8
DATA
  6
CONTINUOUS
 62
     7
 10
379.86141544931502
 20
758.00000000016155
 30
0.0
 11
384.53795262975098
 21
758.00000000016155
 31
0.0
  0
LINE
  5
9CF
  8
DATA
  6
CONTINUOUS
 62
     7
 10
347.36141544931428
 20
758.00000000016155
 30
0.0
 11
347.36141544931428
 21
762.50000000016155
 31
0.0
  0
LINE
  5
9D0
  8
DATA
  6
CONTINUOUS
 62
     7
 10
352.03795262975029
 20
758.00000000016155
 30
0.0
 11
352.03795262975029
 21
762.50000000016155
 31
0.0
  0
LINE
  5
9D1
  8
DATA
  6
CONTINUOUS
 62
     7
 10
379.86141544931502
 20
758.00000000016155
 30
0.0
 11
379.86141544931502
 21
762.50000000016155
 31
0.0
  0
LINE
  5
9D2
  8
DATA
  6
CONTINUOUS
 62
     7
 10
384.53795262975098
 20
758.00000000016155
 30
0.0
 11
384.53795262975098
 21
762.50000000016155
 31
0.0
  0
LINE
  5
9D3
  8
DATA
  6
CONTINUOUS
 62
     7
 10
354.056838183347
 20
758.00000000016155
 30
0.0
 11
354.056838183347
 21
762.50000000016155
 31
0.0
  0
LINE
  5
9D4
  8
DATA
  6
CONTINUOUS
 62
     7
 10
377.85432465917
 20
758.00000000016155
 30
0.0
 11
377.85432465917
 21
762.50000000016155
 31
0.0
  0
LINE
  5
9D5
  8
DATA
  6
CONTINUOUS
 62
     7
 10
303.36141544931422
 20
758.00000000016155
 30
0.0
 11
308.03795262975018
 21
758.00000000016155
 31
0.0
  0
LINE
  5
9D6
  8
DATA
  6
CONTINUOUS
 62
     7
 10
310.05683818334688
 20
758.00000000016155
 30
0.0
 11
333.85432465916989
 21
758.00000000016155
 31
0.0
  0
LINE
  5
9D7
  8
DATA
  6
CONTINUOUS
 62
     7
 10
335.86141544931507
 20
758.00000000016155
 30
0.0
 11
340.53795262975098
 21
758.00000000016155
 31
0.0
  0
LINE
  5
9D8
  8
DATA
  6
CONTINUOUS
 62
     7
 10
303.36141544931422
 20
758.00000000016155
 30
0.0
 11
303.36141544931422
 21
762.50000000016155
 31
0.0
  0
LINE
  5
9D9
  8
DATA
  6
CONTINUOUS
 62
     7
 10
308.03795262975018
 20
758.00000000016155
 30
0.0
 11
308.03795262975018
 21
762.50000000016155
 31
0.0
  0
LINE
  5
9DA
  8
DATA
  6
CONTINUOUS
 62
     7
 10
335.86141544931507
 20
758.00000000016155
 30
0.0
 11
335.86141544931507
 21
762.50000000016155
 31
0.0
  0
LINE
  5
9DB
  8
DATA
  6
CONTINUOUS
 62
     7
 10
340.53795262975098
 20
758.00000000016155
 30
0.0
 11
340.53795262975098
 21
762.50000000016155
 31
0.0
  0
LINE
  5
9DC
  8
DATA
  6
CONTINUOUS
 62
     7
 10
310.05683818334688
 20
758.00000000016155
 30
0.0
 11
310.05683818334688
 21
762.50000000016155
 31
0.0
  0
LINE
  5
9DD
  8
DATA
  6
CONTINUOUS
 62
     7
 10
333.85432465916989
 20
758.00000000016155
 30
0.0
 11
333.85432465916989
 21
762.50000000016155
 31
0.0
  0
LINE
  5
9DE
  8
DATA
  6
CONTINUOUS
 62
     7
 10
259.36141544931422
 20
758.00000000016155
 30
0.0
 11
264.03795262975012
 21
758.00000000016155
 31
0.0
  0
LINE
  5
9DF
  8
DATA
  6
CONTINUOUS
 62
     7
 10
266.05683818334688
 20
758.00000000016155
 30
0.0
 11
289.85432465917
 21
758.00000000016155
 31
0.0
  0
LINE
  5
9E0
  8
DATA
  6
CONTINUOUS
 62
     7
 10
291.86141544931507
 20
758.00000000016155
 30
0.0
 11
296.53795262975098
 21
758.00000000016155
 31
0.0
  0
LINE
  5
9E1
  8
DATA
  6
CONTINUOUS
 62
     7
 10
259.36141544931422
 20
758.00000000016155
 30
0.0
 11
259.36141544931422
 21
762.50000000016155
 31
0.0
  0
LINE
  5
9E2
  8
DATA
  6
CONTINUOUS
 62
     7
 10
264.03795262975012
 20
758.00000000016155
 30
0.0
 11
264.03795262975012
 21
762.50000000016155
 31
0.0
  0
LINE
  5
9E3
  8
DATA
  6
CONTINUOUS
 62
     7
 10
291.86141544931507
 20
758.00000000016155
 30
0.0
 11
291.86141544931507
 21
762.50000000016155
 31
0.0
  0
LINE
  5
9E4
  8
DATA
  6
CONTINUOUS
 62
     7
 10
296.53795262975098
 20
758.00000000016155
 30
0.0
 11
296.53795262975098
 21
762.50000000016155
 31
0.0
  0
LINE
  5
9E5
  8
DATA
  6
CONTINUOUS
 62
     7
 10
266.05683818334688
 20
758.00000000016155
 30
0.0
 11
266.05683818334688
 21
762.50000000016155
 31
0.0
  0
LINE
  5
9E6
  8
DATA
  6
CONTINUOUS
 62
     7
 10
289.85432465917
 20
758.00000000016155
 30
0.0
 11
289.85432465917
 21
762.50000000016155
 31
0.0
  0
LINE
  5
9E7
  8
DATA
  6
CONTINUOUS
 62
     7
 10
215.36141544931431
 20
758.00000000016155
 30
0.0
 11
220.03795262975029
 21
758.00000000016155
 31
0.0
  0
LINE
  5
9E8
  8
DATA
  6
CONTINUOUS
 62
     7
 10
222.0568381833468
 20
758.00000000016155
 30
0.0
 11
245.85432465917
 21
758.00000000016155
 31
0.0
  0
LINE
  5
9E9
  8
DATA
  6
CONTINUOUS
 62
     7
 10
247.8614154493151
 20
758.00000000016155
 30
0.0
 11
252.537952629751
 21
758.00000000016155
 31
0.0
  0
LINE
  5
9EA
  8
DATA
  6
CONTINUOUS
 62
     7
 10
215.36141544931431
 20
758.00000000016155
 30
0.0
 11
215.36141544931431
 21
762.50000000016155
 31
0.0
  0
LINE
  5
9EB
  8
DATA
  6
CONTINUOUS
 62
     7
 10
252.537952629751
 20
758.00000000016155
 30
0.0
 11
252.537952629751
 21
762.50000000016155
 31
0.0
  0
LINE
  5
9EC
  8
DATA
  6
CONTINUOUS
 62
     7
 10
219.843963681643
 20
758.00000000016155
 30
0.0
 11
224.52050086207899
 21
758.00000000016155
 31
0.0
  0
LINE
  5
9ED
  8
DATA
  6
CONTINUOUS
 62
     7
 10
219.843963681643
 20
758.00000000016155
 30
0.0
 11
219.843963681643
 21
762.50000000016155
 31
0.0
  0
LINE
  5
9EE
  8
DATA
  6
CONTINUOUS
 62
     7
 10
224.52050086207899
 20
758.00000000016155
 30
0.0
 11
224.52050086207899
 21
762.50000000016155
 31
0.0
  0
LINE
  5
9EF
  8
DATA
  6
CONTINUOUS
 62
     7
 10
248.06719916087391
 20
758.00000000016155
 30
0.0
 11
243.39066198043801
 21
758.00000000016155
 31
0.0
  0
LINE
  5
9F0
  8
DATA
  6
CONTINUOUS
 62
     7
 10
248.06719916087391
 20
758.00000000016155
 30
0.0
 11
248.06719916087391
 21
762.50000000016155
 31
0.0
  0
LINE
  5
9F1
  8
DATA
  6
CONTINUOUS
 62
     7
 10
243.39066198043801
 20
758.00000000016155
 30
0.0
 11
243.39066198043801
 21
762.50000000016155
 31
0.0
  0
LINE
  5
9F2
  8
DATA
  6
CONTINUOUS
 62
     7
 10
225.9555814212585
 20
762.5
 30
0.0
 11
225.9555814212585
 21
758.00000000016155
 31
0.0
  0
LINE
  5
9F3
  8
DATA
  6
CONTINUOUS
 62
     7
 10
241.95558142125839
 20
758.00000000016155
 30
0.0
 11
241.95558142125839
 21
762.5
 31
0.0
  0
LINE
  5
9F4
  8
DATA
  6
CONTINUOUS
 62
     7
 10
493.0
 20
851.5
 30
0.0
 11
493.0
 21
829.49999999999989
 31
0.0
  0
LINE
  5
9F5
  8
DATA
  6
CONTINUOUS
 62
     7
 10
486.5
 20
851.5
 30
0.0
 11
486.5
 21
829.49999999999989
 31
0.0
  0
LINE
  5
9F6
  8
DATA
  6
CONTINUOUS
 62
     7
 10
486.5
 20
851.5
 30
0.0
 11
493.0
 21
851.5
 31
0.0
  0
LINE
  5
9F7
  8
DATA
  6
CONTINUOUS
 62
     7
 10
486.5
 20
829.49999999999989
 30
0.0
 11
493.0
 21
829.49999999999989
 31
0.0
  0
POLYLINE
  5
9F8
  8
DATA
  6
CONTINUOUS
 62
     7
 66
     1
 10
0.0
 20
0.0
 30
0.0
 70
     1
  0
VERTEX
  5
1269
  8
DATA
  6
CONTINUOUS
 62
     7
 10
488.82258644775402
 20
832.44439999999975
 30
0.0
  0
VERTEX
  5
126A
  8
DATA
  6
CONTINUOUS
 62
     7
 10
490.82258644775402
 20
832.44439999999975
 30
0.0
  0
VERTEX
  5
126B
  8
DATA
  6
CONTINUOUS
 62
     7
 10
490.82258644775402
 20
831.44439999999975
 30
0.0
  0
VERTEX
  5
126C
  8
DATA
  6
CONTINUOUS
 62
     7
 10
488.82258644775402
 20
831.44439999999975
 30
0.0
  0
SEQEND
  5
126D
  8
DATA
  6
CONTINUOUS
 62
     7
  0
TEXT
  5
9FF
  8
DATA
 62
     7
 10
492.6969698729111
 20
831.48441271423326
 30
0.0
 40
1.357367621527777
  1
1
 50
90.0
 41
0.7
 11
491.33960225138338
 21
831.48441271423326
 31
0.0
 73
     3
1001
ACADANNOTATIVE
1000
AnnotativeData
1002
{
1070
     1
1070
     0
1002
}
  0
POLYLINE
  5
A00
  8
DATA
  6
CONTINUOUS
 62
     7
 66
     1
 10
0.0
 20
0.0
 30
0.0
 70
     1
  0
VERTEX
  5
126E
  8
DATA
  6
CONTINUOUS
 62
     7
 10
488.82258644775402
 20
834.88879999999983
 30
0.0
  0
VERTEX
  5
126F
  8
DATA
  6
CONTINUOUS
 62
     7
 10
490.82258644775402
 20
834.88879999999983
 30
0.0
  0
VERTEX
  5
1270
  8
DATA
  6
CONTINUOUS
 62
     7
 10
490.82258644775402
 20
833.88879999999983
 30
0.0
  0
VERTEX
  5
1271
  8
DATA
  6
CONTINUOUS
 62
     7
 10
488.82258644775402
 20
833.88879999999983
 30
0.0
  0
SEQEND
  5
1272
  8
DATA
  6
CONTINUOUS
 62
     7
  0
TEXT
  5
A07
  8
DATA
 62
     7
 10
492.6969698729111
 20
833.92881271423323
 30
0.0
 40
1.357367621527777
  1
2
 50
90.0
 41
0.7
 11
491.33960225138338
 21
833.92881271423323
 31
0.0
 73
     3
1001
ACADANNOTATIVE
1000
AnnotativeData
1002
{
1070
     1
1070
     0
1002
}
  0
POLYLINE
  5
A08
  8
DATA
  6
CONTINUOUS
 62
     7
 66
     1
 10
0.0
 20
0.0
 30
0.0
 70
     1
  0
VERTEX
  5
1273
  8
DATA
  6
CONTINUOUS
 62
     7
 10
488.82258644775402
 20
837.33320000000015
 30
0.0
  0
VERTEX
  5
1274
  8
DATA
  6
CONTINUOUS
 62
     7
 10
490.82258644775402
 20
837.33320000000015
 30
0.0
  0
VERTEX
  5
1275
  8
DATA
  6
CONTINUOUS
 62
     7
 10
490.82258644775402
 20
836.33319999999992
 30
0.0
  0
VERTEX
  5
1276
  8
DATA
  6
CONTINUOUS
 62
     7
 10
488.82258644775402
 20
836.33319999999992
 30
0.0
  0
SEQEND
  5
1277
  8
DATA
  6
CONTINUOUS
 62
     7
  0
TEXT
  5
A0F
  8
DATA
 62
     7
 10
492.6969698729111
 20
836.3732127142332
 30
0.0
 40
1.357367621527777
  1
3
 50
90.0
 41
0.7
 11
491.33960225138338
 21
836.3732127142332
 31
0.0
 73
     3
1001
ACADANNOTATIVE
1000
AnnotativeData
1002
{
1070
     1
1070
     0
1002
}
  0
POLYLINE
  5
A10
  8
DATA
  6
CONTINUOUS
 62
     7
 66
     1
 10
0.0
 20
0.0
 30
0.0
 70
     1
  0
VERTEX
  5
1278
  8
DATA
  6
CONTINUOUS
 62
     7
 10
488.82258644775402
 20
839.77760000000001
 30
0.0
  0
VERTEX
  5
1279
  8
DATA
  6
CONTINUOUS
 62
     7
 10
490.82258644775402
 20
839.77760000000001
 30
0.0
  0
VERTEX
  5
127A
  8
DATA
  6
CONTINUOUS
 62
     7
 10
490.82258644775402
 20
838.77760000000001
 30
0.0
  0
VERTEX
  5
127B
  8
DATA
  6
CONTINUOUS
 62
     7
 10
488.82258644775402
 20
838.77760000000001
 30
0.0
  0
SEQEND
  5
127C
  8
DATA
  6
CONTINUOUS
 62
     7
  0
TEXT
  5
A17
  8
DATA
 62
     7
 10
492.6969698729111
 20
838.81761271423352
 30
0.0
 40
1.357367621527777
  1
4
 50
90.0
 41
0.7
 11
491.33960225138338
 21
838.81761271423352
 31
0.0
 73
     3
1001
ACADANNOTATIVE
1000
AnnotativeData
1002
{
1070
     1
1070
     0
1002
}
  0
POLYLINE
  5
A18
  8
DATA
  6
CONTINUOUS
 62
     7
 66
     1
 10
0.0
 20
0.0
 30
0.0
 70
     1
  0
VERTEX
  5
127D
  8
DATA
  6
CONTINUOUS
 62
     7
 10
488.82258644775402
 20
842.22199999999987
 30
0.0
  0
VERTEX
  5
127E
  8
DATA
  6
CONTINUOUS
 62
     7
 10
490.82258644775402
 20
842.22199999999987
 30
0.0
  0
VERTEX
  5
127F
  8
DATA
  6
CONTINUOUS
 62
     7
 10
490.82258644775402
 20
841.22199999999987
 30
0.0
  0
VERTEX
  5
1280
  8
DATA
  6
CONTINUOUS
 62
     7
 10
488.82258644775402
 20
841.22199999999987
 30
0.0
  0
SEQEND
  5
1281
  8
DATA
  6
CONTINUOUS
 62
     7
  0
TEXT
  5
A1F
  8
DATA
 62
     7
 10
492.6969698729111
 20
841.26201271423315
 30
0.0
 40
1.357367621527777
  1
5
 50
90.0
 41
0.7
 11
491.33960225138338
 21
841.26201271423315
 31
0.0
 73
     3
1001
ACADANNOTATIVE
1000
AnnotativeData
1002
{
1070
     1
1070
     0
1002
}
  0
POLYLINE
  5
A20
  8
DATA
  6
CONTINUOUS
 62
     7
 66
     1
 10
0.0
 20
0.0
 30
0.0
 70
     1
  0
VERTEX
  5
1282
  8
DATA
  6
CONTINUOUS
 62
     7
 10
488.82258644775402
 20
844.66639999999995
 30
0.0
  0
VERTEX
  5
1283
  8
DATA
  6
CONTINUOUS
 62
     7
 10
490.82258644775402
 20
844.66639999999995
 30
0.0
  0
VERTEX
  5
1284
  8
DATA
  6
CONTINUOUS
 62
     7
 10
490.82258644775402
 20
843.66639999999995
 30
0.0
  0
VERTEX
  5
1285
  8
DATA
  6
CONTINUOUS
 62
     7
 10
488.82258644775402
 20
843.66639999999995
 30
0.0
  0
SEQEND
  5
1286
  8
DATA
  6
CONTINUOUS
 62
     7
  0
TEXT
  5
A27
  8
DATA
 62
     7
 10
492.6969698729111
 20
843.70641271423312
 30
0.0
 40
1.357367621527777
  1
6
 50
90.0
 41
0.7
 11
491.33960225138338
 21
843.70641271423312
 31
0.0
 73
     3
1001
ACADANNOTATIVE
1000
AnnotativeData
1002
{
1070
     1
1070
     0
1002
}
  0
POLYLINE
  5
A28
  8
DATA
  6
CONTINUOUS
 62
     7
 66
     1
 10
0.0
 20
0.0
 30
0.0
 70
     1
  0
VERTEX
  5
1287
  8
DATA
  6
CONTINUOUS
 62
     7
 10
488.82258644775402
 20
847.11080000000004
 30
0.0
  0
VERTEX
  5
1288
  8
DATA
  6
CONTINUOUS
 62
     7
 10
490.82258644775402
 20
847.11080000000004
 30
0.0
  0
VERTEX
  5
1289
  8
DATA
  6
CONTINUOUS
 62
     7
 10
490.82258644775402
 20
846.11080000000015
 30
0.0
  0
VERTEX
  5
128A
  8
DATA
  6
CONTINUOUS
 62
     7
 10
488.82258644775402
 20
846.11080000000015
 30
0.0
  0
SEQEND
  5
128B
  8
DATA
  6
CONTINUOUS
 62
     7
  0
TEXT
  5
A2F
  8
DATA
 62
     7
 10
492.6969698729111
 20
846.15081271423321
 30
0.0
 40
1.357367621527777
  1
7
 50
90.0
 41
0.7
 11
491.33960225138338
 21
846.15081271423321
 31
0.0
 73
     3
1001
ACADANNOTATIVE
1000
AnnotativeData
1002
{
1070
     1
1070
     0
1002
}
  0
POLYLINE
  5
A30
  8
DATA
  6
CONTINUOUS
 62
     7
 66
     1
 10
0.0
 20
0.0
 30
0.0
 70
     1
  0
VERTEX
  5
128C
  8
DATA
  6
CONTINUOUS
 62
     7
 10
488.82258644775402
 20
849.5551999999999
 30
0.0
  0
VERTEX
  5
128D
  8
DATA
  6
CONTINUOUS
 62
     7
 10
490.82258644775402
 20
849.5551999999999
 30
0.0
  0
VERTEX
  5
128E
  8
DATA
  6
CONTINUOUS
 62
     7
 10
490.82258644775402
 20
848.55520000000001
 30
0.0
  0
VERTEX
  5
128F
  8
DATA
  6
CONTINUOUS
 62
     7
 10
488.82258644775402
 20
848.55520000000001
 30
0.0
  0
SEQEND
  5
1290
  8
DATA
  6
CONTINUOUS
 62
     7
  0
TEXT
  5
A37
  8
DATA
 62
     7
 10
492.6969698729111
 20
848.59521271423353
 30
0.0
 40
1.357367621527777
  1
8
 50
90.0
 41
0.7
 11
491.33960225138338
 21
848.59521271423353
 31
0.0
 73
     3
1001
ACADANNOTATIVE
1000
AnnotativeData
1002
{
1070
     1
1070
     0
1002
}
  0
TEXT
  5
A38
  8
DATA
 62
     7
 10
488.27239141386889
 20
831.04249646742585
 30
0.0
 40
1.357367621527777
  1
ON
 50
90.0
 41
0.7
 11
486.91502379234112
 21
831.04249646742585
 31
0.0
 73
     3
1001
ACADANNOTATIVE
1000
AnnotativeData
1002
{
1070
     1
1070
     0
1002
}
  0
LINE
  5
A39
  8
DATA
  6
CONTINUOUS
 62
     7
 10
490.02258644775401
 20
849.5551999999999
 30
0.0
 11
490.02258644775401
 21
848.55520000000001
 31
0.0
  0
LINE
  5
A3A
  8
DATA
  6
CONTINUOUS
 62
     7
 10
490.02258644775401
 20
847.11080000000004
 30
0.0
 11
490.02258644775401
 21
846.11080000000015
 31
0.0
  0
LINE
  5
A3B
  8
DATA
  6
CONTINUOUS
 62
     7
 10
490.02258644775401
 20
844.66639999999995
 30
0.0
 11
490.02258644775401
 21
843.66639999999995
 31
0.0
  0
LINE
  5
A3C
  8
DATA
  6
CONTINUOUS
 62
     7
 10
490.02258644775401
 20
842.22199999999987
 30
0.0
 11
490.02258644775401
 21
841.22199999999987
 31
0.0
  0
LINE
  5
A3D
  8
DATA
  6
CONTINUOUS
 62
     7
 10
490.02258644775401
 20
839.77760000000001
 30
0.0
 11
490.02258644775401
 21
838.77760000000001
 31
0.0
  0
LINE
  5
A3E
  8
DATA
  6
CONTINUOUS
 62
     7
 10
490.02258644775401
 20
837.33320000000015
 30
0.0
 11
490.02258644775401
 21
836.33319999999992
 31
0.0
  0
LINE
  5
A3F
  8
DATA
  6
CONTINUOUS
 62
     7
 10
490.02258644775401
 20
834.88879999999983
 30
0.0
 11
490.02258644775401
 21
833.88879999999983
 31
0.0
  0
LINE
  5
A40
  8
DATA
  6
CONTINUOUS
 62
     7
 10
490.02258644775401
 20
832.44439999999975
 30
0.0
 11
490.02258644775401
 21
831.44439999999975
 31
0.0
  0
LINE
  5
A41
  8
DATA
  6
CONTINUOUS
 62
     7
 10
742.0247985505747
 20
905.10000000000002
 30
0.0
 11
742.0247985505747
 21
726.89999999999998
 31
0.0
  0
LINE
  5
A42
  8
DATA
  6
CONTINUOUS
 62
     7
 10
689.37479855057495
 20
905.10000000000002
 30
0.0
 11
689.37479855057495
 21
726.89999999999998
 31
0.0
  0
LINE
  5
A43
  8
DATA
  6
CONTINUOUS
 62
     7
 10
689.37479855057495
 20
905.10000000000002
 30
0.0
 11
742.0247985505747
 21
905.10000000000002
 31
0.0
  0
LINE
  5
A44
  8
DATA
  6
CONTINUOUS
 62
     7
 10
689.37479855057495
 20
726.89999999999998
 30
0.0
 11
742.0247985505747
 21
726.89999999999998
 31
0.0
  0
POLYLINE
  5
A45
  8
DATA
  6
CONTINUOUS
 62
     7
 66
     1
 10
0.0
 20
0.0
 30
0.0
 70
     1
  0
VERTEX
  5
1291
  8
DATA
  6
CONTINUOUS
 62
     7
 10
708.18774877738315
 20
750.74963999999989
 30
0.0
  0
VERTEX
  5
1292
  8
DATA
  6
CONTINUOUS
 62
     7
 10
724.38774877738331
 20
750.74963999999989
 30
0.0
  0
VERTEX
  5
1293
  8
DATA
  6
CONTINUOUS
 62
     7
 10
724.38774877738331
 20
742.64963999999986
 30
0.0
  0
VERTEX
  5
1294
  8
DATA
  6
CONTINUOUS
 62
     7
 10
708.18774877738315
 20
742.64963999999986
 30
0.0
  0
SEQEND
  5
1295
  8
DATA
  6
CONTINUOUS
 62
     7
  0
TEXT
  5
A4C
  8
DATA
 62
     7
 10
739.57025452115488
 20
742.97374298528985
 30
0.0
 40
10.994677734374999
  1
1
 50
90.0
 41
0.7
 11
728.57557678677995
 21
742.97374298528985
 31
0.0
 73
     3
1001
ACADANNOTATIVE
1000
AnnotativeData
1002
{
1070
     1
1070
     0
1002
}
  0
POLYLINE
  5
A4D
  8
DATA
  6
CONTINUOUS
 62
     7
 66
     1
 10
0.0
 20
0.0
 30
0.0
 70
     1
  0
VERTEX
  5
1296
  8
DATA
  6
CONTINUOUS
 62
     7
 10
708.18774877738315
 20
770.54927999999995
 30
0.0
  0
VERTEX
  5
1297
  8
DATA
  6
CONTINUOUS
 62
     7
 10
724.38774877738331
 20
770.54927999999995
 30
0.0
  0
VERTEX
  5
1298
  8
DATA
  6
CONTINUOUS
 62
     7
 10
724.38774877738331
 20
762.44928000000004
 30
0.0
  0
VERTEX
  5
1299
  8
DATA
  6
CONTINUOUS
 62
     7
 10
708.18774877738315
 20
762.44928000000004
 30
0.0
  0
SEQEND
  5
129A
  8
DATA
  6
CONTINUOUS
 62
     7
  0
TEXT
  5
A54
  8
DATA
 62
     7
 10
739.57025452115488
 20
762.77338298529003
 30
0.0
 40
10.994677734374999
  1
2
 50
90.0
 41
0.7
 11
728.57557678677995
 21
762.77338298529003
 31
0.0
 73
     3
1001
ACADANNOTATIVE
1000
AnnotativeData
1002
{
1070
     1
1070
     0
1002
}
  0
POLYLINE
  5
A55
  8
DATA
  6
CONTINUOUS
 62
     7
 66
     1
 10
0.0
 20
0.0
 30
0.0
 70
     1
  0
VERTEX
  5
129B
  8
DATA
  6
CONTINUOUS
 62
     7
 10
708.18774877738315
 20
790.34892000000002
 30
0.0
  0
VERTEX
  5
129C
  8
DATA
  6
CONTINUOUS
 62
     7
 10
724.38774877738331
 20
790.34892000000002
 30
0.0
  0
VERTEX
  5
129D
  8
DATA
  6
CONTINUOUS
 62
     7
 10
724.38774877738331
 20
782.24892
 30
0.0
  0
VERTEX
  5
129E
  8
DATA
  6
CONTINUOUS
 62
     7
 10
708.18774877738315
 20
782.24892
 30
0.0
  0
SEQEND
  5
129F
  8
DATA
  6
CONTINUOUS
 62
     7
  0
TEXT
  5
A5C
  8
DATA
 62
     7
 10
739.57025452115488
 20
782.57302298529009
 30
0.0
 40
10.994677734374999
  1
3
 50
90.0
 41
0.7
 11
728.57557678677995
 21
782.57302298529009
 31
0.0
 73
     3
1001
ACADANNOTATIVE
1000
AnnotativeData
1002
{
1070
     1
1070
     0
1002
}
  0
POLYLINE
  5
A5D
  8
DATA
  6
CONTINUOUS
 62
     7
 66
     1
 10
0.0
 20
0.0
 30
0.0
 70
     1
  0
VERTEX
  5
12A0
  8
DATA
  6
CONTINUOUS
 62
     7
 10
708.18774877738315
 20
810.14856000000009
 30
0.0
  0
VERTEX
  5
12A1
  8
DATA
  6
CONTINUOUS
 62
     7
 10
724.38774877738331
 20
810.14856000000009
 30
0.0
  0
VERTEX
  5
12A2
  8
DATA
  6
CONTINUOUS
 62
     7
 10
724.38774877738331
 20
802.04855999999984
 30
0.0
  0
VERTEX
  5
12A3
  8
DATA
  6
CONTINUOUS
 62
     7
 10
708.18774877738315
 20
802.04855999999984
 30
0.0
  0
SEQEND
  5
12A4
  8
DATA
  6
CONTINUOUS
 62
     7
  0
TEXT
  5
A64
  8
DATA
 62
     7
 10
739.57025452115488
 20
802.37266298529005
 30
0.0
 40
10.994677734374999
  1
4
 50
90.0
 41
0.7
 11
728.57557678677995
 21
802.37266298529005
 31
0.0
 73
     3
1001
ACADANNOTATIVE
1000
AnnotativeData
1002
{
1070
     1
1070
     0
1002
}
  0
POLYLINE
  5
A65
  8
DATA
  6
CONTINUOUS
 62
     7
 66
     1
 10
0.0
 20
0.0
 30
0.0
 70
     1
  0
VERTEX
  5
12A5
  8
DATA
  6
CONTINUOUS
 62
     7
 10
708.18774877738315
 20
829.94820000000016
 30
0.0
  0
VERTEX
  5
12A6
  8
DATA
  6
CONTINUOUS
 62
     7
 10
724.38774877738331
 20
829.94820000000016
 30
0.0
  0
VERTEX
  5
12A7
  8
DATA
  6
CONTINUOUS
 62
     7
 10
724.38774877738331
 20
821.84820000000013
 30
0.0
  0
VERTEX
  5
12A8
  8
DATA
  6
CONTINUOUS
 62
     7
 10
708.18774877738315
 20
821.84820000000013
 30
0.0
  0
SEQEND
  5
12A9
  8
DATA
  6
CONTINUOUS
 62
     7
  0
TEXT
  5
A6C
  8
DATA
 62
     7
 10
739.57025452115488
 20
822.17230298529012
 30
0.0
 40
10.994677734374999
  1
5
 50
90.0
 41
0.7
 11
728.57557678677995
 21
822.17230298529012
 31
0.0
 73
     3
1001
ACADANNOTATIVE
1000
AnnotativeData
1002
{
1070
     1
1070
     0
1002
}
  0
POLYLINE
  5
A6D
  8
DATA
  6
CONTINUOUS
 62
     7
 66
     1
 10
0.0
 20
0.0
 30
0.0
 70
     1
  0
VERTEX
  5
12AA
  8
DATA
  6
CONTINUOUS
 62
     7
 10
708.18774877738315
 20
849.74784000000022
 30
0.0
  0
VERTEX
  5
12AB
  8
DATA
  6
CONTINUOUS
 62
     7
 10
724.38774877738331
 20
849.74784000000022
 30
0.0
  0
VERTEX
  5
12AC
  8
DATA
  6
CONTINUOUS
 62
     7
 10
724.38774877738331
 20
841.6478400000002
 30
0.0
  0
VERTEX
  5
12AD
  8
DATA
  6
CONTINUOUS
 62
     7
 10
708.18774877738315
 20
841.6478400000002
 30
0.0
  0
SEQEND
  5
12AE
  8
DATA
  6
CONTINUOUS
 62
     7
  0
TEXT
  5
A74
  8
DATA
 62
     7
 10
739.57025452115488
 20
841.97194298529018
 30
0.0
 40
10.994677734374999
  1
6
 50
90.0
 41
0.7
 11
728.57557678677995
 21
841.97194298529018
 31
0.0
 73
     3
1001
ACADANNOTATIVE
1000
AnnotativeData
1002
{
1070
     1
1070
     0
1002
}
  0
POLYLINE
  5
A75
  8
DATA
  6
CONTINUOUS
 62
     7
 66
     1
 10
0.0
 20
0.0
 30
0.0
 70
     1
  0
VERTEX
  5
12AF
  8
DATA
  6
CONTINUOUS
 62
     7
 10
708.18774877738315
 20
869.54747999999995
 30
0.0
  0
VERTEX
  5
12B0
  8
DATA
  6
CONTINUOUS
 62
     7
 10
724.38774877738331
 20
869.54747999999995
 30
0.0
  0
VERTEX
  5
12B1
  8
DATA
  6
CONTINUOUS
 62
     7
 10
724.38774877738331
 20
861.44747999999993
 30
0.0
  0
VERTEX
  5
12B2
  8
DATA
  6
CONTINUOUS
 62
     7
 10
708.18774877738315
 20
861.44747999999993
 30
0.0
  0
SEQEND
  5
12B3
  8
DATA
  6
CONTINUOUS
 62
     7
  0
TEXT
  5
A7C
  8
DATA
 62
     7
 10
739.57025452115488
 20
861.77158298528991
 30
0.0
 40
10.994677734374999
  1
7
 50
90.0
 41
0.7
 11
728.57557678677995
 21
861.77158298528991
 31
0.0
 73
     3
1001
ACADANNOTATIVE
1000
AnnotativeData
1002
{
1070
     1
1070
     0
1002
}
  0
POLYLINE
  5
A7D
  8
DATA
  6
CONTINUOUS
 62
     7
 66
     1
 10
0.0
 20
0.0
 30
0.0
 70
     1
  0
VERTEX
  5
12B4
  8
DATA
  6
CONTINUOUS
 62
     7
 10
708.18774877738315
 20
889.34712000000025
 30
0.0
  0
VERTEX
  5
12B5
  8
DATA
  6
CONTINUOUS
 62
     7
 10
724.38774877738331
 20
889.34712000000025
 30
0.0
  0
VERTEX
  5
12B6
  8
DATA
  6
CONTINUOUS
 62
     7
 10
724.38774877738331
 20
881.24712
 30
0.0
  0
VERTEX
  5
12B7
  8
DATA
  6
CONTINUOUS
 62
     7
 10
708.18774877738315
 20
881.24712
 30
0.0
  0
SEQEND
  5
12B8
  8
DATA
  6
CONTINUOUS
 62
     7
  0
TEXT
  5
A84
  8
DATA
 62
     7
 10
739.57025452115488
 20
881.57122298529021
 30
0.0
 40
10.994677734374999
  1
8
 50
90.0
 41
0.7
 11
728.57557678677995
 21
881.57122298529021
 31
0.0
 73
     3
1001
ACADANNOTATIVE
1000
AnnotativeData
1002
{
1070
     1
1070
     0
1002
}
  0
TEXT
  5
A85
  8
DATA
 62
     7
 10
703.73116900291336
 20
739.39422138615123
 30
0.0
 40
10.994677734374999
  1
ON
 50
90.0
 41
0.7
 11
692.73649126853832
 21
739.39422138615123
 31
0.0
 73
     3
1001
ACADANNOTATIVE
1000
AnnotativeData
1002
{
1070
     1
1070
     0
1002
}
  0
LINE
  5
A86
  8
DATA
  6
CONTINUOUS
 62
     7
 10
717.90774877738329
 20
889.34712000000025
 30
0.0
 11
717.90774877738329
 21
881.24712
 31
0.0
  0
LINE
  5
A87
  8
DATA
  6
CONTINUOUS
 62
     7
 10
717.90774877738329
 20
869.54747999999995
 30
0.0
 11
717.90774877738329
 21
861.44747999999993
 31
0.0
  0
LINE
  5
A88
  8
DATA
  6
CONTINUOUS
 62
     7
 10
717.90774877738329
 20
849.74784000000022
 30
0.0
 11
717.90774877738329
 21
841.6478400000002
 31
0.0
  0
LINE
  5
A89
  8
DATA
  6
CONTINUOUS
 62
     7
 10
717.90774877738329
 20
829.94820000000016
 30
0.0
 11
717.90774877738329
 21
821.84820000000013
 31
0.0
  0
LINE
  5
A8A
  8
DATA
  6
CONTINUOUS
 62
     7
 10
717.90774877738329
 20
810.14856000000009
 30
0.0
 11
717.90774877738329
 21
802.04855999999984
 31
0.0
  0
LINE
  5
A8B
  8
DATA
  6
CONTINUOUS
 62
     7
 10
717.90774877738329
 20
790.34892000000002
 30
0.0
 11
717.90774877738329
 21
782.24892
 31
0.0
  0
LINE
  5
A8C
  8
DATA
  6
CONTINUOUS
 62
     7
 10
717.90774877738329
 20
770.54927999999995
 30
0.0
 11
717.90774877738329
 21
762.44928000000004
 31
0.0
  0
LINE
  5
A8D
  8
DATA
  6
CONTINUOUS
 62
     7
 10
717.90774877738329
 20
750.74963999999989
 30
0.0
 11
717.90774877738329
 21
742.64963999999986
 31
0.0
  0
LINE
  5
A8E
  8
DATA
  6
CONTINUOUS
 62
     7
 10
175.0
 20
771.49999999999989
 30
0.0
 11
610.0
 21
771.49999999999989
 31
0.0
  0
LINE
  5
A8F
  8
DATA
  6
CONTINUOUS
 62
     7
 10
711.10487978357128
 20
358.50000000004172
 30
0.0
 11
712.60487978357116
 21
362.5
 31
0.0
  0
LINE
  5
A90
  8
DATA
  6
CONTINUOUS
 62
     7
 10
695.10487978357128
 20
358.50000000004172
 30
0.0
 11
693.60487978357116
 21
362.5
 31
0.0
  0
LINE
  5
A91
  8
DATA
  6
CONTINUOUS
 62
     7
 10
711.10487978357128
 20
358.50000000004172
 30
0.0
 11
695.10487978357128
 21
358.50000000004172
 31
0.0
  0
LINE
  5
A92
  8
DATA
  6
CONTINUOUS
 62
     7
 10
776.41099136743924
 20
358.50000000004172
 30
0.0
 11
777.91099136743935
 21
362.5
 31
0.0
  0
LINE
  5
A93
  8
DATA
  6
CONTINUOUS
 62
     7
 10
760.41099136743821
 20
358.50000000004172
 30
0.0
 11
758.91099136743821
 21
362.5
 31
0.0
  0
LINE
  5
A94
  8
DATA
  6
CONTINUOUS
 62
     7
 10
776.41099136743924
 20
358.50000000004172
 30
0.0
 11
760.41099136743821
 21
358.50000000004172
 31
0.0
  0
CIRCLE
  5
A95
  8
DATA
  6
CONTINUOUS
 62
     7
 10
392.5
 20
767.0
 30
0.0
 40
2.5
  0
LINE
  5
A96
  8
DATA
  6
CONTINUOUS
 62
     7
 10
391.40775460632688
 20
765.90775460632699
 30
0.0
 11
393.59224539367301
 21
768.09224539367278
 31
0.0
  0
LINE
  5
A97
  8
DATA
  6
CONTINUOUS
 62
     7
 10
393.59224539367301
 20
765.90775460632699
 30
0.0
 11
391.40775460632688
 21
768.09224539367278
 31
0.0
  0
CIRCLE
  5
A98
  8
DATA
  6
CONTINUOUS
 62
     7
 10
492.49999999999989
 20
767.0
 30
0.0
 40
2.5
  0
LINE
  5
A99
  8
DATA
  6
CONTINUOUS
 62
     7
 10
491.40775460632688
 20
765.90775460632699
 30
0.0
 11
493.5922453936729
 21
768.09224539367278
 31
0.0
  0
LINE
  5
A9A
  8
DATA
  6
CONTINUOUS
 62
     7
 10
493.5922453936729
 20
765.90775460632699
 30
0.0
 11
491.40775460632688
 21
768.09224539367278
 31
0.0
  0
CIRCLE
  5
A9B
  8
DATA
  6
CONTINUOUS
 62
     7
 10
592.49999999999989
 20
767.0
 30
0.0
 40
2.5
  0
LINE
  5
A9C
  8
DATA
  6
CONTINUOUS
 62
     7
 10
591.40775460632688
 20
765.90775460632699
 30
0.0
 11
593.59224539367301
 21
768.09224539367278
 31
0.0
  0
LINE
  5
A9D
  8
DATA
  6
CONTINUOUS
 62
     7
 10
593.59224539367301
 20
765.90775460632699
 30
0.0
 11
591.40775460632688
 21
768.09224539367278
 31
0.0
  0
CIRCLE
  5
A9E
  8
DATA
  6
CONTINUOUS
 62
     7
 10
292.5
 20
767.0
 30
0.0
 40
2.5
  0
LINE
  5
A9F
  8
DATA
  6
CONTINUOUS
 62
     7
 10
291.40775460632688
 20
765.90775460632699
 30
0.0
 11
293.59224539367301
 21
768.09224539367278
 31
0.0
  0
LINE
  5
AA0
  8
DATA
  6
CONTINUOUS
 62
     7
 10
293.59224539367301
 20
765.90775460632699
 30
0.0
 11
291.40775460632688
 21
768.09224539367278
 31
0.0
  0
CIRCLE
  5
AA1
  8
DATA
  6
CONTINUOUS
 62
     7
 10
192.5
 20
767.0
 30
0.0
 40
2.5
  0
LINE
  5
AA2
  8
DATA
  6
CONTINUOUS
 62
     7
 10
191.40775460632699
 20
765.90775460632699
 30
0.0
 11
193.5922453936731
 21
768.09224539367278
 31
0.0
  0
LINE
  5
AA3
  8
DATA
  6
CONTINUOUS
 62
     7
 10
193.59224539367301
 20
765.90775460632699
 30
0.0
 11
191.40775460632699
 21
768.09224539367278
 31
0.0
  0
CIRCLE
  5
AA4
  8
DATA
  6
CONTINUOUS
 62
     7
 10
187.5763907960642
 20
860.04452838418479
 30
0.0
 40
9.5
  0
CIRCLE
  5
AA5
  8
DATA
  6
CONTINUOUS
 62
     7
 10
187.5763907960642
 20
860.04452838418479
 30
0.0
 40
8.0
  0
CIRCLE
  5
AA6
  8
DATA
  6
CONTINUOUS
 62
     7
 10
597.4236092039356
 20
860.04452838418479
 30
0.0
 40
9.5
  0
CIRCLE
  5
AA7
  8
DATA
  6
CONTINUOUS
 62
     7
 10
597.4236092039356
 20
860.04452838418479
 30
0.0
 40
8.0
  0
CIRCLE
  5
AA8
  8
DATA
  6
CONTINUOUS
 62
     7
 10
187.5763907960642
 20
783.04490754812741
 30
0.0
 40
9.5
  0
CIRCLE
  5
AA9
  8
DATA
  6
CONTINUOUS
 62
     7
 10
187.5763907960642
 20
783.04490754812741
 30
0.0
 40
8.0
  0
CIRCLE
  5
AAA
  8
DATA
  6
CONTINUOUS
 62
     7
 10
597.4236092039356
 20
783.04490754812741
 30
0.0
 40
9.5
  0
CIRCLE
  5
AAB
  8
DATA
  6
CONTINUOUS
 62
     7
 10
597.4236092039356
 20
783.04490754812741
 30
0.0
 40
8.0
  0
LINE
  5
AAC
  8
DATA
  6
CONTINUOUS
 62
     7
 10
788.49999999999989
 20
372.57499999999999
 30
0.0
 11
784.0
 21
372.57499999999999
 31
0.0
  0
LINE
  5
AAD
  8
DATA
  6
CONTINUOUS
 62
     7
 10
784.0
 20
380.42500000000001
 30
0.0
 11
788.49999999999989
 21
380.42500000000001
 31
0.0
  0
LINE
  5
AAE
  8
DATA
  6
CONTINUOUS
 62
     7
 10
788.49999999999989
 20
372.57499999999999
 30
0.0
 11
788.49999999999989
 21
380.42500000000001
 31
0.0
  0
LINE
  5
AAF
  8
DATA
  6
CONTINUOUS
 62
     7
 10
788.49999999999989
 20
374.16000000000003
 30
0.0
 11
784.0
 21
374.16000000000003
 31
0.0
  0
LINE
  5
AB0
  8
DATA
  6
CONTINUOUS
 62
     7
 10
784.0
 20
378.83999999999997
 30
0.0
 11
788.49999999999989
 21
378.83999999999997
 31
0.0
  0
LINE
  5
AB1
  8
DATA
  6
CONTINUOUS
 62
     7
 10
674.5
 20
370.5
 30
0.0
 11
674.5
 21
376.5
 31
0.0
  0
LINE
  5
AB2
  8
DATA
  6
CONTINUOUS
 62
     7
 10
674.5
 20
376.5
 30
0.0
 11
675.0
 21
376.5
 31
0.0
  0
LINE
  5
AB3
  8
DATA
  6
CONTINUOUS
 62
     7
 10
674.5
 20
370.5
 30
0.0
 11
675.0
 21
370.5
 31
0.0
  0
ARC
  5
AB4
  8
DATA
  6
CONTINUOUS
 62
     7
 10
675.79999999999995
 20
405.7000000000001
 30
0.0
 40
0.7999999999999546
 50
90.0
 51
180.00000000000401
  0
ARC
  5
AB5
  8
DATA
  6
CONTINUOUS
 62
     7
 10
675.79999999999995
 20
363.30000000000001
 30
0.0
 40
0.8000000000000113
 50
180.0
 51
270.0
  0
ENDSEC
  0
EOF
