  0
SECTION
  2
HEADER
  9
$ACADVER
  1
AC1009
  9
$INSBASE
 10
0.0
 20
0.0
 30
0.0
  9
$EXTMIN
 10
-170.0164782349211
 20
-265.74833863455001
 30
-0.0015258207003583
  9
$EXTMAX
 10
370.0164807494923
 20
537.09174839639525
 30
0.0000000349246037
  9
$LIMMIN
 10
0.0
 20
0.0
  9
$LIMMAX
 10
0.0
 20
0.0
  9
$ORTHOMODE
 70
     0
  9
$REGENMODE
 70
     1
  9
$FILLMODE
 70
     1
  9
$QTEXTMODE
 70
     0
  9
$MIRRTEXT
 70
     1
  9
$DRAGMODE
 70
     2
  9
$LTSCALE
 40
15.24
  9
$OSMODE
 70
   231
  9
$ATTMODE
 70
     1
  9
$TEXTSIZE
 40
0.0
  9
$TRACEWID
 40
1.0
  9
$TEXTSTYLE
  7
STANDARD
  9
$CLAYER
  8
DATA
  9
$CELTYPE
  6
BYLAYER
  9
$CECOLOR
 62
   256
  9
$DIMSCALE
 40
1.0
  9
$DIMASZ
 40
0.18
  9
$DIMEXO
 40
0.0625
  9
$DIMDLI
 40
0.38
  9
$DIMRND
 40
0.0
  9
$DIMDLE
 40
0.0
  9
$DIMEXE
 40
0.18
  9
$DIMTP
 40
0.0
  9
$DIMTM
 40
0.0
  9
$DIMTXT
 40
0.18
  9
$DIMCEN
 40
0.09
  9
$DIMTSZ
 40
0.0
  9
$DIMTOL
 70
     0
  9
$DIMLIM
 70
     0
  9
$DIMTIH
 70
     1
  9
$DIMTOH
 70
     1
  9
$DIMSE1
 70
     0
  9
$DIMSE2
 70
     0
  9
$DIMTAD
 70
     0
  9
$DIMZIN
 70
     0
  9
$DIMBLK
  1

  9
$DIMASO
 70
     1
  9
$DIMSHO
 70
     1
  9
$DIMPOST
  1

  9
$DIMAPOST
  1

  9
$DIMALT
 70
     0
  9
$DIMALTD
 70
     2
  9
$DIMALTF
 40
25.399999999999999
  9
$DIMLFAC
 40
1.0
  9
$DIMTOFL
 70
     0
  9
$DIMTVP
 40
0.0
  9
$DIMTIX
 70
     0
  9
$DIMSOXD
 70
     0
  9
$DIMSAH
 70
     0
  9
$DIMBLK1
  1

  9
$DIMBLK2
  1

  9
$DIMSTYLE
  2
STANDARD
  9
$DIMCLRD
 70
     0
  9
$DIMCLRE
 70
     0
  9
$DIMCLRT
 70
     0
  9
$DIMTFAC
 40
1.0
  9
$DIMGAP
 40
0.09
  9
$LUNITS
 70
     2
  9
$LUPREC
 70
     4
  9
$SKETCHINC
 40
0.1
  9
$FILLETRAD
 40
0.0
  9
$AUNITS
 70
     0
  9
$AUPREC
 70
     0
  9
$MENU
  1
acad
  9
$ELEVATION
 40
0.0
  9
$PELEVATION
 40
0.0
  9
$THICKNESS
 40
0.0
  9
$LIMCHECK
 70
     0
  9
$BLIPMODE
 70
     0
  9
$CHAMFERA
 40
0.0
  9
$CHAMFERB
 40
0.0
  9
$SKPOLY
 70
     0
  9
$TDCREATE
 40
2455834.552986111
  9
$TDUPDATE
 40
2455834.5672734608
  9
$TDINDWG
 40
0.000309919
  9
$TDUSRTIMER
 40
0.000309919
  9
$USRTIMER
 70
     1
  9
$ANGBASE
 50
0.0
  9
$ANGDIR
 70
     0
  9
$PDMODE
 70
     1
  9
$PDSIZE
 40
-2.0
  9
$PLINEWID
 40
0.0
  9
$COORDS
 70
     1
  9
$SPLFRAME
 70
     0
  9
$SPLINETYPE
 70
     6
  9
$SPLINESEGS
 70
     8
  9
$ATTDIA
 70
     0
  9
$ATTREQ
 70
     1
  9
$HANDLING
 70
     1
  9
$HANDSEED
  5
79F
  9
$SURFTAB1
 70
     6
  9
$SURFTAB2
 70
     6
  9
$SURFTYPE
 70
     6
  9
$SURFU
 70
     6
  9
$SURFV
 70
     6
  9
$UCSNAME
  2

  9
$UCSORG
 10
0.0
 20
0.0
 30
0.0
  9
$UCSXDIR
 10
1.0
 20
0.0
 30
0.0
  9
$UCSYDIR
 10
0.0
 20
1.0
 30
0.0
  9
$PUCSNAME
  2

  9
$PUCSORG
 10
0.0
 20
0.0
 30
0.0
  9
$PUCSXDIR
 10
1.0
 20
0.0
 30
0.0
  9
$PUCSYDIR
 10
0.0
 20
1.0
 30
0.0
  9
$USERI1
 70
     0
  9
$USERI2
 70
     0
  9
$USERI3
 70
     0
  9
$USERI4
 70
     0
  9
$USERI5
 70
     0
  9
$USERR1
 40
0.0
  9
$USERR2
 40
0.0
  9
$USERR3
 40
0.0
  9
$USERR4
 40
0.0
  9
$USERR5
 40
0.0
  9
$WORLDVIEW
 70
     1
  9
$SHADEDGE
 70
     3
  9
$SHADEDIF
 70
    70
  9
$TILEMODE
 70
     1
  9
$MAXACTVP
 70
    64
  9
$PLIMCHECK
 70
     0
  9
$PEXTMIN
 10
1.0000000000000000E+020
 20
1.0000000000000000E+020
 30
1.0000000000000000E+020
  9
$PEXTMAX
 10
-1.0000000000000000E+020
 20
-1.0000000000000000E+020
 30
-1.0000000000000000E+020
  9
$PLIMMIN
 10
0.0
 20
0.0
  9
$PLIMMAX
 10
12.0
 20
9.0
  9
$UNITMODE
 70
     0
  9
$VISRETAIN
 70
     0
  9
$PLINEGEN
 70
     1
  9
$PSLTSCALE
 70
     0
  0
ENDSEC
  0
SECTION
  2
TABLES
  0
TABLE
  2
VPORT
 70
     1
  0
VPORT
  2
*ACTIVE
 70
     0
 10
0.0
 20
0.0
 11
1.0
 21
1.0
 12
100.0000012572856
 22
135.6717048809227
 13
0.0
 23
0.0
 14
1.0
 24
1.0
 15
0.0
 25
0.0
 16
0.0
 26
0.0
 36
1.0
 17
0.0
 27
0.0
 37
0.0
 40
808.75056619927125
 41
1.9619164619164611
 42
50.0
 43
0.0
 44
0.0
 50
0.0
 51
0.0
 71
     0
 72
  2000
 73
     1
 74
     1
 75
     0
 76
     0
 77
     0
 78
     0
  0
ENDTAB
  0
TABLE
  2
LTYPE
 70
    11
  0
LTYPE
  2
CONTINUOUS
 70
     0
  3
Solid line
 72
    65
 73
     0
 40
0.0
  0
ENDTAB
  0
TABLE
  2
LAYER
 70
     6
  0
LAYER
  2
0
 70
     0
 62
     7
  6
CONTINUOUS
  0
LAYER
  2
DATA
 70
     0
 62
     7
  6
CONTINUOUS
  0
LAYER
  2
HIBINO-BASE
 70
     0
 62
     7
  6
CONTINUOUS
  0
LAYER
  2
SPEC
 70
     0
 62
     7
  6
CONTINUOUS
  0
LAYER
  2
DIMNSIONS
 70
     0
 62
     7
  6
CONTINUOUS
  0
ENDTAB
  0
TABLE
  2
STYLE
 70
     3
  0
STYLE
  2
STANDARD
 70
     0
 40
0.0
 41
1.0
 50
0.0
 71
     0
 42
0.0
  3
txt
  4
BIGFONT.SHX
  0
ENDTAB
  0
TABLE
  2
VIEW
 70
     0
  0
ENDTAB
  0
TABLE
  2
UCS
 70
     0
  0
ENDTAB
  0
TABLE
  2
APPID
 70
     4
  0
APPID
  2
ACAD
 70
     0
  0
APPID
  2
ACADANNOTATIVE
 70
     0
  0
APPID
  2
ACAD_NAV_VCDISPLAY
 70
     0
  0
APPID
  2
ACAD_MLEADERVER
 70
     0
  0
ENDTAB
  0
TABLE
  2
DIMSTYLE
 70
     2
  0
DIMSTYLE
  2
STANDARD
 70
     0
  3

  4

  5

  6

  7

 40
1.0
 41
0.18
 42
0.0625
 43
0.38
 44
0.18
 45
0.0
 46
0.0
 47
0.0
 48
0.0
140
0.18
141
0.09
142
0.0
143
25.399999999999999
144
1.0
145
0.0
146
1.0
147
0.09
 71
     0
 72
     0
 73
     1
 74
     1
 75
     0
 76
     0
 77
     0
 78
     0
170
     0
171
     2
172
     0
173
     0
174
     0
175
     0
176
     0
177
     0
178
     0
  0
ENDTAB
  0
ENDSEC
  0
SECTION
  2
BLOCKS
  0
BLOCK
  8
0
  2
$MODEL_SPACE
 70
     0
 10
0.0
 20
0.0
 30
0.0
  3
$MODEL_SPACE
  1

  0
ENDBLK
  5
5B5
  8
0
  0
BLOCK
 67
     1
  8
0
  2
$PAPER_SPACE
 70
     0
 10
0.0
 20
0.0
 30
0.0
  3
$PAPER_SPACE
  1

  0
ENDBLK
  5
5B1
 67
     1
  8
0
  0
ENDSEC
  0
SECTION
  2
ENTITIES
  0
LINE
  5
2D
  8
HIBINO-BASE
  6
CONTINUOUS
 62
     7
 10
-169.99999999999989
 20
537.06729578973182
 30
0.0
 11
370.0
 21
537.06729578973182
 31
0.0
  0
LINE
  5
2E
  8
HIBINO-BASE
  6
CONTINUOUS
 62
     7
 10
370.0
 20
-242.93270421026821
 30
0.0
 11
-169.99999999999989
 21
-242.93270421026821
 31
0.0
  0
LINE
  5
2F
  8
HIBINO-BASE
  6
CONTINUOUS
 62
     7
 10
-169.99999999999989
 20
-242.93270421026821
 30
0.0
 11
-169.99999999999989
 21
537.06729578973182
 31
0.0
  0
LINE
  5
30
  8
HIBINO-BASE
  6
CONTINUOUS
 62
     7
 10
370.0
 20
537.06729578973182
 30
0.0
 11
370.0
 21
-242.93270421026821
 31
0.0
  0
LINE
  5
31
  8
HIBINO-BASE
  6
CONTINUOUS
 62
     7
 10
100.0
 20
-175.4327042102681
 30
0.0
 11
370.0
 21
-175.4327042102681
 31
0.0
  0
LINE
  5
32
  8
HIBINO-BASE
  6
CONTINUOUS
 62
     7
 10
100.0
 20
-242.93270421026821
 30
0.0
 11
100.0
 21
-175.4327042102681
 31
0.0
  0
TEXT
  5
33
  8
HIBINO-BASE
 62
     7
 10
102.7
 20
-182.95878421026811
 30
0.0
 40
4.8865234374999993
  1
NOTE
 41
0.7
 11
102.7
 21
-178.0722607727682
 31
0.0
 73
     3
  0
LINE
  5
34
  8
HIBINO-BASE
  6
CONTINUOUS
 62
     7
 10
205.0
 20
-242.93270421026821
 30
0.0
 11
205.0
 21
-175.4327042102681
 31
0.0
  0
TEXT
  5
35
  8
HIBINO-BASE
 62
     7
 10
207.69999999999999
 20
-182.95878421026811
 30
0.0
 40
4.8865234374999993
  1
TITLE
 41
0.7
 11
207.69999999999999
 21
-178.0722607727682
 31
0.0
 73
     3
  0
LINE
  5
36
  8
HIBINO-BASE
  6
CONTINUOUS
 62
     7
 10
100.0
 20
-212.9327042102681
 30
0.0
 11
370.0
 21
-212.9327042102681
 31
0.0
  0
TEXT
  5
37
  8
HIBINO-BASE
 62
     7
 10
245.19999999999999
 20
-220.28982421026819
 30
0.0
 40
4.8865234374999993
  1
DRAWN
 41
0.7
 11
245.19999999999999
 21
-215.4033007727682
 31
0.0
 73
     3
  0
TEXT
  5
38
  8
HIBINO-BASE
 62
     7
 10
170.19999999999999
 20
-220.28982421026819
 30
0.0
 40
4.8865234374999993
  1
DATE
 41
0.7
 11
170.19999999999999
 21
-215.4033007727682
 31
0.0
 73
     3
  0
TEXT
  5
39
  8
HIBINO-BASE
 62
     7
 10
140.19999999999999
 20
-220.28982421026819
 30
0.0
 40
4.8865234374999993
  1
SCALE
 41
0.7
 11
140.19999999999999
 21
-215.4033007727682
 31
0.0
 73
     3
  0
TEXT
  5
3A
  8
HIBINO-BASE
 62
     7
 10
207.69999999999999
 20
-220.28982421026819
 30
0.0
 40
4.8865234374999993
  1
DESIGN
 41
0.7
 11
207.69999999999999
 21
-215.4033007727682
 31
0.0
 73
     3
  0
TEXT
  5
3B
  8
HIBINO-BASE
 62
     7
 10
320.19999999999999
 20
-220.28982421026819
 30
0.0
 40
4.8865234374999993
  1
DRAWING NO.
 41
0.7
 11
320.19999999999999
 21
-215.4033007727682
 31
0.0
 73
     3
  0
TEXT
  5
3C
  8
HIBINO-BASE
 62
     7
 10
282.69999999999999
 20
-220.28982421026819
 30
0.0
 40
4.8865234374999993
  1
CHECK
 41
0.7
 11
282.69999999999999
 21
-215.4033007727682
 31
0.0
 73
     3
  0
LINE
  5
3D
  8
HIBINO-BASE
  6
CONTINUOUS
 62
     7
 10
143.12499999999989
 20
-239.18270421026821
 30
0.0
 11
154.375
 21
-227.9327042102681
 31
0.0
  0
TEXT
  5
3E
  8
HIBINO-BASE
 62
     7
 10
141.24999999999989
 20
-231.25953421026821
 30
0.0
 40
4.8865234374999993
  1
1
 41
0.7
 11
141.24999999999989
 21
-226.3730107727682
 31
0.0
 73
     3
  0
LINE
  5
3F
  8
HIBINO-BASE
  6
CONTINUOUS
 62
     7
 10
137.5
 20
-242.93270421026821
 30
0.0
 11
137.5
 21
-212.9327042102681
 31
0.0
  0
LINE
  5
40
  8
HIBINO-BASE
  6
CONTINUOUS
 62
     7
 10
167.5
 20
-242.93270421026821
 30
0.0
 11
167.5
 21
-212.9327042102681
 31
0.0
  0
LINE
  5
41
  8
HIBINO-BASE
  6
CONTINUOUS
 62
     7
 10
242.5
 20
-212.9327042102681
 30
0.0
 11
242.5
 21
-242.93270421026821
 31
0.0
  0
LINE
  5
42
  8
HIBINO-BASE
  6
CONTINUOUS
 62
     7
 10
317.5
 20
-212.9327042102681
 30
0.0
 11
317.5
 21
-242.93270421026821
 31
0.0
  0
LINE
  5
43
  8
HIBINO-BASE
  6
CONTINUOUS
 62
     7
 10
279.99999999999989
 20
-242.93270421026821
 30
0.0
 11
279.99999999999989
 21
-212.9327042102681
 31
0.0
  0
TEXT
  5
44
  8
HIBINO-BASE
 62
     7
 10
170.06961999999999
 20
-234.3417642102682
 30
0.0
 40
4.8865234374999993
  1
'11.09.
 41
0.7
 11
170.06961999999999
 21
-229.45524077276821
 31
0.0
 73
     3
  0
TEXT
  5
45
  8
HIBINO-BASE
 62
     7
 10
152.5
 20
-236.88453421026821
 30
0.0
 40
4.8865234374999993
  1
3
 41
0.7
 11
152.5
 21
-231.9980107727682
 31
0.0
 73
     3
  0
TEXT
  5
46
  8
HIBINO-BASE
 62
     7
 10
247.01743003310389
 20
-234.3417642102682
 30
0.0
 40
4.8865234374999993
  1
T.Ootake
 41
0.7
 11
247.01743003310389
 21
-229.45524077276821
 31
0.0
 73
     3
  0
TEXT
  5
47
  8
HIBINO-BASE
 62
     7
 10
111.65000000000001
 20
-237.0047042102681
 30
0.0
 40
9.7730468749999986
  1
A4
 41
0.7
 11
111.65000000000001
 21
-227.2316573352681
 31
0.0
 73
     3
  0
TEXT
  5
48
  8
HIBINO-BASE
 62
     7
 10
102.875
 20
-220.79106921026809
 30
0.0
 40
4.8865234374999993
  1
PAPER SIZE
 41
0.7
 11
102.875
 21
-215.9045457727681
 31
0.0
 73
     3
  0
TEXT
  5
49
  8
HIBINO-BASE
 62
     7
 10
-161.7210942293294
 20
-262.20842491279689
 30
0.0
 40
10.58746744791666
  1
Hibino-Intersound Corporation
 41
0.7
 11
-161.7210942293294
 21
-251.62095746488029
 31
0.0
 73
     3
  0
TEXT
  5
4A
  8
HIBINO-BASE
 62
     7
 10
160.54182904064169
 20
-261.15516015292872
 30
0.0
 40
10.58746744791666
  1
ヒビノインターサウンド株式会社
 41
0.7
 11
160.54182904064169
 21
-250.56769270501201
 31
0.0
 73
     3
  0
LINE
  5
4B
  8
SPEC
  6
CONTINUOUS
 62
     7
 10
-147.49999999999989
 20
507.0672957897317
 30
0.0
 11
295.0
 21
507.0672957897317
 31
0.0
  0
LINE
  5
4C
  8
SPEC
  6
CONTINUOUS
 62
     7
 10
-147.49999999999989
 20
495.8172957897317
 30
0.0
 11
295.0
 21
495.8172957897317
 31
0.0
  0
LINE
  5
4D
  8
SPEC
  6
CONTINUOUS
 62
     7
 10
-147.49999999999989
 20
473.3172957897317
 30
0.0
 11
295.0
 21
473.3172957897317
 31
0.0
  0
LINE
  5
4E
  8
SPEC
  6
CONTINUOUS
 62
     7
 10
-147.49999999999989
 20
484.5672957897317
 30
0.0
 11
295.0
 21
484.5672957897317
 31
0.0
  0
LINE
  5
4F
  8
SPEC
  6
CONTINUOUS
 62
     7
 10
-147.49999999999989
 20
507.0672957897317
 30
0.0
 11
-147.49999999999989
 21
394.5672957897317
 31
0.0
  0
TEXT
  5
50
  8
SPEC
 62
     7
 10
-143.74999999999989
 20
511.24710578973179
 30
0.0
 40
7.3297851562499989
  1
仕様
 41
0.7
 11
-143.74999999999989
 21
518.57689094598175
 31
0.0
 73
     3
  0
LINE
  5
51
  8
SPEC
  6
CONTINUOUS
 62
     7
 10
-29.999999999999989
 20
507.0672957897317
 30
0.0
 11
-30.000000000000011
 21
394.5672957897317
 31
0.0
  0
LINE
  5
52
  8
SPEC
  6
CONTINUOUS
 62
     7
 10
295.0
 20
507.0672957897317
 30
0.0
 11
295.0
 21
394.5672957897317
 31
0.0
  0
LINE
  5
53
  8
SPEC
  6
CONTINUOUS
 62
     7
 10
-147.49999999999989
 20
462.0672957897317
 30
0.0
 11
295.0
 21
462.0672957897317
 31
0.0
  0
LINE
  5
54
  8
SPEC
  6
CONTINUOUS
 62
     7
 10
-147.49999999999989
 20
450.8172957897317
 30
0.0
 11
295.0
 21
450.8172957897317
 31
0.0
  0
LINE
  5
55
  8
SPEC
  6
CONTINUOUS
 62
     7
 10
-147.49999999999989
 20
439.5672957897317
 30
0.0
 11
295.0
 21
439.5672957897317
 31
0.0
  0
LINE
  5
56
  8
SPEC
  6
CONTINUOUS
 62
     7
 10
-147.49999999999989
 20
428.3172957897317
 30
0.0
 11
295.0
 21
428.3172957897317
 31
0.0
  0
LINE
  5
57
  8
SPEC
  6
CONTINUOUS
 62
     7
 10
-147.49999999999989
 20
417.0672957897317
 30
0.0
 11
295.0
 21
417.0672957897317
 31
0.0
  0
LINE
  5
58
  8
SPEC
  6
CONTINUOUS
 62
     7
 10
-147.49999999999989
 20
405.8172957897317
 30
0.0
 11
295.0
 21
405.8172957897317
 31
0.0
  0
TEXT
  5
59
  8
SPEC
 62
     7
 10
-145.06967349946891
 20
409.19605311496753
 30
0.0
 40
5.7009440104166673
  1
寸法
 41
0.7
 11
-145.06967349946891
 21
414.89699712538408
 31
0.0
 73
     3
  0
TEXT
  5
5A
  8
SPEC
 62
     7
 10
-27.712126844591769
 20
408.43679823832792
 30
0.0
 40
5.7009440104166673
  1
146(W)\U+00D730(H)\U+00D785(D)mm(突起部含まず）、(センダー、レシーバー共)
 41
0.7
 11
-27.712126844591769
 21
414.13774224874447
 31
0.0
 73
     3
  0
TEXT
  5
5B
  8
SPEC
 62
     7
 10
-27.558601513423199
 20
397.74252739008273
 30
0.0
 40
5.7009440104166673
  1
センダー約200g、レシーバー約210g
 41
0.7
 11
-27.558601513423199
 21
403.44347140049922
 31
0.0
 73
     3
  0
TEXT
  5
5C
  8
SPEC
 62
     7
 10
-145.0179534996206
 20
397.74852987701161
 30
0.0
 40
5.7009440104166673
  1
重量
 41
0.7
 11
-145.0179534996206
 21
403.44947388742833
 31
0.0
 73
     3
  0
TEXT
  5
5D
  8
SPEC
 62
     7
 10
-144.95524442782531
 20
419.92436047585409
 30
0.0
 40
5.7009440104166673
  1
消費電力
 41
0.7
 11
-144.95524442782531
 21
425.62530448627081
 31
0.0
 73
     3
  0
TEXT
  5
5E
  8
SPEC
 62
     7
 10
-27.62214113429787
 20
419.7424784509293
 30
0.0
 40
5.7009440104166673
  1
10W(最大)
 41
0.7
 11
-27.62214113429787
 21
425.44342246134602
 31
0.0
 73
     3
  0
TEXT
  5
5F
  8
SPEC
 62
     7
 10
-146.3228396144828
 20
442.53636022961871
 30
0.0
 40
5.7009440104166673
  1
リンクコネクター
 41
0.7
 11
-146.3228396144828
 21
448.23730424003543
 31
0.0
 73
     3
  0
TEXT
  5
60
  8
SPEC
 62
     7
 10
-27.323732487487192
 20
442.38273216584167
 30
0.0
 40
5.7009440104166673
  1
RJ-45
 41
0.7
 11
-27.323732487487192
 21
448.08367617625828
 31
0.0
 73
     3
  0
TEXT
  5
61
  8
SPEC
 62
     7
 10
-144.83680772317899
 20
453.60540552286659
 30
0.0
 40
5.7009440104166673
  1
DVI入出力端子
 41
0.7
 11
-144.83680772317899
 21
459.3063495332832
 31
0.0
 73
     3
  0
TEXT
  5
62
  8
SPEC
 62
     7
 10
-27.32459281139792
 20
453.58060645772298
 30
0.0
 40
5.7009440104166673
  1
DVI-I(29pin)female(Digital Only)
 41
0.7
 11
-27.32459281139792
 21
459.28155046813959
 31
0.0
 73
     3
  0
TEXT
  5
63
  8
SPEC
 62
     7
 10
-145.4448981887017
 20
464.98408678067909
 30
0.0
 40
5.7009440104166673
  1
シングルリンク最大対応解像度
 41
0.7
 11
-145.4448981887017
 21
470.6850307910957
 31
0.0
 73
     3
  0
TEXT
  5
64
  8
SPEC
 62
     7
 10
-27.635492526947321
 20
464.90805657460731
 30
0.0
 40
5.7009440104166673
  1
1080p、1920\U+00D71200
 41
0.7
 11
-27.635492526947321
 21
470.60900058502392
 31
0.0
 73
     3
  0
TEXT
  5
65
  8
SPEC
 62
     7
 10
-144.88058426107111
 20
475.98343465936819
 30
0.0
 40
5.7009440104166673
  1
入力DDC信号
 41
0.7
 11
-144.88058426107111
 21
481.68437866978479
 31
0.0
 73
     3
  0
TEXT
  5
66
  8
SPEC
 62
     7
 10
-27.347642379569649
 20
476.13137330296928
 30
0.0
 40
5.7009440104166673
  1
5Vp-p(TTL)
 41
0.7
 11
-27.347642379569649
 21
481.832317313386
 31
0.0
 73
     3
  0
TEXT
  5
67
  8
SPEC
 62
     7
 10
-144.99326473762449
 20
487.2281589130165
 30
0.0
 40
5.7009440104166673
  1
入力ビデオ信号
 41
0.7
 11
-144.99326473762449
 21
492.92910292343311
 31
0.0
 73
     3
  0
TEXT
  5
68
  8
SPEC
 62
     7
 10
-27.697674566554369
 20
487.59137177448281
 30
0.0
 40
5.7009440104166673
  1
1.2Vp-p
 41
0.7
 11
-27.697674566554369
 21
493.29231578489947
 31
0.0
 73
     3
  0
TEXT
  5
69
  8
SPEC
 62
     7
 10
-146.14698755697529
 20
498.27556743241149
 30
0.0
 40
5.7009440104166673
  1
ビデオアンプ帯域
 41
0.7
 11
-146.14698755697529
 21
503.97651144282821
 31
0.0
 73
     3
  0
TEXT
  5
6A
  8
SPEC
 62
     7
 10
-27.700386831276091
 20
498.73612325816799
 30
0.0
 40
5.7009440104166673
  1
165MHz
 41
0.7
 11
-27.700386831276091
 21
504.43706726858483
 31
0.0
 73
     3
  0
LINE
  5
6B
  8
SPEC
  6
CONTINUOUS
 62
     7
 10
-147.49999999999989
 20
394.5672957897317
 30
0.0
 11
295.0
 21
394.5672957897317
 31
0.0
  0
TEXT
  5
6C
  8
SPEC
 62
     7
 10
-145.06151869099531
 20
431.28636022961882
 30
0.0
 40
5.7009440104166673
  1
電源
 41
0.7
 11
-145.06151869099531
 21
436.98730424003543
 31
0.0
 73
     3
  0
TEXT
  5
6D
  8
SPEC
 62
     7
 10
-27.323732487487192
 20
431.13273216584167
 30
0.0
 40
5.7009440104166673
  1
5V DC
 41
0.7
 11
-27.323732487487192
 21
436.83367617625828
 31
0.0
 73
     3
  0
TEXT
  5
6E
  8
DIMNSIONS
 62
     7
 10
40.0
 20
-206.12423421026821
 30
0.0
 40
7.3297851562499989
  1
(単位：mm)
 41
0.7
 11
40.0
 21
-198.79444905401809
 31
0.0
 73
     3
  0
LINE
  5
6F
  8
DIMNSIONS
  6
CONTINUOUS
 62
     7
 10
-99.750000000000014
 20
212.5
 30
0.0
 11
-137.25
 21
212.5
 31
0.0
  0
LINE
  5
70
  8
DIMNSIONS
  6
CONTINUOUS
 62
     7
 10
-99.750000000000014
 20
297.5
 30
0.0
 11
-137.25
 21
297.5
 31
0.0
  0
LINE
  5
71
  8
DIMNSIONS
  6
CONTINUOUS
 62
     7
 10
-131.25
 20
212.5
 30
0.0
 11
-131.25
 21
297.5
 31
0.0
  0
LINE
  5
72
  8
DIMNSIONS
  6
CONTINUOUS
 62
     7
 10
-131.25
 20
212.5
 30
0.0
 11
-133.26011938545071
 21
220.00186767578131
 31
0.0
  0
LINE
  5
73
  8
DIMNSIONS
  6
CONTINUOUS
 62
     7
 10
-131.25
 20
212.5
 30
0.0
 11
-129.23988061454921
 21
220.00186767578131
 31
0.0
  0
LINE
  5
74
  8
DIMNSIONS
  6
CONTINUOUS
 62
     7
 10
-131.25
 20
297.5
 30
0.0
 11
-129.23988061454921
 21
289.99813232421877
 31
0.0
  0
LINE
  5
75
  8
DIMNSIONS
  6
CONTINUOUS
 62
     7
 10
-131.25
 20
297.5
 30
0.0
 11
-133.26011938545071
 21
289.99813232421877
 31
0.0
  0
TEXT
  5
76
  8
DIMNSIONS
 62
     7
 10
-134.2316666666666
 20
249.70833333333329
 30
0.0
 40
8.1442057291666661
  1
85
 50
90.0
 41
0.7
 11
-142.37587239583331
 21
249.70833333333329
 31
0.0
 73
     3
  0
LINE
  5
77
  8
DIMNSIONS
  6
CONTINUOUS
 62
     7
 10
-93.75
 20
206.5
 30
0.0
 11
-93.75
 21
144.0
 31
0.0
  0
LINE
  5
78
  8
DIMNSIONS
  6
CONTINUOUS
 62
     7
 10
52.249999999999993
 20
206.5
 30
0.0
 11
52.249999999999993
 21
144.0
 31
0.0
  0
LINE
  5
79
  8
DIMNSIONS
  6
CONTINUOUS
 62
     7
 10
-93.75
 20
150.0
 30
0.0
 11
52.249999999999993
 21
150.0
 31
0.0
  0
LINE
  5
7A
  8
DIMNSIONS
  6
CONTINUOUS
 62
     7
 10
-93.75
 20
150.0
 30
0.0
 11
-86.248132324218759
 21
152.01011938545071
 31
0.0
  0
LINE
  5
7B
  8
DIMNSIONS
  6
CONTINUOUS
 62
     7
 10
-93.75
 20
150.0
 30
0.0
 11
-86.248132324218759
 21
147.98988061454921
 31
0.0
  0
LINE
  5
7C
  8
DIMNSIONS
  6
CONTINUOUS
 62
     7
 10
52.249999999999993
 20
150.0
 30
0.0
 11
44.74813232421873
 21
147.98988061454921
 31
0.0
  0
LINE
  5
7D
  8
DIMNSIONS
  6
CONTINUOUS
 62
     7
 10
52.249999999999993
 20
150.0
 30
0.0
 11
44.74813232421873
 21
152.01011938545071
 31
0.0
  0
TEXT
  5
7E
  8
DIMNSIONS
 62
     7
 10
-28.687500000000011
 20
152.98166666666671
 30
0.0
 40
8.1442057291666661
  1
146
 41
0.7
 11
-28.687500000000011
 21
161.12587239583331
 31
0.0
 73
     3
  0
LINE
  5
7F
  8
DIMNSIONS
  6
CONTINUOUS
 62
     7
 10
-83.250000000000014
 20
206.5
 30
0.0
 11
-83.250000000000014
 21
181.5
 31
0.0
  0
LINE
  5
80
  8
DIMNSIONS
  6
CONTINUOUS
 62
     7
 10
41.749999999999993
 20
206.5
 30
0.0
 11
41.749999999999993
 21
181.5
 31
0.0
  0
LINE
  5
81
  8
DIMNSIONS
  6
CONTINUOUS
 62
     7
 10
-83.250000000000014
 20
187.5
 30
0.0
 11
41.749999999999993
 21
187.5
 31
0.0
  0
LINE
  5
82
  8
DIMNSIONS
  6
CONTINUOUS
 62
     7
 10
-83.250000000000014
 20
187.5
 30
0.0
 11
-75.748132324218773
 21
189.51011938545071
 31
0.0
  0
LINE
  5
83
  8
DIMNSIONS
  6
CONTINUOUS
 62
     7
 10
-83.250000000000014
 20
187.5
 30
0.0
 11
-75.748132324218773
 21
185.48988061454929
 31
0.0
  0
LINE
  5
84
  8
DIMNSIONS
  6
CONTINUOUS
 62
     7
 10
41.749999999999993
 20
187.5
 30
0.0
 11
34.24813232421873
 21
185.48988061454929
 31
0.0
  0
LINE
  5
85
  8
DIMNSIONS
  6
CONTINUOUS
 62
     7
 10
41.749999999999993
 20
187.5
 30
0.0
 11
34.24813232421873
 21
189.51011938545071
 31
0.0
  0
TEXT
  5
86
  8
DIMNSIONS
 62
     7
 10
-28.687500000000011
 20
190.4816666666666
 30
0.0
 40
8.1442057291666661
  1
125
 41
0.7
 11
-28.687500000000011
 21
198.62587239583331
 31
0.0
 73
     3
  0
LINE
  5
87
  8
DIMNSIONS
  6
CONTINUOUS
 62
     7
 10
-92.249999999999986
 20
255.0
 30
0.0
 11
-118.5
 21
255.0
 31
0.0
  0
LINE
  5
88
  8
DIMNSIONS
  6
CONTINUOUS
 62
     7
 10
-92.249999999999986
 20
282.5
 30
0.0
 11
-118.5
 21
282.5
 31
0.0
  0
LINE
  5
89
  8
DIMNSIONS
  6
CONTINUOUS
 62
     7
 10
-112.5
 20
255.0
 30
0.0
 11
-112.5
 21
282.5
 31
0.0
  0
LINE
  5
8A
  8
DIMNSIONS
  6
CONTINUOUS
 62
     7
 10
-112.5
 20
255.0
 30
0.0
 11
-114.51011938545069
 21
262.50186767578123
 31
0.0
  0
LINE
  5
8B
  8
DIMNSIONS
  6
CONTINUOUS
 62
     7
 10
-112.5
 20
255.0
 30
0.0
 11
-110.48988061454919
 21
262.50186767578123
 31
0.0
  0
LINE
  5
8C
  8
DIMNSIONS
  6
CONTINUOUS
 62
     7
 10
-112.5
 20
282.5
 30
0.0
 11
-110.48988061454919
 21
274.99813232421877
 31
0.0
  0
LINE
  5
8D
  8
DIMNSIONS
  6
CONTINUOUS
 62
     7
 10
-112.5
 20
282.5
 30
0.0
 11
-114.51011938545069
 21
274.99813232421877
 31
0.0
  0
TEXT
  5
8E
  8
DIMNSIONS
 62
     7
 10
-115.4816666666667
 20
258.16666666666657
 30
0.0
 40
8.1442057291666661
  1
27.5
 50
90.0
 41
0.7
 11
-123.6258723958333
 21
258.16666666666657
 31
0.0
 73
     3
  0
LINE
  5
8F
  8
DIMNSIONS
  6
CONTINUOUS
 62
     7
 10
-92.249999999999986
 20
227.5
 30
0.0
 11
-118.5
 21
227.5
 31
0.0
  0
LINE
  5
90
  8
DIMNSIONS
  6
CONTINUOUS
 62
     7
 10
-92.249999999999986
 20
255.0
 30
0.0
 11
-118.5
 21
255.0
 31
0.0
  0
LINE
  5
91
  8
DIMNSIONS
  6
CONTINUOUS
 62
     7
 10
-112.5
 20
227.5
 30
0.0
 11
-112.5
 21
255.0
 31
0.0
  0
LINE
  5
92
  8
DIMNSIONS
  6
CONTINUOUS
 62
     7
 10
-112.5
 20
227.5
 30
0.0
 11
-114.51011938545069
 21
235.00186767578131
 31
0.0
  0
LINE
  5
93
  8
DIMNSIONS
  6
CONTINUOUS
 62
     7
 10
-112.5
 20
227.5
 30
0.0
 11
-110.48988061454919
 21
235.00186767578131
 31
0.0
  0
LINE
  5
94
  8
DIMNSIONS
  6
CONTINUOUS
 62
     7
 10
-112.5
 20
255.0
 30
0.0
 11
-110.48988061454919
 21
247.49813232421869
 31
0.0
  0
LINE
  5
95
  8
DIMNSIONS
  6
CONTINUOUS
 62
     7
 10
-112.5
 20
255.0
 30
0.0
 11
-114.51011938545069
 21
247.49813232421869
 31
0.0
  0
TEXT
  5
96
  8
DIMNSIONS
 62
     7
 10
-115.4816666666667
 20
230.6666666666666
 30
0.0
 40
8.1442057291666661
  1
27.5
 50
90.0
 41
0.7
 11
-123.6258723958333
 21
230.6666666666666
 31
0.0
 73
     3
  0
LINE
  5
97
  8
DIMNSIONS
  6
CONTINUOUS
 62
     7
 10
-88.250000000000014
 20
224.69999999999999
 30
0.0
 11
-88.250000000000014
 21
162.75
 31
0.0
  0
LINE
  5
98
  8
DIMNSIONS
  6
CONTINUOUS
 62
     7
 10
46.749999999999993
 20
224.69999999999999
 30
0.0
 11
46.749999999999993
 21
162.75
 31
0.0
  0
LINE
  5
99
  8
DIMNSIONS
  6
CONTINUOUS
 62
     7
 10
-88.250000000000014
 20
168.75
 30
0.0
 11
46.749999999999993
 21
168.75
 31
0.0
  0
LINE
  5
9A
  8
DIMNSIONS
  6
CONTINUOUS
 62
     7
 10
-88.250000000000014
 20
168.75
 30
0.0
 11
-80.748132324218773
 21
170.76011938545071
 31
0.0
  0
LINE
  5
9B
  8
DIMNSIONS
  6
CONTINUOUS
 62
     7
 10
-88.250000000000014
 20
168.75
 30
0.0
 11
-80.748132324218773
 21
166.73988061454921
 31
0.0
  0
LINE
  5
9C
  8
DIMNSIONS
  6
CONTINUOUS
 62
     7
 10
46.749999999999993
 20
168.75
 30
0.0
 11
39.248132324218737
 21
166.73988061454921
 31
0.0
  0
LINE
  5
9D
  8
DIMNSIONS
  6
CONTINUOUS
 62
     7
 10
46.749999999999993
 20
168.75
 30
0.0
 11
39.248132324218737
 21
170.76011938545071
 31
0.0
  0
TEXT
  5
9E
  8
DIMNSIONS
 62
     7
 10
-28.687500000000011
 20
171.7316666666666
 30
0.0
 40
8.1442057291666661
  1
135
 41
0.7
 11
-28.687500000000011
 21
179.87587239583331
 31
0.0
 73
     3
  0
LINE
  5
9F
  8
DIMNSIONS
  6
CONTINUOUS
 62
     7
 10
-99.750000000000014
 20
106.25
 30
0.0
 11
-118.5
 21
106.25
 31
0.0
  0
LINE
  5
A0
  8
DIMNSIONS
  6
CONTINUOUS
 62
     7
 10
-87.250000000000014
 20
136.25
 30
0.0
 11
-118.5
 21
136.25
 31
0.0
  0
LINE
  5
A1
  8
DIMNSIONS
  6
CONTINUOUS
 62
     7
 10
-112.5
 20
106.25
 30
0.0
 11
-112.5
 21
136.25
 31
0.0
  0
LINE
  5
A2
  8
DIMNSIONS
  6
CONTINUOUS
 62
     7
 10
-112.5
 20
106.25
 30
0.0
 11
-114.51011938545069
 21
113.7518676757812
 31
0.0
  0
LINE
  5
A3
  8
DIMNSIONS
  6
CONTINUOUS
 62
     7
 10
-112.5
 20
106.25
 30
0.0
 11
-110.48988061454919
 21
113.7518676757812
 31
0.0
  0
LINE
  5
A4
  8
DIMNSIONS
  6
CONTINUOUS
 62
     7
 10
-112.5
 20
136.25
 30
0.0
 11
-110.48988061454919
 21
128.74813232421869
 31
0.0
  0
LINE
  5
A5
  8
DIMNSIONS
  6
CONTINUOUS
 62
     7
 10
-112.5
 20
136.25
 30
0.0
 11
-114.51011938545069
 21
128.74813232421869
 31
0.0
  0
TEXT
  5
A6
  8
DIMNSIONS
 62
     7
 10
-115.4816666666666
 20
115.9583333333333
 30
0.0
 40
8.1442057291666661
  1
30
 50
90.0
 41
0.7
 11
-123.6258723958333
 21
115.9583333333333
 31
0.0
 73
     3
  0
LINE
  5
A7
  8
DIMNSIONS
  6
CONTINUOUS
 62
     7
 10
-74.15000000000002
 20
206.5
 30
0.0
 11
-137.25
 21
206.5
 31
0.0
  0
LINE
  5
A8
  8
DIMNSIONS
  6
CONTINUOUS
 62
     7
 10
-99.750000000000014
 20
212.5
 30
0.0
 11
-137.25
 21
212.5
 31
0.0
  0
LINE
  5
A9
  8
DIMNSIONS
  6
CONTINUOUS
 62
     7
 10
-131.25
 20
212.5
 30
0.0
 11
-131.25
 21
206.5
 31
0.0
  0
LINE
  5
AA
  8
DIMNSIONS
  6
CONTINUOUS
 62
     7
 10
-131.25
 20
206.5
 30
0.0
 11
-131.25
 21
194.70833333333329
 31
0.0
  0
LINE
  5
AB
  8
DIMNSIONS
  6
CONTINUOUS
 62
     7
 10
-131.25
 20
206.5
 30
0.0
 11
-129.23988061454921
 21
198.99813232421869
 31
0.0
  0
LINE
  5
AC
  8
DIMNSIONS
  6
CONTINUOUS
 62
     7
 10
-131.25
 20
206.5
 30
0.0
 11
-133.26011938545071
 21
198.99813232421869
 31
0.0
  0
LINE
  5
AD
  8
DIMNSIONS
  6
CONTINUOUS
 62
     7
 10
-131.25
 20
212.5
 30
0.0
 11
-131.25
 21
227.5
 31
0.0
  0
LINE
  5
AE
  8
DIMNSIONS
  6
CONTINUOUS
 62
     7
 10
-131.25
 20
212.5
 30
0.0
 11
-133.26011938545071
 21
220.00186767578131
 31
0.0
  0
LINE
  5
AF
  8
DIMNSIONS
  6
CONTINUOUS
 62
     7
 10
-131.25
 20
212.5
 30
0.0
 11
-129.23988061454921
 21
220.00186767578131
 31
0.0
  0
TEXT
  5
B0
  8
DIMNSIONS
 62
     7
 10
-134.23166666666671
 20
194.70833333333329
 30
0.0
 40
8.1442057291666661
  1
6
 50
90.0
 41
0.7
 11
-142.3758723958334
 21
194.70833333333329
 31
0.0
 73
     3
  0
LINE
  5
B1
  8
DIMNSIONS
  6
CONTINUOUS
 62
     7
 10
-81.750000000000014
 20
103.25
 30
0.0
 11
-118.5
 21
103.25
 31
0.0
  0
LINE
  5
B2
  8
DIMNSIONS
  6
CONTINUOUS
 62
     7
 10
-99.750000000000014
 20
106.25
 30
0.0
 11
-118.5
 21
106.25
 31
0.0
  0
LINE
  5
B3
  8
DIMNSIONS
  6
CONTINUOUS
 62
     7
 10
-112.5
 20
106.25
 30
0.0
 11
-112.5
 21
103.25
 31
0.0
  0
LINE
  5
B4
  8
DIMNSIONS
  6
CONTINUOUS
 62
     7
 10
-112.5
 20
103.25
 30
0.0
 11
-112.5
 21
89.558333333333323
 31
0.0
  0
LINE
  5
B5
  8
DIMNSIONS
  6
CONTINUOUS
 62
     7
 10
-112.5
 20
103.25
 30
0.0
 11
-110.48988061454919
 21
95.748132324218716
 31
0.0
  0
LINE
  5
B6
  8
DIMNSIONS
  6
CONTINUOUS
 62
     7
 10
-112.5
 20
103.25
 30
0.0
 11
-114.51011938545069
 21
95.748132324218716
 31
0.0
  0
LINE
  5
B7
  8
DIMNSIONS
  6
CONTINUOUS
 62
     7
 10
-112.5
 20
106.25
 30
0.0
 11
-112.5
 21
121.25
 31
0.0
  0
LINE
  5
B8
  8
DIMNSIONS
  6
CONTINUOUS
 62
     7
 10
-112.5
 20
106.25
 30
0.0
 11
-114.51011938545069
 21
113.7518676757812
 31
0.0
  0
LINE
  5
B9
  8
DIMNSIONS
  6
CONTINUOUS
 62
     7
 10
-112.5
 20
106.25
 30
0.0
 11
-110.48988061454919
 21
113.7518676757812
 31
0.0
  0
TEXT
  5
BA
  8
DIMNSIONS
 62
     7
 10
-115.4816666666667
 20
89.558333333333323
 30
0.0
 40
8.1442057291666661
  1
3
 50
90.0
 41
0.7
 11
-123.6258723958333
 21
89.558333333333323
 31
0.0
 73
     3
  0
LINE
  5
BB
  8
DIMNSIONS
  6
CONTINUOUS
 62
     7
 10
-99.750000000000014
 20
-56.25
 30
0.0
 11
-137.25
 21
-56.25
 31
0.0
  0
LINE
  5
BC
  8
DIMNSIONS
  6
CONTINUOUS
 62
     7
 10
-99.750000000000014
 20
28.75
 30
0.0
 11
-137.25
 21
28.75
 31
0.0
  0
LINE
  5
BD
  8
DIMNSIONS
  6
CONTINUOUS
 62
     7
 10
-131.25
 20
-56.25
 30
0.0
 11
-131.25
 21
28.75
 31
0.0
  0
LINE
  5
BE
  8
DIMNSIONS
  6
CONTINUOUS
 62
     7
 10
-131.25
 20
-56.25
 30
0.0
 11
-133.26011938545071
 21
-48.748132324218737
 31
0.0
  0
LINE
  5
BF
  8
DIMNSIONS
  6
CONTINUOUS
 62
     7
 10
-131.25
 20
-56.25
 30
0.0
 11
-129.23988061454921
 21
-48.748132324218737
 31
0.0
  0
LINE
  5
C0
  8
DIMNSIONS
  6
CONTINUOUS
 62
     7
 10
-131.25
 20
28.75
 30
0.0
 11
-129.23988061454921
 21
21.248132324218751
 31
0.0
  0
LINE
  5
C1
  8
DIMNSIONS
  6
CONTINUOUS
 62
     7
 10
-131.25
 20
28.75
 30
0.0
 11
-133.26011938545071
 21
21.248132324218751
 31
0.0
  0
TEXT
  5
C2
  8
DIMNSIONS
 62
     7
 10
-134.2316666666666
 20
-19.041666666666661
 30
0.0
 40
8.1442057291666661
  1
85
 50
90.0
 41
0.7
 11
-142.37587239583331
 21
-19.041666666666661
 31
0.0
 73
     3
  0
LINE
  5
C3
  8
DIMNSIONS
  6
CONTINUOUS
 62
     7
 10
-93.75
 20
-62.25
 30
0.0
 11
-93.75
 21
-124.75
 31
0.0
  0
LINE
  5
C4
  8
DIMNSIONS
  6
CONTINUOUS
 62
     7
 10
52.249999999999993
 20
-62.25
 30
0.0
 11
52.249999999999993
 21
-124.75
 31
0.0
  0
LINE
  5
C5
  8
DIMNSIONS
  6
CONTINUOUS
 62
     7
 10
-93.75
 20
-118.75
 30
0.0
 11
52.249999999999993
 21
-118.75
 31
0.0
  0
LINE
  5
C6
  8
DIMNSIONS
  6
CONTINUOUS
 62
     7
 10
-93.75
 20
-118.75
 30
0.0
 11
-86.248132324218759
 21
-116.73988061454919
 31
0.0
  0
LINE
  5
C7
  8
DIMNSIONS
  6
CONTINUOUS
 62
     7
 10
-93.75
 20
-118.75
 30
0.0
 11
-86.248132324218759
 21
-120.76011938545069
 31
0.0
  0
LINE
  5
C8
  8
DIMNSIONS
  6
CONTINUOUS
 62
     7
 10
52.249999999999993
 20
-118.75
 30
0.0
 11
44.74813232421873
 21
-120.76011938545069
 31
0.0
  0
LINE
  5
C9
  8
DIMNSIONS
  6
CONTINUOUS
 62
     7
 10
52.249999999999993
 20
-118.75
 30
0.0
 11
44.74813232421873
 21
-116.73988061454919
 31
0.0
  0
TEXT
  5
CA
  8
DIMNSIONS
 62
     7
 10
-28.687500000000011
 20
-115.7683333333333
 30
0.0
 40
8.1442057291666661
  1
146
 41
0.7
 11
-28.687500000000011
 21
-107.6241276041666
 31
0.0
 73
     3
  0
LINE
  5
CB
  8
DIMNSIONS
  6
CONTINUOUS
 62
     7
 10
-83.250000000000014
 20
-62.25
 30
0.0
 11
-83.250000000000014
 21
-87.249999999999986
 31
0.0
  0
LINE
  5
CC
  8
DIMNSIONS
  6
CONTINUOUS
 62
     7
 10
41.749999999999993
 20
-62.25
 30
0.0
 11
41.749999999999993
 21
-87.249999999999986
 31
0.0
  0
LINE
  5
CD
  8
DIMNSIONS
  6
CONTINUOUS
 62
     7
 10
-83.250000000000014
 20
-81.25
 30
0.0
 11
41.749999999999993
 21
-81.25
 31
0.0
  0
LINE
  5
CE
  8
DIMNSIONS
  6
CONTINUOUS
 62
     7
 10
-83.250000000000014
 20
-81.25
 30
0.0
 11
-75.748132324218773
 21
-79.239880614549264
 31
0.0
  0
LINE
  5
CF
  8
DIMNSIONS
  6
CONTINUOUS
 62
     7
 10
-83.250000000000014
 20
-81.25
 30
0.0
 11
-75.748132324218773
 21
-83.260119385450736
 31
0.0
  0
LINE
  5
D0
  8
DIMNSIONS
  6
CONTINUOUS
 62
     7
 10
41.749999999999993
 20
-81.25
 30
0.0
 11
34.24813232421873
 21
-83.260119385450736
 31
0.0
  0
LINE
  5
D1
  8
DIMNSIONS
  6
CONTINUOUS
 62
     7
 10
41.749999999999993
 20
-81.25
 30
0.0
 11
34.24813232421873
 21
-79.239880614549264
 31
0.0
  0
TEXT
  5
D2
  8
DIMNSIONS
 62
     7
 10
-28.687500000000011
 20
-78.268333333333331
 30
0.0
 40
8.1442057291666661
  1
125
 41
0.7
 11
-28.687500000000011
 21
-70.124127604166645
 31
0.0
 73
     3
  0
LINE
  5
D3
  8
DIMNSIONS
  6
CONTINUOUS
 62
     7
 10
-92.249999999999986
 20
-13.75
 30
0.0
 11
-118.5
 21
-13.75
 31
0.0
  0
LINE
  5
D4
  8
DIMNSIONS
  6
CONTINUOUS
 62
     7
 10
-92.249999999999986
 20
13.75
 30
0.0
 11
-118.5
 21
13.75
 31
0.0
  0
LINE
  5
D5
  8
DIMNSIONS
  6
CONTINUOUS
 62
     7
 10
-112.5
 20
-13.75
 30
0.0
 11
-112.5
 21
13.75
 31
0.0
  0
LINE
  5
D6
  8
DIMNSIONS
  6
CONTINUOUS
 62
     7
 10
-112.5
 20
-13.75
 30
0.0
 11
-114.51011938545069
 21
-6.2481323242187443
 31
0.0
  0
LINE
  5
D7
  8
DIMNSIONS
  6
CONTINUOUS
 62
     7
 10
-112.5
 20
-13.75
 30
0.0
 11
-110.48988061454919
 21
-6.2481323242187443
 31
0.0
  0
LINE
  5
D8
  8
DIMNSIONS
  6
CONTINUOUS
 62
     7
 10
-112.5
 20
13.75
 30
0.0
 11
-110.48988061454919
 21
6.2481323242187443
 31
0.0
  0
LINE
  5
D9
  8
DIMNSIONS
  6
CONTINUOUS
 62
     7
 10
-112.5
 20
13.75
 30
0.0
 11
-114.51011938545069
 21
6.2481323242187443
 31
0.0
  0
TEXT
  5
DA
  8
DIMNSIONS
 62
     7
 10
-115.4816666666667
 20
-10.583333333333311
 30
0.0
 40
8.1442057291666661
  1
27.5
 50
90.0
 41
0.7
 11
-123.6258723958333
 21
-10.583333333333311
 31
0.0
 73
     3
  0
LINE
  5
DB
  8
DIMNSIONS
  6
CONTINUOUS
 62
     7
 10
-92.249999999999986
 20
-41.25
 30
0.0
 11
-118.5
 21
-41.25
 31
0.0
  0
LINE
  5
DC
  8
DIMNSIONS
  6
CONTINUOUS
 62
     7
 10
-92.249999999999986
 20
-13.75
 30
0.0
 11
-118.5
 21
-13.75
 31
0.0
  0
LINE
  5
DD
  8
DIMNSIONS
  6
CONTINUOUS
 62
     7
 10
-112.5
 20
-41.25
 30
0.0
 11
-112.5
 21
-13.75
 31
0.0
  0
LINE
  5
DE
  8
DIMNSIONS
  6
CONTINUOUS
 62
     7
 10
-112.5
 20
-41.25
 30
0.0
 11
-114.51011938545069
 21
-33.748132324218751
 31
0.0
  0
LINE
  5
DF
  8
DIMNSIONS
  6
CONTINUOUS
 62
     7
 10
-112.5
 20
-41.25
 30
0.0
 11
-110.48988061454919
 21
-33.748132324218751
 31
0.0
  0
LINE
  5
E0
  8
DIMNSIONS
  6
CONTINUOUS
 62
     7
 10
-112.5
 20
-13.75
 30
0.0
 11
-110.48988061454919
 21
-21.251867675781259
 31
0.0
  0
LINE
  5
E1
  8
DIMNSIONS
  6
CONTINUOUS
 62
     7
 10
-112.5
 20
-13.75
 30
0.0
 11
-114.51011938545069
 21
-21.251867675781259
 31
0.0
  0
TEXT
  5
E2
  8
DIMNSIONS
 62
     7
 10
-115.4816666666667
 20
-38.083333333333321
 30
0.0
 40
8.1442057291666661
  1
27.5
 50
90.0
 41
0.7
 11
-123.6258723958333
 21
-38.083333333333321
 31
0.0
 73
     3
  0
LINE
  5
E3
  8
DIMNSIONS
  6
CONTINUOUS
 62
     7
 10
-88.250000000000014
 20
-44.050000000000011
 30
0.0
 11
-88.250000000000014
 21
-106.0
 31
0.0
  0
LINE
  5
E4
  8
DIMNSIONS
  6
CONTINUOUS
 62
     7
 10
46.749999999999993
 20
-44.050000000000011
 30
0.0
 11
46.749999999999993
 21
-106.0
 31
0.0
  0
LINE
  5
E5
  8
DIMNSIONS
  6
CONTINUOUS
 62
     7
 10
-88.250000000000014
 20
-100.0
 30
0.0
 11
46.749999999999993
 21
-100.0
 31
0.0
  0
LINE
  5
E6
  8
DIMNSIONS
  6
CONTINUOUS
 62
     7
 10
-88.250000000000014
 20
-100.0
 30
0.0
 11
-80.748132324218773
 21
-97.989880614549264
 31
0.0
  0
LINE
  5
E7
  8
DIMNSIONS
  6
CONTINUOUS
 62
     7
 10
-88.250000000000014
 20
-100.0
 30
0.0
 11
-80.748132324218773
 21
-102.01011938545069
 31
0.0
  0
LINE
  5
E8
  8
DIMNSIONS
  6
CONTINUOUS
 62
     7
 10
46.749999999999993
 20
-100.0
 30
0.0
 11
39.248132324218737
 21
-102.01011938545069
 31
0.0
  0
LINE
  5
E9
  8
DIMNSIONS
  6
CONTINUOUS
 62
     7
 10
46.749999999999993
 20
-100.0
 30
0.0
 11
39.248132324218737
 21
-97.989880614549264
 31
0.0
  0
TEXT
  5
EA
  8
DIMNSIONS
 62
     7
 10
-28.687500000000011
 20
-97.018333333333345
 30
0.0
 40
8.1442057291666661
  1
135
 41
0.7
 11
-28.687500000000011
 21
-88.874127604166674
 31
0.0
 73
     3
  0
LINE
  5
EB
  8
DIMNSIONS
  6
CONTINUOUS
 62
     7
 10
-99.750000000000014
 20
-162.5
 30
0.0
 11
-118.5
 21
-162.5
 31
0.0
  0
LINE
  5
EC
  8
DIMNSIONS
  6
CONTINUOUS
 62
     7
 10
-87.250000000000014
 20
-132.5
 30
0.0
 11
-118.5
 21
-132.5
 31
0.0
  0
LINE
  5
ED
  8
DIMNSIONS
  6
CONTINUOUS
 62
     7
 10
-112.5
 20
-162.5
 30
0.0
 11
-112.5
 21
-132.5
 31
0.0
  0
LINE
  5
EE
  8
DIMNSIONS
  6
CONTINUOUS
 62
     7
 10
-112.5
 20
-162.5
 30
0.0
 11
-114.51011938545069
 21
-154.99813232421869
 31
0.0
  0
LINE
  5
EF
  8
DIMNSIONS
  6
CONTINUOUS
 62
     7
 10
-112.5
 20
-162.5
 30
0.0
 11
-110.48988061454919
 21
-154.99813232421869
 31
0.0
  0
LINE
  5
F0
  8
DIMNSIONS
  6
CONTINUOUS
 62
     7
 10
-112.5
 20
-132.5
 30
0.0
 11
-110.48988061454919
 21
-140.0018676757812
 31
0.0
  0
LINE
  5
F1
  8
DIMNSIONS
  6
CONTINUOUS
 62
     7
 10
-112.5
 20
-132.5
 30
0.0
 11
-114.51011938545069
 21
-140.0018676757812
 31
0.0
  0
TEXT
  5
F2
  8
DIMNSIONS
 62
     7
 10
-115.4816666666666
 20
-152.79166666666671
 30
0.0
 40
8.1442057291666661
  1
30
 50
90.0
 41
0.7
 11
-123.6258723958333
 21
-152.79166666666671
 31
0.0
 73
     3
  0
LINE
  5
F3
  8
DIMNSIONS
  6
CONTINUOUS
 62
     7
 10
-74.15000000000002
 20
-62.25
 30
0.0
 11
-137.25
 21
-62.25
 31
0.0
  0
LINE
  5
F4
  8
DIMNSIONS
  6
CONTINUOUS
 62
     7
 10
-99.750000000000014
 20
-56.25
 30
0.0
 11
-137.25
 21
-56.25
 31
0.0
  0
LINE
  5
F5
  8
DIMNSIONS
  6
CONTINUOUS
 62
     7
 10
-131.25
 20
-56.25
 30
0.0
 11
-131.25
 21
-62.25
 31
0.0
  0
LINE
  5
F6
  8
DIMNSIONS
  6
CONTINUOUS
 62
     7
 10
-131.25
 20
-62.25
 30
0.0
 11
-131.25
 21
-74.041666666666643
 31
0.0
  0
LINE
  5
F7
  8
DIMNSIONS
  6
CONTINUOUS
 62
     7
 10
-131.25
 20
-62.25
 30
0.0
 11
-129.23988061454921
 21
-69.751867675781256
 31
0.0
  0
LINE
  5
F8
  8
DIMNSIONS
  6
CONTINUOUS
 62
     7
 10
-131.25
 20
-62.25
 30
0.0
 11
-133.26011938545071
 21
-69.751867675781256
 31
0.0
  0
LINE
  5
F9
  8
DIMNSIONS
  6
CONTINUOUS
 62
     7
 10
-131.25
 20
-56.25
 30
0.0
 11
-131.25
 21
-41.25
 31
0.0
  0
LINE
  5
FA
  8
DIMNSIONS
  6
CONTINUOUS
 62
     7
 10
-131.25
 20
-56.25
 30
0.0
 11
-133.26011938545071
 21
-48.748132324218737
 31
0.0
  0
LINE
  5
FB
  8
DIMNSIONS
  6
CONTINUOUS
 62
     7
 10
-131.25
 20
-56.25
 30
0.0
 11
-129.23988061454921
 21
-48.748132324218737
 31
0.0
  0
TEXT
  5
FC
  8
DIMNSIONS
 62
     7
 10
-134.23166666666671
 20
-74.041666666666643
 30
0.0
 40
8.1442057291666661
  1
6
 50
90.0
 41
0.7
 11
-142.3758723958334
 21
-74.041666666666643
 31
0.0
 73
     3
  0
LINE
  5
FD
  8
DIMNSIONS
  6
CONTINUOUS
 62
     7
 10
-81.750000000000014
 20
-165.5
 30
0.0
 11
-118.5
 21
-165.5
 31
0.0
  0
LINE
  5
FE
  8
DIMNSIONS
  6
CONTINUOUS
 62
     7
 10
-99.750000000000014
 20
-162.5
 30
0.0
 11
-118.5
 21
-162.5
 31
0.0
  0
LINE
  5
FF
  8
DIMNSIONS
  6
CONTINUOUS
 62
     7
 10
-112.5
 20
-162.5
 30
0.0
 11
-112.5
 21
-165.5
 31
0.0
  0
LINE
  5
100
  8
DIMNSIONS
  6
CONTINUOUS
 62
     7
 10
-112.5
 20
-165.5
 30
0.0
 11
-112.5
 21
-179.19166666666661
 31
0.0
  0
LINE
  5
101
  8
DIMNSIONS
  6
CONTINUOUS
 62
     7
 10
-112.5
 20
-165.5
 30
0.0
 11
-110.48988061454919
 21
-173.0018676757812
 31
0.0
  0
LINE
  5
102
  8
DIMNSIONS
  6
CONTINUOUS
 62
     7
 10
-112.5
 20
-165.5
 30
0.0
 11
-114.51011938545069
 21
-173.0018676757812
 31
0.0
  0
LINE
  5
103
  8
DIMNSIONS
  6
CONTINUOUS
 62
     7
 10
-112.5
 20
-162.5
 30
0.0
 11
-112.5
 21
-147.5
 31
0.0
  0
LINE
  5
104
  8
DIMNSIONS
  6
CONTINUOUS
 62
     7
 10
-112.5
 20
-162.5
 30
0.0
 11
-114.51011938545069
 21
-154.99813232421869
 31
0.0
  0
LINE
  5
105
  8
DIMNSIONS
  6
CONTINUOUS
 62
     7
 10
-112.5
 20
-162.5
 30
0.0
 11
-110.48988061454919
 21
-154.99813232421869
 31
0.0
  0
TEXT
  5
106
  8
DIMNSIONS
 62
     7
 10
-115.4816666666667
 20
-179.19166666666669
 30
0.0
 40
8.1442057291666661
  1
3
 50
90.0
 41
0.7
 11
-123.6258723958333
 21
-179.19166666666669
 31
0.0
 73
     3
  0
TEXT
  5
107
  8
DATA
 62
     7
 10
250.0
 20
-210.288246439261
 30
0.0
 40
7.3297851562499989
  1
EXT-DVI-ELR
 41
0.7
 11
250.0
 21
-202.95846128301099
 31
0.0
 73
     3
  0
TEXT
  5
108
  8
DATA
 62
     7
 10
250.0
 20
-187.7900342102682
 30
0.0
 40
7.3297851562499989
  1
Gefen
 41
0.7
 11
250.0
 21
-180.46024905401811
 31
0.0
 73
     3
  0
TEXT
  5
109
  8
DATA
 62
     7
 10
245.9056372105166
 20
-197.62233302707381
 30
0.0
 40
4.8865311328124994
  1
DVI延長機
 41
0.7
 11
245.9056372105166
 21
-192.7358018942613
 31
0.0
 73
     3
  0
TEXT
  5
10A
  8
DATA
 62
     7
 10
-139.99999999999989
 20
-230.21870421026821
 30
0.0
 40
4.8865234374999993
  1
仕様および外観は予告なく変更されることがありますので、ご了承ください。
 41
0.7
 11
-139.99999999999989
 21
-225.3321807727682
 31
0.0
 73
     3
  0
LINE
  5
10B
  8
DATA
  6
CONTINUOUS
 62
     7
 10
-93.75
 20
212.5
 30
0.0
 11
-93.75
 21
297.5
 31
0.0
  0
LINE
  5
10C
  8
DATA
  6
CONTINUOUS
 62
     7
 10
52.249999999999993
 20
212.5
 30
0.0
 11
-93.75
 21
212.5
 31
0.0
  0
LINE
  5
10D
  8
DATA
  6
CONTINUOUS
 62
     7
 10
52.249999999999993
 20
297.5
 30
0.0
 11
52.249999999999993
 21
212.5
 31
0.0
  0
LINE
  5
10E
  8
DATA
  6
CONTINUOUS
 62
     7
 10
-93.75
 20
297.5
 30
0.0
 11
52.249999999999993
 21
297.5
 31
0.0
  0
LINE
  5
10F
  8
DATA
  6
CONTINUOUS
 62
     7
 10
-93.75
 20
106.25
 30
0.0
 11
-93.75
 21
108.25
 31
0.0
  0
LINE
  5
110
  8
DATA
  6
CONTINUOUS
 62
     7
 10
52.249999999999993
 20
106.25
 30
0.0
 11
41.749999999999993
 21
106.25
 31
0.0
  0
LINE
  5
111
  8
DATA
  6
CONTINUOUS
 62
     7
 10
52.249999999999993
 20
108.25
 30
0.0
 11
52.249999999999993
 21
106.25
 31
0.0
  0
LINE
  5
112
  8
DATA
  6
CONTINUOUS
 62
     7
 10
-81.250000000000014
 20
136.25
 30
0.0
 11
39.75
 21
136.25
 31
0.0
  0
LINE
  5
113
  8
DATA
  6
CONTINUOUS
 62
     7
 10
-83.250000000000014
 20
212.5
 30
0.0
 11
-83.250000000000014
 21
297.5
 31
0.0
  0
LINE
  5
114
  8
DATA
  6
CONTINUOUS
 62
     7
 10
41.749999999999993
 20
212.5
 30
0.0
 11
41.749999999999993
 21
297.5
 31
0.0
  0
ARC
  5
115
  8
DATA
  6
CONTINUOUS
 62
     7
 10
-88.250000000000014
 20
283.69999999999999
 30
0.0
 40
2.0
 50
0.0
 51
180.0
  0
ARC
  5
116
  8
DATA
  6
CONTINUOUS
 62
     7
 10
-88.250000000000014
 20
281.30000000000001
 30
0.0
 40
2.0
 50
180.0
 51
0.0
  0
LINE
  5
117
  8
DATA
  6
CONTINUOUS
 62
     7
 10
-90.25
 20
281.30000000000001
 30
0.0
 11
-90.25
 21
283.69999999999999
 31
0.0
  0
LINE
  5
118
  8
DATA
  6
CONTINUOUS
 62
     7
 10
-86.250000000000014
 20
281.30000000000001
 30
0.0
 11
-86.250000000000014
 21
283.69999999999999
 31
0.0
  0
ARC
  5
119
  8
DATA
  6
CONTINUOUS
 62
     7
 10
-88.250000000000014
 20
226.30000000000001
 30
0.0
 40
2.0
 50
180.0
 51
0.0
  0
ARC
  5
11A
  8
DATA
  6
CONTINUOUS
 62
     7
 10
-88.250000000000014
 20
228.69999999999999
 30
0.0
 40
2.0
 50
0.0
 51
180.0
  0
LINE
  5
11B
  8
DATA
  6
CONTINUOUS
 62
     7
 10
-90.25
 20
228.69999999999999
 30
0.0
 11
-90.25
 21
226.30000000000001
 31
0.0
  0
LINE
  5
11C
  8
DATA
  6
CONTINUOUS
 62
     7
 10
-86.250000000000014
 20
228.69999999999999
 30
0.0
 11
-86.250000000000014
 21
226.30000000000001
 31
0.0
  0
ARC
  5
11D
  8
DATA
  6
CONTINUOUS
 62
     7
 10
-88.250000000000014
 20
256.19999999999999
 30
0.0
 40
2.0
 50
0.0
 51
180.0
  0
ARC
  5
11E
  8
DATA
  6
CONTINUOUS
 62
     7
 10
-88.250000000000014
 20
253.80000000000001
 30
0.0
 40
2.0
 50
180.0
 51
0.0
  0
LINE
  5
11F
  8
DATA
  6
CONTINUOUS
 62
     7
 10
-90.25
 20
253.80000000000001
 30
0.0
 11
-90.25
 21
256.19999999999999
 31
0.0
  0
LINE
  5
120
  8
DATA
  6
CONTINUOUS
 62
     7
 10
-86.250000000000014
 20
253.80000000000001
 30
0.0
 11
-86.250000000000014
 21
256.19999999999999
 31
0.0
  0
ARC
  5
121
  8
DATA
  6
CONTINUOUS
 62
     7
 10
46.749999999999993
 20
283.69999999999999
 30
0.0
 40
2.0
 50
0.0
 51
180.0
  0
ARC
  5
122
  8
DATA
  6
CONTINUOUS
 62
     7
 10
46.749999999999993
 20
281.30000000000001
 30
0.0
 40
2.0
 50
180.0
 51
0.0
  0
LINE
  5
123
  8
DATA
  6
CONTINUOUS
 62
     7
 10
48.75
 20
281.30000000000001
 30
0.0
 11
48.75
 21
283.69999999999999
 31
0.0
  0
LINE
  5
124
  8
DATA
  6
CONTINUOUS
 62
     7
 10
44.749999999999993
 20
281.30000000000001
 30
0.0
 11
44.749999999999993
 21
283.69999999999999
 31
0.0
  0
ARC
  5
125
  8
DATA
  6
CONTINUOUS
 62
     7
 10
46.749999999999993
 20
226.30000000000001
 30
0.0
 40
2.0
 50
180.0
 51
0.0
  0
ARC
  5
126
  8
DATA
  6
CONTINUOUS
 62
     7
 10
46.749999999999993
 20
228.69999999999999
 30
0.0
 40
2.0
 50
0.0
 51
180.0
  0
LINE
  5
127
  8
DATA
  6
CONTINUOUS
 62
     7
 10
48.75
 20
228.69999999999999
 30
0.0
 11
48.75
 21
226.30000000000001
 31
0.0
  0
LINE
  5
128
  8
DATA
  6
CONTINUOUS
 62
     7
 10
44.749999999999993
 20
228.69999999999999
 30
0.0
 11
44.749999999999993
 21
226.30000000000001
 31
0.0
  0
ARC
  5
129
  8
DATA
  6
CONTINUOUS
 62
     7
 10
46.749999999999993
 20
256.19999999999999
 30
0.0
 40
2.0
 50
0.0
 51
180.0
  0
ARC
  5
12A
  8
DATA
  6
CONTINUOUS
 62
     7
 10
46.749999999999993
 20
253.80000000000001
 30
0.0
 40
2.0
 50
180.0
 51
0.0
  0
LINE
  5
12B
  8
DATA
  6
CONTINUOUS
 62
     7
 10
48.75
 20
253.80000000000001
 30
0.0
 11
48.75
 21
256.19999999999999
 31
0.0
  0
LINE
  5
12C
  8
DATA
  6
CONTINUOUS
 62
     7
 10
44.749999999999993
 20
253.80000000000001
 30
0.0
 11
44.749999999999993
 21
256.19999999999999
 31
0.0
  0
LINE
  5
12D
  8
DATA
  6
CONTINUOUS
 62
     7
 10
81.25
 20
212.5
 30
0.0
 11
81.25
 21
297.5
 31
0.0
  0
LINE
  5
12E
  8
DATA
  6
CONTINUOUS
 62
     7
 10
111.25
 20
212.5
 30
0.0
 11
111.25
 21
297.5
 31
0.0
  0
LINE
  5
12F
  8
DATA
  6
CONTINUOUS
 62
     7
 10
81.25
 20
212.5
 30
0.0
 11
111.25
 21
212.5
 31
0.0
  0
LINE
  5
130
  8
DATA
  6
CONTINUOUS
 62
     7
 10
81.25
 20
297.5
 30
0.0
 11
111.25
 21
297.5
 31
0.0
  0
LINE
  5
131
  8
DATA
  6
CONTINUOUS
 62
     7
 10
-83.250000000000014
 20
134.25
 30
0.0
 11
-83.250000000000014
 21
110.25
 31
0.0
  0
LINE
  5
132
  8
DATA
  6
CONTINUOUS
 62
     7
 10
41.749999999999993
 20
134.25
 30
0.0
 11
41.749999999999993
 21
110.25
 31
0.0
  0
LINE
  5
133
  8
DATA
  6
CONTINUOUS
 62
     7
 10
52.249999999999993
 20
108.25
 30
0.0
 11
43.749999999999993
 21
108.25
 31
0.0
  0
LINE
  5
134
  8
DATA
  6
CONTINUOUS
 62
     7
 10
-85.250000000000014
 20
108.25
 30
0.0
 11
-93.75
 21
108.25
 31
0.0
  0
LINE
  5
135
  8
DATA
  6
CONTINUOUS
 62
     7
 10
-81.250000000000014
 20
132.25
 30
0.0
 11
-81.250000000000014
 21
108.25
 31
0.0
  0
LINE
  5
136
  8
DATA
  6
CONTINUOUS
 62
     7
 10
39.75
 20
132.25
 30
0.0
 11
39.75
 21
108.25
 31
0.0
  0
LINE
  5
137
  8
DATA
  6
CONTINUOUS
 62
     7
 10
-79.250000000000014
 20
134.25
 30
0.0
 11
37.749999999999993
 21
134.25
 31
0.0
  0
ARC
  5
138
  8
DATA
  6
CONTINUOUS
 62
     7
 10
-81.250000000000014
 20
134.25
 30
0.0
 40
2.0
 50
90.0
 51
180.0
  0
ARC
  5
139
  8
DATA
  6
CONTINUOUS
 62
     7
 10
-79.250000000000014
 20
132.25
 30
0.0
 40
2.0
 50
90.0
 51
180.0
  0
ARC
  5
13A
  8
DATA
  6
CONTINUOUS
 62
     7
 10
-85.250000000000014
 20
110.25
 30
0.0
 40
2.0
 50
270.0
 51
0.0
  0
ARC
  5
13B
  8
DATA
  6
CONTINUOUS
 62
     7
 10
39.75
 20
134.25
 30
0.0
 40
2.0
 50
0.0
 51
90.0
  0
ARC
  5
13C
  8
DATA
  6
CONTINUOUS
 62
     7
 10
37.749999999999993
 20
132.25
 30
0.0
 40
2.0
 50
0.0
 51
90.0
  0
ARC
  5
13D
  8
DATA
  6
CONTINUOUS
 62
     7
 10
43.749999999999993
 20
110.25
 30
0.0
 40
2.0
 50
180.0
 51
270.0
  0
ARC
  5
13E
  8
DATA
  6
CONTINUOUS
 62
     7
 10
41.749999999999993
 20
108.25
 30
0.0
 40
2.0
 50
180.0
 51
270.0
  0
LINE
  5
13F
  8
DATA
  6
CONTINUOUS
 62
     7
 10
-93.75
 20
106.25
 30
0.0
 11
-83.250000000000014
 21
106.25
 31
0.0
  0
ARC
  5
140
  8
DATA
  6
CONTINUOUS
 62
     7
 10
-83.250000000000014
 20
108.25
 30
0.0
 40
2.0
 50
270.0
 51
0.0
  0
LINE
  5
141
  8
DATA
  6
CONTINUOUS
 62
     7
 10
-81.250000000000014
 20
108.25
 30
0.0
 11
-81.250000000000014
 21
106.25
 31
0.0
  0
LINE
  5
142
  8
DATA
  6
CONTINUOUS
 62
     7
 10
39.75
 20
108.25
 30
0.0
 11
39.75
 21
106.25
 31
0.0
  0
LINE
  5
143
  8
DATA
  6
CONTINUOUS
 62
     7
 10
-81.250000000000014
 20
106.25
 30
0.0
 11
39.75
 21
106.25
 31
0.0
  0
CIRCLE
  5
144
  8
DATA
  6
CONTINUOUS
 62
     7
 10
-39.297382904438379
 20
120.76106543555819
 30
0.0
 40
1.175000000000096
  0
POLYLINE
  5
145
  8
DATA
  6
CONTINUOUS
 62
     7
 66
     1
 10
0.0
 20
0.0
 30
0.0
 70
     1
  0
VERTEX
  5
5E4
  8
DATA
  6
CONTINUOUS
 62
     7
 10
-39.297382904438379
 20
123.4610654355581
 30
0.0
  0
VERTEX
  5
5E5
  8
DATA
  6
CONTINUOUS
 62
     7
 10
-41.635651494656308
 20
122.1110654355581
 30
0.0
  0
VERTEX
  5
5E6
  8
DATA
  6
CONTINUOUS
 62
     7
 10
-41.635651494656308
 20
119.4110654355581
 30
0.0
  0
VERTEX
  5
5E7
  8
DATA
  6
CONTINUOUS
 62
     7
 10
-39.297382904438379
 20
118.06106543555821
 30
0.0
  0
VERTEX
  5
5E8
  8
DATA
  6
CONTINUOUS
 62
     7
 10
-36.959114314220201
 20
119.4110654355581
 30
0.0
  0
VERTEX
  5
5E9
  8
DATA
  6
CONTINUOUS
 62
     7
 10
-36.959114314220201
 20
122.1110654355581
 30
0.0
  0
SEQEND
  5
5EA
  8
DATA
  6
CONTINUOUS
 62
     7
  0
CIRCLE
  5
14E
  8
DATA
  6
CONTINUOUS
 62
     7
 10
-6.797382904438634
 20
120.76106543555819
 30
0.0
 40
1.175000000000068
  0
POLYLINE
  5
14F
  8
DATA
  6
CONTINUOUS
 62
     7
 66
     1
 10
0.0
 20
0.0
 30
0.0
 70
     1
  0
VERTEX
  5
5EB
  8
DATA
  6
CONTINUOUS
 62
     7
 10
-6.797382904438634
 20
123.4610654355581
 30
0.0
  0
VERTEX
  5
5EC
  8
DATA
  6
CONTINUOUS
 62
     7
 10
-9.1356514946565568
 20
122.1110654355581
 30
0.0
  0
VERTEX
  5
5ED
  8
DATA
  6
CONTINUOUS
 62
     7
 10
-9.1356514946565568
 20
119.4110654355581
 30
0.0
  0
VERTEX
  5
5EE
  8
DATA
  6
CONTINUOUS
 62
     7
 10
-6.797382904438634
 20
118.06106543555821
 30
0.0
  0
VERTEX
  5
5EF
  8
DATA
  6
CONTINUOUS
 62
     7
 10
-4.4591143142205993
 20
119.4110654355581
 30
0.0
  0
VERTEX
  5
5F0
  8
DATA
  6
CONTINUOUS
 62
     7
 10
-4.4591143142205993
 20
122.1110654355581
 30
0.0
  0
SEQEND
  5
5F1
  8
DATA
  6
CONTINUOUS
 62
     7
  0
LINE
  5
158
  8
DATA
  6
CONTINUOUS
 62
     7
 10
-33.997287791629688
 20
124.68606543555811
 30
0.0
 11
-12.09747801724683
 21
124.68606543555811
 31
0.0
  0
LINE
  5
159
  8
DATA
  6
CONTINUOUS
 62
     7
 10
-12.656395214699099
 20
116.8360654355581
 30
0.0
 11
-33.438370594177393
 21
116.8360654355581
 31
0.0
  0
POLYLINE
  5
15A
  8
DATA
  6
CONTINUOUS
 62
     7
 66
     1
 10
0.0
 20
0.0
 30
0.0
 70
     1
  0
VERTEX
  5
5F2
  8
DATA
  6
CONTINUOUS
 62
     7
 10
-34.047449075617187
 20
121.5260654355581
 30
0.0
  0
VERTEX
  5
5F3
  8
DATA
  6
CONTINUOUS
 62
     7
 10
-32.517449075617172
 20
121.5260654355581
 30
0.0
  0
VERTEX
  5
5F4
  8
DATA
  6
CONTINUOUS
 62
     7
 10
-32.517449075617172
 20
119.99606543555819
 30
0.0
  0
VERTEX
  5
5F5
  8
DATA
  6
CONTINUOUS
 62
     7
 10
-34.047449075617187
 20
119.99606543555819
 30
0.0
  0
SEQEND
  5
5F6
  8
DATA
  6
CONTINUOUS
 62
     7
  0
POLYLINE
  5
161
  8
DATA
  6
CONTINUOUS
 62
     7
 66
     1
 10
0.0
 20
0.0
 30
0.0
 70
     1
  0
VERTEX
  5
5F7
  8
DATA
  6
CONTINUOUS
 62
     7
 10
-32.04744907561718
 20
121.5260654355581
 30
0.0
  0
VERTEX
  5
5F8
  8
DATA
  6
CONTINUOUS
 62
     7
 10
-30.517449075617229
 20
121.5260654355581
 30
0.0
  0
VERTEX
  5
5F9
  8
DATA
  6
CONTINUOUS
 62
     7
 10
-30.517449075617229
 20
119.99606543555819
 30
0.0
  0
VERTEX
  5
5FA
  8
DATA
  6
CONTINUOUS
 62
     7
 10
-32.04744907561718
 20
119.99606543555819
 30
0.0
  0
SEQEND
  5
5FB
  8
DATA
  6
CONTINUOUS
 62
     7
  0
POLYLINE
  5
168
  8
DATA
  6
CONTINUOUS
 62
     7
 66
     1
 10
0.0
 20
0.0
 30
0.0
 70
     1
  0
VERTEX
  5
5FC
  8
DATA
  6
CONTINUOUS
 62
     7
 10
-30.047449075617362
 20
121.5260654355581
 30
0.0
  0
VERTEX
  5
5FD
  8
DATA
  6
CONTINUOUS
 62
     7
 10
-28.51744907561779
 20
121.5260654355581
 30
0.0
  0
VERTEX
  5
5FE
  8
DATA
  6
CONTINUOUS
 62
     7
 10
-28.51744907561779
 20
119.99606543555819
 30
0.0
  0
VERTEX
  5
5FF
  8
DATA
  6
CONTINUOUS
 62
     7
 10
-30.047449075617362
 20
119.99606543555819
 30
0.0
  0
SEQEND
  5
600
  8
DATA
  6
CONTINUOUS
 62
     7
  0
POLYLINE
  5
16F
  8
DATA
  6
CONTINUOUS
 62
     7
 66
     1
 10
0.0
 20
0.0
 30
0.0
 70
     1
  0
VERTEX
  5
601
  8
DATA
  6
CONTINUOUS
 62
     7
 10
-28.047449075617902
 20
121.5260654355581
 30
0.0
  0
VERTEX
  5
602
  8
DATA
  6
CONTINUOUS
 62
     7
 10
-26.517449075617929
 20
121.5260654355581
 30
0.0
  0
VERTEX
  5
603
  8
DATA
  6
CONTINUOUS
 62
     7
 10
-26.517449075617929
 20
119.99606543555819
 30
0.0
  0
VERTEX
  5
604
  8
DATA
  6
CONTINUOUS
 62
     7
 10
-28.047449075617902
 20
119.99606543555819
 30
0.0
  0
SEQEND
  5
605
  8
DATA
  6
CONTINUOUS
 62
     7
  0
POLYLINE
  5
176
  8
DATA
  6
CONTINUOUS
 62
     7
 66
     1
 10
0.0
 20
0.0
 30
0.0
 70
     1
  0
VERTEX
  5
606
  8
DATA
  6
CONTINUOUS
 62
     7
 10
-26.047449075617919
 20
121.5260654355581
 30
0.0
  0
VERTEX
  5
607
  8
DATA
  6
CONTINUOUS
 62
     7
 10
-24.517449075617922
 20
121.5260654355581
 30
0.0
  0
VERTEX
  5
608
  8
DATA
  6
CONTINUOUS
 62
     7
 10
-24.517449075617922
 20
119.99606543555819
 30
0.0
  0
VERTEX
  5
609
  8
DATA
  6
CONTINUOUS
 62
     7
 10
-26.047449075617919
 20
119.99606543555819
 30
0.0
  0
SEQEND
  5
60A
  8
DATA
  6
CONTINUOUS
 62
     7
  0
POLYLINE
  5
17D
  8
DATA
  6
CONTINUOUS
 62
     7
 66
     1
 10
0.0
 20
0.0
 30
0.0
 70
     1
  0
VERTEX
  5
60B
  8
DATA
  6
CONTINUOUS
 62
     7
 10
-24.047449075617919
 20
121.5260654355581
 30
0.0
  0
VERTEX
  5
60C
  8
DATA
  6
CONTINUOUS
 62
     7
 10
-22.517449075617929
 20
121.5260654355581
 30
0.0
  0
VERTEX
  5
60D
  8
DATA
  6
CONTINUOUS
 62
     7
 10
-22.517449075617929
 20
119.99606543555819
 30
0.0
  0
VERTEX
  5
60E
  8
DATA
  6
CONTINUOUS
 62
     7
 10
-24.047449075617919
 20
119.99606543555819
 30
0.0
  0
SEQEND
  5
60F
  8
DATA
  6
CONTINUOUS
 62
     7
  0
POLYLINE
  5
184
  8
DATA
  6
CONTINUOUS
 62
     7
 66
     1
 10
0.0
 20
0.0
 30
0.0
 70
     1
  0
VERTEX
  5
610
  8
DATA
  6
CONTINUOUS
 62
     7
 10
-22.047449075617919
 20
121.5260654355581
 30
0.0
  0
VERTEX
  5
611
  8
DATA
  6
CONTINUOUS
 62
     7
 10
-20.517449075617922
 20
121.5260654355581
 30
0.0
  0
VERTEX
  5
612
  8
DATA
  6
CONTINUOUS
 62
     7
 10
-20.517449075617922
 20
119.99606543555819
 30
0.0
  0
VERTEX
  5
613
  8
DATA
  6
CONTINUOUS
 62
     7
 10
-22.047449075617919
 20
119.99606543555819
 30
0.0
  0
SEQEND
  5
614
  8
DATA
  6
CONTINUOUS
 62
     7
  0
POLYLINE
  5
18B
  8
DATA
  6
CONTINUOUS
 62
     7
 66
     1
 10
0.0
 20
0.0
 30
0.0
 70
     1
  0
VERTEX
  5
615
  8
DATA
  6
CONTINUOUS
 62
     7
 10
-20.047449075617919
 20
121.5260654355581
 30
0.0
  0
VERTEX
  5
616
  8
DATA
  6
CONTINUOUS
 62
     7
 10
-18.517449075617922
 20
121.5260654355581
 30
0.0
  0
VERTEX
  5
617
  8
DATA
  6
CONTINUOUS
 62
     7
 10
-18.517449075617922
 20
119.99606543555819
 30
0.0
  0
VERTEX
  5
618
  8
DATA
  6
CONTINUOUS
 62
     7
 10
-20.047449075617919
 20
119.99606543555819
 30
0.0
  0
SEQEND
  5
619
  8
DATA
  6
CONTINUOUS
 62
     7
  0
POLYLINE
  5
192
  8
DATA
  6
CONTINUOUS
 62
     7
 66
     1
 10
0.0
 20
0.0
 30
0.0
 70
     1
  0
VERTEX
  5
61A
  8
DATA
  6
CONTINUOUS
 62
     7
 10
-34.047449075617187
 20
123.5260654355581
 30
0.0
  0
VERTEX
  5
61B
  8
DATA
  6
CONTINUOUS
 62
     7
 10
-32.517449075617172
 20
123.5260654355581
 30
0.0
  0
VERTEX
  5
61C
  8
DATA
  6
CONTINUOUS
 62
     7
 10
-32.517449075617172
 20
121.99606543555819
 30
0.0
  0
VERTEX
  5
61D
  8
DATA
  6
CONTINUOUS
 62
     7
 10
-34.047449075617187
 20
121.99606543555819
 30
0.0
  0
SEQEND
  5
61E
  8
DATA
  6
CONTINUOUS
 62
     7
  0
POLYLINE
  5
199
  8
DATA
  6
CONTINUOUS
 62
     7
 66
     1
 10
0.0
 20
0.0
 30
0.0
 70
     1
  0
VERTEX
  5
61F
  8
DATA
  6
CONTINUOUS
 62
     7
 10
-32.04744907561718
 20
123.5260654355581
 30
0.0
  0
VERTEX
  5
620
  8
DATA
  6
CONTINUOUS
 62
     7
 10
-30.517449075617229
 20
123.5260654355581
 30
0.0
  0
VERTEX
  5
621
  8
DATA
  6
CONTINUOUS
 62
     7
 10
-30.517449075617229
 20
121.99606543555819
 30
0.0
  0
VERTEX
  5
622
  8
DATA
  6
CONTINUOUS
 62
     7
 10
-32.04744907561718
 20
121.99606543555819
 30
0.0
  0
SEQEND
  5
623
  8
DATA
  6
CONTINUOUS
 62
     7
  0
POLYLINE
  5
1A0
  8
DATA
  6
CONTINUOUS
 62
     7
 66
     1
 10
0.0
 20
0.0
 30
0.0
 70
     1
  0
VERTEX
  5
624
  8
DATA
  6
CONTINUOUS
 62
     7
 10
-30.047449075617362
 20
123.5260654355581
 30
0.0
  0
VERTEX
  5
625
  8
DATA
  6
CONTINUOUS
 62
     7
 10
-28.51744907561779
 20
123.5260654355581
 30
0.0
  0
VERTEX
  5
626
  8
DATA
  6
CONTINUOUS
 62
     7
 10
-28.51744907561779
 20
121.99606543555819
 30
0.0
  0
VERTEX
  5
627
  8
DATA
  6
CONTINUOUS
 62
     7
 10
-30.047449075617362
 20
121.99606543555819
 30
0.0
  0
SEQEND
  5
628
  8
DATA
  6
CONTINUOUS
 62
     7
  0
POLYLINE
  5
1A7
  8
DATA
  6
CONTINUOUS
 62
     7
 66
     1
 10
0.0
 20
0.0
 30
0.0
 70
     1
  0
VERTEX
  5
629
  8
DATA
  6
CONTINUOUS
 62
     7
 10
-28.047449075617902
 20
123.5260654355581
 30
0.0
  0
VERTEX
  5
62A
  8
DATA
  6
CONTINUOUS
 62
     7
 10
-26.517449075617929
 20
123.5260654355581
 30
0.0
  0
VERTEX
  5
62B
  8
DATA
  6
CONTINUOUS
 62
     7
 10
-26.517449075617929
 20
121.99606543555819
 30
0.0
  0
VERTEX
  5
62C
  8
DATA
  6
CONTINUOUS
 62
     7
 10
-28.047449075617902
 20
121.99606543555819
 30
0.0
  0
SEQEND
  5
62D
  8
DATA
  6
CONTINUOUS
 62
     7
  0
POLYLINE
  5
1AE
  8
DATA
  6
CONTINUOUS
 62
     7
 66
     1
 10
0.0
 20
0.0
 30
0.0
 70
     1
  0
VERTEX
  5
62E
  8
DATA
  6
CONTINUOUS
 62
     7
 10
-26.047449075617919
 20
123.5260654355581
 30
0.0
  0
VERTEX
  5
62F
  8
DATA
  6
CONTINUOUS
 62
     7
 10
-24.517449075617922
 20
123.5260654355581
 30
0.0
  0
VERTEX
  5
630
  8
DATA
  6
CONTINUOUS
 62
     7
 10
-24.517449075617922
 20
121.99606543555819
 30
0.0
  0
VERTEX
  5
631
  8
DATA
  6
CONTINUOUS
 62
     7
 10
-26.047449075617919
 20
121.99606543555819
 30
0.0
  0
SEQEND
  5
632
  8
DATA
  6
CONTINUOUS
 62
     7
  0
POLYLINE
  5
1B5
  8
DATA
  6
CONTINUOUS
 62
     7
 66
     1
 10
0.0
 20
0.0
 30
0.0
 70
     1
  0
VERTEX
  5
633
  8
DATA
  6
CONTINUOUS
 62
     7
 10
-24.047449075617919
 20
123.5260654355581
 30
0.0
  0
VERTEX
  5
634
  8
DATA
  6
CONTINUOUS
 62
     7
 10
-22.517449075617929
 20
123.5260654355581
 30
0.0
  0
VERTEX
  5
635
  8
DATA
  6
CONTINUOUS
 62
     7
 10
-22.517449075617929
 20
121.99606543555819
 30
0.0
  0
VERTEX
  5
636
  8
DATA
  6
CONTINUOUS
 62
     7
 10
-24.047449075617919
 20
121.99606543555819
 30
0.0
  0
SEQEND
  5
637
  8
DATA
  6
CONTINUOUS
 62
     7
  0
POLYLINE
  5
1BC
  8
DATA
  6
CONTINUOUS
 62
     7
 66
     1
 10
0.0
 20
0.0
 30
0.0
 70
     1
  0
VERTEX
  5
638
  8
DATA
  6
CONTINUOUS
 62
     7
 10
-22.047449075617919
 20
123.5260654355581
 30
0.0
  0
VERTEX
  5
639
  8
DATA
  6
CONTINUOUS
 62
     7
 10
-20.517449075617922
 20
123.5260654355581
 30
0.0
  0
VERTEX
  5
63A
  8
DATA
  6
CONTINUOUS
 62
     7
 10
-20.517449075617922
 20
121.99606543555819
 30
0.0
  0
VERTEX
  5
63B
  8
DATA
  6
CONTINUOUS
 62
     7
 10
-22.047449075617919
 20
121.99606543555819
 30
0.0
  0
SEQEND
  5
63C
  8
DATA
  6
CONTINUOUS
 62
     7
  0
POLYLINE
  5
1C3
  8
DATA
  6
CONTINUOUS
 62
     7
 66
     1
 10
0.0
 20
0.0
 30
0.0
 70
     1
  0
VERTEX
  5
63D
  8
DATA
  6
CONTINUOUS
 62
     7
 10
-20.047449075617919
 20
123.5260654355581
 30
0.0
  0
VERTEX
  5
63E
  8
DATA
  6
CONTINUOUS
 62
     7
 10
-18.517449075617922
 20
123.5260654355581
 30
0.0
  0
VERTEX
  5
63F
  8
DATA
  6
CONTINUOUS
 62
     7
 10
-18.517449075617922
 20
121.99606543555819
 30
0.0
  0
VERTEX
  5
640
  8
DATA
  6
CONTINUOUS
 62
     7
 10
-20.047449075617919
 20
121.99606543555819
 30
0.0
  0
SEQEND
  5
641
  8
DATA
  6
CONTINUOUS
 62
     7
  0
POLYLINE
  5
1CA
  8
DATA
  6
CONTINUOUS
 62
     7
 66
     1
 10
0.0
 20
0.0
 30
0.0
 70
     1
  0
VERTEX
  5
642
  8
DATA
  6
CONTINUOUS
 62
     7
 10
-34.047449075617187
 20
119.5260654355581
 30
0.0
  0
VERTEX
  5
643
  8
DATA
  6
CONTINUOUS
 62
     7
 10
-32.517449075617172
 20
119.5260654355581
 30
0.0
  0
VERTEX
  5
644
  8
DATA
  6
CONTINUOUS
 62
     7
 10
-32.517449075617172
 20
117.99606543555809
 30
0.0
  0
VERTEX
  5
645
  8
DATA
  6
CONTINUOUS
 62
     7
 10
-34.047449075617187
 20
117.99606543555809
 30
0.0
  0
SEQEND
  5
646
  8
DATA
  6
CONTINUOUS
 62
     7
  0
POLYLINE
  5
1D1
  8
DATA
  6
CONTINUOUS
 62
     7
 66
     1
 10
0.0
 20
0.0
 30
0.0
 70
     1
  0
VERTEX
  5
647
  8
DATA
  6
CONTINUOUS
 62
     7
 10
-32.04744907561718
 20
119.5260654355581
 30
0.0
  0
VERTEX
  5
648
  8
DATA
  6
CONTINUOUS
 62
     7
 10
-30.517449075617229
 20
119.5260654355581
 30
0.0
  0
VERTEX
  5
649
  8
DATA
  6
CONTINUOUS
 62
     7
 10
-30.517449075617229
 20
117.99606543555809
 30
0.0
  0
VERTEX
  5
64A
  8
DATA
  6
CONTINUOUS
 62
     7
 10
-32.04744907561718
 20
117.99606543555809
 30
0.0
  0
SEQEND
  5
64B
  8
DATA
  6
CONTINUOUS
 62
     7
  0
POLYLINE
  5
1D8
  8
DATA
  6
CONTINUOUS
 62
     7
 66
     1
 10
0.0
 20
0.0
 30
0.0
 70
     1
  0
VERTEX
  5
64C
  8
DATA
  6
CONTINUOUS
 62
     7
 10
-30.047449075617362
 20
119.5260654355581
 30
0.0
  0
VERTEX
  5
64D
  8
DATA
  6
CONTINUOUS
 62
     7
 10
-28.51744907561779
 20
119.5260654355581
 30
0.0
  0
VERTEX
  5
64E
  8
DATA
  6
CONTINUOUS
 62
     7
 10
-28.51744907561779
 20
117.99606543555809
 30
0.0
  0
VERTEX
  5
64F
  8
DATA
  6
CONTINUOUS
 62
     7
 10
-30.047449075617362
 20
117.99606543555809
 30
0.0
  0
SEQEND
  5
650
  8
DATA
  6
CONTINUOUS
 62
     7
  0
POLYLINE
  5
1DF
  8
DATA
  6
CONTINUOUS
 62
     7
 66
     1
 10
0.0
 20
0.0
 30
0.0
 70
     1
  0
VERTEX
  5
651
  8
DATA
  6
CONTINUOUS
 62
     7
 10
-28.047449075617902
 20
119.5260654355581
 30
0.0
  0
VERTEX
  5
652
  8
DATA
  6
CONTINUOUS
 62
     7
 10
-26.517449075617929
 20
119.5260654355581
 30
0.0
  0
VERTEX
  5
653
  8
DATA
  6
CONTINUOUS
 62
     7
 10
-26.517449075617929
 20
117.99606543555809
 30
0.0
  0
VERTEX
  5
654
  8
DATA
  6
CONTINUOUS
 62
     7
 10
-28.047449075617902
 20
117.99606543555809
 30
0.0
  0
SEQEND
  5
655
  8
DATA
  6
CONTINUOUS
 62
     7
  0
POLYLINE
  5
1E6
  8
DATA
  6
CONTINUOUS
 62
     7
 66
     1
 10
0.0
 20
0.0
 30
0.0
 70
     1
  0
VERTEX
  5
656
  8
DATA
  6
CONTINUOUS
 62
     7
 10
-26.047449075617919
 20
119.5260654355581
 30
0.0
  0
VERTEX
  5
657
  8
DATA
  6
CONTINUOUS
 62
     7
 10
-24.517449075617922
 20
119.5260654355581
 30
0.0
  0
VERTEX
  5
658
  8
DATA
  6
CONTINUOUS
 62
     7
 10
-24.517449075617922
 20
117.99606543555809
 30
0.0
  0
VERTEX
  5
659
  8
DATA
  6
CONTINUOUS
 62
     7
 10
-26.047449075617919
 20
117.99606543555809
 30
0.0
  0
SEQEND
  5
65A
  8
DATA
  6
CONTINUOUS
 62
     7
  0
POLYLINE
  5
1ED
  8
DATA
  6
CONTINUOUS
 62
     7
 66
     1
 10
0.0
 20
0.0
 30
0.0
 70
     1
  0
VERTEX
  5
65B
  8
DATA
  6
CONTINUOUS
 62
     7
 10
-24.047449075617919
 20
119.5260654355581
 30
0.0
  0
VERTEX
  5
65C
  8
DATA
  6
CONTINUOUS
 62
     7
 10
-22.517449075617929
 20
119.5260654355581
 30
0.0
  0
VERTEX
  5
65D
  8
DATA
  6
CONTINUOUS
 62
     7
 10
-22.517449075617929
 20
117.99606543555809
 30
0.0
  0
VERTEX
  5
65E
  8
DATA
  6
CONTINUOUS
 62
     7
 10
-24.047449075617919
 20
117.99606543555809
 30
0.0
  0
SEQEND
  5
65F
  8
DATA
  6
CONTINUOUS
 62
     7
  0
POLYLINE
  5
1F4
  8
DATA
  6
CONTINUOUS
 62
     7
 66
     1
 10
0.0
 20
0.0
 30
0.0
 70
     1
  0
VERTEX
  5
660
  8
DATA
  6
CONTINUOUS
 62
     7
 10
-22.047449075617919
 20
119.5260654355581
 30
0.0
  0
VERTEX
  5
661
  8
DATA
  6
CONTINUOUS
 62
     7
 10
-20.517449075617922
 20
119.5260654355581
 30
0.0
  0
VERTEX
  5
662
  8
DATA
  6
CONTINUOUS
 62
     7
 10
-20.517449075617922
 20
117.99606543555809
 30
0.0
  0
VERTEX
  5
663
  8
DATA
  6
CONTINUOUS
 62
     7
 10
-22.047449075617919
 20
117.99606543555809
 30
0.0
  0
SEQEND
  5
664
  8
DATA
  6
CONTINUOUS
 62
     7
  0
POLYLINE
  5
1FB
  8
DATA
  6
CONTINUOUS
 62
     7
 66
     1
 10
0.0
 20
0.0
 30
0.0
 70
     1
  0
VERTEX
  5
665
  8
DATA
  6
CONTINUOUS
 62
     7
 10
-20.047449075617919
 20
119.5260654355581
 30
0.0
  0
VERTEX
  5
666
  8
DATA
  6
CONTINUOUS
 62
     7
 10
-18.517449075617922
 20
119.5260654355581
 30
0.0
  0
VERTEX
  5
667
  8
DATA
  6
CONTINUOUS
 62
     7
 10
-18.517449075617922
 20
117.99606543555809
 30
0.0
  0
VERTEX
  5
668
  8
DATA
  6
CONTINUOUS
 62
     7
 10
-20.047449075617919
 20
117.99606543555809
 30
0.0
  0
SEQEND
  5
669
  8
DATA
  6
CONTINUOUS
 62
     7
  0
POLYLINE
  5
202
  8
DATA
  6
CONTINUOUS
 62
     7
 66
     1
 10
0.0
 20
0.0
 30
0.0
  0
VERTEX
  5
66A
  8
DATA
  6
CONTINUOUS
 62
     7
 10
-14.49738290443849
 20
121.1610654355581
 30
0.0
  0
VERTEX
  5
66B
  8
DATA
  6
CONTINUOUS
 62
     7
 10
-12.3973829044385
 20
121.1610654355581
 30
0.0
  0
VERTEX
  5
66C
  8
DATA
  6
CONTINUOUS
 62
     7
 10
-12.3973829044385
 20
120.3610654355581
 30
0.0
  0
VERTEX
  5
66D
  8
DATA
  6
CONTINUOUS
 62
     7
 10
-14.49738290443849
 20
120.3610654355581
 30
0.0
  0
SEQEND
  5
66E
  8
DATA
  6
CONTINUOUS
 62
     7
  0
POLYLINE
  5
209
  8
DATA
  6
CONTINUOUS
 62
     7
 66
     1
 10
0.0
 20
0.0
 30
0.0
  0
VERTEX
  5
66F
  8
DATA
  6
CONTINUOUS
 62
     7
 10
-15.297382904438511
 20
120.3610654355581
 30
0.0
  0
VERTEX
  5
670
  8
DATA
  6
CONTINUOUS
 62
     7
 10
-17.397382904438501
 20
120.3610654355581
 30
0.0
  0
VERTEX
  5
671
  8
DATA
  6
CONTINUOUS
 62
     7
 10
-17.397382904438501
 20
121.1610654355581
 30
0.0
  0
VERTEX
  5
672
  8
DATA
  6
CONTINUOUS
 62
     7
 10
-15.297382904438511
 20
121.1610654355581
 30
0.0
  0
SEQEND
  5
673
  8
DATA
  6
CONTINUOUS
 62
     7
  0
POLYLINE
  5
210
  8
DATA
  6
CONTINUOUS
 62
     7
 66
     1
 10
0.0
 20
0.0
 30
0.0
  0
VERTEX
  5
674
  8
DATA
  6
CONTINUOUS
 62
     7
 10
-14.49738290443849
 20
120.3610654355581
 30
0.0
  0
VERTEX
  5
675
  8
DATA
  6
CONTINUOUS
 62
     7
 10
-14.49738290443849
 20
118.26106543555819
 30
0.0
  0
VERTEX
  5
676
  8
DATA
  6
CONTINUOUS
 62
     7
 10
-15.297382904438511
 20
118.26106543555819
 30
0.0
  0
VERTEX
  5
677
  8
DATA
  6
CONTINUOUS
 62
     7
 10
-15.297382904438511
 20
120.3610654355581
 30
0.0
  0
SEQEND
  5
678
  8
DATA
  6
CONTINUOUS
 62
     7
  0
POLYLINE
  5
217
  8
DATA
  6
CONTINUOUS
 62
     7
 66
     1
 10
0.0
 20
0.0
 30
0.0
  0
VERTEX
  5
679
  8
DATA
  6
CONTINUOUS
 62
     7
 10
-15.297382904438511
 20
121.1610654355581
 30
0.0
  0
VERTEX
  5
67A
  8
DATA
  6
CONTINUOUS
 62
     7
 10
-15.297382904438511
 20
123.26106543555819
 30
0.0
  0
VERTEX
  5
67B
  8
DATA
  6
CONTINUOUS
 62
     7
 10
-14.49738290443849
 20
123.26106543555819
 30
0.0
  0
VERTEX
  5
67C
  8
DATA
  6
CONTINUOUS
 62
     7
 10
-14.49738290443849
 20
121.1610654355581
 30
0.0
  0
SEQEND
  5
67D
  8
DATA
  6
CONTINUOUS
 62
     7
  0
POLYLINE
  5
21E
  8
DATA
  6
CONTINUOUS
 62
     7
 66
     1
 10
0.0
 20
0.0
 30
0.0
 70
     1
  0
VERTEX
  5
67E
  8
DATA
  6
CONTINUOUS
 62
     7
 10
-16.75766733491022
 20
122.52049324620801
 30
0.0
  0
VERTEX
  5
67F
  8
DATA
  6
CONTINUOUS
 62
     7
 10
-15.75766733491022
 20
122.52049324620801
 30
0.0
  0
VERTEX
  5
680
  8
DATA
  6
CONTINUOUS
 62
     7
 10
-15.75766733491022
 20
121.52049324620801
 30
0.0
  0
VERTEX
  5
681
  8
DATA
  6
CONTINUOUS
 62
     7
 10
-16.75766733491022
 20
121.52049324620801
 30
0.0
  0
SEQEND
  5
682
  8
DATA
  6
CONTINUOUS
 62
     7
  0
POLYLINE
  5
225
  8
DATA
  6
CONTINUOUS
 62
     7
 66
     1
 10
0.0
 20
0.0
 30
0.0
 70
     1
  0
VERTEX
  5
683
  8
DATA
  6
CONTINUOUS
 62
     7
 10
-14.037098473966781
 20
122.52049324620801
 30
0.0
  0
VERTEX
  5
684
  8
DATA
  6
CONTINUOUS
 62
     7
 10
-13.037098473966781
 20
122.52049324620801
 30
0.0
  0
VERTEX
  5
685
  8
DATA
  6
CONTINUOUS
 62
     7
 10
-13.037098473966781
 20
121.52049324620801
 30
0.0
  0
VERTEX
  5
686
  8
DATA
  6
CONTINUOUS
 62
     7
 10
-14.037098473966781
 20
121.52049324620801
 30
0.0
  0
SEQEND
  5
687
  8
DATA
  6
CONTINUOUS
 62
     7
  0
POLYLINE
  5
22C
  8
DATA
  6
CONTINUOUS
 62
     7
 66
     1
 10
0.0
 20
0.0
 30
0.0
 70
     1
  0
VERTEX
  5
688
  8
DATA
  6
CONTINUOUS
 62
     7
 10
-16.75766733491022
 20
120.0016376249082
 30
0.0
  0
VERTEX
  5
689
  8
DATA
  6
CONTINUOUS
 62
     7
 10
-15.75766733491022
 20
120.0016376249082
 30
0.0
  0
VERTEX
  5
68A
  8
DATA
  6
CONTINUOUS
 62
     7
 10
-15.75766733491022
 20
119.0016376249082
 30
0.0
  0
VERTEX
  5
68B
  8
DATA
  6
CONTINUOUS
 62
     7
 10
-16.75766733491022
 20
119.0016376249082
 30
0.0
  0
SEQEND
  5
68C
  8
DATA
  6
CONTINUOUS
 62
     7
  0
POLYLINE
  5
233
  8
DATA
  6
CONTINUOUS
 62
     7
 66
     1
 10
0.0
 20
0.0
 30
0.0
 70
     1
  0
VERTEX
  5
68D
  8
DATA
  6
CONTINUOUS
 62
     7
 10
-14.037098473966781
 20
120.0016376249082
 30
0.0
  0
VERTEX
  5
68E
  8
DATA
  6
CONTINUOUS
 62
     7
 10
-13.037098473966781
 20
120.0016376249082
 30
0.0
  0
VERTEX
  5
68F
  8
DATA
  6
CONTINUOUS
 62
     7
 10
-13.037098473966781
 20
119.0016376249082
 30
0.0
  0
VERTEX
  5
690
  8
DATA
  6
CONTINUOUS
 62
     7
 10
-14.037098473966781
 20
119.0016376249082
 30
0.0
  0
SEQEND
  5
691
  8
DATA
  6
CONTINUOUS
 62
     7
  0
LINE
  5
23A
  8
DATA
  6
CONTINUOUS
 62
     7
 10
-34.992754722385158
 20
123.5909571300719
 30
0.0
 11
-34.433837524932827
 21
117.74095713007191
 31
0.0
  0
LINE
  5
23B
  8
DATA
  6
CONTINUOUS
 62
     7
 10
-11.10201108649143
 20
123.5909571300719
 30
0.0
 11
-11.660928283943701
 21
117.740957130072
 31
0.0
  0
ARC
  5
23C
  8
DATA
  6
CONTINUOUS
 62
     7
 10
-33.997287791629688
 20
123.68606543555821
 30
0.0
 40
0.9999999999999431
 50
90.0
 51
185.45755348510701
  0
ARC
  5
23D
  8
DATA
  6
CONTINUOUS
 62
     7
 10
-12.0974780172468
 20
123.68606543555811
 30
0.0
 40
0.9999999999999844
 50
354.54244651489557
 51
90.000000000001606
  0
ARC
  5
23E
  8
DATA
  6
CONTINUOUS
 62
     7
 10
-33.438370594177357
 20
117.8360654355581
 30
0.0
 40
1.0000000000000879
 50
185.45755348510701
 51
269.99999999999841
  0
ARC
  5
23F
  8
DATA
  6
CONTINUOUS
 62
     7
 10
-12.656395214699099
 20
117.8360654355581
 30
0.0
 40
1.0
 50
270.0
 51
354.5424465148958
  0
TEXT
  5
240
  8
DATA
 62
     7
 10
-29.911384793251941
 20
109.5887972463352
 30
0.0
 40
3.121945529513888
  1
DVI In 
 41
0.7
 11
-29.911384793251941
 21
112.7107427758491
 31
0.0
 73
     3
  0
CIRCLE
  5
241
  8
DATA
  6
CONTINUOUS
 62
     7
 10
-64.250000000000014
 20
123.25
 30
0.0
 40
3.9000000000000048
  0
CIRCLE
  5
242
  8
DATA
  6
CONTINUOUS
 62
     7
 10
-64.250000000000014
 20
123.25
 30
0.0
 40
1.0
  0
POLYLINE
  5
243
  8
DATA
  6
CONTINUOUS
 62
     7
 66
     1
 10
0.0
 20
0.0
 30
0.0
 70
     1
  0
VERTEX
  5
692
  8
DATA
  6
CONTINUOUS
 62
     7
 10
-66.949112508461511
 20
127.925
 30
0.0
  0
VERTEX
  5
693
  8
DATA
  6
CONTINUOUS
 62
     7
 10
-69.648225016923035
 20
123.25
 30
0.0
  0
VERTEX
  5
694
  8
DATA
  6
CONTINUOUS
 62
     7
 10
-66.949112508461511
 20
118.575
 30
0.0
  0
VERTEX
  5
695
  8
DATA
  6
CONTINUOUS
 62
     7
 10
-61.550887491538518
 20
118.575
 30
0.0
  0
VERTEX
  5
696
  8
DATA
  6
CONTINUOUS
 62
     7
 10
-58.851774983076993
 20
123.25
 30
0.0
  0
VERTEX
  5
697
  8
DATA
  6
CONTINUOUS
 62
     7
 10
-61.550887491538518
 20
127.925
 30
0.0
  0
SEQEND
  5
698
  8
DATA
  6
CONTINUOUS
 62
     7
  0
TEXT
  5
24C
  8
DATA
 62
     7
 10
-67.410803820272093
 20
130.14020624702019
 30
0.0
 40
1.954609375
  1
5V DC 
 41
0.7
 11
-67.410803820272093
 21
132.09481562202021
 31
0.0
 73
     3
  0
CIRCLE
  5
24D
  8
DATA
  6
CONTINUOUS
 62
     7
 10
-54.250000000000021
 20
120.25
 30
0.0
 40
1.449999999999988
  0
TEXT
  5
24E
  8
DATA
 62
     7
 10
-57.272053068885853
 20
108.7010869771558
 30
0.0
 40
1.954609375
  1
Power 
 41
0.7
 11
-57.272053068885853
 21
110.6556963521558
 31
0.0
 73
     3
  0
ARC
  5
24F
  8
DATA
  6
CONTINUOUS
 62
     7
 10
-54.250000000000021
 20
213.22609535108819
 30
0.0
 40
1.449999999999978
 50
210.04999042122461
 51
329.95000957877539
  0
LINE
  5
250
  8
DATA
  6
CONTINUOUS
 62
     7
 10
-68.15000000000002
 20
211.0
 30
0.0
 11
-68.15000000000002
 21
206.5
 31
0.0
  0
LINE
  5
251
  8
DATA
  6
CONTINUOUS
 62
     7
 10
-60.350000000000009
 20
211.0
 30
0.0
 11
-60.350000000000009
 21
206.5
 31
0.0
  0
LINE
  5
252
  8
DATA
  6
CONTINUOUS
 62
     7
 10
-68.15000000000002
 20
206.5
 30
0.0
 11
-60.350000000000009
 21
206.5
 31
0.0
  0
LINE
  5
253
  8
DATA
  6
CONTINUOUS
 62
     7
 10
-69.648225016923035
 20
212.5
 30
0.0
 11
-69.648225016923035
 21
211.0
 31
0.0
  0
LINE
  5
254
  8
DATA
  6
CONTINUOUS
 62
     7
 10
-58.851774983076993
 20
212.5
 30
0.0
 11
-58.851774983076993
 21
211.0
 31
0.0
  0
LINE
  5
255
  8
DATA
  6
CONTINUOUS
 62
     7
 10
-69.648225016923035
 20
211.0
 30
0.0
 11
-58.851774983076993
 21
211.0
 31
0.0
  0
LINE
  5
256
  8
DATA
  6
CONTINUOUS
 62
     7
 10
-34.974135784993692
 20
207.5
 30
0.0
 11
-11.120630023884679
 21
207.5
 31
0.0
  0
LINE
  5
257
  8
DATA
  6
CONTINUOUS
 62
     7
 10
-41.635651494656308
 20
212.5
 30
0.0
 11
-41.635651494656308
 21
208.0
 31
0.0
  0
LINE
  5
258
  8
DATA
  6
CONTINUOUS
 62
     7
 10
-36.959114314220201
 20
212.5
 30
0.0
 11
-36.959114314220201
 21
208.0
 31
0.0
  0
LINE
  5
259
  8
DATA
  6
CONTINUOUS
 62
     7
 10
-9.1356514946565568
 20
212.5
 30
0.0
 11
-9.1356514946565568
 21
208.0
 31
0.0
  0
LINE
  5
25A
  8
DATA
  6
CONTINUOUS
 62
     7
 10
-4.4591143142205993
 20
212.5
 30
0.0
 11
-4.4591143142205993
 21
208.0
 31
0.0
  0
LINE
  5
25B
  8
DATA
  6
CONTINUOUS
 62
     7
 10
-34.974135784993692
 20
212.5
 30
0.0
 11
-34.974135784993692
 21
207.5
 31
0.0
  0
LINE
  5
25C
  8
DATA
  6
CONTINUOUS
 62
     7
 10
-11.120630023884679
 20
212.5
 30
0.0
 11
-11.120630023884679
 21
207.5
 31
0.0
  0
LINE
  5
25D
  8
DATA
  6
CONTINUOUS
 62
     7
 10
-41.635651494656308
 20
208.0
 30
0.0
 11
-36.959114314220201
 21
208.0
 31
0.0
  0
LINE
  5
25E
  8
DATA
  6
CONTINUOUS
 62
     7
 10
-9.1356514946565568
 20
208.0
 30
0.0
 11
-4.4591143142205993
 21
208.0
 31
0.0
  0
LINE
  5
25F
  8
DATA
  6
CONTINUOUS
 62
     7
 10
-75.750000000000014
 20
103.25
 30
0.0
 11
-76.399999999999963
 21
106.25
 31
0.0
  0
LINE
  5
260
  8
DATA
  6
CONTINUOUS
 62
     7
 10
-69.750000000000014
 20
103.25
 30
0.0
 11
-69.100000000000037
 21
106.25
 31
0.0
  0
LINE
  5
261
  8
DATA
  6
CONTINUOUS
 62
     7
 10
-75.750000000000014
 20
103.25
 30
0.0
 11
-69.750000000000014
 21
103.25
 31
0.0
  0
LINE
  5
262
  8
DATA
  6
CONTINUOUS
 62
     7
 10
34.249999999999993
 20
103.25
 30
0.0
 11
34.89999999999997
 21
106.25
 31
0.0
  0
LINE
  5
263
  8
DATA
  6
CONTINUOUS
 62
     7
 10
28.249999999999989
 20
103.25
 30
0.0
 11
27.600000000000009
 21
106.25
 31
0.0
  0
LINE
  5
264
  8
DATA
  6
CONTINUOUS
 62
     7
 10
34.249999999999993
 20
103.25
 30
0.0
 11
28.249999999999989
 21
103.25
 31
0.0
  0
LINE
  5
265
  8
DATA
  6
CONTINUOUS
 62
     7
 10
-93.75
 20
336.25000000019878
 30
0.0
 11
-93.75
 21
334.25000000019878
 31
0.0
  0
LINE
  5
266
  8
DATA
  6
CONTINUOUS
 62
     7
 10
52.249999999999993
 20
336.25000000019878
 30
0.0
 11
41.749999999999993
 21
336.25000000019878
 31
0.0
  0
LINE
  5
267
  8
DATA
  6
CONTINUOUS
 62
     7
 10
52.249999999999993
 20
334.25000000019878
 30
0.0
 11
52.249999999999993
 21
336.25000000019878
 31
0.0
  0
LINE
  5
268
  8
DATA
  6
CONTINUOUS
 62
     7
 10
-81.250000000000014
 20
306.2500000001989
 30
0.0
 11
39.75
 21
306.2500000001989
 31
0.0
  0
LINE
  5
269
  8
DATA
  6
CONTINUOUS
 62
     7
 10
-83.250000000000014
 20
308.2500000001989
 30
0.0
 11
-83.250000000000014
 21
332.25000000019878
 31
0.0
  0
LINE
  5
26A
  8
DATA
  6
CONTINUOUS
 62
     7
 10
41.749999999999993
 20
308.2500000001989
 30
0.0
 11
41.749999999999993
 21
332.25000000019878
 31
0.0
  0
LINE
  5
26B
  8
DATA
  6
CONTINUOUS
 62
     7
 10
52.249999999999993
 20
334.25000000019878
 30
0.0
 11
43.749999999999993
 21
334.25000000019878
 31
0.0
  0
LINE
  5
26C
  8
DATA
  6
CONTINUOUS
 62
     7
 10
-85.250000000000014
 20
334.25000000019878
 30
0.0
 11
-93.75
 21
334.25000000019878
 31
0.0
  0
LINE
  5
26D
  8
DATA
  6
CONTINUOUS
 62
     7
 10
-81.250000000000014
 20
310.2500000001989
 30
0.0
 11
-81.250000000000014
 21
334.25000000019878
 31
0.0
  0
LINE
  5
26E
  8
DATA
  6
CONTINUOUS
 62
     7
 10
39.75
 20
310.2500000001989
 30
0.0
 11
39.75
 21
334.25000000019878
 31
0.0
  0
LINE
  5
26F
  8
DATA
  6
CONTINUOUS
 62
     7
 10
-79.250000000000014
 20
308.2500000001989
 30
0.0
 11
37.749999999999993
 21
308.2500000001989
 31
0.0
  0
ARC
  5
270
  8
DATA
  6
CONTINUOUS
 62
     7
 10
-81.250000000000014
 20
308.2500000001989
 30
0.0
 40
2.0
 50
180.0
 51
270.0
  0
ARC
  5
271
  8
DATA
  6
CONTINUOUS
 62
     7
 10
-79.250000000000014
 20
310.2500000001989
 30
0.0
 40
2.0
 50
180.0
 51
270.0
  0
ARC
  5
272
  8
DATA
  6
CONTINUOUS
 62
     7
 10
-85.250000000000014
 20
332.25000000019878
 30
0.0
 40
2.0
 50
0.0
 51
90.0
  0
ARC
  5
273
  8
DATA
  6
CONTINUOUS
 62
     7
 10
39.75
 20
308.2500000001989
 30
0.0
 40
2.0
 50
270.0
 51
0.0
  0
ARC
  5
274
  8
DATA
  6
CONTINUOUS
 62
     7
 10
37.749999999999993
 20
310.2500000001989
 30
0.0
 40
2.0
 50
270.0
 51
0.0
  0
ARC
  5
275
  8
DATA
  6
CONTINUOUS
 62
     7
 10
43.749999999999993
 20
332.25000000019878
 30
0.0
 40
2.0
 50
90.0
 51
180.0
  0
ARC
  5
276
  8
DATA
  6
CONTINUOUS
 62
     7
 10
41.749999999999993
 20
334.25000000019878
 30
0.0
 40
2.0
 50
90.0
 51
180.0
  0
LINE
  5
277
  8
DATA
  6
CONTINUOUS
 62
     7
 10
-93.75
 20
336.25000000019878
 30
0.0
 11
-83.250000000000014
 21
336.25000000019878
 31
0.0
  0
ARC
  5
278
  8
DATA
  6
CONTINUOUS
 62
     7
 10
-83.250000000000014
 20
334.25000000019878
 30
0.0
 40
2.0
 50
0.0
 51
90.0
  0
LINE
  5
279
  8
DATA
  6
CONTINUOUS
 62
     7
 10
-81.250000000000014
 20
334.25000000019878
 30
0.0
 11
-81.250000000000014
 21
336.25000000019878
 31
0.0
  0
LINE
  5
27A
  8
DATA
  6
CONTINUOUS
 62
     7
 10
39.75
 20
334.25000000019878
 30
0.0
 11
39.75
 21
336.25000000019878
 31
0.0
  0
LINE
  5
27B
  8
DATA
  6
CONTINUOUS
 62
     7
 10
-81.250000000000014
 20
336.25000000019878
 30
0.0
 11
39.75
 21
336.25000000019878
 31
0.0
  0
LINE
  5
27C
  8
DATA
  6
CONTINUOUS
 62
     7
 10
-75.750000000000014
 20
339.25000000019878
 30
0.0
 11
-76.399999999999963
 21
336.25000000019878
 31
0.0
  0
LINE
  5
27D
  8
DATA
  6
CONTINUOUS
 62
     7
 10
-69.750000000000014
 20
339.25000000019878
 30
0.0
 11
-69.100000000000037
 21
336.25000000019878
 31
0.0
  0
LINE
  5
27E
  8
DATA
  6
CONTINUOUS
 62
     7
 10
-75.750000000000014
 20
339.25000000019878
 30
0.0
 11
-69.750000000000014
 21
339.25000000019878
 31
0.0
  0
LINE
  5
27F
  8
DATA
  6
CONTINUOUS
 62
     7
 10
34.249999999999993
 20
339.25000000019878
 30
0.0
 11
34.89999999999997
 21
336.25000000019878
 31
0.0
  0
LINE
  5
280
  8
DATA
  6
CONTINUOUS
 62
     7
 10
28.249999999999989
 20
339.25000000019878
 30
0.0
 11
27.600000000000009
 21
336.25000000019878
 31
0.0
  0
LINE
  5
281
  8
DATA
  6
CONTINUOUS
 62
     7
 10
34.249999999999993
 20
339.25000000019878
 30
0.0
 11
28.249999999999989
 21
339.25000000019878
 31
0.0
  0
LINE
  5
282
  8
DATA
  6
CONTINUOUS
 62
     7
 10
-0.2404791566104336
 20
329.24733302824228
 30
0.0
 11
-0.2404791566104336
 21
315.94733302824221
 31
0.0
  0
LINE
  5
283
  8
DATA
  6
CONTINUOUS
 62
     7
 10
-15.940479156610481
 20
329.24733302824228
 30
0.0
 11
-15.940479156610481
 21
315.94733302824221
 31
0.0
  0
LINE
  5
284
  8
DATA
  6
CONTINUOUS
 62
     7
 10
-15.940479156610481
 20
315.94733302824221
 30
0.0
 11
-0.2404791566104336
 21
315.94733302824221
 31
0.0
  0
LINE
  5
285
  8
DATA
  6
CONTINUOUS
 62
     7
 10
-15.940479156610481
 20
329.24733302824228
 30
0.0
 11
-0.2404791566104336
 21
329.24733302824228
 31
0.0
  0
LINE
  5
286
  8
DATA
  6
CONTINUOUS
 62
     7
 10
-14.24047915661043
 20
326.24733302824228
 30
0.0
 11
-1.9404791566104791
 21
326.24733302824228
 31
0.0
  0
LINE
  5
287
  8
DATA
  6
CONTINUOUS
 62
     7
 10
-14.24047915661043
 20
326.24733302824228
 30
0.0
 11
-14.24047915661043
 21
318.94733302824221
 31
0.0
  0
LINE
  5
288
  8
DATA
  6
CONTINUOUS
 62
     7
 10
-1.9404791566104791
 20
326.24733302824228
 30
0.0
 11
-1.9404791566104791
 21
318.94733302824221
 31
0.0
  0
LINE
  5
289
  8
DATA
  6
CONTINUOUS
 62
     7
 10
-10.315479156610481
 20
315.94733302824221
 30
0.0
 11
-10.315479156610481
 21
317.44733302824221
 31
0.0
  0
LINE
  5
28A
  8
DATA
  6
CONTINUOUS
 62
     7
 10
-5.8654791566104327
 20
317.44733302824221
 30
0.0
 11
-5.8654791566104327
 21
315.94733302824221
 31
0.0
  0
LINE
  5
28B
  8
DATA
  6
CONTINUOUS
 62
     7
 10
-11.440479156610481
 20
317.44733302824221
 30
0.0
 11
-10.315479156610481
 21
317.44733302824221
 31
0.0
  0
LINE
  5
28C
  8
DATA
  6
CONTINUOUS
 62
     7
 10
-5.8654791566104327
 20
317.44733302824221
 30
0.0
 11
-4.7404791566104327
 21
317.44733302824221
 31
0.0
  0
LINE
  5
28D
  8
DATA
  6
CONTINUOUS
 62
     7
 10
-14.24047915661043
 20
318.94733302824221
 30
0.0
 11
-11.440479156610481
 21
318.94733302824221
 31
0.0
  0
LINE
  5
28E
  8
DATA
  6
CONTINUOUS
 62
     7
 10
-4.7404791566104327
 20
318.94733302824221
 30
0.0
 11
-1.9404791566104791
 21
318.94733302824221
 31
0.0
  0
LINE
  5
28F
  8
DATA
  6
CONTINUOUS
 62
     7
 10
-11.440479156610481
 20
317.44733302824221
 30
0.0
 11
-11.440479156610481
 21
318.94733302824221
 31
0.0
  0
LINE
  5
290
  8
DATA
  6
CONTINUOUS
 62
     7
 10
-4.7404791566104327
 20
318.94733302824221
 30
0.0
 11
-4.7404791566104327
 21
317.44733302824221
 31
0.0
  0
TEXT
  5
291
  8
DATA
 62
     7
 10
-5.4774778280671077
 20
333.8837405227909
 30
0.0
 40
1.954609375
  1
LINK
 50
180.0
 41
0.7
 11
-5.4774778280671077
 21
331.92913114779088
 31
0.0
 73
     3
  0
TEXT
  5
292
  8
DATA
 62
     7
 10
-78.949366587557265
 20
218.6288333333334
 30
0.0
 40
5.7009440104166647
  1
DVI Extra Long Range Extender S  
 41
0.7
 11
-78.949366587557265
 21
224.32977734375001
 31
0.0
 73
     3
  0
LINE
  5
293
  8
DATA
  6
CONTINUOUS
 62
     7
 10
109.25
 20
212.5
 30
0.0
 11
109.25
 21
297.5
 31
0.0
  0
CIRCLE
  5
294
  8
DATA
  6
CONTINUOUS
 62
     7
 10
104.25
 20
280.0
 30
0.0
 40
2.5
  0
LINE
  5
295
  8
DATA
  6
CONTINUOUS
 62
     7
 10
102.86808104434451
 20
280.0
 30
0.0
 11
105.63191895565549
 21
280.0
 31
0.0
  0
LINE
  5
296
  8
DATA
  6
CONTINUOUS
 62
     7
 10
104.25
 20
278.61808104434459
 30
0.0
 11
104.25
 21
281.38191895565541
 31
0.0
  0
LINE
  5
297
  8
DATA
  6
CONTINUOUS
 62
     7
 10
114.2499999997594
 20
292.48967956995762
 30
0.0
 11
111.2499999997594
 21
293.13967956995759
 31
0.0
  0
LINE
  5
298
  8
DATA
  6
CONTINUOUS
 62
     7
 10
114.2499999997594
 20
286.48967956995762
 30
0.0
 11
111.2499999997594
 21
285.83967956995758
 31
0.0
  0
LINE
  5
299
  8
DATA
  6
CONTINUOUS
 62
     7
 10
114.2499999997594
 20
292.48967956995762
 30
0.0
 11
114.2499999997594
 21
286.48967956995762
 31
0.0
  0
LINE
  5
29A
  8
DATA
  6
CONTINUOUS
 62
     7
 10
114.2499999997594
 20
217.51032043004241
 30
0.0
 11
111.2499999997594
 21
216.86032043004249
 31
0.0
  0
LINE
  5
29B
  8
DATA
  6
CONTINUOUS
 62
     7
 10
114.2499999997594
 20
223.51032043004241
 30
0.0
 11
111.2499999997594
 21
224.16032043004239
 31
0.0
  0
LINE
  5
29C
  8
DATA
  6
CONTINUOUS
 62
     7
 10
114.2499999997594
 20
217.51032043004241
 30
0.0
 11
114.2499999997594
 21
223.51032043004241
 31
0.0
  0
LINE
  5
29D
  8
DATA
  6
CONTINUOUS
 62
     7
 10
92.837782457019216
 20
207.5
 30
0.0
 11
100.6877824570192
 21
207.5
 31
0.0
  0
LINE
  5
29E
  8
DATA
  6
CONTINUOUS
 62
     7
 10
94.062782457019253
 20
212.5
 30
0.0
 11
94.062782457019253
 21
208.0
 31
0.0
  0
LINE
  5
29F
  8
DATA
  6
CONTINUOUS
 62
     7
 10
99.462782457019244
 20
212.5
 30
0.0
 11
99.462782457019244
 21
208.0
 31
0.0
  0
LINE
  5
2A0
  8
DATA
  6
CONTINUOUS
 62
     7
 10
94.062782457019253
 20
208.0
 30
0.0
 11
99.462782457019244
 21
208.0
 31
0.0
  0
LINE
  5
2A1
  8
DATA
  6
CONTINUOUS
 62
     7
 10
92.837782457019216
 20
212.5
 30
0.0
 11
92.837782457019216
 21
207.5
 31
0.0
  0
LINE
  5
2A2
  8
DATA
  6
CONTINUOUS
 62
     7
 10
100.6877824570192
 20
212.5
 30
0.0
 11
100.6877824570192
 21
207.5
 31
0.0
  0
LINE
  5
2A3
  8
DATA
  6
CONTINUOUS
 62
     7
 10
90.385986992816996
 20
210.99999999970001
 30
0.0
 11
90.385986992816996
 21
206.49999999970001
 31
0.0
  0
LINE
  5
2A4
  8
DATA
  6
CONTINUOUS
 62
     7
 10
98.185986992817021
 20
207.5
 30
0.0
 11
98.185986992817021
 21
206.49999999970001
 31
0.0
  0
LINE
  5
2A5
  8
DATA
  6
CONTINUOUS
 62
     7
 10
90.385986992816996
 20
206.49999999970001
 30
0.0
 11
98.185986992817021
 21
206.49999999970001
 31
0.0
  0
LINE
  5
2A6
  8
DATA
  6
CONTINUOUS
 62
     7
 10
88.887761975893994
 20
212.49999999970001
 30
0.0
 11
88.887761975893994
 21
210.99999999970001
 31
0.0
  0
LINE
  5
2A7
  8
DATA
  6
CONTINUOUS
 62
     7
 10
88.887761975893994
 20
210.99999999970001
 30
0.0
 11
92.837782457019216
 21
210.99999999970001
 31
0.0
  0
LINE
  5
2A8
  8
DATA
  6
CONTINUOUS
 62
     7
 10
-93.75
 20
-56.25
 30
0.0
 11
-93.75
 21
28.75
 31
0.0
  0
LINE
  5
2A9
  8
DATA
  6
CONTINUOUS
 62
     7
 10
52.249999999999993
 20
-56.25
 30
0.0
 11
-93.75
 21
-56.25
 31
0.0
  0
LINE
  5
2AA
  8
DATA
  6
CONTINUOUS
 62
     7
 10
52.249999999999993
 20
28.75
 30
0.0
 11
52.249999999999993
 21
-56.25
 31
0.0
  0
LINE
  5
2AB
  8
DATA
  6
CONTINUOUS
 62
     7
 10
-93.75
 20
28.75
 30
0.0
 11
52.249999999999993
 21
28.75
 31
0.0
  0
LINE
  5
2AC
  8
DATA
  6
CONTINUOUS
 62
     7
 10
-93.75
 20
-162.5
 30
0.0
 11
-93.75
 21
-160.5
 31
0.0
  0
LINE
  5
2AD
  8
DATA
  6
CONTINUOUS
 62
     7
 10
52.249999999999993
 20
-162.5
 30
0.0
 11
41.749999999999993
 21
-162.5
 31
0.0
  0
LINE
  5
2AE
  8
DATA
  6
CONTINUOUS
 62
     7
 10
52.249999999999993
 20
-160.5
 30
0.0
 11
52.249999999999993
 21
-162.5
 31
0.0
  0
LINE
  5
2AF
  8
DATA
  6
CONTINUOUS
 62
     7
 10
-81.250000000000014
 20
-132.5
 30
0.0
 11
39.75
 21
-132.5
 31
0.0
  0
LINE
  5
2B0
  8
DATA
  6
CONTINUOUS
 62
     7
 10
-83.250000000000014
 20
-56.25
 30
0.0
 11
-83.250000000000014
 21
28.75
 31
0.0
  0
LINE
  5
2B1
  8
DATA
  6
CONTINUOUS
 62
     7
 10
41.749999999999993
 20
-56.25
 30
0.0
 11
41.749999999999993
 21
28.75
 31
0.0
  0
ARC
  5
2B2
  8
DATA
  6
CONTINUOUS
 62
     7
 10
-88.250000000000014
 20
14.94999999999999
 30
0.0
 40
2.0
 50
0.0
 51
180.0
  0
ARC
  5
2B3
  8
DATA
  6
CONTINUOUS
 62
     7
 10
-88.250000000000014
 20
12.55000000000001
 30
0.0
 40
2.0
 50
180.0
 51
0.0
  0
LINE
  5
2B4
  8
DATA
  6
CONTINUOUS
 62
     7
 10
-90.25
 20
12.55000000000001
 30
0.0
 11
-90.25
 21
14.94999999999999
 31
0.0
  0
LINE
  5
2B5
  8
DATA
  6
CONTINUOUS
 62
     7
 10
-86.250000000000014
 20
12.55000000000001
 30
0.0
 11
-86.250000000000014
 21
14.94999999999999
 31
0.0
  0
ARC
  5
2B6
  8
DATA
  6
CONTINUOUS
 62
     7
 10
-88.250000000000014
 20
-42.449999999999989
 30
0.0
 40
2.0
 50
180.0
 51
0.0
  0
ARC
  5
2B7
  8
DATA
  6
CONTINUOUS
 62
     7
 10
-88.250000000000014
 20
-40.050000000000011
 30
0.0
 40
2.0
 50
0.0
 51
180.0
  0
LINE
  5
2B8
  8
DATA
  6
CONTINUOUS
 62
     7
 10
-90.25
 20
-40.050000000000011
 30
0.0
 11
-90.25
 21
-42.449999999999989
 31
0.0
  0
LINE
  5
2B9
  8
DATA
  6
CONTINUOUS
 62
     7
 10
-86.250000000000014
 20
-40.050000000000011
 30
0.0
 11
-86.250000000000014
 21
-42.449999999999989
 31
0.0
  0
ARC
  5
2BA
  8
DATA
  6
CONTINUOUS
 62
     7
 10
-88.250000000000014
 20
-12.55000000000001
 30
0.0
 40
2.0
 50
0.0
 51
180.0
  0
ARC
  5
2BB
  8
DATA
  6
CONTINUOUS
 62
     7
 10
-88.250000000000014
 20
-14.94999999999999
 30
0.0
 40
2.0
 50
180.0
 51
0.0
  0
LINE
  5
2BC
  8
DATA
  6
CONTINUOUS
 62
     7
 10
-90.25
 20
-14.94999999999999
 30
0.0
 11
-90.25
 21
-12.55000000000001
 31
0.0
  0
LINE
  5
2BD
  8
DATA
  6
CONTINUOUS
 62
     7
 10
-86.250000000000014
 20
-14.94999999999999
 30
0.0
 11
-86.250000000000014
 21
-12.55000000000001
 31
0.0
  0
ARC
  5
2BE
  8
DATA
  6
CONTINUOUS
 62
     7
 10
46.749999999999993
 20
14.94999999999999
 30
0.0
 40
2.0
 50
0.0
 51
180.0
  0
ARC
  5
2BF
  8
DATA
  6
CONTINUOUS
 62
     7
 10
46.749999999999993
 20
12.55000000000001
 30
0.0
 40
2.0
 50
180.0
 51
0.0
  0
LINE
  5
2C0
  8
DATA
  6
CONTINUOUS
 62
     7
 10
48.75
 20
12.55000000000001
 30
0.0
 11
48.75
 21
14.94999999999999
 31
0.0
  0
LINE
  5
2C1
  8
DATA
  6
CONTINUOUS
 62
     7
 10
44.749999999999993
 20
12.55000000000001
 30
0.0
 11
44.749999999999993
 21
14.94999999999999
 31
0.0
  0
ARC
  5
2C2
  8
DATA
  6
CONTINUOUS
 62
     7
 10
46.749999999999993
 20
-42.449999999999989
 30
0.0
 40
2.0
 50
180.0
 51
0.0
  0
ARC
  5
2C3
  8
DATA
  6
CONTINUOUS
 62
     7
 10
46.749999999999993
 20
-40.050000000000011
 30
0.0
 40
2.0
 50
0.0
 51
180.0
  0
LINE
  5
2C4
  8
DATA
  6
CONTINUOUS
 62
     7
 10
48.75
 20
-40.050000000000011
 30
0.0
 11
48.75
 21
-42.449999999999989
 31
0.0
  0
LINE
  5
2C5
  8
DATA
  6
CONTINUOUS
 62
     7
 10
44.749999999999993
 20
-40.050000000000011
 30
0.0
 11
44.749999999999993
 21
-42.449999999999989
 31
0.0
  0
ARC
  5
2C6
  8
DATA
  6
CONTINUOUS
 62
     7
 10
46.749999999999993
 20
-12.55000000000001
 30
0.0
 40
2.0
 50
0.0
 51
180.0
  0
ARC
  5
2C7
  8
DATA
  6
CONTINUOUS
 62
     7
 10
46.749999999999993
 20
-14.94999999999999
 30
0.0
 40
2.0
 50
180.0
 51
0.0
  0
LINE
  5
2C8
  8
DATA
  6
CONTINUOUS
 62
     7
 10
48.75
 20
-14.94999999999999
 30
0.0
 11
48.75
 21
-12.55000000000001
 31
0.0
  0
LINE
  5
2C9
  8
DATA
  6
CONTINUOUS
 62
     7
 10
44.749999999999993
 20
-14.94999999999999
 30
0.0
 11
44.749999999999993
 21
-12.55000000000001
 31
0.0
  0
LINE
  5
2CA
  8
DATA
  6
CONTINUOUS
 62
     7
 10
81.25
 20
-56.25
 30
0.0
 11
81.25
 21
28.75
 31
0.0
  0
LINE
  5
2CB
  8
DATA
  6
CONTINUOUS
 62
     7
 10
111.25
 20
-56.25
 30
0.0
 11
111.25
 21
28.75
 31
0.0
  0
LINE
  5
2CC
  8
DATA
  6
CONTINUOUS
 62
     7
 10
81.25
 20
-56.25
 30
0.0
 11
111.25
 21
-56.25
 31
0.0
  0
LINE
  5
2CD
  8
DATA
  6
CONTINUOUS
 62
     7
 10
81.25
 20
28.75
 30
0.0
 11
111.25
 21
28.75
 31
0.0
  0
LINE
  5
2CE
  8
DATA
  6
CONTINUOUS
 62
     7
 10
-83.250000000000014
 20
-134.5
 30
0.0
 11
-83.250000000000014
 21
-158.5
 31
0.0
  0
LINE
  5
2CF
  8
DATA
  6
CONTINUOUS
 62
     7
 10
41.749999999999993
 20
-134.5
 30
0.0
 11
41.749999999999993
 21
-158.5
 31
0.0
  0
LINE
  5
2D0
  8
DATA
  6
CONTINUOUS
 62
     7
 10
52.249999999999993
 20
-160.5
 30
0.0
 11
43.749999999999993
 21
-160.5
 31
0.0
  0
LINE
  5
2D1
  8
DATA
  6
CONTINUOUS
 62
     7
 10
-85.250000000000014
 20
-160.5
 30
0.0
 11
-93.75
 21
-160.5
 31
0.0
  0
LINE
  5
2D2
  8
DATA
  6
CONTINUOUS
 62
     7
 10
-81.250000000000014
 20
-136.5
 30
0.0
 11
-81.250000000000014
 21
-160.5
 31
0.0
  0
LINE
  5
2D3
  8
DATA
  6
CONTINUOUS
 62
     7
 10
39.75
 20
-136.5
 30
0.0
 11
39.75
 21
-160.5
 31
0.0
  0
LINE
  5
2D4
  8
DATA
  6
CONTINUOUS
 62
     7
 10
-79.250000000000014
 20
-134.5
 30
0.0
 11
37.749999999999993
 21
-134.5
 31
0.0
  0
ARC
  5
2D5
  8
DATA
  6
CONTINUOUS
 62
     7
 10
-81.250000000000014
 20
-134.5
 30
0.0
 40
2.0
 50
90.0
 51
180.0
  0
ARC
  5
2D6
  8
DATA
  6
CONTINUOUS
 62
     7
 10
-79.250000000000014
 20
-136.5
 30
0.0
 40
2.0
 50
90.0
 51
180.0
  0
ARC
  5
2D7
  8
DATA
  6
CONTINUOUS
 62
     7
 10
-85.250000000000014
 20
-158.5
 30
0.0
 40
2.0
 50
270.0
 51
0.0
  0
ARC
  5
2D8
  8
DATA
  6
CONTINUOUS
 62
     7
 10
39.75
 20
-134.5
 30
0.0
 40
2.0
 50
0.0
 51
90.0
  0
ARC
  5
2D9
  8
DATA
  6
CONTINUOUS
 62
     7
 10
37.749999999999993
 20
-136.5
 30
0.0
 40
2.0
 50
0.0
 51
90.0
  0
ARC
  5
2DA
  8
DATA
  6
CONTINUOUS
 62
     7
 10
43.749999999999993
 20
-158.5
 30
0.0
 40
2.0
 50
180.0
 51
270.0
  0
ARC
  5
2DB
  8
DATA
  6
CONTINUOUS
 62
     7
 10
41.749999999999993
 20
-160.5
 30
0.0
 40
2.0
 50
180.0
 51
270.0
  0
LINE
  5
2DC
  8
DATA
  6
CONTINUOUS
 62
     7
 10
-93.75
 20
-162.5
 30
0.0
 11
-83.250000000000014
 21
-162.5
 31
0.0
  0
ARC
  5
2DD
  8
DATA
  6
CONTINUOUS
 62
     7
 10
-83.250000000000014
 20
-160.5
 30
0.0
 40
2.0
 50
270.0
 51
0.0
  0
LINE
  5
2DE
  8
DATA
  6
CONTINUOUS
 62
     7
 10
-81.250000000000014
 20
-160.5
 30
0.0
 11
-81.250000000000014
 21
-162.5
 31
0.0
  0
LINE
  5
2DF
  8
DATA
  6
CONTINUOUS
 62
     7
 10
39.75
 20
-160.5
 30
0.0
 11
39.75
 21
-162.5
 31
0.0
  0
LINE
  5
2E0
  8
DATA
  6
CONTINUOUS
 62
     7
 10
-81.250000000000014
 20
-162.5
 30
0.0
 11
39.75
 21
-162.5
 31
0.0
  0
CIRCLE
  5
2E1
  8
DATA
  6
CONTINUOUS
 62
     7
 10
-22.147019859692762
 20
-147.98893456444179
 30
0.0
 40
1.175000000000096
  0
POLYLINE
  5
2E2
  8
DATA
  6
CONTINUOUS
 62
     7
 66
     1
 10
0.0
 20
0.0
 30
0.0
 70
     1
  0
VERTEX
  5
699
  8
DATA
  6
CONTINUOUS
 62
     7
 10
-22.147019859692762
 20
-145.2889345644418
 30
0.0
  0
VERTEX
  5
69A
  8
DATA
  6
CONTINUOUS
 62
     7
 10
-24.485288449910609
 20
-146.6389345644418
 30
0.0
  0
VERTEX
  5
69B
  8
DATA
  6
CONTINUOUS
 62
     7
 10
-24.485288449910609
 20
-149.33893456444179
 30
0.0
  0
VERTEX
  5
69C
  8
DATA
  6
CONTINUOUS
 62
     7
 10
-22.147019859692762
 20
-150.68893456444181
 30
0.0
  0
VERTEX
  5
69D
  8
DATA
  6
CONTINUOUS
 62
     7
 10
-19.80875126947458
 20
-149.33893456444179
 30
0.0
  0
VERTEX
  5
69E
  8
DATA
  6
CONTINUOUS
 62
     7
 10
-19.80875126947458
 20
-146.6389345644418
 30
0.0
  0
SEQEND
  5
69F
  8
DATA
  6
CONTINUOUS
 62
     7
  0
CIRCLE
  5
2EB
  8
DATA
  6
CONTINUOUS
 62
     7
 10
10.352980140306981
 20
-147.98893456444179
 30
0.0
 40
1.175000000000068
  0
POLYLINE
  5
2EC
  8
DATA
  6
CONTINUOUS
 62
     7
 66
     1
 10
0.0
 20
0.0
 30
0.0
 70
     1
  0
VERTEX
  5
6A0
  8
DATA
  6
CONTINUOUS
 62
     7
 10
10.352980140306981
 20
-145.2889345644418
 30
0.0
  0
VERTEX
  5
6A1
  8
DATA
  6
CONTINUOUS
 62
     7
 10
8.0147115500890571
 20
-146.6389345644418
 30
0.0
  0
VERTEX
  5
6A2
  8
DATA
  6
CONTINUOUS
 62
     7
 10
8.0147115500890571
 20
-149.33893456444179
 30
0.0
  0
VERTEX
  5
6A3
  8
DATA
  6
CONTINUOUS
 62
     7
 10
10.352980140306981
 20
-150.68893456444181
 30
0.0
  0
VERTEX
  5
6A4
  8
DATA
  6
CONTINUOUS
 62
     7
 10
12.691248730525009
 20
-149.33893456444179
 30
0.0
  0
VERTEX
  5
6A5
  8
DATA
  6
CONTINUOUS
 62
     7
 10
12.691248730525009
 20
-146.6389345644418
 30
0.0
  0
SEQEND
  5
6A6
  8
DATA
  6
CONTINUOUS
 62
     7
  0
LINE
  5
2F5
  8
DATA
  6
CONTINUOUS
 62
     7
 10
-16.846924746884071
 20
-144.06393456444181
 30
0.0
 11
5.052885027498788
 21
-144.06393456444181
 31
0.0
  0
LINE
  5
2F6
  8
DATA
  6
CONTINUOUS
 62
     7
 10
4.4939678300465138
 20
-151.9139345644418
 30
0.0
 11
-16.288007549431772
 21
-151.9139345644418
 31
0.0
  0
POLYLINE
  5
2F7
  8
DATA
  6
CONTINUOUS
 62
     7
 66
     1
 10
0.0
 20
0.0
 30
0.0
 70
     1
  0
VERTEX
  5
6A7
  8
DATA
  6
CONTINUOUS
 62
     7
 10
-16.89708603087157
 20
-147.22393456444181
 30
0.0
  0
VERTEX
  5
6A8
  8
DATA
  6
CONTINUOUS
 62
     7
 10
-15.36708603087154
 20
-147.22393456444181
 30
0.0
  0
VERTEX
  5
6A9
  8
DATA
  6
CONTINUOUS
 62
     7
 10
-15.36708603087154
 20
-148.75393456444181
 30
0.0
  0
VERTEX
  5
6AA
  8
DATA
  6
CONTINUOUS
 62
     7
 10
-16.89708603087157
 20
-148.75393456444181
 30
0.0
  0
SEQEND
  5
6AB
  8
DATA
  6
CONTINUOUS
 62
     7
  0
POLYLINE
  5
2FE
  8
DATA
  6
CONTINUOUS
 62
     7
 66
     1
 10
0.0
 20
0.0
 30
0.0
 70
     1
  0
VERTEX
  5
6AC
  8
DATA
  6
CONTINUOUS
 62
     7
 10
-14.89708603087154
 20
-147.22393456444181
 30
0.0
  0
VERTEX
  5
6AD
  8
DATA
  6
CONTINUOUS
 62
     7
 10
-13.367086030871601
 20
-147.22393456444181
 30
0.0
  0
VERTEX
  5
6AE
  8
DATA
  6
CONTINUOUS
 62
     7
 10
-13.367086030871601
 20
-148.75393456444181
 30
0.0
  0
VERTEX
  5
6AF
  8
DATA
  6
CONTINUOUS
 62
     7
 10
-14.89708603087154
 20
-148.75393456444181
 30
0.0
  0
SEQEND
  5
6B0
  8
DATA
  6
CONTINUOUS
 62
     7
  0
POLYLINE
  5
305
  8
DATA
  6
CONTINUOUS
 62
     7
 66
     1
 10
0.0
 20
0.0
 30
0.0
 70
     1
  0
VERTEX
  5
6B1
  8
DATA
  6
CONTINUOUS
 62
     7
 10
-12.897086030871749
 20
-147.22393456444181
 30
0.0
  0
VERTEX
  5
6B2
  8
DATA
  6
CONTINUOUS
 62
     7
 10
-11.367086030872169
 20
-147.22393456444181
 30
0.0
  0
VERTEX
  5
6B3
  8
DATA
  6
CONTINUOUS
 62
     7
 10
-11.367086030872169
 20
-148.75393456444181
 30
0.0
  0
VERTEX
  5
6B4
  8
DATA
  6
CONTINUOUS
 62
     7
 10
-12.897086030871749
 20
-148.75393456444181
 30
0.0
  0
SEQEND
  5
6B5
  8
DATA
  6
CONTINUOUS
 62
     7
  0
POLYLINE
  5
30C
  8
DATA
  6
CONTINUOUS
 62
     7
 66
     1
 10
0.0
 20
0.0
 30
0.0
 70
     1
  0
VERTEX
  5
6B6
  8
DATA
  6
CONTINUOUS
 62
     7
 10
-10.897086030872281
 20
-147.22393456444181
 30
0.0
  0
VERTEX
  5
6B7
  8
DATA
  6
CONTINUOUS
 62
     7
 10
-9.3670860308723007
 20
-147.22393456444181
 30
0.0
  0
VERTEX
  5
6B8
  8
DATA
  6
CONTINUOUS
 62
     7
 10
-9.3670860308723007
 20
-148.75393456444181
 30
0.0
  0
VERTEX
  5
6B9
  8
DATA
  6
CONTINUOUS
 62
     7
 10
-10.897086030872281
 20
-148.75393456444181
 30
0.0
  0
SEQEND
  5
6BA
  8
DATA
  6
CONTINUOUS
 62
     7
  0
POLYLINE
  5
313
  8
DATA
  6
CONTINUOUS
 62
     7
 66
     1
 10
0.0
 20
0.0
 30
0.0
 70
     1
  0
VERTEX
  5
6BB
  8
DATA
  6
CONTINUOUS
 62
     7
 10
-8.8970860308723019
 20
-147.22393456444181
 30
0.0
  0
VERTEX
  5
6BC
  8
DATA
  6
CONTINUOUS
 62
     7
 10
-7.3670860308722999
 20
-147.22393456444181
 30
0.0
  0
VERTEX
  5
6BD
  8
DATA
  6
CONTINUOUS
 62
     7
 10
-7.3670860308722999
 20
-148.75393456444181
 30
0.0
  0
VERTEX
  5
6BE
  8
DATA
  6
CONTINUOUS
 62
     7
 10
-8.8970860308723019
 20
-148.75393456444181
 30
0.0
  0
SEQEND
  5
6BF
  8
DATA
  6
CONTINUOUS
 62
     7
  0
POLYLINE
  5
31A
  8
DATA
  6
CONTINUOUS
 62
     7
 66
     1
 10
0.0
 20
0.0
 30
0.0
 70
     1
  0
VERTEX
  5
6C0
  8
DATA
  6
CONTINUOUS
 62
     7
 10
-6.897086030872301
 20
-147.22393456444181
 30
0.0
  0
VERTEX
  5
6C1
  8
DATA
  6
CONTINUOUS
 62
     7
 10
-5.3670860308722999
 20
-147.22393456444181
 30
0.0
  0
VERTEX
  5
6C2
  8
DATA
  6
CONTINUOUS
 62
     7
 10
-5.3670860308722999
 20
-148.75393456444181
 30
0.0
  0
VERTEX
  5
6C3
  8
DATA
  6
CONTINUOUS
 62
     7
 10
-6.897086030872301
 20
-148.75393456444181
 30
0.0
  0
SEQEND
  5
6C4
  8
DATA
  6
CONTINUOUS
 62
     7
  0
POLYLINE
  5
321
  8
DATA
  6
CONTINUOUS
 62
     7
 66
     1
 10
0.0
 20
0.0
 30
0.0
 70
     1
  0
VERTEX
  5
6C5
  8
DATA
  6
CONTINUOUS
 62
     7
 10
-4.897086030872301
 20
-147.22393456444181
 30
0.0
  0
VERTEX
  5
6C6
  8
DATA
  6
CONTINUOUS
 62
     7
 10
-3.3670860308722999
 20
-147.22393456444181
 30
0.0
  0
VERTEX
  5
6C7
  8
DATA
  6
CONTINUOUS
 62
     7
 10
-3.3670860308722999
 20
-148.75393456444181
 30
0.0
  0
VERTEX
  5
6C8
  8
DATA
  6
CONTINUOUS
 62
     7
 10
-4.897086030872301
 20
-148.75393456444181
 30
0.0
  0
SEQEND
  5
6C9
  8
DATA
  6
CONTINUOUS
 62
     7
  0
POLYLINE
  5
328
  8
DATA
  6
CONTINUOUS
 62
     7
 66
     1
 10
0.0
 20
0.0
 30
0.0
 70
     1
  0
VERTEX
  5
6CA
  8
DATA
  6
CONTINUOUS
 62
     7
 10
-2.897086030872301
 20
-147.22393456444181
 30
0.0
  0
VERTEX
  5
6CB
  8
DATA
  6
CONTINUOUS
 62
     7
 10
-1.3670860308723001
 20
-147.22393456444181
 30
0.0
  0
VERTEX
  5
6CC
  8
DATA
  6
CONTINUOUS
 62
     7
 10
-1.3670860308723001
 20
-148.75393456444181
 30
0.0
  0
VERTEX
  5
6CD
  8
DATA
  6
CONTINUOUS
 62
     7
 10
-2.897086030872301
 20
-148.75393456444181
 30
0.0
  0
SEQEND
  5
6CE
  8
DATA
  6
CONTINUOUS
 62
     7
  0
POLYLINE
  5
32F
  8
DATA
  6
CONTINUOUS
 62
     7
 66
     1
 10
0.0
 20
0.0
 30
0.0
 70
     1
  0
VERTEX
  5
6CF
  8
DATA
  6
CONTINUOUS
 62
     7
 10
-16.89708603087157
 20
-145.22393456444181
 30
0.0
  0
VERTEX
  5
6D0
  8
DATA
  6
CONTINUOUS
 62
     7
 10
-15.36708603087154
 20
-145.22393456444181
 30
0.0
  0
VERTEX
  5
6D1
  8
DATA
  6
CONTINUOUS
 62
     7
 10
-15.36708603087154
 20
-146.75393456444181
 30
0.0
  0
VERTEX
  5
6D2
  8
DATA
  6
CONTINUOUS
 62
     7
 10
-16.89708603087157
 20
-146.75393456444181
 30
0.0
  0
SEQEND
  5
6D3
  8
DATA
  6
CONTINUOUS
 62
     7
  0
POLYLINE
  5
336
  8
DATA
  6
CONTINUOUS
 62
     7
 66
     1
 10
0.0
 20
0.0
 30
0.0
 70
     1
  0
VERTEX
  5
6D4
  8
DATA
  6
CONTINUOUS
 62
     7
 10
-14.89708603087154
 20
-145.22393456444181
 30
0.0
  0
VERTEX
  5
6D5
  8
DATA
  6
CONTINUOUS
 62
     7
 10
-13.367086030871601
 20
-145.22393456444181
 30
0.0
  0
VERTEX
  5
6D6
  8
DATA
  6
CONTINUOUS
 62
     7
 10
-13.367086030871601
 20
-146.75393456444181
 30
0.0
  0
VERTEX
  5
6D7
  8
DATA
  6
CONTINUOUS
 62
     7
 10
-14.89708603087154
 20
-146.75393456444181
 30
0.0
  0
SEQEND
  5
6D8
  8
DATA
  6
CONTINUOUS
 62
     7
  0
POLYLINE
  5
33D
  8
DATA
  6
CONTINUOUS
 62
     7
 66
     1
 10
0.0
 20
0.0
 30
0.0
 70
     1
  0
VERTEX
  5
6D9
  8
DATA
  6
CONTINUOUS
 62
     7
 10
-12.897086030871749
 20
-145.22393456444181
 30
0.0
  0
VERTEX
  5
6DA
  8
DATA
  6
CONTINUOUS
 62
     7
 10
-11.367086030872169
 20
-145.22393456444181
 30
0.0
  0
VERTEX
  5
6DB
  8
DATA
  6
CONTINUOUS
 62
     7
 10
-11.367086030872169
 20
-146.75393456444181
 30
0.0
  0
VERTEX
  5
6DC
  8
DATA
  6
CONTINUOUS
 62
     7
 10
-12.897086030871749
 20
-146.75393456444181
 30
0.0
  0
SEQEND
  5
6DD
  8
DATA
  6
CONTINUOUS
 62
     7
  0
POLYLINE
  5
344
  8
DATA
  6
CONTINUOUS
 62
     7
 66
     1
 10
0.0
 20
0.0
 30
0.0
 70
     1
  0
VERTEX
  5
6DE
  8
DATA
  6
CONTINUOUS
 62
     7
 10
-10.897086030872281
 20
-145.22393456444181
 30
0.0
  0
VERTEX
  5
6DF
  8
DATA
  6
CONTINUOUS
 62
     7
 10
-9.3670860308723007
 20
-145.22393456444181
 30
0.0
  0
VERTEX
  5
6E0
  8
DATA
  6
CONTINUOUS
 62
     7
 10
-9.3670860308723007
 20
-146.75393456444181
 30
0.0
  0
VERTEX
  5
6E1
  8
DATA
  6
CONTINUOUS
 62
     7
 10
-10.897086030872281
 20
-146.75393456444181
 30
0.0
  0
SEQEND
  5
6E2
  8
DATA
  6
CONTINUOUS
 62
     7
  0
POLYLINE
  5
34B
  8
DATA
  6
CONTINUOUS
 62
     7
 66
     1
 10
0.0
 20
0.0
 30
0.0
 70
     1
  0
VERTEX
  5
6E3
  8
DATA
  6
CONTINUOUS
 62
     7
 10
-8.8970860308723019
 20
-145.22393456444181
 30
0.0
  0
VERTEX
  5
6E4
  8
DATA
  6
CONTINUOUS
 62
     7
 10
-7.3670860308722999
 20
-145.22393456444181
 30
0.0
  0
VERTEX
  5
6E5
  8
DATA
  6
CONTINUOUS
 62
     7
 10
-7.3670860308722999
 20
-146.75393456444181
 30
0.0
  0
VERTEX
  5
6E6
  8
DATA
  6
CONTINUOUS
 62
     7
 10
-8.8970860308723019
 20
-146.75393456444181
 30
0.0
  0
SEQEND
  5
6E7
  8
DATA
  6
CONTINUOUS
 62
     7
  0
POLYLINE
  5
352
  8
DATA
  6
CONTINUOUS
 62
     7
 66
     1
 10
0.0
 20
0.0
 30
0.0
 70
     1
  0
VERTEX
  5
6E8
  8
DATA
  6
CONTINUOUS
 62
     7
 10
-6.897086030872301
 20
-145.22393456444181
 30
0.0
  0
VERTEX
  5
6E9
  8
DATA
  6
CONTINUOUS
 62
     7
 10
-5.3670860308722999
 20
-145.22393456444181
 30
0.0
  0
VERTEX
  5
6EA
  8
DATA
  6
CONTINUOUS
 62
     7
 10
-5.3670860308722999
 20
-146.75393456444181
 30
0.0
  0
VERTEX
  5
6EB
  8
DATA
  6
CONTINUOUS
 62
     7
 10
-6.897086030872301
 20
-146.75393456444181
 30
0.0
  0
SEQEND
  5
6EC
  8
DATA
  6
CONTINUOUS
 62
     7
  0
POLYLINE
  5
359
  8
DATA
  6
CONTINUOUS
 62
     7
 66
     1
 10
0.0
 20
0.0
 30
0.0
 70
     1
  0
VERTEX
  5
6ED
  8
DATA
  6
CONTINUOUS
 62
     7
 10
-4.897086030872301
 20
-145.22393456444181
 30
0.0
  0
VERTEX
  5
6EE
  8
DATA
  6
CONTINUOUS
 62
     7
 10
-3.3670860308722999
 20
-145.22393456444181
 30
0.0
  0
VERTEX
  5
6EF
  8
DATA
  6
CONTINUOUS
 62
     7
 10
-3.3670860308722999
 20
-146.75393456444181
 30
0.0
  0
VERTEX
  5
6F0
  8
DATA
  6
CONTINUOUS
 62
     7
 10
-4.897086030872301
 20
-146.75393456444181
 30
0.0
  0
SEQEND
  5
6F1
  8
DATA
  6
CONTINUOUS
 62
     7
  0
POLYLINE
  5
360
  8
DATA
  6
CONTINUOUS
 62
     7
 66
     1
 10
0.0
 20
0.0
 30
0.0
 70
     1
  0
VERTEX
  5
6F2
  8
DATA
  6
CONTINUOUS
 62
     7
 10
-2.897086030872301
 20
-145.22393456444181
 30
0.0
  0
VERTEX
  5
6F3
  8
DATA
  6
CONTINUOUS
 62
     7
 10
-1.3670860308723001
 20
-145.22393456444181
 30
0.0
  0
VERTEX
  5
6F4
  8
DATA
  6
CONTINUOUS
 62
     7
 10
-1.3670860308723001
 20
-146.75393456444181
 30
0.0
  0
VERTEX
  5
6F5
  8
DATA
  6
CONTINUOUS
 62
     7
 10
-2.897086030872301
 20
-146.75393456444181
 30
0.0
  0
SEQEND
  5
6F6
  8
DATA
  6
CONTINUOUS
 62
     7
  0
POLYLINE
  5
367
  8
DATA
  6
CONTINUOUS
 62
     7
 66
     1
 10
0.0
 20
0.0
 30
0.0
 70
     1
  0
VERTEX
  5
6F7
  8
DATA
  6
CONTINUOUS
 62
     7
 10
-16.89708603087157
 20
-149.22393456444181
 30
0.0
  0
VERTEX
  5
6F8
  8
DATA
  6
CONTINUOUS
 62
     7
 10
-15.36708603087154
 20
-149.22393456444181
 30
0.0
  0
VERTEX
  5
6F9
  8
DATA
  6
CONTINUOUS
 62
     7
 10
-15.36708603087154
 20
-150.75393456444181
 30
0.0
  0
VERTEX
  5
6FA
  8
DATA
  6
CONTINUOUS
 62
     7
 10
-16.89708603087157
 20
-150.75393456444181
 30
0.0
  0
SEQEND
  5
6FB
  8
DATA
  6
CONTINUOUS
 62
     7
  0
POLYLINE
  5
36E
  8
DATA
  6
CONTINUOUS
 62
     7
 66
     1
 10
0.0
 20
0.0
 30
0.0
 70
     1
  0
VERTEX
  5
6FC
  8
DATA
  6
CONTINUOUS
 62
     7
 10
-14.89708603087154
 20
-149.22393456444181
 30
0.0
  0
VERTEX
  5
6FD
  8
DATA
  6
CONTINUOUS
 62
     7
 10
-13.367086030871601
 20
-149.22393456444181
 30
0.0
  0
VERTEX
  5
6FE
  8
DATA
  6
CONTINUOUS
 62
     7
 10
-13.367086030871601
 20
-150.75393456444181
 30
0.0
  0
VERTEX
  5
6FF
  8
DATA
  6
CONTINUOUS
 62
     7
 10
-14.89708603087154
 20
-150.75393456444181
 30
0.0
  0
SEQEND
  5
700
  8
DATA
  6
CONTINUOUS
 62
     7
  0
POLYLINE
  5
375
  8
DATA
  6
CONTINUOUS
 62
     7
 66
     1
 10
0.0
 20
0.0
 30
0.0
 70
     1
  0
VERTEX
  5
701
  8
DATA
  6
CONTINUOUS
 62
     7
 10
-12.897086030871749
 20
-149.22393456444181
 30
0.0
  0
VERTEX
  5
702
  8
DATA
  6
CONTINUOUS
 62
     7
 10
-11.367086030872169
 20
-149.22393456444181
 30
0.0
  0
VERTEX
  5
703
  8
DATA
  6
CONTINUOUS
 62
     7
 10
-11.367086030872169
 20
-150.75393456444181
 30
0.0
  0
VERTEX
  5
704
  8
DATA
  6
CONTINUOUS
 62
     7
 10
-12.897086030871749
 20
-150.75393456444181
 30
0.0
  0
SEQEND
  5
705
  8
DATA
  6
CONTINUOUS
 62
     7
  0
POLYLINE
  5
37C
  8
DATA
  6
CONTINUOUS
 62
     7
 66
     1
 10
0.0
 20
0.0
 30
0.0
 70
     1
  0
VERTEX
  5
706
  8
DATA
  6
CONTINUOUS
 62
     7
 10
-10.897086030872281
 20
-149.22393456444181
 30
0.0
  0
VERTEX
  5
707
  8
DATA
  6
CONTINUOUS
 62
     7
 10
-9.3670860308723007
 20
-149.22393456444181
 30
0.0
  0
VERTEX
  5
708
  8
DATA
  6
CONTINUOUS
 62
     7
 10
-9.3670860308723007
 20
-150.75393456444181
 30
0.0
  0
VERTEX
  5
709
  8
DATA
  6
CONTINUOUS
 62
     7
 10
-10.897086030872281
 20
-150.75393456444181
 30
0.0
  0
SEQEND
  5
70A
  8
DATA
  6
CONTINUOUS
 62
     7
  0
POLYLINE
  5
383
  8
DATA
  6
CONTINUOUS
 62
     7
 66
     1
 10
0.0
 20
0.0
 30
0.0
 70
     1
  0
VERTEX
  5
70B
  8
DATA
  6
CONTINUOUS
 62
     7
 10
-8.8970860308723019
 20
-149.22393456444181
 30
0.0
  0
VERTEX
  5
70C
  8
DATA
  6
CONTINUOUS
 62
     7
 10
-7.3670860308722999
 20
-149.22393456444181
 30
0.0
  0
VERTEX
  5
70D
  8
DATA
  6
CONTINUOUS
 62
     7
 10
-7.3670860308722999
 20
-150.75393456444181
 30
0.0
  0
VERTEX
  5
70E
  8
DATA
  6
CONTINUOUS
 62
     7
 10
-8.8970860308723019
 20
-150.75393456444181
 30
0.0
  0
SEQEND
  5
70F
  8
DATA
  6
CONTINUOUS
 62
     7
  0
POLYLINE
  5
38A
  8
DATA
  6
CONTINUOUS
 62
     7
 66
     1
 10
0.0
 20
0.0
 30
0.0
 70
     1
  0
VERTEX
  5
710
  8
DATA
  6
CONTINUOUS
 62
     7
 10
-6.897086030872301
 20
-149.22393456444181
 30
0.0
  0
VERTEX
  5
711
  8
DATA
  6
CONTINUOUS
 62
     7
 10
-5.3670860308722999
 20
-149.22393456444181
 30
0.0
  0
VERTEX
  5
712
  8
DATA
  6
CONTINUOUS
 62
     7
 10
-5.3670860308722999
 20
-150.75393456444181
 30
0.0
  0
VERTEX
  5
713
  8
DATA
  6
CONTINUOUS
 62
     7
 10
-6.897086030872301
 20
-150.75393456444181
 30
0.0
  0
SEQEND
  5
714
  8
DATA
  6
CONTINUOUS
 62
     7
  0
POLYLINE
  5
391
  8
DATA
  6
CONTINUOUS
 62
     7
 66
     1
 10
0.0
 20
0.0
 30
0.0
 70
     1
  0
VERTEX
  5
715
  8
DATA
  6
CONTINUOUS
 62
     7
 10
-4.897086030872301
 20
-149.22393456444181
 30
0.0
  0
VERTEX
  5
716
  8
DATA
  6
CONTINUOUS
 62
     7
 10
-3.3670860308722999
 20
-149.22393456444181
 30
0.0
  0
VERTEX
  5
717
  8
DATA
  6
CONTINUOUS
 62
     7
 10
-3.3670860308722999
 20
-150.75393456444181
 30
0.0
  0
VERTEX
  5
718
  8
DATA
  6
CONTINUOUS
 62
     7
 10
-4.897086030872301
 20
-150.75393456444181
 30
0.0
  0
SEQEND
  5
719
  8
DATA
  6
CONTINUOUS
 62
     7
  0
POLYLINE
  5
398
  8
DATA
  6
CONTINUOUS
 62
     7
 66
     1
 10
0.0
 20
0.0
 30
0.0
 70
     1
  0
VERTEX
  5
71A
  8
DATA
  6
CONTINUOUS
 62
     7
 10
-2.897086030872301
 20
-149.22393456444181
 30
0.0
  0
VERTEX
  5
71B
  8
DATA
  6
CONTINUOUS
 62
     7
 10
-1.3670860308723001
 20
-149.22393456444181
 30
0.0
  0
VERTEX
  5
71C
  8
DATA
  6
CONTINUOUS
 62
     7
 10
-1.3670860308723001
 20
-150.75393456444181
 30
0.0
  0
VERTEX
  5
71D
  8
DATA
  6
CONTINUOUS
 62
     7
 10
-2.897086030872301
 20
-150.75393456444181
 30
0.0
  0
SEQEND
  5
71E
  8
DATA
  6
CONTINUOUS
 62
     7
  0
POLYLINE
  5
39F
  8
DATA
  6
CONTINUOUS
 62
     7
 66
     1
 10
0.0
 20
0.0
 30
0.0
  0
VERTEX
  5
71F
  8
DATA
  6
CONTINUOUS
 62
     7
 10
2.6529801403071209
 20
-147.58893456444179
 30
0.0
  0
VERTEX
  5
720
  8
DATA
  6
CONTINUOUS
 62
     7
 10
4.7529801403071161
 20
-147.58893456444179
 30
0.0
  0
VERTEX
  5
721
  8
DATA
  6
CONTINUOUS
 62
     7
 10
4.7529801403071161
 20
-148.3889345644418
 30
0.0
  0
VERTEX
  5
722
  8
DATA
  6
CONTINUOUS
 62
     7
 10
2.6529801403071209
 20
-148.3889345644418
 30
0.0
  0
SEQEND
  5
723
  8
DATA
  6
CONTINUOUS
 62
     7
  0
POLYLINE
  5
3A6
  8
DATA
  6
CONTINUOUS
 62
     7
 66
     1
 10
0.0
 20
0.0
 30
0.0
  0
VERTEX
  5
724
  8
DATA
  6
CONTINUOUS
 62
     7
 10
1.85298014030711
 20
-148.3889345644418
 30
0.0
  0
VERTEX
  5
725
  8
DATA
  6
CONTINUOUS
 62
     7
 10
-0.2470198596928839
 20
-148.3889345644418
 30
0.0
  0
VERTEX
  5
726
  8
DATA
  6
CONTINUOUS
 62
     7
 10
-0.2470198596928839
 20
-147.58893456444179
 30
0.0
  0
VERTEX
  5
727
  8
DATA
  6
CONTINUOUS
 62
     7
 10
1.85298014030711
 20
-147.58893456444179
 30
0.0
  0
SEQEND
  5
728
  8
DATA
  6
CONTINUOUS
 62
     7
  0
POLYLINE
  5
3AD
  8
DATA
  6
CONTINUOUS
 62
     7
 66
     1
 10
0.0
 20
0.0
 30
0.0
  0
VERTEX
  5
729
  8
DATA
  6
CONTINUOUS
 62
     7
 10
2.6529801403071209
 20
-148.3889345644418
 30
0.0
  0
VERTEX
  5
72A
  8
DATA
  6
CONTINUOUS
 62
     7
 10
2.6529801403071209
 20
-150.48893456444179
 30
0.0
  0
VERTEX
  5
72B
  8
DATA
  6
CONTINUOUS
 62
     7
 10
1.85298014030711
 20
-150.48893456444179
 30
0.0
  0
VERTEX
  5
72C
  8
DATA
  6
CONTINUOUS
 62
     7
 10
1.85298014030711
 20
-148.3889345644418
 30
0.0
  0
SEQEND
  5
72D
  8
DATA
  6
CONTINUOUS
 62
     7
  0
POLYLINE
  5
3B4
  8
DATA
  6
CONTINUOUS
 62
     7
 66
     1
 10
0.0
 20
0.0
 30
0.0
  0
VERTEX
  5
72E
  8
DATA
  6
CONTINUOUS
 62
     7
 10
1.85298014030711
 20
-147.58893456444179
 30
0.0
  0
VERTEX
  5
72F
  8
DATA
  6
CONTINUOUS
 62
     7
 10
1.85298014030711
 20
-145.48893456444179
 30
0.0
  0
VERTEX
  5
730
  8
DATA
  6
CONTINUOUS
 62
     7
 10
2.6529801403071209
 20
-145.48893456444179
 30
0.0
  0
VERTEX
  5
731
  8
DATA
  6
CONTINUOUS
 62
     7
 10
2.6529801403071209
 20
-147.58893456444179
 30
0.0
  0
SEQEND
  5
732
  8
DATA
  6
CONTINUOUS
 62
     7
  0
POLYLINE
  5
3BB
  8
DATA
  6
CONTINUOUS
 62
     7
 66
     1
 10
0.0
 20
0.0
 30
0.0
 70
     1
  0
VERTEX
  5
733
  8
DATA
  6
CONTINUOUS
 62
     7
 10
0.3926957098353938
 20
-146.2295067537919
 30
0.0
  0
VERTEX
  5
734
  8
DATA
  6
CONTINUOUS
 62
     7
 10
1.3926957098353929
 20
-146.2295067537919
 30
0.0
  0
VERTEX
  5
735
  8
DATA
  6
CONTINUOUS
 62
     7
 10
1.3926957098353929
 20
-147.2295067537919
 30
0.0
  0
VERTEX
  5
736
  8
DATA
  6
CONTINUOUS
 62
     7
 10
0.3926957098353938
 20
-147.2295067537919
 30
0.0
  0
SEQEND
  5
737
  8
DATA
  6
CONTINUOUS
 62
     7
  0
POLYLINE
  5
3C2
  8
DATA
  6
CONTINUOUS
 62
     7
 66
     1
 10
0.0
 20
0.0
 30
0.0
 70
     1
  0
VERTEX
  5
738
  8
DATA
  6
CONTINUOUS
 62
     7
 10
3.113264570778838
 20
-146.2295067537919
 30
0.0
  0
VERTEX
  5
739
  8
DATA
  6
CONTINUOUS
 62
     7
 10
4.1132645707788376
 20
-146.2295067537919
 30
0.0
  0
VERTEX
  5
73A
  8
DATA
  6
CONTINUOUS
 62
     7
 10
4.1132645707788376
 20
-147.2295067537919
 30
0.0
  0
VERTEX
  5
73B
  8
DATA
  6
CONTINUOUS
 62
     7
 10
3.113264570778838
 20
-147.2295067537919
 30
0.0
  0
SEQEND
  5
73C
  8
DATA
  6
CONTINUOUS
 62
     7
  0
POLYLINE
  5
3C9
  8
DATA
  6
CONTINUOUS
 62
     7
 66
     1
 10
0.0
 20
0.0
 30
0.0
 70
     1
  0
VERTEX
  5
73D
  8
DATA
  6
CONTINUOUS
 62
     7
 10
0.3926957098353938
 20
-148.7483623750918
 30
0.0
  0
VERTEX
  5
73E
  8
DATA
  6
CONTINUOUS
 62
     7
 10
1.3926957098353929
 20
-148.7483623750918
 30
0.0
  0
VERTEX
  5
73F
  8
DATA
  6
CONTINUOUS
 62
     7
 10
1.3926957098353929
 20
-149.7483623750918
 30
0.0
  0
VERTEX
  5
740
  8
DATA
  6
CONTINUOUS
 62
     7
 10
0.3926957098353938
 20
-149.7483623750918
 30
0.0
  0
SEQEND
  5
741
  8
DATA
  6
CONTINUOUS
 62
     7
  0
POLYLINE
  5
3D0
  8
DATA
  6
CONTINUOUS
 62
     7
 66
     1
 10
0.0
 20
0.0
 30
0.0
 70
     1
  0
VERTEX
  5
742
  8
DATA
  6
CONTINUOUS
 62
     7
 10
3.113264570778838
 20
-148.7483623750918
 30
0.0
  0
VERTEX
  5
743
  8
DATA
  6
CONTINUOUS
 62
     7
 10
4.1132645707788376
 20
-148.7483623750918
 30
0.0
  0
VERTEX
  5
744
  8
DATA
  6
CONTINUOUS
 62
     7
 10
4.1132645707788376
 20
-149.7483623750918
 30
0.0
  0
VERTEX
  5
745
  8
DATA
  6
CONTINUOUS
 62
     7
 10
3.113264570778838
 20
-149.7483623750918
 30
0.0
  0
SEQEND
  5
746
  8
DATA
  6
CONTINUOUS
 62
     7
  0
LINE
  5
3D7
  8
DATA
  6
CONTINUOUS
 62
     7
 10
-17.84239167763954
 20
-145.15904286992799
 30
0.0
 11
-17.283474480187198
 21
-151.00904286992809
 31
0.0
  0
LINE
  5
3D8
  8
DATA
  6
CONTINUOUS
 62
     7
 10
6.0483519582541874
 20
-145.15904286992799
 30
0.0
 11
5.4894347608019132
 21
-151.00904286992801
 31
0.0
  0
ARC
  5
3D9
  8
DATA
  6
CONTINUOUS
 62
     7
 10
-16.846924746884071
 20
-145.06393456444181
 30
0.0
 40
0.9999999999999431
 50
90.0
 51
185.45755348510701
  0
ARC
  5
3DA
  8
DATA
  6
CONTINUOUS
 62
     7
 10
5.0528850274988164
 20
-145.06393456444181
 30
0.0
 40
0.9999999999999844
 50
354.54244651489557
 51
90.000000000001606
  0
ARC
  5
3DB
  8
DATA
  6
CONTINUOUS
 62
     7
 10
-16.28800754943174
 20
-150.9139345644418
 30
0.0
 40
1.0000000000000879
 50
185.45755348510701
 51
269.99999999999841
  0
ARC
  5
3DC
  8
DATA
  6
CONTINUOUS
 62
     7
 10
4.4939678300465138
 20
-150.9139345644418
 30
0.0
 40
1.0
 50
270.0
 51
354.5424465148958
  0
TEXT
  5
3DD
  8
DATA
 62
     7
 10
-12.76102174850632
 20
-159.16120275366481
 30
0.0
 40
3.121945529513888
  1
DVI Out
 41
0.7
 11
-12.76102174850632
 21
-156.0392572241509
 31
0.0
 73
     3
  0
CIRCLE
  5
3DE
  8
DATA
  6
CONTINUOUS
 62
     7
 10
29.946410484231269
 20
-145.5
 30
0.0
 40
3.9000000000000048
  0
CIRCLE
  5
3DF
  8
DATA
  6
CONTINUOUS
 62
     7
 10
29.946410484231269
 20
-145.5
 30
0.0
 40
1.0
  0
POLYLINE
  5
3E0
  8
DATA
  6
CONTINUOUS
 62
     7
 66
     1
 10
0.0
 20
0.0
 30
0.0
 70
     1
  0
VERTEX
  5
747
  8
DATA
  6
CONTINUOUS
 62
     7
 10
27.247297975769769
 20
-140.82499999999999
 30
0.0
  0
VERTEX
  5
748
  8
DATA
  6
CONTINUOUS
 62
     7
 10
24.548185467308251
 20
-145.5
 30
0.0
  0
VERTEX
  5
749
  8
DATA
  6
CONTINUOUS
 62
     7
 10
27.247297975769769
 20
-150.17500000000001
 30
0.0
  0
VERTEX
  5
74A
  8
DATA
  6
CONTINUOUS
 62
     7
 10
32.645522992692761
 20
-150.17500000000001
 30
0.0
  0
VERTEX
  5
74B
  8
DATA
  6
CONTINUOUS
 62
     7
 10
35.344635501154293
 20
-145.5
 30
0.0
  0
VERTEX
  5
74C
  8
DATA
  6
CONTINUOUS
 62
     7
 10
32.645522992692761
 20
-140.82499999999999
 30
0.0
  0
SEQEND
  5
74D
  8
DATA
  6
CONTINUOUS
 62
     7
  0
TEXT
  5
3E9
  8
DATA
 62
     7
 10
26.785606663959179
 20
-138.60979375297981
 30
0.0
 40
1.954609375
  1
5V DC 
 41
0.7
 11
26.785606663959179
 21
-136.65518437797979
 31
0.0
 73
     3
  0
CIRCLE
  5
3EA
  8
DATA
  6
CONTINUOUS
 62
     7
 10
19.82101261855545
 20
-148.5
 30
0.0
 40
1.449999999999988
  0
TEXT
  5
3EB
  8
DATA
 62
     7
 10
16.798959549669611
 20
-160.0489130228442
 30
0.0
 40
1.954609375
  1
Power 
 41
0.7
 11
16.798959549669611
 21
-158.09430364784421
 31
0.0
 73
     3
  0
ARC
  5
3EC
  8
DATA
  6
CONTINUOUS
 62
     7
 10
-54.250000000000021
 20
-55.523904648911753
 30
0.0
 40
1.449999999999978
 50
210.04999042122461
 51
329.95000957877539
  0
LINE
  5
3ED
  8
DATA
  6
CONTINUOUS
 62
     7
 10
-68.15000000000002
 20
-57.75
 30
0.0
 11
-68.15000000000002
 21
-62.25
 31
0.0
  0
LINE
  5
3EE
  8
DATA
  6
CONTINUOUS
 62
     7
 10
-60.350000000000009
 20
-57.75
 30
0.0
 11
-60.350000000000009
 21
-62.25
 31
0.0
  0
LINE
  5
3EF
  8
DATA
  6
CONTINUOUS
 62
     7
 10
-68.15000000000002
 20
-62.25
 30
0.0
 11
-60.350000000000009
 21
-62.25
 31
0.0
  0
LINE
  5
3F0
  8
DATA
  6
CONTINUOUS
 62
     7
 10
-69.648225016923035
 20
-56.25
 30
0.0
 11
-69.648225016923035
 21
-57.75
 31
0.0
  0
LINE
  5
3F1
  8
DATA
  6
CONTINUOUS
 62
     7
 10
-58.851774983076993
 20
-56.25
 30
0.0
 11
-58.851774983076993
 21
-57.75
 31
0.0
  0
LINE
  5
3F2
  8
DATA
  6
CONTINUOUS
 62
     7
 10
-69.648225016923035
 20
-57.75
 30
0.0
 11
-58.851774983076993
 21
-57.75
 31
0.0
  0
LINE
  5
3F3
  8
DATA
  6
CONTINUOUS
 62
     7
 10
-34.974135784993692
 20
-61.25
 30
0.0
 11
-11.120630023884679
 21
-61.25
 31
0.0
  0
LINE
  5
3F4
  8
DATA
  6
CONTINUOUS
 62
     7
 10
-41.635651494656308
 20
-56.25
 30
0.0
 11
-41.635651494656308
 21
-60.75
 31
0.0
  0
LINE
  5
3F5
  8
DATA
  6
CONTINUOUS
 62
     7
 10
-36.959114314220201
 20
-56.25
 30
0.0
 11
-36.959114314220201
 21
-60.75
 31
0.0
  0
LINE
  5
3F6
  8
DATA
  6
CONTINUOUS
 62
     7
 10
-9.1356514946565568
 20
-56.25
 30
0.0
 11
-9.1356514946565568
 21
-60.75
 31
0.0
  0
LINE
  5
3F7
  8
DATA
  6
CONTINUOUS
 62
     7
 10
-4.4591143142205993
 20
-56.25
 30
0.0
 11
-4.4591143142205993
 21
-60.75
 31
0.0
  0
LINE
  5
3F8
  8
DATA
  6
CONTINUOUS
 62
     7
 10
-34.974135784993692
 20
-56.25
 30
0.0
 11
-34.974135784993692
 21
-61.25
 31
0.0
  0
LINE
  5
3F9
  8
DATA
  6
CONTINUOUS
 62
     7
 10
-11.120630023884679
 20
-56.25
 30
0.0
 11
-11.120630023884679
 21
-61.25
 31
0.0
  0
LINE
  5
3FA
  8
DATA
  6
CONTINUOUS
 62
     7
 10
-41.635651494656308
 20
-60.75
 30
0.0
 11
-36.959114314220201
 21
-60.75
 31
0.0
  0
LINE
  5
3FB
  8
DATA
  6
CONTINUOUS
 62
     7
 10
-9.1356514946565568
 20
-60.75
 30
0.0
 11
-4.4591143142205993
 21
-60.75
 31
0.0
  0
LINE
  5
3FC
  8
DATA
  6
CONTINUOUS
 62
     7
 10
-75.750000000000014
 20
-165.5
 30
0.0
 11
-76.399999999999963
 21
-162.5
 31
0.0
  0
LINE
  5
3FD
  8
DATA
  6
CONTINUOUS
 62
     7
 10
-69.750000000000014
 20
-165.5
 30
0.0
 11
-69.100000000000037
 21
-162.5
 31
0.0
  0
LINE
  5
3FE
  8
DATA
  6
CONTINUOUS
 62
     7
 10
-75.750000000000014
 20
-165.5
 30
0.0
 11
-69.750000000000014
 21
-165.5
 31
0.0
  0
LINE
  5
3FF
  8
DATA
  6
CONTINUOUS
 62
     7
 10
34.249999999999993
 20
-165.5
 30
0.0
 11
34.89999999999997
 21
-162.5
 31
0.0
  0
LINE
  5
400
  8
DATA
  6
CONTINUOUS
 62
     7
 10
28.249999999999989
 20
-165.5
 30
0.0
 11
27.600000000000009
 21
-162.5
 31
0.0
  0
LINE
  5
401
  8
DATA
  6
CONTINUOUS
 62
     7
 10
34.249999999999993
 20
-165.5
 30
0.0
 11
28.249999999999989
 21
-165.5
 31
0.0
  0
LINE
  5
402
  8
DATA
  6
CONTINUOUS
 62
     7
 10
-93.75
 20
67.500000000198895
 30
0.0
 11
-93.75
 21
65.500000000198895
 31
0.0
  0
LINE
  5
403
  8
DATA
  6
CONTINUOUS
 62
     7
 10
52.249999999999993
 20
67.500000000198895
 30
0.0
 11
41.749999999999993
 21
67.500000000198895
 31
0.0
  0
LINE
  5
404
  8
DATA
  6
CONTINUOUS
 62
     7
 10
52.249999999999993
 20
65.500000000198895
 30
0.0
 11
52.249999999999993
 21
67.500000000198895
 31
0.0
  0
LINE
  5
405
  8
DATA
  6
CONTINUOUS
 62
     7
 10
-81.250000000000014
 20
37.500000000198902
 30
0.0
 11
39.75
 21
37.500000000198902
 31
0.0
  0
LINE
  5
406
  8
DATA
  6
CONTINUOUS
 62
     7
 10
-83.250000000000014
 20
39.500000000198902
 30
0.0
 11
-83.250000000000014
 21
63.500000000198888
 31
0.0
  0
LINE
  5
407
  8
DATA
  6
CONTINUOUS
 62
     7
 10
41.749999999999993
 20
39.500000000198902
 30
0.0
 11
41.749999999999993
 21
63.500000000198888
 31
0.0
  0
LINE
  5
408
  8
DATA
  6
CONTINUOUS
 62
     7
 10
52.249999999999993
 20
65.500000000198895
 30
0.0
 11
43.749999999999993
 21
65.500000000198895
 31
0.0
  0
LINE
  5
409
  8
DATA
  6
CONTINUOUS
 62
     7
 10
-85.250000000000014
 20
65.500000000198895
 30
0.0
 11
-93.75
 21
65.500000000198895
 31
0.0
  0
LINE
  5
40A
  8
DATA
  6
CONTINUOUS
 62
     7
 10
-81.250000000000014
 20
41.500000000198888
 30
0.0
 11
-81.250000000000014
 21
65.500000000198895
 31
0.0
  0
LINE
  5
40B
  8
DATA
  6
CONTINUOUS
 62
     7
 10
39.75
 20
41.500000000198888
 30
0.0
 11
39.75
 21
65.500000000198895
 31
0.0
  0
LINE
  5
40C
  8
DATA
  6
CONTINUOUS
 62
     7
 10
-79.250000000000014
 20
39.500000000198902
 30
0.0
 11
37.749999999999993
 21
39.500000000198902
 31
0.0
  0
ARC
  5
40D
  8
DATA
  6
CONTINUOUS
 62
     7
 10
-81.250000000000014
 20
39.500000000198902
 30
0.0
 40
2.0
 50
180.0
 51
270.0
  0
ARC
  5
40E
  8
DATA
  6
CONTINUOUS
 62
     7
 10
-79.250000000000014
 20
41.500000000198888
 30
0.0
 40
2.0
 50
180.0
 51
270.0
  0
ARC
  5
40F
  8
DATA
  6
CONTINUOUS
 62
     7
 10
-85.250000000000014
 20
63.500000000198888
 30
0.0
 40
2.0
 50
0.0
 51
90.0
  0
ARC
  5
410
  8
DATA
  6
CONTINUOUS
 62
     7
 10
39.75
 20
39.500000000198902
 30
0.0
 40
2.0
 50
270.0
 51
0.0
  0
ARC
  5
411
  8
DATA
  6
CONTINUOUS
 62
     7
 10
37.749999999999993
 20
41.500000000198888
 30
0.0
 40
2.0
 50
270.0
 51
0.0
  0
ARC
  5
412
  8
DATA
  6
CONTINUOUS
 62
     7
 10
43.749999999999993
 20
63.500000000198888
 30
0.0
 40
2.0
 50
90.0
 51
180.0
  0
ARC
  5
413
  8
DATA
  6
CONTINUOUS
 62
     7
 10
41.749999999999993
 20
65.500000000198895
 30
0.0
 40
2.0
 50
90.0
 51
180.0
  0
LINE
  5
414
  8
DATA
  6
CONTINUOUS
 62
     7
 10
-93.75
 20
67.500000000198895
 30
0.0
 11
-83.250000000000014
 21
67.500000000198895
 31
0.0
  0
ARC
  5
415
  8
DATA
  6
CONTINUOUS
 62
     7
 10
-83.250000000000014
 20
65.500000000198895
 30
0.0
 40
2.0
 50
0.0
 51
90.0
  0
LINE
  5
416
  8
DATA
  6
CONTINUOUS
 62
     7
 10
-81.250000000000014
 20
65.500000000198895
 30
0.0
 11
-81.250000000000014
 21
67.500000000198895
 31
0.0
  0
LINE
  5
417
  8
DATA
  6
CONTINUOUS
 62
     7
 10
39.75
 20
65.500000000198895
 30
0.0
 11
39.75
 21
67.500000000198895
 31
0.0
  0
LINE
  5
418
  8
DATA
  6
CONTINUOUS
 62
     7
 10
-81.250000000000014
 20
67.500000000198895
 30
0.0
 11
39.75
 21
67.500000000198895
 31
0.0
  0
LINE
  5
419
  8
DATA
  6
CONTINUOUS
 62
     7
 10
-75.750000000000014
 20
70.500000000198909
 30
0.0
 11
-76.399999999999963
 21
67.500000000198895
 31
0.0
  0
LINE
  5
41A
  8
DATA
  6
CONTINUOUS
 62
     7
 10
-69.750000000000014
 20
70.500000000198909
 30
0.0
 11
-69.100000000000037
 21
67.500000000198895
 31
0.0
  0
LINE
  5
41B
  8
DATA
  6
CONTINUOUS
 62
     7
 10
-75.750000000000014
 20
70.500000000198909
 30
0.0
 11
-69.750000000000014
 21
70.500000000198909
 31
0.0
  0
LINE
  5
41C
  8
DATA
  6
CONTINUOUS
 62
     7
 10
34.249999999999993
 20
70.500000000198909
 30
0.0
 11
34.89999999999997
 21
67.500000000198895
 31
0.0
  0
LINE
  5
41D
  8
DATA
  6
CONTINUOUS
 62
     7
 10
28.249999999999989
 20
70.500000000198909
 30
0.0
 11
27.600000000000009
 21
67.500000000198895
 31
0.0
  0
LINE
  5
41E
  8
DATA
  6
CONTINUOUS
 62
     7
 10
34.249999999999993
 20
70.500000000198909
 30
0.0
 11
28.249999999999989
 21
70.500000000198909
 31
0.0
  0
LINE
  5
41F
  8
DATA
  6
CONTINUOUS
 62
     7
 10
-34.507991692333313
 20
60.497333028242217
 30
0.0
 11
-34.507991692333313
 21
47.197333028242198
 31
0.0
  0
LINE
  5
420
  8
DATA
  6
CONTINUOUS
 62
     7
 10
-50.207991692333358
 20
60.497333028242217
 30
0.0
 11
-50.207991692333358
 21
47.197333028242198
 31
0.0
  0
LINE
  5
421
  8
DATA
  6
CONTINUOUS
 62
     7
 10
-50.207991692333358
 20
47.197333028242198
 30
0.0
 11
-34.507991692333313
 21
47.197333028242198
 31
0.0
  0
LINE
  5
422
  8
DATA
  6
CONTINUOUS
 62
     7
 10
-50.207991692333358
 20
60.497333028242217
 30
0.0
 11
-34.507991692333313
 21
60.497333028242217
 31
0.0
  0
LINE
  5
423
  8
DATA
  6
CONTINUOUS
 62
     7
 10
-48.507991692333292
 20
57.49733302824221
 30
0.0
 11
-36.207991692333351
 21
57.49733302824221
 31
0.0
  0
LINE
  5
424
  8
DATA
  6
CONTINUOUS
 62
     7
 10
-48.507991692333292
 20
57.49733302824221
 30
0.0
 11
-48.507991692333292
 21
50.197333028242213
 31
0.0
  0
LINE
  5
425
  8
DATA
  6
CONTINUOUS
 62
     7
 10
-36.207991692333351
 20
57.49733302824221
 30
0.0
 11
-36.207991692333351
 21
50.197333028242213
 31
0.0
  0
LINE
  5
426
  8
DATA
  6
CONTINUOUS
 62
     7
 10
-44.582991692333358
 20
47.197333028242198
 30
0.0
 11
-44.582991692333358
 21
48.697333028242198
 31
0.0
  0
LINE
  5
427
  8
DATA
  6
CONTINUOUS
 62
     7
 10
-40.132991692333299
 20
48.697333028242198
 30
0.0
 11
-40.132991692333299
 21
47.197333028242198
 31
0.0
  0
LINE
  5
428
  8
DATA
  6
CONTINUOUS
 62
     7
 10
-45.707991692333351
 20
48.697333028242198
 30
0.0
 11
-44.582991692333358
 21
48.697333028242198
 31
0.0
  0
LINE
  5
429
  8
DATA
  6
CONTINUOUS
 62
     7
 10
-40.132991692333299
 20
48.697333028242198
 30
0.0
 11
-39.007991692333299
 21
48.697333028242198
 31
0.0
  0
LINE
  5
42A
  8
DATA
  6
CONTINUOUS
 62
     7
 10
-48.507991692333292
 20
50.197333028242213
 30
0.0
 11
-45.707991692333351
 21
50.197333028242213
 31
0.0
  0
LINE
  5
42B
  8
DATA
  6
CONTINUOUS
 62
     7
 10
-39.007991692333299
 20
50.197333028242213
 30
0.0
 11
-36.207991692333351
 21
50.197333028242213
 31
0.0
  0
LINE
  5
42C
  8
DATA
  6
CONTINUOUS
 62
     7
 10
-45.707991692333351
 20
48.697333028242198
 30
0.0
 11
-45.707991692333351
 21
50.197333028242213
 31
0.0
  0
LINE
  5
42D
  8
DATA
  6
CONTINUOUS
 62
     7
 10
-39.007991692333299
 20
50.197333028242213
 30
0.0
 11
-39.007991692333299
 21
48.697333028242198
 31
0.0
  0
TEXT
  5
42E
  8
DATA
 62
     7
 10
-39.744990363789967
 20
65.133740522790902
 30
0.0
 40
1.954609375
  1
LINK
 50
180.0
 41
0.7
 11
-39.744990363789967
 21
63.179131147790898
 31
0.0
 73
     3
  0
TEXT
  5
42F
  8
DATA
 62
     7
 10
-78.949366587557265
 20
-50.121166666666653
 30
0.0
 40
5.7009440104166647
  1
DVI Extra Long Range Extender R  
 41
0.7
 11
-78.949366587557265
 21
-44.42022265624999
 31
0.0
 73
     3
  0
LINE
  5
430
  8
DATA
  6
CONTINUOUS
 62
     7
 10
109.25
 20
-56.25
 30
0.0
 11
109.25
 21
28.75
 31
0.0
  0
CIRCLE
  5
431
  8
DATA
  6
CONTINUOUS
 62
     7
 10
104.25
 20
11.25
 30
0.0
 40
2.5
  0
LINE
  5
432
  8
DATA
  6
CONTINUOUS
 62
     7
 10
102.86808104434451
 20
11.25
 30
0.0
 11
105.63191895565549
 21
11.25
 31
0.0
  0
LINE
  5
433
  8
DATA
  6
CONTINUOUS
 62
     7
 10
104.25
 20
9.8680810443445051
 30
0.0
 11
104.25
 21
12.63191895565549
 31
0.0
  0
LINE
  5
434
  8
DATA
  6
CONTINUOUS
 62
     7
 10
114.2499999997594
 20
23.739679569957548
 30
0.0
 11
111.2499999997594
 21
24.38967956995754
 31
0.0
  0
LINE
  5
435
  8
DATA
  6
CONTINUOUS
 62
     7
 10
114.2499999997594
 20
17.739679569957559
 30
0.0
 11
111.2499999997594
 21
17.089679569957578
 31
0.0
  0
LINE
  5
436
  8
DATA
  6
CONTINUOUS
 62
     7
 10
114.2499999997594
 20
23.739679569957548
 30
0.0
 11
114.2499999997594
 21
17.739679569957559
 31
0.0
  0
LINE
  5
437
  8
DATA
  6
CONTINUOUS
 62
     7
 10
114.2499999997594
 20
-51.239679569957552
 30
0.0
 11
111.2499999997594
 21
-51.889679569957543
 31
0.0
  0
LINE
  5
438
  8
DATA
  6
CONTINUOUS
 62
     7
 10
114.2499999997594
 20
-45.239679569957559
 30
0.0
 11
111.2499999997594
 21
-44.589679569957589
 31
0.0
  0
LINE
  5
439
  8
DATA
  6
CONTINUOUS
 62
     7
 10
114.2499999997594
 20
-51.239679569957552
 30
0.0
 11
114.2499999997594
 21
-45.239679569957559
 31
0.0
  0
LINE
  5
43A
  8
DATA
  6
CONTINUOUS
 62
     7
 10
98.185986992817021
 20
-61.25
 30
0.0
 11
100.6877824570192
 21
-61.25
 31
0.0
  0
LINE
  5
43B
  8
DATA
  6
CONTINUOUS
 62
     7
 10
99.462782457019244
 20
-57.750000000299991
 30
0.0
 11
99.462782457019244
 21
-60.75
 31
0.0
  0
LINE
  5
43C
  8
DATA
  6
CONTINUOUS
 62
     7
 10
98.185986992817021
 20
-60.75
 30
0.0
 11
99.462782457019244
 21
-60.75
 31
0.0
  0
LINE
  5
43D
  8
DATA
  6
CONTINUOUS
 62
     7
 10
100.6877824570192
 20
-56.25
 30
0.0
 11
100.6877824570192
 21
-61.25
 31
0.0
  0
LINE
  5
43E
  8
DATA
  6
CONTINUOUS
 62
     7
 10
90.385986992816996
 20
-57.750000000299991
 30
0.0
 11
90.385986992816996
 21
-62.250000000299991
 31
0.0
  0
LINE
  5
43F
  8
DATA
  6
CONTINUOUS
 62
     7
 10
98.185986992817021
 20
-57.750000000299991
 30
0.0
 11
98.185986992817021
 21
-62.250000000299991
 31
0.0
  0
LINE
  5
440
  8
DATA
  6
CONTINUOUS
 62
     7
 10
90.385986992816996
 20
-62.250000000299991
 30
0.0
 11
98.185986992817021
 21
-62.250000000299991
 31
0.0
  0
LINE
  5
441
  8
DATA
  6
CONTINUOUS
 62
     7
 10
88.887761975893994
 20
-56.250000000299991
 30
0.0
 11
88.887761975893994
 21
-57.750000000299991
 31
0.0
  0
LINE
  5
442
  8
DATA
  6
CONTINUOUS
 62
     7
 10
88.887761975893994
 20
-57.750000000299991
 30
0.0
 11
99.462782457019244
 21
-57.750000000299991
 31
0.0
  0
LINE
  5
443
  8
DATA
  6
CONTINUOUS
 62
     7
 10
99.462782457019244
 20
-57.750000000299991
 30
0.0
 11
99.462782457019244
 21
-56.25
 31
0.0
  0
TEXT
  5
444
  8
DATA
 62
     7
 10
95.385294026074234
 20
115.9285652217762
 30
0.0
 40
8.1442057291666661
  1
EXT-DVI-ELRS
 41
0.7
 11
95.385294026074234
 21
124.0727709509429
 31
0.0
 73
     3
  0
TEXT
  5
445
  8
DATA
 62
     7
 10
101.26717904273821
 20
103.92339918776089
 30
0.0
 40
8.1442057291666661
  1
(センダー)
 41
0.7
 11
101.26717904273821
 21
112.06760491692749
 31
0.0
 73
     3
  0
TEXT
  5
446
  8
DATA
 62
     7
 10
98.157637299981374
 20
-152.5185745926384
 30
0.0
 40
8.1442057291666661
  1
EXT-DVI-ELRR
 41
0.7
 11
98.157637299981374
 21
-144.37436886347169
 31
0.0
 73
     3
  0
TEXT
  5
447
  8
DATA
 62
     7
 10
97.378581061526432
 20
-164.52374062665371
 30
0.0
 40
8.1442057291666661
  1
(レシーバー)
 41
0.7
 11
97.378581061526432
 21
-156.3795348974871
 31
0.0
 73
     3
  0
LINE
  5
448
  8
DATA
  6
CONTINUOUS
 62
     7
 10
-162.5
 20
81.25
 30
0.0
 11
362.5
 21
81.25
 31
0.0
  0
TEXT
  5
449
  8
DATA
 62
     7
 10
76.291451884327373
 20
315.3304688685235
 30
0.0
 40
8.1442057291666661
  1
6-4\U+00D76.3
 41
0.7
 11
76.291451884327373
 21
323.47467459769018
 31
0.0
 73
     3
  0
LINE
  5
44A
  8
DATA
  6
CONTINUOUS
 62
     7
 10
46.749999999999993
 20
283.69999999999999
 30
0.0
 11
68.75
 21
312.5
 31
0.0
  0
LINE
  5
44B
  8
DATA
  6
CONTINUOUS
 62
     7
 10
46.749999999999993
 20
283.69999999999999
 30
0.0
 11
50.603001853318851
 21
292.77710353166452
 31
0.0
  0
LINE
  5
44C
  8
DATA
  6
CONTINUOUS
 62
     7
 10
46.749999999999993
 20
283.69999999999999
 30
0.0
 11
54.625349251634923
 21
289.63450132454352
 31
0.0
  0
LINE
  5
44D
  8
DATA
  6
CONTINUOUS
 62
     7
 10
68.75
 20
312.5
 30
0.0
 11
125.0
 21
312.5
 31
0.0
  0
TEXT
  5
44E
  8
DATA
 62
     7
 10
76.291451884327373
 20
46.580468868523482
 30
0.0
 40
8.1442057291666661
  1
6-4\U+00D76.3
 41
0.7
 11
76.291451884327373
 21
54.724674597690139
 31
0.0
 73
     3
  0
LINE
  5
44F
  8
DATA
  6
CONTINUOUS
 62
     7
 10
46.749999999999993
 20
14.94999999999999
 30
0.0
 11
68.75
 21
43.75
 31
0.0
  0
LINE
  5
450
  8
DATA
  6
CONTINUOUS
 62
     7
 10
46.749999999999993
 20
14.94999999999999
 30
0.0
 11
50.603001853318851
 21
24.02710353166453
 31
0.0
  0
LINE
  5
451
  8
DATA
  6
CONTINUOUS
 62
     7
 10
46.749999999999993
 20
14.94999999999999
 30
0.0
 11
54.625349251634923
 21
20.884501324543489
 31
0.0
  0
LINE
  5
452
  8
DATA
  6
CONTINUOUS
 62
     7
 10
68.75
 20
43.75
 30
0.0
 11
125.0
 21
43.75
 31
0.0
  0
LINE
  5
453
  8
DATA
  6
CONTINUOUS
 62
     7
 10
283.49999999991587
 20
212.5
 30
0.0
 11
283.49999999991587
 21
297.5
 31
0.0
  0
LINE
  5
454
  8
DATA
  6
CONTINUOUS
 62
     7
 10
137.4999999999159
 20
212.5
 30
0.0
 11
283.49999999991587
 21
212.5
 31
0.0
  0
LINE
  5
455
  8
DATA
  6
CONTINUOUS
 62
     7
 10
137.4999999999159
 20
297.5
 30
0.0
 11
137.4999999999159
 21
212.5
 31
0.0
  0
LINE
  5
456
  8
DATA
  6
CONTINUOUS
 62
     7
 10
283.49999999991587
 20
297.5
 30
0.0
 11
137.4999999999159
 21
297.5
 31
0.0
  0
LINE
  5
457
  8
DATA
  6
CONTINUOUS
 62
     7
 10
272.99999999991587
 20
212.5
 30
0.0
 11
272.99999999991587
 21
297.5
 31
0.0
  0
LINE
  5
458
  8
DATA
  6
CONTINUOUS
 62
     7
 10
147.99999999991601
 20
212.5
 30
0.0
 11
147.99999999991601
 21
297.5
 31
0.0
  0
ARC
  5
459
  8
DATA
  6
CONTINUOUS
 62
     7
 10
277.99999999991587
 20
283.69999999999999
 30
0.0
 40
2.0
 50
0.0
 51
180.0
  0
ARC
  5
45A
  8
DATA
  6
CONTINUOUS
 62
     7
 10
277.99999999991587
 20
281.30000000000001
 30
0.0
 40
2.0
 50
180.0
 51
0.0
  0
LINE
  5
45B
  8
DATA
  6
CONTINUOUS
 62
     7
 10
279.99999999991587
 20
281.30000000000001
 30
0.0
 11
279.99999999991587
 21
283.69999999999999
 31
0.0
  0
LINE
  5
45C
  8
DATA
  6
CONTINUOUS
 62
     7
 10
275.99999999991587
 20
281.30000000000001
 30
0.0
 11
275.99999999991587
 21
283.69999999999999
 31
0.0
  0
ARC
  5
45D
  8
DATA
  6
CONTINUOUS
 62
     7
 10
277.99999999991587
 20
226.30000000000001
 30
0.0
 40
2.0
 50
180.0
 51
0.0
  0
ARC
  5
45E
  8
DATA
  6
CONTINUOUS
 62
     7
 10
277.99999999991587
 20
228.69999999999999
 30
0.0
 40
2.0
 50
0.0
 51
180.0
  0
LINE
  5
45F
  8
DATA
  6
CONTINUOUS
 62
     7
 10
279.99999999991587
 20
228.69999999999999
 30
0.0
 11
279.99999999991587
 21
226.30000000000001
 31
0.0
  0
LINE
  5
460
  8
DATA
  6
CONTINUOUS
 62
     7
 10
275.99999999991587
 20
228.69999999999999
 30
0.0
 11
275.99999999991587
 21
226.30000000000001
 31
0.0
  0
ARC
  5
461
  8
DATA
  6
CONTINUOUS
 62
     7
 10
277.99999999991587
 20
256.19999999999999
 30
0.0
 40
2.0
 50
0.0
 51
180.0
  0
ARC
  5
462
  8
DATA
  6
CONTINUOUS
 62
     7
 10
277.99999999991587
 20
253.80000000000001
 30
0.0
 40
2.0
 50
180.0
 51
0.0
  0
LINE
  5
463
  8
DATA
  6
CONTINUOUS
 62
     7
 10
279.99999999991587
 20
253.80000000000001
 30
0.0
 11
279.99999999991587
 21
256.19999999999999
 31
0.0
  0
LINE
  5
464
  8
DATA
  6
CONTINUOUS
 62
     7
 10
275.99999999991587
 20
253.80000000000001
 30
0.0
 11
275.99999999991587
 21
256.19999999999999
 31
0.0
  0
ARC
  5
465
  8
DATA
  6
CONTINUOUS
 62
     7
 10
142.9999999999159
 20
283.69999999999999
 30
0.0
 40
2.0000000000000142
 50
0.0
 51
180.0
  0
ARC
  5
466
  8
DATA
  6
CONTINUOUS
 62
     7
 10
142.9999999999159
 20
281.30000000000001
 30
0.0
 40
2.0000000000000071
 50
180.0
 51
0.0
  0
LINE
  5
467
  8
DATA
  6
CONTINUOUS
 62
     7
 10
140.9999999999159
 20
281.30000000000001
 30
0.0
 11
140.9999999999159
 21
283.69999999999999
 31
0.0
  0
LINE
  5
468
  8
DATA
  6
CONTINUOUS
 62
     7
 10
144.9999999999159
 20
281.30000000000001
 30
0.0
 11
144.9999999999159
 21
283.69999999999999
 31
0.0
  0
ARC
  5
469
  8
DATA
  6
CONTINUOUS
 62
     7
 10
142.9999999999159
 20
226.30000000000001
 30
0.0
 40
2.0000000000000071
 50
180.0
 51
0.0
  0
ARC
  5
46A
  8
DATA
  6
CONTINUOUS
 62
     7
 10
142.9999999999159
 20
228.69999999999999
 30
0.0
 40
2.0000000000000142
 50
0.0
 51
180.0
  0
LINE
  5
46B
  8
DATA
  6
CONTINUOUS
 62
     7
 10
140.9999999999159
 20
228.69999999999999
 30
0.0
 11
140.9999999999159
 21
226.30000000000001
 31
0.0
  0
LINE
  5
46C
  8
DATA
  6
CONTINUOUS
 62
     7
 10
144.9999999999159
 20
228.69999999999999
 30
0.0
 11
144.9999999999159
 21
226.30000000000001
 31
0.0
  0
ARC
  5
46D
  8
DATA
  6
CONTINUOUS
 62
     7
 10
142.9999999999159
 20
256.19999999999999
 30
0.0
 40
2.0000000000000142
 50
0.0
 51
180.0
  0
ARC
  5
46E
  8
DATA
  6
CONTINUOUS
 62
     7
 10
142.9999999999159
 20
253.80000000000001
 30
0.0
 40
2.0000000000000071
 50
180.0
 51
0.0
  0
LINE
  5
46F
  8
DATA
  6
CONTINUOUS
 62
     7
 10
140.9999999999159
 20
253.80000000000001
 30
0.0
 11
140.9999999999159
 21
256.19999999999999
 31
0.0
  0
LINE
  5
470
  8
DATA
  6
CONTINUOUS
 62
     7
 10
144.9999999999159
 20
253.80000000000001
 30
0.0
 11
144.9999999999159
 21
256.19999999999999
 31
0.0
  0
ARC
  5
471
  8
DATA
  6
CONTINUOUS
 62
     7
 10
243.9999999999159
 20
213.22609535108819
 30
0.0
 40
1.449999999999978
 50
210.04999042122461
 51
329.95000957877539
  0
LINE
  5
472
  8
DATA
  6
CONTINUOUS
 62
     7
 10
257.89999999991591
 20
211.0
 30
0.0
 11
257.89999999991591
 21
206.5
 31
0.0
  0
LINE
  5
473
  8
DATA
  6
CONTINUOUS
 62
     7
 10
250.09999999991581
 20
211.0
 30
0.0
 11
250.09999999991581
 21
206.5
 31
0.0
  0
LINE
  5
474
  8
DATA
  6
CONTINUOUS
 62
     7
 10
257.89999999991591
 20
206.5
 30
0.0
 11
250.09999999991581
 21
206.5
 31
0.0
  0
LINE
  5
475
  8
DATA
  6
CONTINUOUS
 62
     7
 10
259.39822501683892
 20
212.5
 30
0.0
 11
259.39822501683892
 21
211.0
 31
0.0
  0
LINE
  5
476
  8
DATA
  6
CONTINUOUS
 62
     7
 10
248.60177498299279
 20
212.5
 30
0.0
 11
248.60177498299279
 21
211.0
 31
0.0
  0
LINE
  5
477
  8
DATA
  6
CONTINUOUS
 62
     7
 10
259.39822501683892
 20
211.0
 30
0.0
 11
248.60177498299279
 21
211.0
 31
0.0
  0
LINE
  5
478
  8
DATA
  6
CONTINUOUS
 62
     7
 10
224.72413578490949
 20
207.5
 30
0.0
 11
200.87063002380069
 21
207.5
 31
0.0
  0
LINE
  5
479
  8
DATA
  6
CONTINUOUS
 62
     7
 10
231.3856514945721
 20
212.5
 30
0.0
 11
231.3856514945721
 21
208.0
 31
0.0
  0
LINE
  5
47A
  8
DATA
  6
CONTINUOUS
 62
     7
 10
226.70911431413609
 20
212.5
 30
0.0
 11
226.70911431413609
 21
208.0
 31
0.0
  0
LINE
  5
47B
  8
DATA
  6
CONTINUOUS
 62
     7
 10
198.8856514945725
 20
212.5
 30
0.0
 11
198.8856514945725
 21
208.0
 31
0.0
  0
LINE
  5
47C
  8
DATA
  6
CONTINUOUS
 62
     7
 10
194.2091143141366
 20
212.5
 30
0.0
 11
194.2091143141366
 21
208.0
 31
0.0
  0
LINE
  5
47D
  8
DATA
  6
CONTINUOUS
 62
     7
 10
224.72413578490949
 20
212.5
 30
0.0
 11
224.72413578490949
 21
207.5
 31
0.0
  0
LINE
  5
47E
  8
DATA
  6
CONTINUOUS
 62
     7
 10
200.87063002380069
 20
212.5
 30
0.0
 11
200.87063002380069
 21
207.5
 31
0.0
  0
LINE
  5
47F
  8
DATA
  6
CONTINUOUS
 62
     7
 10
231.3856514945721
 20
208.0
 30
0.0
 11
226.70911431413609
 21
208.0
 31
0.0
  0
LINE
  5
480
  8
DATA
  6
CONTINUOUS
 62
     7
 10
198.8856514945725
 20
208.0
 30
0.0
 11
194.2091143141366
 21
208.0
 31
0.0
  0
LINE
  5
481
  8
DATA
  6
CONTINUOUS
 62
     7
 10
283.49999999991587
 20
-56.25
 30
0.0
 11
283.49999999991587
 21
28.75
 31
0.0
  0
LINE
  5
482
  8
DATA
  6
CONTINUOUS
 62
     7
 10
137.4999999999159
 20
-56.25
 30
0.0
 11
283.49999999991587
 21
-56.25
 31
0.0
  0
LINE
  5
483
  8
DATA
  6
CONTINUOUS
 62
     7
 10
137.4999999999159
 20
28.75
 30
0.0
 11
137.4999999999159
 21
-56.25
 31
0.0
  0
LINE
  5
484
  8
DATA
  6
CONTINUOUS
 62
     7
 10
283.49999999991587
 20
28.75
 30
0.0
 11
137.4999999999159
 21
28.75
 31
0.0
  0
LINE
  5
485
  8
DATA
  6
CONTINUOUS
 62
     7
 10
272.99999999991587
 20
-56.25
 30
0.0
 11
272.99999999991587
 21
28.75
 31
0.0
  0
LINE
  5
486
  8
DATA
  6
CONTINUOUS
 62
     7
 10
147.99999999991601
 20
-56.25
 30
0.0
 11
147.99999999991601
 21
28.75
 31
0.0
  0
ARC
  5
487
  8
DATA
  6
CONTINUOUS
 62
     7
 10
277.99999999991587
 20
14.94999999999999
 30
0.0
 40
2.0
 50
0.0
 51
180.0
  0
ARC
  5
488
  8
DATA
  6
CONTINUOUS
 62
     7
 10
277.99999999991587
 20
12.55000000000001
 30
0.0
 40
2.0
 50
180.0
 51
0.0
  0
LINE
  5
489
  8
DATA
  6
CONTINUOUS
 62
     7
 10
279.99999999991587
 20
12.55000000000001
 30
0.0
 11
279.99999999991587
 21
14.94999999999999
 31
0.0
  0
LINE
  5
48A
  8
DATA
  6
CONTINUOUS
 62
     7
 10
275.99999999991587
 20
12.55000000000001
 30
0.0
 11
275.99999999991587
 21
14.94999999999999
 31
0.0
  0
ARC
  5
48B
  8
DATA
  6
CONTINUOUS
 62
     7
 10
277.99999999991587
 20
-42.449999999999989
 30
0.0
 40
2.0
 50
180.0
 51
0.0
  0
ARC
  5
48C
  8
DATA
  6
CONTINUOUS
 62
     7
 10
277.99999999991587
 20
-40.050000000000011
 30
0.0
 40
2.0
 50
0.0
 51
180.0
  0
LINE
  5
48D
  8
DATA
  6
CONTINUOUS
 62
     7
 10
279.99999999991587
 20
-40.050000000000011
 30
0.0
 11
279.99999999991587
 21
-42.449999999999989
 31
0.0
  0
LINE
  5
48E
  8
DATA
  6
CONTINUOUS
 62
     7
 10
275.99999999991587
 20
-40.050000000000011
 30
0.0
 11
275.99999999991587
 21
-42.449999999999989
 31
0.0
  0
ARC
  5
48F
  8
DATA
  6
CONTINUOUS
 62
     7
 10
277.99999999991587
 20
-12.55000000000001
 30
0.0
 40
2.0
 50
0.0
 51
180.0
  0
ARC
  5
490
  8
DATA
  6
CONTINUOUS
 62
     7
 10
277.99999999991587
 20
-14.94999999999999
 30
0.0
 40
2.0
 50
180.0
 51
0.0
  0
LINE
  5
491
  8
DATA
  6
CONTINUOUS
 62
     7
 10
279.99999999991587
 20
-14.94999999999999
 30
0.0
 11
279.99999999991587
 21
-12.55000000000001
 31
0.0
  0
LINE
  5
492
  8
DATA
  6
CONTINUOUS
 62
     7
 10
275.99999999991587
 20
-14.94999999999999
 30
0.0
 11
275.99999999991587
 21
-12.55000000000001
 31
0.0
  0
ARC
  5
493
  8
DATA
  6
CONTINUOUS
 62
     7
 10
142.9999999999159
 20
14.94999999999999
 30
0.0
 40
2.0000000000000142
 50
0.0
 51
180.0
  0
ARC
  5
494
  8
DATA
  6
CONTINUOUS
 62
     7
 10
142.9999999999159
 20
12.55000000000001
 30
0.0
 40
2.0000000000000071
 50
180.0
 51
0.0
  0
LINE
  5
495
  8
DATA
  6
CONTINUOUS
 62
     7
 10
140.9999999999159
 20
12.55000000000001
 30
0.0
 11
140.9999999999159
 21
14.94999999999999
 31
0.0
  0
LINE
  5
496
  8
DATA
  6
CONTINUOUS
 62
     7
 10
144.9999999999159
 20
12.55000000000001
 30
0.0
 11
144.9999999999159
 21
14.94999999999999
 31
0.0
  0
ARC
  5
497
  8
DATA
  6
CONTINUOUS
 62
     7
 10
142.9999999999159
 20
-42.449999999999989
 30
0.0
 40
2.0000000000000071
 50
180.0
 51
0.0
  0
ARC
  5
498
  8
DATA
  6
CONTINUOUS
 62
     7
 10
142.9999999999159
 20
-40.050000000000011
 30
0.0
 40
2.0000000000000142
 50
0.0
 51
180.0
  0
LINE
  5
499
  8
DATA
  6
CONTINUOUS
 62
     7
 10
140.9999999999159
 20
-40.050000000000011
 30
0.0
 11
140.9999999999159
 21
-42.449999999999989
 31
0.0
  0
LINE
  5
49A
  8
DATA
  6
CONTINUOUS
 62
     7
 10
144.9999999999159
 20
-40.050000000000011
 30
0.0
 11
144.9999999999159
 21
-42.449999999999989
 31
0.0
  0
ARC
  5
49B
  8
DATA
  6
CONTINUOUS
 62
     7
 10
142.9999999999159
 20
-12.55000000000001
 30
0.0
 40
2.0000000000000142
 50
0.0
 51
180.0
  0
ARC
  5
49C
  8
DATA
  6
CONTINUOUS
 62
     7
 10
142.9999999999159
 20
-14.94999999999999
 30
0.0
 40
2.0000000000000071
 50
180.0
 51
0.0
  0
LINE
  5
49D
  8
DATA
  6
CONTINUOUS
 62
     7
 10
140.9999999999159
 20
-14.94999999999999
 30
0.0
 11
140.9999999999159
 21
-12.55000000000001
 31
0.0
  0
LINE
  5
49E
  8
DATA
  6
CONTINUOUS
 62
     7
 10
144.9999999999159
 20
-14.94999999999999
 30
0.0
 11
144.9999999999159
 21
-12.55000000000001
 31
0.0
  0
ARC
  5
49F
  8
DATA
  6
CONTINUOUS
 62
     7
 10
243.9999999999159
 20
-55.523904648911753
 30
0.0
 40
1.449999999999978
 50
210.04999042122461
 51
329.95000957877539
  0
LINE
  5
4A0
  8
DATA
  6
CONTINUOUS
 62
     7
 10
257.89999999991591
 20
-57.75
 30
0.0
 11
257.89999999991591
 21
-62.25
 31
0.0
  0
LINE
  5
4A1
  8
DATA
  6
CONTINUOUS
 62
     7
 10
250.09999999991581
 20
-57.75
 30
0.0
 11
250.09999999991581
 21
-62.25
 31
0.0
  0
LINE
  5
4A2
  8
DATA
  6
CONTINUOUS
 62
     7
 10
257.89999999991591
 20
-62.25
 30
0.0
 11
250.09999999991581
 21
-62.25
 31
0.0
  0
LINE
  5
4A3
  8
DATA
  6
CONTINUOUS
 62
     7
 10
259.39822501683892
 20
-56.25
 30
0.0
 11
259.39822501683892
 21
-57.75
 31
0.0
  0
LINE
  5
4A4
  8
DATA
  6
CONTINUOUS
 62
     7
 10
248.60177498299279
 20
-56.25
 30
0.0
 11
248.60177498299279
 21
-57.75
 31
0.0
  0
LINE
  5
4A5
  8
DATA
  6
CONTINUOUS
 62
     7
 10
259.39822501683892
 20
-57.75
 30
0.0
 11
248.60177498299279
 21
-57.75
 31
0.0
  0
LINE
  5
4A6
  8
DATA
  6
CONTINUOUS
 62
     7
 10
224.72413578490949
 20
-61.25
 30
0.0
 11
200.87063002380069
 21
-61.25
 31
0.0
  0
LINE
  5
4A7
  8
DATA
  6
CONTINUOUS
 62
     7
 10
231.3856514945721
 20
-56.25
 30
0.0
 11
231.3856514945721
 21
-60.75
 31
0.0
  0
LINE
  5
4A8
  8
DATA
  6
CONTINUOUS
 62
     7
 10
226.70911431413609
 20
-56.25
 30
0.0
 11
226.70911431413609
 21
-60.75
 31
0.0
  0
LINE
  5
4A9
  8
DATA
  6
CONTINUOUS
 62
     7
 10
198.8856514945725
 20
-56.25
 30
0.0
 11
198.8856514945725
 21
-60.75
 31
0.0
  0
LINE
  5
4AA
  8
DATA
  6
CONTINUOUS
 62
     7
 10
194.2091143141366
 20
-56.25
 30
0.0
 11
194.2091143141366
 21
-60.75
 31
0.0
  0
LINE
  5
4AB
  8
DATA
  6
CONTINUOUS
 62
     7
 10
224.72413578490949
 20
-56.25
 30
0.0
 11
224.72413578490949
 21
-61.25
 31
0.0
  0
LINE
  5
4AC
  8
DATA
  6
CONTINUOUS
 62
     7
 10
200.87063002380069
 20
-56.25
 30
0.0
 11
200.87063002380069
 21
-61.25
 31
0.0
  0
LINE
  5
4AD
  8
DATA
  6
CONTINUOUS
 62
     7
 10
231.3856514945721
 20
-60.75
 30
0.0
 11
226.70911431413609
 21
-60.75
 31
0.0
  0
LINE
  5
4AE
  8
DATA
  6
CONTINUOUS
 62
     7
 10
198.8856514945725
 20
-60.75
 30
0.0
 11
194.2091143141366
 21
-60.75
 31
0.0
  0
LINE
  5
4AF
  8
DATA
  6
CONTINUOUS
 62
     7
 10
147.99999999991601
 20
295.5
 30
0.0
 11
272.99999999991587
 21
295.5
 31
0.0
  0
LINE
  5
4B0
  8
DATA
  6
CONTINUOUS
 62
     7
 10
147.99999999991601
 20
26.75
 30
0.0
 11
272.99999999991587
 21
26.75
 31
0.0
  0
POLYLINE
  5
4B1
  8
DATA
  6
CONTINUOUS
 62
     7
 66
     1
 10
0.0
 20
0.0
 30
0.0
 70
     1
  0
VERTEX
  5
74E
  8
DATA
  6
CONTINUOUS
 62
     7
 10
175.49662000573781
 20
267.47297712810263
 30
0.0
  0
VERTEX
  5
74F
  8
DATA
  6
CONTINUOUS
 62
     7
 10
182.49662000573781
 20
267.47297712810263
 30
0.0
  0
VERTEX
  5
750
  8
DATA
  6
CONTINUOUS
 62
     7
 10
182.49662000573781
 20
260.47297712810263
 30
0.0
  0
VERTEX
  5
751
  8
DATA
  6
CONTINUOUS
 62
     7
 10
175.49662000573781
 20
260.47297712810263
 30
0.0
  0
SEQEND
  5
752
  8
DATA
  6
CONTINUOUS
 62
     7
  0
LINE
  5
4B8
  8
DATA
  6
CONTINUOUS
 62
     7
 10
179.59662000573789
 20
263.97297712810263
 30
0.0
 11
179.59662000573789
 21
265.47297712810263
 31
0.0
  0
LINE
  5
4B9
  8
DATA
  6
CONTINUOUS
 62
     7
 10
181.0966200057378
 20
265.47297712810263
 30
0.0
 11
181.0966200057378
 21
263.97297712810263
 31
0.0
  0
LINE
  5
4BA
  8
DATA
  6
CONTINUOUS
 62
     7
 10
179.59662000573789
 20
265.47297712810263
 30
0.0
 11
181.0966200057378
 21
265.47297712810263
 31
0.0
  0
LINE
  5
4BB
  8
DATA
  6
CONTINUOUS
 62
     7
 10
176.89662000573779
 20
263.97297712810263
 30
0.0
 11
176.89662000573779
 21
265.47297712810263
 31
0.0
  0
LINE
  5
4BC
  8
DATA
  6
CONTINUOUS
 62
     7
 10
178.3966200057379
 20
265.47297712810263
 30
0.0
 11
178.3966200057379
 21
263.97297712810263
 31
0.0
  0
LINE
  5
4BD
  8
DATA
  6
CONTINUOUS
 62
     7
 10
176.89662000573779
 20
265.47297712810263
 30
0.0
 11
178.3966200057379
 21
265.47297712810263
 31
0.0
  0
LINE
  5
4BE
  8
DATA
  6
CONTINUOUS
 62
     7
 10
179.59662000573789
 20
262.47297712810263
 30
0.0
 11
179.59662000573789
 21
263.97297712810263
 31
0.0
  0
LINE
  5
4BF
  8
DATA
  6
CONTINUOUS
 62
     7
 10
181.0966200057378
 20
262.47297712810263
 30
0.0
 11
179.59662000573789
 21
262.47297712810263
 31
0.0
  0
LINE
  5
4C0
  8
DATA
  6
CONTINUOUS
 62
     7
 10
181.0966200057378
 20
263.97297712810263
 30
0.0
 11
181.0966200057378
 21
262.47297712810263
 31
0.0
  0
LINE
  5
4C1
  8
DATA
  6
CONTINUOUS
 62
     7
 10
176.89662000573779
 20
262.47297712810263
 30
0.0
 11
176.89662000573779
 21
263.97297712810263
 31
0.0
  0
LINE
  5
4C2
  8
DATA
  6
CONTINUOUS
 62
     7
 10
178.3966200057379
 20
262.47297712810263
 30
0.0
 11
176.89662000573779
 21
262.47297712810263
 31
0.0
  0
LINE
  5
4C3
  8
DATA
  6
CONTINUOUS
 62
     7
 10
178.3966200057379
 20
263.97297712810263
 30
0.0
 11
178.3966200057379
 21
262.47297712810263
 31
0.0
  0
LINE
  5
4C4
  8
DATA
  6
CONTINUOUS
 62
     7
 10
176.89662000573779
 20
264.13538460170292
 30
0.0
 11
178.3966200057379
 21
264.13538460170292
 31
0.0
  0
LINE
  5
4C5
  8
DATA
  6
CONTINUOUS
 62
     7
 10
179.59662000573789
 20
264.13538460170292
 30
0.0
 11
181.0966200057378
 21
264.13538460170292
 31
0.0
  0
TEXT
  5
4C6
  8
DATA
 62
     7
 10
180.7041964860064
 20
266.82002416699669
 30
0.0
 40
0.9773046875
  1
1
 50
180.0
 41
0.7
 11
180.7041964860064
 21
265.84271947949668
 31
0.0
 73
     3
  0
TEXT
  5
4C7
  8
DATA
 62
     7
 10
178.0506019000149
 20
266.82002416699669
 30
0.0
 40
0.9773046875
  1
2
 50
180.0
 41
0.7
 11
178.0506019000149
 21
265.84271947949668
 31
0.0
 73
     3
  0
TEXT
  5
4C8
  8
DATA
 62
     7
 10
181.01621848254999
 20
262.00914937874751
 30
0.0
 40
0.9773046875
  1
ON
 50
180.0
 41
0.7
 11
181.01621848254999
 21
261.0318446912475
 31
0.0
 73
     3
  0
POLYLINE
  5
4C9
  8
DATA
  6
CONTINUOUS
 62
     7
 66
     1
 10
0.0
 20
0.0
 30
0.0
 70
     1
  0
VERTEX
  5
753
  8
DATA
  6
CONTINUOUS
 62
     7
 10
239.48002783969201
 20
-22.756599027736801
 30
0.0
  0
VERTEX
  5
754
  8
DATA
  6
CONTINUOUS
 62
     7
 10
252.48002783969201
 20
-22.756599027736801
 30
0.0
  0
VERTEX
  5
755
  8
DATA
  6
CONTINUOUS
 62
     7
 10
252.48002783969201
 20
-30.756599027736801
 30
0.0
  0
VERTEX
  5
756
  8
DATA
  6
CONTINUOUS
 62
     7
 10
239.48002783969201
 20
-30.756599027736801
 30
0.0
  0
SEQEND
  5
757
  8
DATA
  6
CONTINUOUS
 62
     7
  0
LINE
  5
4D0
  8
DATA
  6
CONTINUOUS
 62
     7
 10
249.24768177438659
 20
-26.9289649912252
 30
0.0
 11
249.24768177438659
 21
-25.4289649912252
 31
0.0
  0
LINE
  5
4D1
  8
DATA
  6
CONTINUOUS
 62
     7
 10
250.74768177438651
 20
-25.4289649912252
 30
0.0
 11
250.74768177438651
 21
-26.9289649912252
 31
0.0
  0
LINE
  5
4D2
  8
DATA
  6
CONTINUOUS
 62
     7
 10
249.24768177438659
 20
-25.4289649912252
 30
0.0
 11
250.74768177438651
 21
-25.4289649912252
 31
0.0
  0
LINE
  5
4D3
  8
DATA
  6
CONTINUOUS
 62
     7
 10
246.54768177438649
 20
-26.9289649912252
 30
0.0
 11
246.54768177438649
 21
-25.4289649912252
 31
0.0
  0
LINE
  5
4D4
  8
DATA
  6
CONTINUOUS
 62
     7
 10
248.04768177438649
 20
-25.4289649912252
 30
0.0
 11
248.04768177438649
 21
-26.9289649912252
 31
0.0
  0
LINE
  5
4D5
  8
DATA
  6
CONTINUOUS
 62
     7
 10
246.54768177438649
 20
-25.4289649912252
 30
0.0
 11
248.04768177438649
 21
-25.4289649912252
 31
0.0
  0
LINE
  5
4D6
  8
DATA
  6
CONTINUOUS
 62
     7
 10
249.24768177438659
 20
-28.4289649912252
 30
0.0
 11
249.24768177438659
 21
-26.9289649912252
 31
0.0
  0
LINE
  5
4D7
  8
DATA
  6
CONTINUOUS
 62
     7
 10
250.74768177438651
 20
-28.4289649912252
 30
0.0
 11
249.24768177438659
 21
-28.4289649912252
 31
0.0
  0
LINE
  5
4D8
  8
DATA
  6
CONTINUOUS
 62
     7
 10
250.74768177438651
 20
-26.9289649912252
 30
0.0
 11
250.74768177438651
 21
-28.4289649912252
 31
0.0
  0
LINE
  5
4D9
  8
DATA
  6
CONTINUOUS
 62
     7
 10
246.54768177438649
 20
-28.4289649912252
 30
0.0
 11
246.54768177438649
 21
-26.9289649912252
 31
0.0
  0
LINE
  5
4DA
  8
DATA
  6
CONTINUOUS
 62
     7
 10
248.04768177438649
 20
-28.4289649912252
 30
0.0
 11
246.54768177438649
 21
-28.4289649912252
 31
0.0
  0
LINE
  5
4DB
  8
DATA
  6
CONTINUOUS
 62
     7
 10
248.04768177438649
 20
-26.9289649912252
 30
0.0
 11
248.04768177438649
 21
-28.4289649912252
 31
0.0
  0
LINE
  5
4DC
  8
DATA
  6
CONTINUOUS
 62
     7
 10
246.54768177438649
 20
-26.76655751762496
 30
0.0
 11
248.04768177438649
 21
-26.76655751762496
 31
0.0
  0
LINE
  5
4DD
  8
DATA
  6
CONTINUOUS
 62
     7
 10
249.24768177438659
 20
-26.76655751762496
 30
0.0
 11
250.74768177438651
 21
-26.76655751762496
 31
0.0
  0
TEXT
  5
4DE
  8
DATA
 62
     7
 10
250.35525825465501
 20
-24.08191795233115
 30
0.0
 40
0.9773046875
  1
1
 50
180.0
 41
0.7
 11
250.35525825465501
 21
-25.059222639831152
 31
0.0
 73
     3
  0
TEXT
  5
4DF
  8
DATA
 62
     7
 10
247.70166366866371
 20
-24.08191795233115
 30
0.0
 40
0.9773046875
  1
2
 50
180.0
 41
0.7
 11
247.70166366866371
 21
-25.059222639831152
 31
0.0
 73
     3
  0
TEXT
  5
4E0
  8
DATA
 62
     7
 10
250.6672802511988
 20
-28.89279274058033
 30
0.0
 40
0.9773046875
  1
ON
 50
180.0
 41
0.7
 11
250.6672802511988
 21
-29.870097428080332
 31
0.0
 73
     3
  0
LINE
  5
4E1
  8
DATA
  6
CONTINUOUS
 62
     7
 10
243.84768177438659
 20
-26.9289649912252
 30
0.0
 11
243.84768177438659
 21
-25.4289649912252
 31
0.0
  0
LINE
  5
4E2
  8
DATA
  6
CONTINUOUS
 62
     7
 10
245.34768177438659
 20
-25.4289649912252
 30
0.0
 11
245.34768177438659
 21
-26.9289649912252
 31
0.0
  0
LINE
  5
4E3
  8
DATA
  6
CONTINUOUS
 62
     7
 10
243.84768177438659
 20
-25.4289649912252
 30
0.0
 11
245.34768177438659
 21
-25.4289649912252
 31
0.0
  0
LINE
  5
4E4
  8
DATA
  6
CONTINUOUS
 62
     7
 10
243.84768177438659
 20
-28.4289649912252
 30
0.0
 11
243.84768177438659
 21
-26.9289649912252
 31
0.0
  0
LINE
  5
4E5
  8
DATA
  6
CONTINUOUS
 62
     7
 10
245.34768177438659
 20
-28.4289649912252
 30
0.0
 11
243.84768177438659
 21
-28.4289649912252
 31
0.0
  0
LINE
  5
4E6
  8
DATA
  6
CONTINUOUS
 62
     7
 10
245.34768177438659
 20
-26.9289649912252
 30
0.0
 11
245.34768177438659
 21
-28.4289649912252
 31
0.0
  0
LINE
  5
4E7
  8
DATA
  6
CONTINUOUS
 62
     7
 10
243.84768177438659
 20
-26.76655751762496
 30
0.0
 11
245.34768177438659
 21
-26.76655751762496
 31
0.0
  0
TEXT
  5
4E8
  8
DATA
 62
     7
 10
245.0016636686637
 20
-24.08191795233115
 30
0.0
 40
0.9773046875
  1
3
 50
180.0
 41
0.7
 11
245.0016636686637
 21
-25.059222639831152
 31
0.0
 73
     3
  0
LINE
  5
4E9
  8
DATA
  6
CONTINUOUS
 62
     7
 10
241.1476817743866
 20
-26.9289649912252
 30
0.0
 11
241.1476817743866
 21
-25.4289649912252
 31
0.0
  0
LINE
  5
4EA
  8
DATA
  6
CONTINUOUS
 62
     7
 10
242.6476817743866
 20
-25.4289649912252
 30
0.0
 11
242.6476817743866
 21
-26.9289649912252
 31
0.0
  0
LINE
  5
4EB
  8
DATA
  6
CONTINUOUS
 62
     7
 10
241.1476817743866
 20
-25.4289649912252
 30
0.0
 11
242.6476817743866
 21
-25.4289649912252
 31
0.0
  0
LINE
  5
4EC
  8
DATA
  6
CONTINUOUS
 62
     7
 10
241.1476817743866
 20
-28.4289649912252
 30
0.0
 11
241.1476817743866
 21
-26.9289649912252
 31
0.0
  0
LINE
  5
4ED
  8
DATA
  6
CONTINUOUS
 62
     7
 10
242.6476817743866
 20
-28.4289649912252
 30
0.0
 11
241.1476817743866
 21
-28.4289649912252
 31
0.0
  0
LINE
  5
4EE
  8
DATA
  6
CONTINUOUS
 62
     7
 10
242.6476817743866
 20
-26.9289649912252
 30
0.0
 11
242.6476817743866
 21
-28.4289649912252
 31
0.0
  0
LINE
  5
4EF
  8
DATA
  6
CONTINUOUS
 62
     7
 10
241.1476817743866
 20
-26.76655751762496
 30
0.0
 11
242.6476817743866
 21
-26.76655751762496
 31
0.0
  0
TEXT
  5
4F0
  8
DATA
 62
     7
 10
242.30166366866371
 20
-24.08191795233115
 30
0.0
 40
0.9773046875
  1
4
 50
180.0
 41
0.7
 11
242.30166366866371
 21
-25.059222639831152
 31
0.0
 73
     3
  0
CIRCLE
  5
4F1
  8
DATA
  6
CONTINUOUS
 62
     7
 10
158.4999999999159
 20
289.48967956995762
 30
0.0
 40
3.6500000000000048
  0
CIRCLE
  5
4F2
  8
DATA
  6
CONTINUOUS
 62
     7
 10
158.4999999999159
 20
289.48967956995762
 30
0.0
 40
3.0
  0
CIRCLE
  5
4F3
  8
DATA
  6
CONTINUOUS
 62
     7
 10
262.49999999991599
 20
289.48967956995762
 30
0.0
 40
3.6500000000000048
  0
CIRCLE
  5
4F4
  8
DATA
  6
CONTINUOUS
 62
     7
 10
262.49999999991599
 20
289.48967956995762
 30
0.0
 40
3.0
  0
CIRCLE
  5
4F5
  8
DATA
  6
CONTINUOUS
 62
     7
 10
158.4999999999159
 20
220.51032043004241
 30
0.0
 40
3.6500000000000048
  0
CIRCLE
  5
4F6
  8
DATA
  6
CONTINUOUS
 62
     7
 10
158.4999999999159
 20
220.51032043004241
 30
0.0
 40
3.0
  0
CIRCLE
  5
4F7
  8
DATA
  6
CONTINUOUS
 62
     7
 10
262.49999999991599
 20
220.51032043004241
 30
0.0
 40
3.6500000000000048
  0
CIRCLE
  5
4F8
  8
DATA
  6
CONTINUOUS
 62
     7
 10
262.49999999991599
 20
220.51032043004241
 30
0.0
 40
3.0
  0
CIRCLE
  5
4F9
  8
DATA
  6
CONTINUOUS
 62
     7
 10
158.4999999999159
 20
20.739679569957559
 30
0.0
 40
3.6500000000000048
  0
CIRCLE
  5
4FA
  8
DATA
  6
CONTINUOUS
 62
     7
 10
158.4999999999159
 20
20.739679569957559
 30
0.0
 40
3.0
  0
CIRCLE
  5
4FB
  8
DATA
  6
CONTINUOUS
 62
     7
 10
262.49999999991599
 20
20.739679569957559
 30
0.0
 40
3.6500000000000048
  0
CIRCLE
  5
4FC
  8
DATA
  6
CONTINUOUS
 62
     7
 10
262.49999999991599
 20
20.739679569957559
 30
0.0
 40
3.0
  0
CIRCLE
  5
4FD
  8
DATA
  6
CONTINUOUS
 62
     7
 10
158.4999999999159
 20
-48.239679569957559
 30
0.0
 40
3.6500000000000048
  0
CIRCLE
  5
4FE
  8
DATA
  6
CONTINUOUS
 62
     7
 10
158.4999999999159
 20
-48.239679569957559
 30
0.0
 40
3.0
  0
CIRCLE
  5
4FF
  8
DATA
  6
CONTINUOUS
 62
     7
 10
262.49999999991599
 20
-48.239679569957559
 30
0.0
 40
3.6500000000000048
  0
CIRCLE
  5
500
  8
DATA
  6
CONTINUOUS
 62
     7
 10
262.49999999991599
 20
-48.239679569957559
 30
0.0
 40
3.0
  0
POLYLINE
  5
501
  8
DATA
  6
CONTINUOUS
 62
     7
 66
     1
 10
0.0
 20
0.0
 30
0.0
 70
     1
  0
VERTEX
  5
758
  8
DATA
  6
CONTINUOUS
 62
     7
 10
277.37999967205531
 20
161.36686431398621
 30
0.0
  0
VERTEX
  5
759
  8
DATA
  6
CONTINUOUS
 62
     7
 10
319.37999967205531
 20
161.36686431398621
 30
0.0
  0
VERTEX
  5
75A
  8
DATA
  6
CONTINUOUS
 62
     7
 10
319.37999967205531
 20
119.3668643139861
 30
0.0
  0
VERTEX
  5
75B
  8
DATA
  6
CONTINUOUS
 62
     7
 10
277.37999967205531
 20
119.3668643139861
 30
0.0
  0
SEQEND
  5
75C
  8
DATA
  6
CONTINUOUS
 62
     7
  0
LINE
  5
508
  8
DATA
  6
CONTINUOUS
 62
     7
 10
294.77999967205528
 20
140.36686431398621
 30
0.0
 11
294.77999967205528
 21
131.36686431398621
 31
0.0
  0
LINE
  5
509
  8
DATA
  6
CONTINUOUS
 62
     7
 10
285.7799996720554
 20
131.36686431398621
 30
0.0
 11
285.7799996720554
 21
140.36686431398621
 31
0.0
  0
LINE
  5
50A
  8
DATA
  6
CONTINUOUS
 62
     7
 10
294.77999967205528
 20
131.36686431398621
 30
0.0
 11
285.7799996720554
 21
131.36686431398621
 31
0.0
  0
LINE
  5
50B
  8
DATA
  6
CONTINUOUS
 62
     7
 10
310.97999967205533
 20
140.36686431398621
 30
0.0
 11
310.97999967205533
 21
131.36686431398621
 31
0.0
  0
LINE
  5
50C
  8
DATA
  6
CONTINUOUS
 62
     7
 10
301.97999967205533
 20
131.36686431398621
 30
0.0
 11
301.97999967205533
 21
140.36686431398621
 31
0.0
  0
LINE
  5
50D
  8
DATA
  6
CONTINUOUS
 62
     7
 10
310.97999967205533
 20
131.36686431398621
 30
0.0
 11
301.97999967205533
 21
131.36686431398621
 31
0.0
  0
LINE
  5
50E
  8
DATA
  6
CONTINUOUS
 62
     7
 10
294.77999967205528
 20
149.3668643139861
 30
0.0
 11
294.77999967205528
 21
140.36686431398621
 31
0.0
  0
LINE
  5
50F
  8
DATA
  6
CONTINUOUS
 62
     7
 10
285.7799996720554
 20
149.3668643139861
 30
0.0
 11
294.77999967205528
 21
149.3668643139861
 31
0.0
  0
LINE
  5
510
  8
DATA
  6
CONTINUOUS
 62
     7
 10
285.7799996720554
 20
140.36686431398621
 30
0.0
 11
285.7799996720554
 21
149.3668643139861
 31
0.0
  0
LINE
  5
511
  8
DATA
  6
CONTINUOUS
 62
     7
 10
310.97999967205533
 20
149.3668643139861
 30
0.0
 11
310.97999967205533
 21
140.36686431398621
 31
0.0
  0
LINE
  5
512
  8
DATA
  6
CONTINUOUS
 62
     7
 10
301.97999967205533
 20
149.3668643139861
 30
0.0
 11
310.97999967205533
 21
149.3668643139861
 31
0.0
  0
LINE
  5
513
  8
DATA
  6
CONTINUOUS
 62
     7
 10
301.97999967205533
 20
140.36686431398621
 30
0.0
 11
301.97999967205533
 21
149.3668643139861
 31
0.0
  0
LINE
  5
514
  8
DATA
  6
CONTINUOUS
 62
     7
 10
310.97999967205533
 20
139.39241947238469
 30
0.0
 11
301.97999967205533
 21
139.39241947238469
 31
0.0
  0
LINE
  5
515
  8
DATA
  6
CONTINUOUS
 62
     7
 10
294.77999967205528
 20
139.39241947238469
 30
0.0
 11
285.7799996720554
 21
139.39241947238469
 31
0.0
  0
TEXT
  5
516
  8
DATA
 62
     7
 10
288.13454079044442
 20
123.284582080622
 30
0.0
 40
5.8638281250000004
  1
1
 41
0.7
 11
288.13454079044442
 21
129.14841020562201
 31
0.0
 73
     3
  0
TEXT
  5
517
  8
DATA
 62
     7
 10
304.05610830639267
 20
123.284582080622
 30
0.0
 40
5.8638281250000004
  1
2
 41
0.7
 11
304.05610830639267
 21
129.14841020562201
 31
0.0
 73
     3
  0
TEXT
  5
518
  8
DATA
 62
     7
 10
286.26240881118213
 20
152.14983081011701
 30
0.0
 40
5.8638281250000004
  1
ON
 41
0.7
 11
286.26240881118213
 21
158.01365893511701
 31
0.0
 73
     3
  0
TEXT
  5
519
  8
DATA
 62
     7
 10
262.1516148862795
 20
103.6111280082271
 30
0.0
 40
8.1442057291666661
  1
スイッチ拡大図
 41
0.7
 11
262.1516148862795
 21
111.7553337373938
 31
0.0
 73
     3
  0
LINE
  5
51A
  8
DATA
  6
CONTINUOUS
 62
     7
 10
343.75
 20
100.0
 30
0.0
 11
256.25
 21
100.0
 31
0.0
  0
LINE
  5
51B
  8
DATA
  6
CONTINUOUS
 62
     7
 10
168.75
 20
100.0
 30
0.0
 11
87.5
 21
100.0
 31
0.0
  0
POLYLINE
  5
51C
  8
DATA
  6
CONTINUOUS
 62
     7
 66
     1
 10
0.0
 20
0.0
 30
0.0
 70
     1
  0
VERTEX
  5
75D
  8
DATA
  6
CONTINUOUS
 62
     7
 10
271.76292072400719
 20
-100.44831710397099
 30
0.0
  0
VERTEX
  5
75E
  8
DATA
  6
CONTINUOUS
 62
     7
 10
349.76292072400719
 20
-100.44831710397099
 30
0.0
  0
VERTEX
  5
75F
  8
DATA
  6
CONTINUOUS
 62
     7
 10
349.76292072400719
 20
-148.44831710397099
 30
0.0
  0
VERTEX
  5
760
  8
DATA
  6
CONTINUOUS
 62
     7
 10
271.76292072400719
 20
-148.44831710397099
 30
0.0
  0
SEQEND
  5
761
  8
DATA
  6
CONTINUOUS
 62
     7
  0
LINE
  5
523
  8
DATA
  6
CONTINUOUS
 62
     7
 10
291.1569971158396
 20
-123.4141213230406
 30
0.0
 11
291.1569971158396
 21
-132.4141213230406
 31
0.0
  0
LINE
  5
524
  8
DATA
  6
CONTINUOUS
 62
     7
 10
282.1569971158396
 20
-132.4141213230406
 30
0.0
 11
282.1569971158396
 21
-123.4141213230406
 31
0.0
  0
LINE
  5
525
  8
DATA
  6
CONTINUOUS
 62
     7
 10
291.1569971158396
 20
-132.4141213230406
 30
0.0
 11
282.1569971158396
 21
-132.4141213230406
 31
0.0
  0
LINE
  5
526
  8
DATA
  6
CONTINUOUS
 62
     7
 10
307.35699711583987
 20
-123.4141213230406
 30
0.0
 11
307.35699711583987
 21
-132.4141213230406
 31
0.0
  0
LINE
  5
527
  8
DATA
  6
CONTINUOUS
 62
     7
 10
298.35699711583987
 20
-132.4141213230406
 30
0.0
 11
298.35699711583987
 21
-123.4141213230406
 31
0.0
  0
LINE
  5
528
  8
DATA
  6
CONTINUOUS
 62
     7
 10
307.35699711583987
 20
-132.4141213230406
 30
0.0
 11
298.35699711583987
 21
-132.4141213230406
 31
0.0
  0
LINE
  5
529
  8
DATA
  6
CONTINUOUS
 62
     7
 10
291.1569971158396
 20
-114.4141213230406
 30
0.0
 11
291.1569971158396
 21
-123.4141213230406
 31
0.0
  0
LINE
  5
52A
  8
DATA
  6
CONTINUOUS
 62
     7
 10
282.1569971158396
 20
-114.4141213230406
 30
0.0
 11
291.1569971158396
 21
-114.4141213230406
 31
0.0
  0
LINE
  5
52B
  8
DATA
  6
CONTINUOUS
 62
     7
 10
282.1569971158396
 20
-123.4141213230406
 30
0.0
 11
282.1569971158396
 21
-114.4141213230406
 31
0.0
  0
LINE
  5
52C
  8
DATA
  6
CONTINUOUS
 62
     7
 10
307.35699711583987
 20
-114.4141213230406
 30
0.0
 11
307.35699711583987
 21
-123.4141213230406
 31
0.0
  0
LINE
  5
52D
  8
DATA
  6
CONTINUOUS
 62
     7
 10
298.35699711583987
 20
-114.4141213230406
 30
0.0
 11
307.35699711583987
 21
-114.4141213230406
 31
0.0
  0
LINE
  5
52E
  8
DATA
  6
CONTINUOUS
 62
     7
 10
298.35699711583987
 20
-123.4141213230406
 30
0.0
 11
298.35699711583987
 21
-114.4141213230406
 31
0.0
  0
LINE
  5
52F
  8
DATA
  6
CONTINUOUS
 62
     7
 10
307.35699711583987
 20
-124.388566164642
 30
0.0
 11
298.35699711583987
 21
-124.388566164642
 31
0.0
  0
LINE
  5
530
  8
DATA
  6
CONTINUOUS
 62
     7
 10
291.1569971158396
 20
-124.388566164642
 30
0.0
 11
282.1569971158396
 21
-124.388566164642
 31
0.0
  0
TEXT
  5
531
  8
DATA
 62
     7
 10
284.51153823422868
 20
-140.496403556405
 30
0.0
 40
5.8638281250000004
  1
1
 41
0.7
 11
284.51153823422868
 21
-134.632575431405
 31
0.0
 73
     3
  0
TEXT
  5
532
  8
DATA
 62
     7
 10
300.43310575017711
 20
-140.496403556405
 30
0.0
 40
5.8638281250000004
  1
2
 41
0.7
 11
300.43310575017711
 21
-134.632575431405
 31
0.0
 73
     3
  0
TEXT
  5
533
  8
DATA
 62
     7
 10
282.63940625496667
 20
-111.63115482690991
 30
0.0
 40
5.8638281250000004
  1
ON
 41
0.7
 11
282.63940625496667
 21
-105.76732670190989
 31
0.0
 73
     3
  0
LINE
  5
534
  8
DATA
  6
CONTINUOUS
 62
     7
 10
323.55699711583981
 20
-123.4141213230406
 30
0.0
 11
323.55699711583981
 21
-132.4141213230406
 31
0.0
  0
LINE
  5
535
  8
DATA
  6
CONTINUOUS
 62
     7
 10
314.55699711583981
 20
-132.4141213230406
 30
0.0
 11
314.55699711583981
 21
-123.4141213230406
 31
0.0
  0
LINE
  5
536
  8
DATA
  6
CONTINUOUS
 62
     7
 10
323.55699711583981
 20
-132.4141213230406
 30
0.0
 11
314.55699711583981
 21
-132.4141213230406
 31
0.0
  0
LINE
  5
537
  8
DATA
  6
CONTINUOUS
 62
     7
 10
323.55699711583981
 20
-114.4141213230406
 30
0.0
 11
323.55699711583981
 21
-123.4141213230406
 31
0.0
  0
LINE
  5
538
  8
DATA
  6
CONTINUOUS
 62
     7
 10
314.55699711583981
 20
-114.4141213230406
 30
0.0
 11
323.55699711583981
 21
-114.4141213230406
 31
0.0
  0
LINE
  5
539
  8
DATA
  6
CONTINUOUS
 62
     7
 10
314.55699711583981
 20
-123.4141213230406
 30
0.0
 11
314.55699711583981
 21
-114.4141213230406
 31
0.0
  0
LINE
  5
53A
  8
DATA
  6
CONTINUOUS
 62
     7
 10
323.55699711583981
 20
-124.388566164642
 30
0.0
 11
314.55699711583981
 21
-124.388566164642
 31
0.0
  0
TEXT
  5
53B
  8
DATA
 62
     7
 10
316.63310575017692
 20
-140.496403556405
 30
0.0
 40
5.8638281250000004
  1
3
 41
0.7
 11
316.63310575017692
 21
-134.632575431405
 31
0.0
 73
     3
  0
LINE
  5
53C
  8
DATA
  6
CONTINUOUS
 62
     7
 10
339.75699711583991
 20
-123.4141213230406
 30
0.0
 11
339.75699711583991
 21
-132.4141213230406
 31
0.0
  0
LINE
  5
53D
  8
DATA
  6
CONTINUOUS
 62
     7
 10
330.75699711583991
 20
-132.4141213230406
 30
0.0
 11
330.75699711583991
 21
-123.4141213230406
 31
0.0
  0
LINE
  5
53E
  8
DATA
  6
CONTINUOUS
 62
     7
 10
339.75699711583991
 20
-132.4141213230406
 30
0.0
 11
330.75699711583991
 21
-132.4141213230406
 31
0.0
  0
LINE
  5
53F
  8
DATA
  6
CONTINUOUS
 62
     7
 10
339.75699711583991
 20
-114.4141213230406
 30
0.0
 11
339.75699711583991
 21
-123.4141213230406
 31
0.0
  0
LINE
  5
540
  8
DATA
  6
CONTINUOUS
 62
     7
 10
330.75699711583991
 20
-114.4141213230406
 30
0.0
 11
339.75699711583991
 21
-114.4141213230406
 31
0.0
  0
LINE
  5
541
  8
DATA
  6
CONTINUOUS
 62
     7
 10
330.75699711583991
 20
-123.4141213230406
 30
0.0
 11
330.75699711583991
 21
-114.4141213230406
 31
0.0
  0
LINE
  5
542
  8
DATA
  6
CONTINUOUS
 62
     7
 10
339.75699711583991
 20
-124.388566164642
 30
0.0
 11
330.75699711583991
 21
-124.388566164642
 31
0.0
  0
TEXT
  5
543
  8
DATA
 62
     7
 10
332.83310575017708
 20
-140.496403556405
 30
0.0
 40
5.8638281250000004
  1
4
 41
0.7
 11
332.83310575017708
 21
-134.632575431405
 31
0.0
 73
     3
  0
LINE
  5
544
  8
DATA
  6
CONTINUOUS
 62
     7
 10
350.0
 20
-168.75
 30
0.0
 11
262.5
 21
-168.75
 31
0.0
  0
LINE
  5
545
  8
DATA
  6
CONTINUOUS
 62
     7
 10
168.75
 20
-168.75
 30
0.0
 11
87.5
 21
-168.75
 31
0.0
  0
TEXT
  5
546
  8
DATA
 62
     7
 10
270.35797513553712
 20
-164.07526473573449
 30
0.0
 40
8.1442057291666661
  1
スイッチ拡大図
 41
0.7
 11
270.35797513553712
 21
-155.93105900656789
 31
0.0
 73
     3
  0
ENDSEC
  0
EOF
