  0
SECTION
  2
HEADER
  9
$ACADVER
  1
AC1015
  9
$ACADMAINTVER
 70
    20
  9
$DWGCODEPAGE
  3
ANSI_932
  9
$INSBASE
 10
0.0
 20
0.0
 30
0.0
  9
$EXTMIN
 10
-350.0274637248685
 20
-533.8914657943396
 30
-0.0015258207003583
  9
$EXTMAX
 10
550.0274679158201
 20
804.175345923903
 30
0.0000000349246037
  9
$LIMMIN
 10
0.0
 20
0.0
  9
$LIMMAX
 10
0.0
 20
0.0
  9
$ORTHOMODE
 70
     0
  9
$REGENMODE
 70
     1
  9
$FILLMODE
 70
     1
  9
$QTEXTMODE
 70
     0
  9
$MIRRTEXT
 70
     1
  9
$LTSCALE
 40
25.4
  9
$ATTMODE
 70
     1
  9
$TEXTSIZE
 40
0.0
  9
$TRACEWID
 40
1.0
  9
$TEXTSTYLE
  7
STANDARD
  9
$CLAYER
  8
DATA
  9
$CELTYPE
  6
ByLayer
  9
$CECOLOR
 62
   256
  9
$CELTSCALE
 40
1.0
  9
$DISPSILH
 70
     0
  9
$DIMSCALE
 40
1.0
  9
$DIMASZ
 40
0.18
  9
$DIMEXO
 40
0.0625
  9
$DIMDLI
 40
0.38
  9
$DIMRND
 40
0.0
  9
$DIMDLE
 40
0.0
  9
$DIMEXE
 40
0.18
  9
$DIMTP
 40
0.0
  9
$DIMTM
 40
0.0
  9
$DIMTXT
 40
0.18
  9
$DIMCEN
 40
0.09
  9
$DIMTSZ
 40
0.0
  9
$DIMTOL
 70
     0
  9
$DIMLIM
 70
     0
  9
$DIMTIH
 70
     1
  9
$DIMTOH
 70
     1
  9
$DIMSE1
 70
     0
  9
$DIMSE2
 70
     0
  9
$DIMTAD
 70
     0
  9
$DIMZIN
 70
     0
  9
$DIMBLK
  1

  9
$DIMASO
 70
     1
  9
$DIMSHO
 70
     1
  9
$DIMPOST
  1

  9
$DIMAPOST
  1

  9
$DIMALT
 70
     0
  9
$DIMALTD
 70
     2
  9
$DIMALTF
 40
25.4
  9
$DIMLFAC
 40
1.0
  9
$DIMTOFL
 70
     0
  9
$DIMTVP
 40
0.0
  9
$DIMTIX
 70
     0
  9
$DIMSOXD
 70
     0
  9
$DIMSAH
 70
     0
  9
$DIMBLK1
  1

  9
$DIMBLK2
  1

  9
$DIMSTYLE
  2
STANDARD
  9
$DIMCLRD
 70
     0
  9
$DIMCLRE
 70
     0
  9
$DIMCLRT
 70
     0
  9
$DIMTFAC
 40
1.0
  9
$DIMGAP
 40
0.09
  9
$DIMJUST
 70
     0
  9
$DIMSD1
 70
     0
  9
$DIMSD2
 70
     0
  9
$DIMTOLJ
 70
     1
  9
$DIMTZIN
 70
     0
  9
$DIMALTZ
 70
     0
  9
$DIMALTTZ
 70
     0
  9
$DIMUPT
 70
     0
  9
$DIMDEC
 70
     4
  9
$DIMTDEC
 70
     4
  9
$DIMALTU
 70
     2
  9
$DIMALTTD
 70
     2
  9
$DIMTXSTY
  7
STANDARD
  9
$DIMAUNIT
 70
     0
  9
$DIMADEC
 70
     0
  9
$DIMALTRND
 40
0.0
  9
$DIMAZIN
 70
     0
  9
$DIMDSEP
 70
    46
  9
$DIMATFIT
 70
     3
  9
$DIMFRAC
 70
     0
  9
$DIMLDRBLK
  1

  9
$DIMLUNIT
 70
     2
  9
$DIMLWD
 70
    -2
  9
$DIMLWE
 70
    -2
  9
$DIMTMOVE
 70
     0
  9
$LUNITS
 70
     2
  9
$LUPREC
 70
     4
  9
$SKETCHINC
 40
0.1
  9
$FILLETRAD
 40
0.0
  9
$AUNITS
 70
     0
  9
$AUPREC
 70
     0
  9
$MENU
  1
acad
  9
$ELEVATION
 40
0.0
  9
$PELEVATION
 40
0.0
  9
$THICKNESS
 40
0.0
  9
$LIMCHECK
 70
     0
  9
$CHAMFERA
 40
0.0
  9
$CHAMFERB
 40
0.0
  9
$CHAMFERC
 40
0.0
  9
$CHAMFERD
 40
0.0
  9
$SKPOLY
 70
     0
  9
$TDCREATE
 40
2455477.422129630
  9
$TDUCREATE
 40
2455477.047129630
  9
$TDUPDATE
 40
2455477.428701817
  9
$TDUUPDATE
 40
2455477.053701817
  9
$TDINDWG
 40
0.0002807176
  9
$TDUSRTIMER
 40
0.0002805324
  9
$USRTIMER
 70
     1
  9
$ANGBASE
 50
0.0
  9
$ANGDIR
 70
     0
  9
$PDMODE
 70
     1
  9
$PDSIZE
 40
-2.0
  9
$PLINEWID
 40
0.0
  9
$SPLFRAME
 70
     0
  9
$SPLINETYPE
 70
     6
  9
$SPLINESEGS
 70
     8
  9
$HANDSEED
  5
93A
  9
$SURFTAB1
 70
     6
  9
$SURFTAB2
 70
     6
  9
$SURFTYPE
 70
     6
  9
$SURFU
 70
     6
  9
$SURFV
 70
     6
  9
$UCSBASE
  2

  9
$UCSNAME
  2

  9
$UCSORG
 10
0.0
 20
0.0
 30
0.0
  9
$UCSXDIR
 10
1.0
 20
0.0
 30
0.0
  9
$UCSYDIR
 10
0.0
 20
1.0
 30
0.0
  9
$UCSORTHOREF
  2

  9
$UCSORTHOVIEW
 70
     0
  9
$UCSORGTOP
 10
0.0
 20
0.0
 30
0.0
  9
$UCSORGBOTTOM
 10
0.0
 20
0.0
 30
0.0
  9
$UCSORGLEFT
 10
0.0
 20
0.0
 30
0.0
  9
$UCSORGRIGHT
 10
0.0
 20
0.0
 30
0.0
  9
$UCSORGFRONT
 10
0.0
 20
0.0
 30
0.0
  9
$UCSORGBACK
 10
0.0
 20
0.0
 30
0.0
  9
$PUCSBASE
  2

  9
$PUCSNAME
  2

  9
$PUCSORG
 10
0.0
 20
0.0
 30
0.0
  9
$PUCSXDIR
 10
1.0
 20
0.0
 30
0.0
  9
$PUCSYDIR
 10
0.0
 20
1.0
 30
0.0
  9
$PUCSORTHOREF
  2

  9
$PUCSORTHOVIEW
 70
     0
  9
$PUCSORGTOP
 10
0.0
 20
0.0
 30
0.0
  9
$PUCSORGBOTTOM
 10
0.0
 20
0.0
 30
0.0
  9
$PUCSORGLEFT
 10
0.0
 20
0.0
 30
0.0
  9
$PUCSORGRIGHT
 10
0.0
 20
0.0
 30
0.0
  9
$PUCSORGFRONT
 10
0.0
 20
0.0
 30
0.0
  9
$PUCSORGBACK
 10
0.0
 20
0.0
 30
0.0
  9
$USERI1
 70
     0
  9
$USERI2
 70
     0
  9
$USERI3
 70
     0
  9
$USERI4
 70
     0
  9
$USERI5
 70
     0
  9
$USERR1
 40
0.0
  9
$USERR2
 40
0.0
  9
$USERR3
 40
0.0
  9
$USERR4
 40
0.0
  9
$USERR5
 40
0.0
  9
$WORLDVIEW
 70
     1
  9
$SHADEDGE
 70
     3
  9
$SHADEDIF
 70
    70
  9
$TILEMODE
 70
     1
  9
$MAXACTVP
 70
    64
  9
$PINSBASE
 10
0.0
 20
0.0
 30
0.0
  9
$PLIMCHECK
 70
     0
  9
$PEXTMIN
 10
1.000000000000000E+20
 20
1.000000000000000E+20
 30
1.000000000000000E+20
  9
$PEXTMAX
 10
-1.000000000000000E+20
 20
-1.000000000000000E+20
 30
-1.000000000000000E+20
  9
$PLIMMIN
 10
0.0
 20
0.0
  9
$PLIMMAX
 10
12.0
 20
9.0
  9
$UNITMODE
 70
     0
  9
$VISRETAIN
 70
     0
  9
$PLINEGEN
 70
     1
  9
$PSLTSCALE
 70
     0
  9
$TREEDEPTH
 70
  3020
  9
$CMLSTYLE
  2
Standard
  9
$CMLJUST
 70
     0
  9
$CMLSCALE
 40
1.0
  9
$PROXYGRAPHICS
 70
     1
  9
$MEASUREMENT
 70
     0
  9
$CELWEIGHT
370
    -1
  9
$ENDCAPS
280
     0
  9
$JOINSTYLE
280
     0
  9
$LWDISPLAY
290
     0
  9
$INSUNITS
 70
     0
  9
$HYPERLINKBASE
  1

  9
$STYLESHEET
  1

  9
$XEDIT
290
     1
  9
$CEPSNTYPE
380
     0
  9
$PSTYLEMODE
290
     1
  9
$FINGERPRINTGUID
  2
{4B0B391E-B105-4386-8DA1-9F2D9BA3F691}
  9
$VERSIONGUID
  2
{46DD3C88-F760-428F-8BE5-7B32BAC83134}
  9
$EXTNAMES
290
     1
  9
$PSVPSCALE
 40
0.0
  9
$OLESTARTUP
290
     0
  0
ENDSEC
  0
SECTION
  2
CLASSES
  0
CLASS
  1
ACDBDICTIONARYWDFLT
  2
AcDbDictionaryWithDefault
  3
ObjectDBX Classes
 90
        0
280
     0
281
     0
  0
CLASS
  1
MATERIAL
  2
AcDbMaterial
  3
ObjectDBX Classes
 90
     1153
280
     0
281
     0
  0
CLASS
  1
VISUALSTYLE
  2
AcDbVisualStyle
  3
ObjectDBX Classes
 90
     4095
280
     0
281
     0
  0
CLASS
  1
SCALE
  2
AcDbScale
  3
ObjectDBX Classes
 90
     1153
280
     0
281
     0
  0
CLASS
  1
TABLESTYLE
  2
AcDbTableStyle
  3
ObjectDBX Classes
 90
     4095
280
     0
281
     0
  0
CLASS
  1
MLEADERSTYLE
  2
AcDbMLeaderStyle
  3
ACDB_MLEADERSTYLE_CLASS
 90
     4095
280
     0
281
     0
  0
CLASS
  1
DICTIONARYVAR
  2
AcDbDictionaryVar
  3
ObjectDBX Classes
 90
        0
280
     0
281
     0
  0
CLASS
  1
CELLSTYLEMAP
  2
AcDbCellStyleMap
  3
ObjectDBX Classes
 90
     1152
280
     0
281
     0
  0
CLASS
  1
ACDBPLACEHOLDER
  2
AcDbPlaceHolder
  3
ObjectDBX Classes
 90
        0
280
     0
281
     0
  0
CLASS
  1
LAYOUT
  2
AcDbLayout
  3
ObjectDBX Classes
 90
        0
280
     0
281
     0
  0
ENDSEC
  0
SECTION
  2
TABLES
  0
TABLE
  2
VPORT
  5
870
330
0
100
AcDbSymbolTable
 70
     1
  0
VPORT
  5
8D8
330
870
100
AcDbSymbolTableRecord
100
AcDbViewportTableRecord
  2
*ACTIVE
 70
     0
 10
0.0
 20
0.0
 11
1.0
 21
1.0
 12
100.0000020954759
 22
135.1419400647817
 13
0.0
 23
0.0
 14
1.0
 24
1.0
 15
0.0
 25
0.0
 16
0.0
 26
0.0
 36
1.0
 17
0.0
 27
0.0
 37
0.0
 40
1347.917610332119
 41
1.961916461916461
 42
50.0
 43
0.0
 44
0.0
 50
0.0
 51
0.0
 71
     0
 72
  2000
 73
     1
 74
     1
 75
     0
 76
     0
 77
     0
 78
     0
281
     0
 65
     1
110
0.0
120
0.0
130
0.0
111
1.0
121
0.0
131
0.0
112
0.0
122
1.0
132
0.0
 79
     0
146
0.0
  0
ENDTAB
  0
TABLE
  2
LTYPE
  5
86D
330
0
100
AcDbSymbolTable
 70
    11
  0
LTYPE
  5
8C2
330
86D
100
AcDbSymbolTableRecord
100
AcDbLinetypeTableRecord
  2
ByBlock
 70
     0
  3

 72
    65
 73
     0
 40
0.0
  0
LTYPE
  5
8C3
330
86D
100
AcDbSymbolTableRecord
100
AcDbLinetypeTableRecord
  2
ByLayer
 70
     0
  3

 72
    65
 73
     0
 40
0.0
  0
LTYPE
  5
8C4
330
86D
100
AcDbSymbolTableRecord
100
AcDbLinetypeTableRecord
  2
CONTINUOUS
 70
     0
  3
Solid line
 72
    65
 73
     0
 40
0.0
  0
ENDTAB
  0
TABLE
  2
LAYER
  5
86A
330
0
100
AcDbSymbolTable
 70
     5
  0
LAYER
  5
8BC
102
{ACAD_XDICTIONARY
360
8EB
102
}
330
86A
100
AcDbSymbolTableRecord
100
AcDbLayerTableRecord
  2
0
 70
     0
 62
     7
  6
CONTINUOUS
370
    -3
390
877
  0
LAYER
  5
8D7
102
{ACAD_XDICTIONARY
360
8ED
102
}
330
86A
100
AcDbSymbolTableRecord
100
AcDbLayerTableRecord
  2
DATA
 70
     0
 62
     7
  6
CONTINUOUS
370
    -3
390
877
  0
LAYER
  5
8E3
102
{ACAD_XDICTIONARY
360
8EF
102
}
330
86A
100
AcDbSymbolTableRecord
100
AcDbLayerTableRecord
  2
HIBINO-BASE
 70
     0
 62
     7
  6
CONTINUOUS
370
    -3
390
877
  0
LAYER
  5
8E4
102
{ACAD_XDICTIONARY
360
8F1
102
}
330
86A
100
AcDbSymbolTableRecord
100
AcDbLayerTableRecord
  2
SPEC
 70
     0
 62
     7
  6
CONTINUOUS
370
    -3
390
877
  0
LAYER
  5
8E5
102
{ACAD_XDICTIONARY
360
8F3
102
}
330
86A
100
AcDbSymbolTableRecord
100
AcDbLayerTableRecord
  2
DIMNSIONS
 70
     0
 62
     7
  6
CONTINUOUS
370
    -3
390
877
  0
ENDTAB
  0
TABLE
  2
STYLE
  5
86B
330
0
100
AcDbSymbolTable
 70
     3
  0
STYLE
  5
8BD
330
86B
100
AcDbSymbolTableRecord
100
AcDbTextStyleTableRecord
  2
STANDARD
 70
     0
 40
0.0
 41
1.0
 50
0.0
 71
     0
 42
0.0
  3
txt
  4
BIGFONT.SHX
  0
ENDTAB
  0
TABLE
  2
VIEW
  5
86E
330
0
100
AcDbSymbolTable
 70
     0
  0
ENDTAB
  0
TABLE
  2
UCS
  5
86F
330
0
100
AcDbSymbolTable
 70
     0
  0
ENDTAB
  0
TABLE
  2
APPID
  5
871
330
0
100
AcDbSymbolTable
 70
     3
  0
APPID
  5
8BE
330
871
100
AcDbSymbolTableRecord
100
AcDbRegAppTableRecord
  2
ACAD
 70
     0
  0
APPID
  5
8C5
330
871
100
AcDbSymbolTableRecord
100
AcDbRegAppTableRecord
  2
AcadAnnotative
 70
     0
  0
APPID
  5
935
330
871
100
AcDbSymbolTableRecord
100
AcDbRegAppTableRecord
  2
ACAD_MLEADERVER
 70
     0
  0
ENDTAB
  0
TABLE
  2
DIMSTYLE
  5
872
330
0
100
AcDbSymbolTable
 70
     2
100
AcDbDimStyleTable
 71
     0
  0
DIMSTYLE
105
8BF
330
872
100
AcDbSymbolTableRecord
100
AcDbDimStyleTableRecord
  2
STANDARD
 70
     0
279
     2
340
8BD
  0
ENDTAB
  0
TABLE
  2
BLOCK_RECORD
  5
869
330
0
100
AcDbSymbolTable
 70
     0
  0
BLOCK_RECORD
  5
8D3
330
869
100
AcDbSymbolTableRecord
100
AcDbBlockTableRecord
  2
*Model_Space
340
8D6
  0
BLOCK_RECORD
  5
8CF
330
869
100
AcDbSymbolTableRecord
100
AcDbBlockTableRecord
  2
*Paper_Space
340
8D2
  0
ENDTAB
  0
ENDSEC
  0
SECTION
  2
BLOCKS
  0
BLOCK
  5
8D4
330
8D3
100
AcDbEntity
  8
0
100
AcDbBlockBegin
  2
*Model_Space
 70
     0
 10
0.0
 20
0.0
 30
0.0
  3
*Model_Space
  1

  0
ENDBLK
  5
8D5
330
8D3
100
AcDbEntity
  8
0
100
AcDbBlockEnd
  0
BLOCK
  5
8D0
330
8CF
100
AcDbEntity
 67
     1
  8
0
100
AcDbBlockBegin
  2
*Paper_Space
 70
     0
 10
0.0
 20
0.0
 30
0.0
  3
*Paper_Space
  1

  0
ENDBLK
  5
8D1
330
8CF
100
AcDbEntity
 67
     1
  8
0
100
AcDbBlockEnd
  0
ENDSEC
  0
SECTION
  2
ENTITIES
  0
LINE
  5
2C
330
8D3
100
AcDbEntity
  8
HIBINO-BASE
  6
Continuous
 62
     7
100
AcDbLine
 10
-350.0
 20
804.1345915794636
 30
0.0
 11
549.9999999999999
 21
804.1345915794636
 31
0.0
  0
LINE
  5
2D
330
8D3
100
AcDbEntity
  8
HIBINO-BASE
  6
Continuous
 62
     7
100
AcDbLine
 10
549.9999999999999
 20
-495.8654084205363
 30
0.0
 11
-350.0
 21
-495.8654084205363
 31
0.0
  0
LINE
  5
2E
330
8D3
100
AcDbEntity
  8
HIBINO-BASE
  6
Continuous
 62
     7
100
AcDbLine
 10
-350.0
 20
-495.8654084205363
 30
0.0
 11
-350.0
 21
804.1345915794636
 31
0.0
  0
LINE
  5
2F
330
8D3
100
AcDbEntity
  8
HIBINO-BASE
  6
Continuous
 62
     7
100
AcDbLine
 10
549.9999999999999
 20
804.1345915794636
 30
0.0
 11
549.9999999999999
 21
-495.8654084205363
 31
0.0
  0
LINE
  5
30
330
8D3
100
AcDbEntity
  8
HIBINO-BASE
  6
Continuous
 62
     7
100
AcDbLine
 10
100.0
 20
-383.3654084205363
 30
0.0
 11
549.9999999999999
 21
-383.3654084205363
 31
0.0
  0
LINE
  5
31
330
8D3
100
AcDbEntity
  8
HIBINO-BASE
  6
Continuous
 62
     7
100
AcDbLine
 10
100.0
 20
-495.8654084205363
 30
0.0
 11
100.0
 21
-383.3654084205363
 31
0.0
  0
TEXT
  5
32
330
8D3
100
AcDbEntity
  8
HIBINO-BASE
 62
     7
100
AcDbText
 10
104.5
 20
-395.9088750872029
 30
0.0
 40
8.144205729166666
  1
NOTE
 41
0.7
 11
104.5
 21
-387.7646693580363
 31
0.0
100
AcDbText
 73
     3
  0
LINE
  5
33
330
8D3
100
AcDbEntity
  8
HIBINO-BASE
  6
Continuous
 62
     7
100
AcDbLine
 10
275.0
 20
-495.8654084205363
 30
0.0
 11
275.0
 21
-383.3654084205363
 31
0.0
  0
TEXT
  5
34
330
8D3
100
AcDbEntity
  8
HIBINO-BASE
 62
     7
100
AcDbText
 10
279.5
 20
-395.9088750872029
 30
0.0
 40
8.144205729166666
  1
TITLE
 41
0.7
 11
279.5
 21
-387.7646693580363
 31
0.0
100
AcDbText
 73
     3
  0
LINE
  5
35
330
8D3
100
AcDbEntity
  8
HIBINO-BASE
  6
Continuous
 62
     7
100
AcDbLine
 10
100.0
 20
-445.8654084205362
 30
0.0
 11
549.9999999999999
 21
-445.8654084205362
 31
0.0
  0
TEXT
  5
36
330
8D3
100
AcDbEntity
  8
HIBINO-BASE
 62
     7
100
AcDbText
 10
342.0
 20
-458.1272750872028
 30
0.0
 40
8.144205729166666
  1
DRAWN
 41
0.7
 11
342.0
 21
-449.9830693580362
 31
0.0
100
AcDbText
 73
     3
  0
TEXT
  5
37
330
8D3
100
AcDbEntity
  8
HIBINO-BASE
 62
     7
100
AcDbText
 10
217.0
 20
-458.1272750872028
 30
0.0
 40
8.144205729166666
  1
DATE
 41
0.7
 11
217.0
 21
-449.9830693580362
 31
0.0
100
AcDbText
 73
     3
  0
TEXT
  5
38
330
8D3
100
AcDbEntity
  8
HIBINO-BASE
 62
     7
100
AcDbText
 10
167.0
 20
-458.1272750872028
 30
0.0
 40
8.144205729166666
  1
SCALE
 41
0.7
 11
167.0
 21
-449.9830693580362
 31
0.0
100
AcDbText
 73
     3
  0
TEXT
  5
39
330
8D3
100
AcDbEntity
  8
HIBINO-BASE
 62
     7
100
AcDbText
 10
279.5
 20
-458.1272750872028
 30
0.0
 40
8.144205729166666
  1
DESIGN
 41
0.7
 11
279.5
 21
-449.9830693580362
 31
0.0
100
AcDbText
 73
     3
  0
TEXT
  5
3A
330
8D3
100
AcDbEntity
  8
HIBINO-BASE
 62
     7
100
AcDbText
 10
467.0
 20
-458.1272750872028
 30
0.0
 40
8.144205729166666
  1
DRAWING NO.
 41
0.7
 11
467.0
 21
-449.9830693580362
 31
0.0
100
AcDbText
 73
     3
  0
TEXT
  5
3B
330
8D3
100
AcDbEntity
  8
HIBINO-BASE
 62
     7
100
AcDbText
 10
404.4999999999999
 20
-458.1272750872028
 30
0.0
 40
8.144205729166666
  1
CHECK
 41
0.7
 11
404.4999999999999
 21
-449.9830693580362
 31
0.0
100
AcDbText
 73
     3
  0
LINE
  5
3C
330
8D3
100
AcDbEntity
  8
HIBINO-BASE
  6
Continuous
 62
     7
100
AcDbLine
 10
171.875
 20
-489.6154084205363
 30
0.0
 11
190.625
 21
-470.8654084205362
 31
0.0
  0
TEXT
  5
3D
330
8D3
100
AcDbEntity
  8
HIBINO-BASE
 62
     7
100
AcDbText
 10
168.75
 20
-476.4101250872029
 30
0.0
 40
8.144205729166666
  1
1
 41
0.7
 11
168.75
 21
-468.2659193580362
 31
0.0
100
AcDbText
 73
     3
  0
LINE
  5
3E
330
8D3
100
AcDbEntity
  8
HIBINO-BASE
  6
Continuous
 62
     7
100
AcDbLine
 10
162.5
 20
-495.8654084205363
 30
0.0
 11
162.5
 21
-445.8654084205362
 31
0.0
  0
LINE
  5
3F
330
8D3
100
AcDbEntity
  8
HIBINO-BASE
  6
Continuous
 62
     7
100
AcDbLine
 10
212.5
 20
-495.8654084205363
 30
0.0
 11
212.5
 21
-445.8654084205362
 31
0.0
  0
LINE
  5
40
330
8D3
100
AcDbEntity
  8
HIBINO-BASE
  6
Continuous
 62
     7
100
AcDbLine
 10
337.5
 20
-445.8654084205362
 30
0.0
 11
337.5
 21
-495.8654084205363
 31
0.0
  0
LINE
  5
41
330
8D3
100
AcDbEntity
  8
HIBINO-BASE
  6
Continuous
 62
     7
100
AcDbLine
 10
462.5
 20
-445.8654084205362
 30
0.0
 11
462.5
 21
-495.8654084205363
 31
0.0
  0
LINE
  5
42
330
8D3
100
AcDbEntity
  8
HIBINO-BASE
  6
Continuous
 62
     7
100
AcDbLine
 10
400.0
 20
-495.8654084205363
 30
0.0
 11
400.0
 21
-445.8654084205362
 31
0.0
  0
TEXT
  5
43
330
8D3
100
AcDbEntity
  8
HIBINO-BASE
 62
     7
100
AcDbText
 10
216.7827
 20
-481.5471750872029
 30
0.0
 40
8.144205729166666
  1
'10.10.
 41
0.7
 11
216.7827
 21
-473.4029693580363
 31
0.0
100
AcDbText
 73
     3
  0
TEXT
  5
44
330
8D3
100
AcDbEntity
  8
HIBINO-BASE
 62
     7
100
AcDbText
 10
187.5
 20
-485.7851250872029
 30
0.0
 40
8.144205729166666
  1
5
 41
0.7
 11
187.5
 21
-477.6409193580362
 31
0.0
100
AcDbText
 73
     3
  0
TEXT
  5
45
330
8D3
100
AcDbEntity
  8
HIBINO-BASE
 62
     7
100
AcDbText
 10
345.0290500551731
 20
-481.5471750872029
 30
0.0
 40
8.144205729166666
  1
T.Ootake
 41
0.7
 11
345.0290500551731
 21
-473.4029693580363
 31
0.0
100
AcDbText
 73
     3
  0
TEXT
  5
46
330
8D3
100
AcDbEntity
  8
HIBINO-BASE
 62
     7
100
AcDbText
 10
119.4166666666667
 20
-485.9854084205363
 30
0.0
 40
16.28841145833333
  1
A4
 41
0.7
 11
119.4166666666667
 21
-469.6969969622029
 31
0.0
100
AcDbText
 73
     3
  0
TEXT
  5
47
330
8D3
100
AcDbEntity
  8
HIBINO-BASE
 62
     7
100
AcDbText
 10
104.7916666666666
 20
-458.9626834205363
 30
0.0
 40
8.144205729166666
  1
PAPER SIZE
 41
0.7
 11
104.7916666666666
 21
-450.8184776913696
 31
0.0
100
AcDbText
 73
     3
  0
TEXT
  5
48
330
8D3
100
AcDbEntity
  8
HIBINO-BASE
 62
     7
100
AcDbText
 10
-336.201823715549
 20
-527.9916095914176
 30
0.0
 40
17.64577907986111
  1
Hibino-Intersound Corporation
 41
0.7
 11
-336.201823715549
 21
-510.3458305115564
 31
0.0
100
AcDbText
 73
     3
  0
TEXT
  5
49
330
8D3
100
AcDbEntity
  8
HIBINO-BASE
 62
     7
100
AcDbText
 10
200.9030484010695
 20
-526.2361683249705
 30
0.0
 40
17.64577907986111
  1
ヒビノインターサウンド株式会社
 41
0.7
 11
200.9030484010695
 21
-508.5903892451094
 31
0.0
100
AcDbText
 73
     3
  0
LINE
  5
4A
330
8D3
100
AcDbEntity
  8
SPEC
  6
Continuous
 62
     7
100
AcDbLine
 10
-312.5
 20
754.1345915794635
 30
0.0
 11
425.0
 21
754.1345915794635
 31
0.0
  0
LINE
  5
4B
330
8D3
100
AcDbEntity
  8
SPEC
  6
Continuous
 62
     7
100
AcDbLine
 10
-312.5
 20
735.3845915794635
 30
0.0
 11
425.0
 21
735.3845915794635
 31
0.0
  0
LINE
  5
4C
330
8D3
100
AcDbEntity
  8
SPEC
  6
Continuous
 62
     7
100
AcDbLine
 10
-312.5
 20
697.8845915794635
 30
0.0
 11
425.0
 21
697.8845915794635
 31
0.0
  0
LINE
  5
4D
330
8D3
100
AcDbEntity
  8
SPEC
  6
Continuous
 62
     7
100
AcDbLine
 10
-312.5
 20
716.6345915794635
 30
0.0
 11
425.0
 21
716.6345915794635
 31
0.0
  0
LINE
  5
4E
330
8D3
100
AcDbEntity
  8
SPEC
  6
Continuous
 62
     7
100
AcDbLine
 10
-312.5
 20
754.1345915794635
 30
0.0
 11
-312.5
 21
491.6345915794636
 31
0.0
  0
TEXT
  5
4F
330
8D3
100
AcDbEntity
  8
SPEC
 62
     7
100
AcDbText
 10
-306.25
 20
761.1009415794635
 30
0.0
 40
12.21630859375
  1
仕様
 41
0.7
 11
-306.25
 21
773.3172501732135
 31
0.0
100
AcDbText
 73
     3
  0
LINE
  5
50
330
8D3
100
AcDbEntity
  8
SPEC
  6
Continuous
 62
     7
100
AcDbLine
 10
-118.75
 20
754.1345915794635
 30
0.0
 11
-118.75
 21
491.6345915794636
 31
0.0
  0
LINE
  5
51
330
8D3
100
AcDbEntity
  8
SPEC
  6
Continuous
 62
     7
100
AcDbLine
 10
425.0
 20
754.1345915794635
 30
0.0
 11
425.0
 21
491.6345915794636
 31
0.0
  0
LINE
  5
52
330
8D3
100
AcDbEntity
  8
SPEC
  6
Continuous
 62
     7
100
AcDbLine
 10
-312.5
 20
679.1345915794635
 30
0.0
 11
425.0
 21
679.1345915794635
 31
0.0
  0
LINE
  5
53
330
8D3
100
AcDbEntity
  8
SPEC
  6
Continuous
 62
     7
100
AcDbLine
 10
-312.5
 20
660.3845915794635
 30
0.0
 11
425.0
 21
660.3845915794635
 31
0.0
  0
LINE
  5
54
330
8D3
100
AcDbEntity
  8
SPEC
  6
Continuous
 62
     7
100
AcDbLine
 10
-312.5
 20
641.6345915794636
 30
0.0
 11
425.0
 21
641.6345915794636
 31
0.0
  0
LINE
  5
55
330
8D3
100
AcDbEntity
  8
SPEC
  6
Continuous
 62
     7
100
AcDbLine
 10
-312.5
 20
622.8845915794636
 30
0.0
 11
425.0
 21
622.8845915794636
 31
0.0
  0
LINE
  5
56
330
8D3
100
AcDbEntity
  8
SPEC
  6
Continuous
 62
     7
100
AcDbLine
 10
-312.5
 20
604.1345915794636
 30
0.0
 11
425.0
 21
604.1345915794636
 31
0.0
  0
LINE
  5
57
330
8D3
100
AcDbEntity
  8
SPEC
  6
Continuous
 62
     7
100
AcDbLine
 10
-312.5
 20
585.3845915794636
 30
0.0
 11
425.0
 21
585.3845915794636
 31
0.0
  0
LINE
  5
58
330
8D3
100
AcDbEntity
  8
SPEC
  6
Continuous
 62
     7
100
AcDbLine
 10
-312.5
 20
566.6345915794636
 30
0.0
 11
425.0
 21
566.6345915794636
 31
0.0
  0
LINE
  5
59
330
8D3
100
AcDbEntity
  8
SPEC
  6
Continuous
 62
     7
100
AcDbLine
 10
-312.5
 20
547.8845915794636
 30
0.0
 11
425.0
 21
547.8845915794636
 31
0.0
  0
LINE
  5
5A
330
8D3
100
AcDbEntity
  8
SPEC
  6
Continuous
 62
     7
100
AcDbLine
 10
-312.5
 20
529.1345915794636
 30
0.0
 11
425.0
 21
529.1345915794636
 31
0.0
  0
LINE
  5
5B
330
8D3
100
AcDbEntity
  8
SPEC
  6
Continuous
 62
     7
100
AcDbLine
 10
-312.5
 20
510.3845915794636
 30
0.0
 11
425.0
 21
510.3845915794636
 31
0.0
  0
LINE
  5
5C
330
8D3
100
AcDbEntity
  8
SPEC
  6
Continuous
 62
     7
100
AcDbLine
 10
-312.5
 20
491.6345915794636
 30
0.0
 11
425.0
 21
491.6345915794636
 31
0.0
  0
TEXT
  5
5D
330
8D3
100
AcDbEntity
  8
SPEC
 62
     7
100
AcDbText
 10
-308.2477968123326
 20
739.8627997172297
 30
0.0
 40
9.501556249999998
  1
形式
 41
0.7
 11
-308.2477968123326
 21
749.3643559672298
 31
0.0
100
AcDbText
 73
     3
  0
TEXT
  5
5E
330
8D3
100
AcDbEntity
  8
SPEC
 62
     7
100
AcDbText
 10
-308.5296243907958
 20
534.7972587368461
 30
0.0
 40
9.501556249999998
  1
寸法
 41
0.7
 11
-308.5296243907958
 21
544.2988149868462
 31
0.0
100
AcDbText
 73
     3
  0
TEXT
  5
5F
330
8D3
100
AcDbEntity
  8
SPEC
 62
     7
100
AcDbText
 10
-308.3058672109368
 20
514.9780909973451
 30
0.0
 40
9.501556249999998
  1
重量
 41
0.7
 11
-308.3058672109368
 21
524.4796472473451
 31
0.0
100
AcDbText
 73
     3
  0
TEXT
  5
60
330
8D3
100
AcDbEntity
  8
SPEC
 62
     7
100
AcDbText
 10
-114.1802035254183
 20
570.657541985315
 30
0.0
 40
9.501556249999998
  1
5V DC
 41
0.7
 11
-114.1802035254183
 21
580.1590982353149
 31
0.0
100
AcDbText
 73
     3
  0
TEXT
  5
61
330
8D3
100
AcDbEntity
  8
SPEC
 62
     7
100
AcDbText
 10
-308.3984931359567
 20
571.85792803565
 30
0.0
 40
9.501556249999998
  1
電源
 41
0.7
 11
-308.3984931359567
 21
581.3594842856501
 31
0.0
100
AcDbText
 73
     3
  0
TEXT
  5
62
330
8D3
100
AcDbEntity
  8
SPEC
 62
     7
100
AcDbText
 10
-310.2347460387118
 20
721.4168992500407
 30
0.0
 40
9.501556249999998
  1
ビデオアンプ帯域
 41
0.7
 11
-310.2347460387118
 21
730.9184555000407
 31
0.0
100
AcDbText
 73
     3
  0
TEXT
  5
63
330
8D3
100
AcDbEntity
  8
SPEC
 62
     7
100
AcDbText
 10
-114.9125534012926
 20
721.4430304883798
 30
0.0
 40
9.501556249999998
  1
165MHz\U+00D72
 41
0.7
 11
-114.9125534012926
 21
730.9445867383798
 31
0.0
100
AcDbText
 73
     3
  0
TEXT
  5
64
330
8D3
100
AcDbEntity
  8
SPEC
 62
     7
100
AcDbText
 10
-309.1035990416378
 20
702.527800361652
 30
0.0
 40
9.501573350694446
  1
シングルリンク最大対応解像度
 41
0.7
 11
-309.1035990416378
 21
712.0293737123464
 31
0.0
100
AcDbText
 73
     3
  0
TEXT
  5
65
330
8D3
100
AcDbEntity
  8
SPEC
 62
     7
100
AcDbText
 10
-114.7940222694849
 20
702.8923759434425
 30
0.0
 40
9.501573350694446
  1
1920\U+00D71200
 41
0.7
 11
-114.7940222694849
 21
712.3939492941369
 31
0.0
100
AcDbText
 73
     3
  0
TEXT
  5
66
330
8D3
100
AcDbEntity
  8
SPEC
 62
     7
100
AcDbText
 10
-308.2427204967276
 20
552.8662985302864
 30
0.0
 40
9.501556249999998
  1
消費電力
 41
0.7
 11
-308.2427204967276
 21
562.3678547802865
 31
0.0
100
AcDbText
 73
     3
  0
TEXT
  5
67
330
8D3
100
AcDbEntity
  8
SPEC
 62
     7
100
AcDbText
 10
-114.2678887738927
 20
552.3284971478221
 30
0.0
 40
9.501556249999998
  1
27W(最大)
 41
0.7
 11
-114.2678887738927
 21
561.8300533978222
 31
0.0
100
AcDbText
 73
     3
  0
TEXT
  5
68
330
8D3
100
AcDbEntity
  8
SPEC
 62
     7
100
AcDbText
 10
-113.8101457640182
 20
533.7701319894695
 30
0.0
 40
9.501573350694446
  1
435(W)\U+00D744(H)\U+00D7109(D)mm(突起部含まず)
 41
0.7
 11
-113.8101457640182
 21
543.2717053401639
 31
0.0
100
AcDbText
 73
     3
  0
TEXT
  5
69
330
8D3
100
AcDbEntity
  8
SPEC
 62
     7
100
AcDbText
 10
-114.2009974610349
 20
515.7706175093037
 30
0.0
 40
9.501573350694446
  1
約950g
 41
0.7
 11
-114.2009974610349
 21
525.2721908599982
 31
0.0
100
AcDbText
 73
     3
  0
TEXT
  5
6A
330
8D3
100
AcDbEntity
  8
SPEC
 62
     7
100
AcDbText
 10
-308.2790966395608
 20
665.3228184037124
 30
0.0
 40
9.501573350694446
  1
入力DDC信号
 41
0.7
 11
-308.2790966395608
 21
674.8243917544068
 31
0.0
100
AcDbText
 73
     3
  0
TEXT
  5
6B
330
8D3
100
AcDbEntity
  8
SPEC
 62
     7
100
AcDbText
 10
-114.2111880444109
 20
665.0153093346631
 30
0.0
 40
9.501573350694446
  1
5Vp-p(TTL)
 41
0.7
 11
-114.2111880444109
 21
674.5168826853576
 31
0.0
100
AcDbText
 73
     3
  0
TEXT
  5
6C
330
8D3
100
AcDbEntity
  8
SPEC
 62
     7
100
AcDbText
 10
-309.0241380320951
 20
497.4870683929522
 30
0.0
 40
9.501556249999998
  1
ラック設置
 41
0.7
 11
-309.0241380320951
 21
506.9886246429523
 31
0.0
100
AcDbText
 73
     3
  0
TEXT
  5
6D
330
8D3
100
AcDbEntity
  8
SPEC
 62
     7
100
AcDbText
 10
-114.8708832259483
 20
496.9312012829107
 30
0.0
 40
9.501573350694446
  1
1U
 41
0.7
 11
-114.8708832259483
 21
506.4327746336052
 31
0.0
100
AcDbText
 73
     3
  0
TEXT
  5
6E
330
8D3
100
AcDbEntity
  8
SPEC
 62
     7
100
AcDbText
 10
-307.9988297058546
 20
590.5184686519314
 30
0.0
 40
9.501556249999998
  1
DVI入出力コネクタ ー
 41
0.7
 11
-307.9988297058546
 21
600.0200249019314
 31
0.0
100
AcDbText
 73
     3
  0
TEXT
  5
6F
330
8D3
100
AcDbEntity
  8
SPEC
 62
     7
100
AcDbText
 10
-114.2137765403882
 20
590.3034400065808
 30
0.0
 40
9.501573350694446
  1
DVI-I(29pin)female(digital only)
 41
0.7
 11
-114.2137765403882
 21
599.8050133572753
 31
0.0
100
AcDbText
 73
     3
  0
TEXT
  5
70
330
8D3
100
AcDbEntity
  8
SPEC
 62
     7
100
AcDbText
 10
-307.9725043390654
 20
609.2946110866368
 30
0.0
 40
9.501556249999998
  1
USB2.0出力端子
 41
0.7
 11
-307.9725043390654
 21
618.7961673366369
 31
0.0
100
AcDbText
 73
     3
  0
TEXT
  5
71
330
8D3
100
AcDbEntity
  8
SPEC
 62
     7
100
AcDbText
 10
-113.8440212950873
 20
608.708049051011
 30
0.0
 40
9.501573350694446
  1
Aタ イプ
 41
0.7
 11
-113.8440212950873
 21
618.2096224017055
 31
0.0
100
AcDbText
 73
     3
  0
TEXT
  5
72
330
8D3
100
AcDbEntity
  8
SPEC
 62
     7
100
AcDbText
 10
-308.0077535804631
 20
628.1261273183556
 30
0.0
 40
9.501556249999998
  1
USB2.0入力端子
 41
0.7
 11
-308.0077535804631
 21
637.6276835683556
 31
0.0
100
AcDbText
 73
     3
  0
TEXT
  5
73
330
8D3
100
AcDbEntity
  8
SPEC
 62
     7
100
AcDbText
 10
-114.0892218055062
 20
628.0688364493527
 30
0.0
 40
9.501573350694446
  1
Bタ イプ
 41
0.7
 11
-114.0892218055062
 21
637.5704098000471
 31
0.0
100
AcDbText
 73
     3
  0
TEXT
  5
74
330
8D3
100
AcDbEntity
  8
SPEC
 62
     7
100
AcDbText
 10
-308.2345197610347
 20
646.4092269004575
 30
0.0
 40
9.501556249999998
  1
入力ビデオ信号
 41
0.7
 11
-308.2345197610347
 21
655.9107831504575
 31
0.0
100
AcDbText
 73
     3
  0
TEXT
  5
75
330
8D3
100
AcDbEntity
  8
SPEC
 62
     7
100
AcDbText
 10
-114.9142411474909
 20
646.7726321876624
 30
0.0
 40
9.501573350694446
  1
1.2Vp-p
 41
0.7
 11
-114.9142411474909
 21
656.2742055383568
 31
0.0
100
AcDbText
 73
     3
  0
TEXT
  5
76
330
8D3
100
AcDbEntity
  8
SPEC
 62
     7
100
AcDbText
 10
-114.2769712681016
 20
739.4817244668031
 30
0.0
 40
9.501573350694446
  1
DVI KVM DL切替機
 41
0.7
 11
-114.2769712681016
 21
748.9832978174976
 31
0.0
100
AcDbText
 73
     3
  0
TEXT
  5
77
330
8D3
100
AcDbEntity
  8
SPEC
 62
     7
100
AcDbText
 10
-308.7193805836645
 20
684.2989611304966
 30
0.0
 40
9.501573350694446
  1
デュアルリンク最大対応解像度
 41
0.7
 11
-308.7193805836645
 21
693.8005344811911
 31
0.0
100
AcDbText
 73
     3
  0
TEXT
  5
78
330
8D3
100
AcDbEntity
  8
SPEC
 62
     7
100
AcDbText
 10
-114.0462695963189
 20
683.6561752751436
 30
0.0
 40
9.501573350694446
  1
3840\U+00D72400
 41
0.7
 11
-114.0462695963189
 21
693.1577486258381
 31
0.0
100
AcDbText
 73
     3
  0
TEXT
  5
79
330
8D3
100
AcDbEntity
  8
DIMNSIONS
 62
     7
100
AcDbText
 10
-0.0000000000000149
 20
-434.5179584205363
 30
0.0
 40
12.21630859375
  1
(単位：mm)
 41
0.7
 11
-0.0000000000000142
 21
-422.3016498267863
 31
0.0
100
AcDbText
 73
     3
  0
LINE
  5
7A
330
8D3
100
AcDbEntity
  8
DIMNSIONS
  6
Continuous
 62
     7
100
AcDbLine
 10
-235.0000000001111
 20
-200.0000000001326
 30
0.0
 11
-272.5000000001111
 21
-200.0000000001326
 31
0.0
  0
LINE
  5
7B
330
8D3
100
AcDbEntity
  8
DIMNSIONS
  6
Continuous
 62
     7
100
AcDbLine
 10
-235.0000000001111
 20
-156.0000000001325
 30
0.0
 11
-272.5000000001111
 21
-156.0000000001325
 31
0.0
  0
LINE
  5
7C
330
8D3
100
AcDbEntity
  8
DIMNSIONS
  6
Continuous
 62
     7
100
AcDbLine
 10
-262.5000000001111
 20
-200.0000000001326
 30
0.0
 11
-262.5000000001111
 21
-156.0000000001325
 31
0.0
  0
LINE
  5
7D
330
8D3
100
AcDbEntity
  8
DIMNSIONS
  6
Continuous
 62
     7
100
AcDbLine
 10
-262.5000000001111
 20
-200.0000000001326
 30
0.0
 11
-265.8501989758622
 21
-187.4968872071638
 31
0.0
  0
LINE
  5
7E
330
8D3
100
AcDbEntity
  8
DIMNSIONS
  6
Continuous
 62
     7
100
AcDbLine
 10
-262.5000000001111
 20
-200.0000000001326
 30
0.0
 11
-259.1498010243599
 21
-187.4968872071638
 31
0.0
  0
LINE
  5
7F
330
8D3
100
AcDbEntity
  8
DIMNSIONS
  6
Continuous
 62
     7
100
AcDbLine
 10
-262.5000000001111
 20
-156.0000000001325
 30
0.0
 11
-259.1498010243599
 21
-168.5031127931013
 31
0.0
  0
LINE
  5
80
330
8D3
100
AcDbEntity
  8
DIMNSIONS
  6
Continuous
 62
     7
100
AcDbLine
 10
-262.5000000001111
 20
-156.0000000001325
 30
0.0
 11
-265.8501989758622
 21
-168.5031127931013
 31
0.0
  0
TEXT
  5
81
330
8D3
100
AcDbEntity
  8
DIMNSIONS
 62
     7
100
AcDbText
 10
-267.4694444445555
 20
-186.819444444577
 30
0.0
 40
13.57367621527778
  1
44
 50
90.0
 41
0.7
 11
-281.0431206598333
 21
-186.819444444577
 31
0.0
100
AcDbText
 73
     3
  0
LINE
  5
82
330
8D3
100
AcDbEntity
  8
DIMNSIONS
  6
Continuous
 62
     7
100
AcDbLine
 10
-225.0000000001111
 20
-210.0000000001326
 30
0.0
 11
-225.0000000001111
 21
-247.5000000001326
 31
0.0
  0
LINE
  5
83
330
8D3
100
AcDbEntity
  8
DIMNSIONS
  6
Continuous
 62
     7
100
AcDbLine
 10
209.9999999998889
 20
-210.0000000001326
 30
0.0
 11
209.9999999998889
 21
-247.5000000001326
 31
0.0
  0
LINE
  5
84
330
8D3
100
AcDbEntity
  8
DIMNSIONS
  6
Continuous
 62
     7
100
AcDbLine
 10
-225.0000000001111
 20
-237.5000000001326
 30
0.0
 11
209.9999999998889
 21
-237.5000000001326
 31
0.0
  0
LINE
  5
85
330
8D3
100
AcDbEntity
  8
DIMNSIONS
  6
Continuous
 62
     7
100
AcDbLine
 10
-225.0000000001111
 20
-237.5000000001326
 30
0.0
 11
-212.4968872071423
 21
-234.1498010243814
 31
0.0
  0
LINE
  5
86
330
8D3
100
AcDbEntity
  8
DIMNSIONS
  6
Continuous
 62
     7
100
AcDbLine
 10
-225.0000000001111
 20
-237.5000000001326
 30
0.0
 11
-212.4968872071423
 21
-240.8501989758838
 31
0.0
  0
LINE
  5
87
330
8D3
100
AcDbEntity
  8
DIMNSIONS
  6
Continuous
 62
     7
100
AcDbLine
 10
209.9999999998889
 20
-237.5000000001326
 30
0.0
 11
197.4968872069201
 21
-240.8501989758838
 31
0.0
  0
LINE
  5
88
330
8D3
100
AcDbEntity
  8
DIMNSIONS
  6
Continuous
 62
     7
100
AcDbLine
 10
209.9999999998889
 20
-237.5000000001326
 30
0.0
 11
197.4968872069201
 21
-234.1498010243814
 31
0.0
  0
TEXT
  5
89
330
8D3
100
AcDbEntity
  8
DIMNSIONS
 62
     7
100
AcDbText
 10
-20.72916666677776
 20
-232.5305555556881
 30
0.0
 40
13.57367621527778
  1
435
 41
0.7
 11
-20.72916666677776
 21
-218.9568793404103
 31
0.0
100
AcDbText
 73
     3
  0
LINE
  5
8A
330
8D3
100
AcDbEntity
  8
DIMNSIONS
  6
Continuous
 62
     7
100
AcDbLine
 10
-224.2053829922725
 20
-204.0000000001326
 30
0.0
 11
-272.5000000001111
 21
-204.0000000001326
 31
0.0
  0
LINE
  5
8B
330
8D3
100
AcDbEntity
  8
DIMNSIONS
  6
Continuous
 62
     7
100
AcDbLine
 10
-235.000000000111
 20
-200.0000000001326
 30
0.0
 11
-272.5000000001111
 21
-200.0000000001326
 31
0.0
  0
LINE
  5
8C
330
8D3
100
AcDbEntity
  8
DIMNSIONS
  6
Continuous
 62
     7
100
AcDbLine
 10
-262.5000000001111
 20
-200.0000000001326
 30
0.0
 11
-262.5000000001111
 21
-204.0000000001326
 31
0.0
  0
LINE
  5
8D
330
8D3
100
AcDbEntity
  8
DIMNSIONS
  6
Continuous
 62
     7
100
AcDbLine
 10
-262.5000000001111
 20
-204.0000000001326
 30
0.0
 11
-262.5000000001111
 21
-226.819444444577
 31
0.0
  0
LINE
  5
8E
330
8D3
100
AcDbEntity
  8
DIMNSIONS
  6
Continuous
 62
     7
100
AcDbLine
 10
-262.5000000001111
 20
-204.0000000001326
 30
0.0
 11
-259.1498010243599
 21
-216.5031127931013
 31
0.0
  0
LINE
  5
8F
330
8D3
100
AcDbEntity
  8
DIMNSIONS
  6
Continuous
 62
     7
100
AcDbLine
 10
-262.5000000001111
 20
-204.0000000001326
 30
0.0
 11
-265.8501989758622
 21
-216.5031127931013
 31
0.0
  0
LINE
  5
90
330
8D3
100
AcDbEntity
  8
DIMNSIONS
  6
Continuous
 62
     7
100
AcDbLine
 10
-262.5000000001111
 20
-200.0000000001326
 30
0.0
 11
-262.5000000001111
 21
-175.0000000001325
 31
0.0
  0
LINE
  5
91
330
8D3
100
AcDbEntity
  8
DIMNSIONS
  6
Continuous
 62
     7
100
AcDbLine
 10
-262.5000000001111
 20
-200.0000000001326
 30
0.0
 11
-265.8501989758622
 21
-187.4968872071638
 31
0.0
  0
LINE
  5
92
330
8D3
100
AcDbEntity
  8
DIMNSIONS
  6
Continuous
 62
     7
100
AcDbLine
 10
-262.5000000001111
 20
-200.0000000001326
 30
0.0
 11
-259.1498010243599
 21
-187.4968872071638
 31
0.0
  0
TEXT
  5
93
330
8D3
100
AcDbEntity
  8
DIMNSIONS
 62
     7
100
AcDbText
 10
-267.4694444445555
 20
-226.819444444577
 30
0.0
 40
13.57367621527778
  1
4
 50
90.0
 41
0.7
 11
-281.0431206598333
 21
-226.819444444577
 31
0.0
100
AcDbText
 73
     3
  0
LINE
  5
94
330
8D3
100
AcDbEntity
  8
DIMNSIONS
  6
Continuous
 62
     7
100
AcDbLine
 10
-235.0000000001111
 20
-100.0000000001326
 30
0.0
 11
-272.5000000001111
 21
-100.0000000001326
 31
0.0
  0
LINE
  5
95
330
8D3
100
AcDbEntity
  8
DIMNSIONS
  6
Continuous
 62
     7
100
AcDbLine
 10
-235.0000000001111
 20
8.99999999986741
 30
0.0
 11
-272.5000000001111
 21
8.99999999986741
 31
0.0
  0
LINE
  5
96
330
8D3
100
AcDbEntity
  8
DIMNSIONS
  6
Continuous
 62
     7
100
AcDbLine
 10
-262.5000000001111
 20
-100.0000000001326
 30
0.0
 11
-262.5000000001111
 21
8.99999999986741
 31
0.0
  0
LINE
  5
97
330
8D3
100
AcDbEntity
  8
DIMNSIONS
  6
Continuous
 62
     7
100
AcDbLine
 10
-262.5000000001111
 20
-100.0000000001326
 30
0.0
 11
-265.8501989758622
 21
-87.49688720716381
 31
0.0
  0
LINE
  5
98
330
8D3
100
AcDbEntity
  8
DIMNSIONS
  6
Continuous
 62
     7
100
AcDbLine
 10
-262.5000000001111
 20
-100.0000000001326
 30
0.0
 11
-259.1498010243599
 21
-87.49688720716381
 31
0.0
  0
LINE
  5
99
330
8D3
100
AcDbEntity
  8
DIMNSIONS
  6
Continuous
 62
     7
100
AcDbLine
 10
-262.5000000001111
 20
8.99999999986741
 30
0.0
 11
-259.1498010243599
 21
-3.503112793101337
 31
0.0
  0
LINE
  5
9A
330
8D3
100
AcDbEntity
  8
DIMNSIONS
  6
Continuous
 62
     7
100
AcDbLine
 10
-262.5000000001111
 20
8.99999999986741
 30
0.0
 11
-265.8501989758622
 21
-3.503112793101337
 31
0.0
  0
TEXT
  5
9B
330
8D3
100
AcDbEntity
  8
DIMNSIONS
 62
     7
100
AcDbText
 10
-267.4694444445555
 20
-58.72916666679927
 30
0.0
 40
13.57367621527778
  1
109
 50
90.0
 41
0.7
 11
-281.0431206598333
 21
-58.72916666679927
 31
0.0
100
AcDbText
 73
     3
  0
LINE
  5
9C
330
8D3
100
AcDbEntity
  8
DIMNSIONS
  6
Continuous
 62
     7
100
AcDbLine
 10
155.7499999998889
 20
-101.0000000001326
 30
0.0
 11
-272.5000000001111
 21
-101.0000000001326
 31
0.0
  0
LINE
  5
9D
330
8D3
100
AcDbEntity
  8
DIMNSIONS
  6
Continuous
 62
     7
100
AcDbLine
 10
-235.0000000001111
 20
-100.0000000001326
 30
0.0
 11
-272.5000000001111
 21
-100.0000000001326
 31
0.0
  0
LINE
  5
9E
330
8D3
100
AcDbEntity
  8
DIMNSIONS
  6
Continuous
 62
     7
100
AcDbLine
 10
-262.5000000001111
 20
-100.0000000001326
 30
0.0
 11
-262.5000000001111
 21
-101.0000000001326
 31
0.0
  0
LINE
  5
9F
330
8D3
100
AcDbEntity
  8
DIMNSIONS
  6
Continuous
 62
     7
100
AcDbLine
 10
-262.5000000001111
 20
-101.0000000001326
 30
0.0
 11
-262.5000000001111
 21
-123.8194444445769
 31
0.0
  0
LINE
  5
A0
330
8D3
100
AcDbEntity
  8
DIMNSIONS
  6
Continuous
 62
     7
100
AcDbLine
 10
-262.5000000001111
 20
-101.0000000001326
 30
0.0
 11
-259.1498010243599
 21
-113.5031127931013
 31
0.0
  0
LINE
  5
A1
330
8D3
100
AcDbEntity
  8
DIMNSIONS
  6
Continuous
 62
     7
100
AcDbLine
 10
-262.5000000001111
 20
-101.0000000001326
 30
0.0
 11
-265.8501989758622
 21
-113.5031127931013
 31
0.0
  0
LINE
  5
A2
330
8D3
100
AcDbEntity
  8
DIMNSIONS
  6
Continuous
 62
     7
100
AcDbLine
 10
-262.5000000001111
 20
-100.0000000001326
 30
0.0
 11
-262.5000000001111
 21
-75.00000000013257
 31
0.0
  0
LINE
  5
A3
330
8D3
100
AcDbEntity
  8
DIMNSIONS
  6
Continuous
 62
     7
100
AcDbLine
 10
-262.5000000001111
 20
-100.0000000001326
 30
0.0
 11
-265.8501989758622
 21
-87.49688720716381
 31
0.0
  0
LINE
  5
A4
330
8D3
100
AcDbEntity
  8
DIMNSIONS
  6
Continuous
 62
     7
100
AcDbLine
 10
-262.5000000001111
 20
-100.0000000001326
 30
0.0
 11
-259.1498010243599
 21
-87.49688720716381
 31
0.0
  0
TEXT
  5
A5
330
8D3
100
AcDbEntity
  8
DIMNSIONS
 62
     7
100
AcDbText
 10
-267.4694444445555
 20
-123.8194444445769
 30
0.0
 40
13.57367621527778
  1
1
 50
90.0
 41
0.7
 11
-281.0431206598333
 21
-123.8194444445769
 31
0.0
100
AcDbText
 73
     3
  0
LINE
  5
A6
330
8D3
100
AcDbEntity
  8
DIMNSIONS
  6
Continuous
 62
     7
100
AcDbLine
 10
-235.0000000001111
 20
8.99999999986741
 30
0.0
 11
-272.5000000001111
 21
8.99999999986741
 31
0.0
  0
LINE
  5
A7
330
8D3
100
AcDbEntity
  8
DIMNSIONS
  6
Continuous
 62
     7
100
AcDbLine
 10
179.1499999998889
 20
15.49999999986741
 30
0.0
 11
-272.5000000001111
 21
15.49999999986741
 31
0.0
  0
LINE
  5
A8
330
8D3
100
AcDbEntity
  8
DIMNSIONS
  6
Continuous
 62
     7
100
AcDbLine
 10
-262.5000000001111
 20
15.49999999986741
 30
0.0
 11
-262.5000000001111
 21
8.99999999986741
 31
0.0
  0
LINE
  5
A9
330
8D3
100
AcDbEntity
  8
DIMNSIONS
  6
Continuous
 62
     7
100
AcDbLine
 10
-262.5000000001111
 20
8.99999999986741
 30
0.0
 11
-262.5000000001111
 21
-16.00000000013259
 31
0.0
  0
LINE
  5
AA
330
8D3
100
AcDbEntity
  8
DIMNSIONS
  6
Continuous
 62
     7
100
AcDbLine
 10
-262.5000000001111
 20
8.99999999986741
 30
0.0
 11
-259.1498010243599
 21
-3.503112793101337
 31
0.0
  0
LINE
  5
AB
330
8D3
100
AcDbEntity
  8
DIMNSIONS
  6
Continuous
 62
     7
100
AcDbLine
 10
-262.5000000001111
 20
8.99999999986741
 30
0.0
 11
-265.8501989758622
 21
-3.503112793101337
 31
0.0
  0
LINE
  5
AC
330
8D3
100
AcDbEntity
  8
DIMNSIONS
  6
Continuous
 62
     7
100
AcDbLine
 10
-262.5000000001111
 20
15.49999999986741
 30
0.0
 11
-262.5000000001111
 21
59.95833333320085
 31
0.0
  0
LINE
  5
AD
330
8D3
100
AcDbEntity
  8
DIMNSIONS
  6
Continuous
 62
     7
100
AcDbLine
 10
-262.5000000001111
 20
15.49999999986741
 30
0.0
 11
-265.8501989758622
 21
28.00311279283617
 31
0.0
  0
LINE
  5
AE
330
8D3
100
AcDbEntity
  8
DIMNSIONS
  6
Continuous
 62
     7
100
AcDbLine
 10
-262.5000000001111
 20
15.49999999986741
 30
0.0
 11
-259.1498010243599
 21
28.00311279283617
 31
0.0
  0
TEXT
  5
AF
330
8D3
100
AcDbEntity
  8
DIMNSIONS
 62
     7
100
AcDbText
 10
-267.4694444445555
 20
33.49999999986752
 30
0.0
 40
13.57367621527778
  1
6.5
 50
90.0
 41
0.7
 11
-281.0431206598333
 21
33.49999999986752
 31
0.0
100
AcDbText
 73
     3
  0
TEXT
  5
B0
330
8D3
100
AcDbEntity
  8
DATA
 62
     7
100
AcDbText
 10
350.0
 20
-441.4579788021911
 30
0.0
 40
12.21630859375
  1
EXT-DVIKVM-441DL
 41
0.7
 11
350.0
 21
-429.2416702084412
 31
0.0
100
AcDbText
 73
     3
  0
TEXT
  5
B1
330
8D3
100
AcDbEntity
  8
DATA
 62
     7
100
AcDbText
 10
350.0
 20
-403.9609584205363
 30
0.0
 40
12.21630859375
  1
Gefen
 41
0.7
 11
350.0
 21
-391.7446498267864
 31
0.0
100
AcDbText
 73
     3
  0
TEXT
  5
B2
330
8D3
100
AcDbEntity
  8
DATA
 62
     7
100
AcDbText
 10
343.8874048953171
 20
-420.3481231152124
 30
0.0
 40
8.144218554687498
  1
DVI KVM DL切替機
 41
0.7
 11
343.8874048953171
 21
-412.2039045605249
 31
0.0
100
AcDbText
 73
     3
  0
TEXT
  5
B3
330
8D3
100
AcDbEntity
  8
DATA
 62
     7
100
AcDbText
 10
-300.0
 20
-474.6754084205362
 30
0.0
 40
8.144205729166666
  1
仕様および外観は予告なく変更されることがありますので、ご了承ください。
 41
0.7
 11
-300.0
 21
-466.5312026913696
 31
0.0
100
AcDbText
 73
     3
  0
LINE
  5
B4
330
8D3
100
AcDbEntity
  8
DATA
  6
Continuous
 62
     7
100
AcDbLine
 10
-225.0000000001111
 20
-200.0000000001326
 30
0.0
 11
-225.0000000001111
 21
-156.0000000001325
 31
0.0
  0
LINE
  5
B5
330
8D3
100
AcDbEntity
  8
DATA
  6
Continuous
 62
     7
100
AcDbLine
 10
209.9999999998889
 20
-200.0000000001326
 30
0.0
 11
-225.0000000001111
 21
-200.0000000001326
 31
0.0
  0
LINE
  5
B6
330
8D3
100
AcDbEntity
  8
DATA
  6
Continuous
 62
     7
100
AcDbLine
 10
209.9999999998889
 20
-156.0000000001325
 30
0.0
 11
209.9999999998889
 21
-200.0000000001326
 31
0.0
  0
LINE
  5
B7
330
8D3
100
AcDbEntity
  8
DATA
  6
Continuous
 62
     7
100
AcDbLine
 10
-225.0000000001111
 20
-156.0000000001325
 30
0.0
 11
209.9999999998889
 21
-156.0000000001325
 31
0.0
  0
LINE
  5
B8
330
8D3
100
AcDbEntity
  8
DATA
  6
Continuous
 62
     7
100
AcDbLine
 10
-214.2053829922724
 20
-204.0000000001326
 30
0.0
 11
-215.2053829922725
 21
-200.0000000001326
 31
0.0
  0
LINE
  5
B9
330
8D3
100
AcDbEntity
  8
DATA
  6
Continuous
 62
     7
100
AcDbLine
 10
-197.2053829922724
 20
-200.0000000001326
 30
0.0
 11
-198.2053829922724
 21
-204.0000000001326
 31
0.0
  0
LINE
  5
BA
330
8D3
100
AcDbEntity
  8
DATA
  6
Continuous
 62
     7
100
AcDbLine
 10
-214.2053829922724
 20
-204.0000000001326
 30
0.0
 11
-198.2053829922724
 21
-204.0000000001326
 31
0.0
  0
LINE
  5
BB
330
8D3
100
AcDbEntity
  8
DATA
  6
Continuous
 62
     7
100
AcDbLine
 10
199.2053829920503
 20
-204.0000000001326
 30
0.0
 11
200.2053829920503
 21
-200.0000000001326
 31
0.0
  0
LINE
  5
BC
330
8D3
100
AcDbEntity
  8
DATA
  6
Continuous
 62
     7
100
AcDbLine
 10
182.2053829920503
 20
-200.0000000001326
 30
0.0
 11
183.2053829920504
 21
-204.0000000001326
 31
0.0
  0
LINE
  5
BD
330
8D3
100
AcDbEntity
  8
DATA
  6
Continuous
 62
     7
100
AcDbLine
 10
199.2053829920503
 20
-204.0000000001326
 30
0.0
 11
183.2053829920504
 21
-204.0000000001326
 31
0.0
  0
CIRCLE
  5
BE
330
8D3
100
AcDbEntity
  8
DATA
  6
Continuous
 62
     7
100
AcDbCircle
 10
183.0005741545426
 20
-184.9779275238346
 30
0.0
 40
1.400000000000005
  0
TEXT
  5
BF
330
8D3
100
AcDbEntity
  8
DATA
 62
     7
100
AcDbText
 10
178.6914503499637
 20
-197.6288734668524
 30
0.0
 40
2.9319140625
  1
Power
 41
0.7
 11
178.6914503499637
 21
-194.6969594043524
 31
0.0
100
AcDbText
 73
     3
  0
TEXT
  5
C0
330
8D3
100
AcDbEntity
  8
DATA
 62
     7
100
AcDbText
 10
82.6906217085331
 20
-173.3812356478295
 30
0.0
 40
9.501573350694446
  1
4\U+00D71DVIKVM DL
 41
0.7
 11
82.6906217085331
 21
-163.879662297135
 31
0.0
100
AcDbText
 73
     3
  0
LINE
  5
C1
330
8D3
100
AcDbEntity
  8
DATA
  6
Continuous
 62
     7
100
AcDbLine
 10
-225.0000000001111
 20
-100.0000000001326
 30
0.0
 11
-225.0000000001111
 21
8.99999999986741
 31
0.0
  0
LINE
  5
C2
330
8D3
100
AcDbEntity
  8
DATA
  6
Continuous
 62
     7
100
AcDbLine
 10
209.9999999998889
 20
-100.0000000001326
 30
0.0
 11
209.9999999998889
 21
8.99999999986741
 31
0.0
  0
LINE
  5
C3
330
8D3
100
AcDbEntity
  8
DATA
  6
Continuous
 62
     7
100
AcDbLine
 10
-225.0000000001111
 20
-100.0000000001326
 30
0.0
 11
209.9999999998889
 21
-100.0000000001326
 31
0.0
  0
LINE
  5
C4
330
8D3
100
AcDbEntity
  8
DATA
  6
Continuous
 62
     7
100
AcDbLine
 10
-225.0000000001111
 20
-92.00000000013258
 30
0.0
 11
209.9999999998889
 21
-92.00000000013258
 31
0.0
  0
LINE
  5
C5
330
8D3
100
AcDbEntity
  8
DATA
  6
Continuous
 62
     7
100
AcDbLine
 10
288.299999999889
 20
-156.0000000001325
 30
0.0
 11
395.6999999998889
 21
-156.0000000001325
 31
0.0
  0
LINE
  5
C6
330
8D3
100
AcDbEntity
  8
DATA
  6
Continuous
 62
     7
100
AcDbLine
 10
288.299999999889
 20
-200.0000000001326
 30
0.0
 11
395.6999999998889
 21
-200.0000000001326
 31
0.0
  0
LINE
  5
C7
330
8D3
100
AcDbEntity
  8
DATA
  6
Continuous
 62
     7
100
AcDbLine
 10
287.4999999998889
 20
-199.2000000001326
 30
0.0
 11
287.4999999998889
 21
-156.8000000001326
 31
0.0
  0
LINE
  5
C8
330
8D3
100
AcDbEntity
  8
DATA
  6
Continuous
 62
     7
100
AcDbLine
 10
314.9542387914481
 20
-204.0000000001326
 30
0.0
 11
315.9542387914481
 21
-200.0000000001326
 31
0.0
  0
LINE
  5
C9
330
8D3
100
AcDbEntity
  8
DATA
  6
Continuous
 62
     7
100
AcDbLine
 10
297.9542387914481
 20
-200.0000000001326
 30
0.0
 11
298.9542387914481
 21
-204.0000000001326
 31
0.0
  0
LINE
  5
CA
330
8D3
100
AcDbEntity
  8
DATA
  6
Continuous
 62
     7
100
AcDbLine
 10
314.9542387914481
 20
-204.0000000001326
 30
0.0
 11
298.9542387914481
 21
-204.0000000001326
 31
0.0
  0
LINE
  5
CB
330
8D3
100
AcDbEntity
  8
DATA
  6
Continuous
 62
     7
100
AcDbLine
 10
378.5093426349982
 20
-204.0000000001326
 30
0.0
 11
379.5093426349981
 21
-200.0000000001326
 31
0.0
  0
LINE
  5
CC
330
8D3
100
AcDbEntity
  8
DATA
  6
Continuous
 62
     7
100
AcDbLine
 10
361.5093426349981
 20
-200.0000000001326
 30
0.0
 11
362.5093426349982
 21
-204.0000000001326
 31
0.0
  0
LINE
  5
CD
330
8D3
100
AcDbEntity
  8
DATA
  6
Continuous
 62
     7
100
AcDbLine
 10
378.5093426349982
 20
-204.0000000001326
 30
0.0
 11
362.5093426349982
 21
-204.0000000001326
 31
0.0
  0
LINE
  5
CE
330
8D3
100
AcDbEntity
  8
DATA
  6
Continuous
 62
     7
100
AcDbLine
 10
143.9016157579835
 20
13.99999999986741
 30
0.0
 11
143.9016157579835
 21
8.99999999986741
 31
0.0
  0
LINE
  5
CF
330
8D3
100
AcDbEntity
  8
DATA
  6
Continuous
 62
     7
100
AcDbLine
 10
148.5781529384194
 20
13.99999999986741
 30
0.0
 11
148.5781529384194
 21
8.99999999986741
 31
0.0
  0
LINE
  5
D0
330
8D3
100
AcDbEntity
  8
DATA
  6
Continuous
 62
     7
100
AcDbLine
 10
176.4016157579839
 20
13.99999999986741
 30
0.0
 11
176.4016157579839
 21
8.99999999986741
 31
0.0
  0
LINE
  5
D1
330
8D3
100
AcDbEntity
  8
DATA
  6
Continuous
 62
     7
100
AcDbLine
 10
181.0781529384201
 20
13.99999999986741
 30
0.0
 11
181.0781529384201
 21
10.99999999986741
 31
0.0
  0
LINE
  5
D2
330
8D3
100
AcDbEntity
  8
DATA
  6
Continuous
 62
     7
100
AcDbLine
 10
150.5445125302543
 20
13.99999999986741
 30
0.0
 11
150.5445125302543
 21
8.99999999986741
 31
0.0
  0
LINE
  5
D3
330
8D3
100
AcDbEntity
  8
DATA
  6
Continuous
 62
     7
100
AcDbLine
 10
174.4215125667975
 20
13.99999999986741
 30
0.0
 11
174.4215125667975
 21
8.99999999986741
 31
0.0
  0
LINE
  5
D4
330
8D3
100
AcDbEntity
  8
DATA
  6
Continuous
 62
     7
100
AcDbLine
 10
181.0781529384201
 20
13.99999999986741
 30
0.0
 11
176.4016157579839
 21
13.99999999986741
 31
0.0
  0
LINE
  5
D5
330
8D3
100
AcDbEntity
  8
DATA
  6
Continuous
 62
     7
100
AcDbLine
 10
174.4215125667975
 20
13.99999999986741
 30
0.0
 11
150.5445125302543
 21
13.99999999986741
 31
0.0
  0
LINE
  5
D6
330
8D3
100
AcDbEntity
  8
DATA
  6
Continuous
 62
     7
100
AcDbLine
 10
148.5781529384194
 20
13.99999999986741
 30
0.0
 11
143.9016157579835
 21
13.99999999986741
 31
0.0
  0
LINE
  5
D7
330
8D3
100
AcDbEntity
  8
DATA
  6
Continuous
 62
     7
100
AcDbLine
 10
-225.0000000001111
 20
131.5000000000481
 30
0.0
 11
-225.0000000001111
 21
87.50000000004817
 31
0.0
  0
LINE
  5
D8
330
8D3
100
AcDbEntity
  8
DATA
  6
Continuous
 62
     7
100
AcDbLine
 10
209.9999999998889
 20
131.5000000000481
 30
0.0
 11
-225.0000000001111
 21
131.5000000000481
 31
0.0
  0
LINE
  5
D9
330
8D3
100
AcDbEntity
  8
DATA
  6
Continuous
 62
     7
100
AcDbLine
 10
209.9999999998889
 20
87.50000000004817
 30
0.0
 11
209.9999999998889
 21
131.5000000000481
 31
0.0
  0
LINE
  5
DA
330
8D3
100
AcDbEntity
  8
DATA
  6
Continuous
 62
     7
100
AcDbLine
 10
-225.0000000001111
 20
87.50000000004817
 30
0.0
 11
209.9999999998889
 21
87.50000000004817
 31
0.0
  0
LINE
  5
DB
330
8D3
100
AcDbEntity
  8
DATA
  6
Continuous
 62
     7
100
AcDbLine
 10
-214.2053829922724
 20
135.5000000000481
 30
0.0
 11
-215.2053829922725
 21
131.5000000000481
 31
0.0
  0
LINE
  5
DC
330
8D3
100
AcDbEntity
  8
DATA
  6
Continuous
 62
     7
100
AcDbLine
 10
-197.2053829922724
 20
131.5000000000481
 30
0.0
 11
-198.2053829922724
 21
135.5000000000481
 31
0.0
  0
LINE
  5
DD
330
8D3
100
AcDbEntity
  8
DATA
  6
Continuous
 62
     7
100
AcDbLine
 10
-214.2053829922724
 20
135.5000000000481
 30
0.0
 11
-198.2053829922724
 21
135.5000000000481
 31
0.0
  0
LINE
  5
DE
330
8D3
100
AcDbEntity
  8
DATA
  6
Continuous
 62
     7
100
AcDbLine
 10
199.2053829920503
 20
135.5000000000481
 30
0.0
 11
200.2053829920503
 21
131.5000000000481
 31
0.0
  0
LINE
  5
DF
330
8D3
100
AcDbEntity
  8
DATA
  6
Continuous
 62
     7
100
AcDbLine
 10
182.2053829920503
 20
131.5000000000481
 30
0.0
 11
183.2053829920504
 21
135.5000000000481
 31
0.0
  0
LINE
  5
E0
330
8D3
100
AcDbEntity
  8
DATA
  6
Continuous
 62
     7
100
AcDbLine
 10
199.2053829920503
 20
135.5000000000481
 30
0.0
 11
183.2053829920504
 21
135.5000000000481
 31
0.0
  0
TEXT
  5
E1
330
8D3
100
AcDbEntity
  8
DATA
 62
     7
100
AcDbText
 10
166.4501628058046
 20
128.0473672374463
 30
0.0
 40
2.9319140625
  1
IN 1
 50
180.0
 41
0.7
 11
166.4501628058046
 21
125.1154531749463
 31
0.0
100
AcDbText
 73
     3
  0
LINE
  5
E2
330
8D3
100
AcDbEntity
  8
DATA
  6
Continuous
 62
     7
100
AcDbLine
 10
288.4999999998889
 20
-198.2000000001326
 30
0.0
 11
288.4999999998889
 21
-157.8000000001326
 31
0.0
  0
LINE
  5
E3
330
8D3
100
AcDbEntity
  8
DATA
  6
Continuous
 62
     7
100
AcDbLine
 10
289.299999999889
 20
-157.0000000001325
 30
0.0
 11
295.4999999998889
 21
-157.0000000001325
 31
0.0
  0
LINE
  5
E4
330
8D3
100
AcDbEntity
  8
DATA
  6
Continuous
 62
     7
100
AcDbLine
 10
295.4999999998889
 20
-157.0000000001325
 30
0.0
 11
295.4999999998889
 21
-156.0000000001325
 31
0.0
  0
LINE
  5
E5
330
8D3
100
AcDbEntity
  8
DATA
  6
Continuous
 62
     7
100
AcDbLine
 10
289.299999999889
 20
-199.0000000001325
 30
0.0
 11
294.4999999998889
 21
-199.0000000001325
 31
0.0
  0
LINE
  5
E6
330
8D3
100
AcDbEntity
  8
DATA
  6
Continuous
 62
     7
100
AcDbLine
 10
294.4999999998889
 20
-200.0000000001326
 30
0.0
 11
294.4999999998889
 21
-199.0000000001325
 31
0.0
  0
ARC
  5
E7
330
8D3
100
AcDbEntity
  8
DATA
  6
Continuous
 62
     7
100
AcDbCircle
 10
289.299999999889
 20
-157.8000000001325
 30
0.0
 40
0.7999999999999546
100
AcDbArc
 50
90.0
 51
180.0000000000081
  0
ARC
  5
E8
330
8D3
100
AcDbEntity
  8
DATA
  6
Continuous
 62
     7
100
AcDbCircle
 10
288.299999999889
 20
-156.8000000001325
 30
0.0
 40
0.7999999999999546
100
AcDbArc
 50
90.0
 51
180.0000000000081
  0
ARC
  5
E9
330
8D3
100
AcDbEntity
  8
DATA
  6
Continuous
 62
     7
100
AcDbCircle
 10
289.299999999889
 20
-198.2000000001326
 30
0.0
 40
0.8000000000000113
100
AcDbArc
 50
180.0
 51
270.0
  0
ARC
  5
EA
330
8D3
100
AcDbEntity
  8
DATA
  6
Continuous
 62
     7
100
AcDbCircle
 10
288.299999999889
 20
-199.2000000001326
 30
0.0
 40
0.8000000000000113
100
AcDbArc
 50
180.0
 51
270.0
  0
CIRCLE
  5
EB
330
8D3
100
AcDbEntity
  8
DATA
  6
Continuous
 62
     7
100
AcDbCircle
 10
300.6949647920317
 20
-193.0000000001325
 30
0.0
 40
2.75
  0
LINE
  5
EC
330
8D3
100
AcDbEntity
  8
DATA
  6
Continuous
 62
     7
100
AcDbLine
 10
299.0261328652038
 20
-193.0000000001325
 30
0.0
 11
302.3637967188597
 21
-193.0000000001325
 31
0.0
  0
LINE
  5
ED
330
8D3
100
AcDbEntity
  8
DATA
  6
Continuous
 62
     7
100
AcDbLine
 10
300.6949647920317
 20
-194.6688319269604
 30
0.0
 11
300.6949647920317
 21
-191.3311680733046
 31
0.0
  0
CIRCLE
  5
EE
330
8D3
100
AcDbEntity
  8
DATA
  6
Continuous
 62
     7
100
AcDbCircle
 10
300.6949647920317
 20
-163.0000000001325
 30
0.0
 40
2.75
  0
LINE
  5
EF
330
8D3
100
AcDbEntity
  8
DATA
  6
Continuous
 62
     7
100
AcDbLine
 10
299.0261328652038
 20
-163.0000000001325
 30
0.0
 11
302.3637967188597
 21
-163.0000000001325
 31
0.0
  0
LINE
  5
F0
330
8D3
100
AcDbEntity
  8
DATA
  6
Continuous
 62
     7
100
AcDbLine
 10
300.6949647920317
 20
-164.6688319269605
 30
0.0
 11
300.6949647920317
 21
-161.3311680733046
 31
0.0
  0
LINE
  5
F1
330
8D3
100
AcDbEntity
  8
DATA
  6
Continuous
 62
     7
100
AcDbLine
 10
-225.0000000001111
 20
8.99999999986741
 30
0.0
 11
209.9999999998889
 21
8.99999999986741
 31
0.0
  0
LINE
  5
F2
330
8D3
100
AcDbEntity
  8
DATA
  6
Continuous
 62
     7
100
AcDbLine
 10
396.4999999998889
 20
-199.2000000001326
 30
0.0
 11
396.4999999998889
 21
-156.8000000001326
 31
0.0
  0
CIRCLE
  5
F3
330
8D3
100
AcDbEntity
  8
DATA
  6
Continuous
 62
     7
100
AcDbCircle
 10
167.9999999998889
 20
-187.0000000001325
 30
0.0
 40
2.25
  0
TEXT
  5
F4
330
8D3
100
AcDbEntity
  8
DATA
 62
     7
100
AcDbText
 10
162.3581978689285
 20
-197.6288734668524
 30
0.0
 40
2.9319140625
  1
Select
 41
0.7
 11
162.3581978689285
 21
-194.6969594043524
 31
0.0
100
AcDbText
 73
     3
  0
CIRCLE
  5
F5
330
8D3
100
AcDbEntity
  8
DATA
  6
Continuous
 62
     7
100
AcDbCircle
 10
90.9999999998889
 20
-184.9779275238346
 30
0.0
 40
1.25
  0
CIRCLE
  5
F6
330
8D3
100
AcDbEntity
  8
DATA
  6
Continuous
 62
     7
100
AcDbCircle
 10
76.99999999988889
 20
-184.9779275238346
 30
0.0
 40
1.25
  0
CIRCLE
  5
F7
330
8D3
100
AcDbEntity
  8
DATA
  6
Continuous
 62
     7
100
AcDbCircle
 10
62.9999999998889
 20
-184.9779275238346
 30
0.0
 40
1.25
  0
CIRCLE
  5
F8
330
8D3
100
AcDbEntity
  8
DATA
  6
Continuous
 62
     7
100
AcDbCircle
 10
48.9999999998889
 20
-184.9779275238346
 30
0.0
 40
1.25
  0
CIRCLE
  5
F9
330
8D3
100
AcDbEntity
  8
DATA
  6
Continuous
 62
     7
100
AcDbCircle
 10
33.9999999998889
 20
-184.9779275238346
 30
0.0
 40
5.5
  0
TEXT
  5
FA
330
8D3
100
AcDbEntity
  8
DATA
 62
     7
100
AcDbText
 10
32.52506171759879
 20
-197.6288734668524
 30
0.0
 40
2.9319140625
  1
IR
 41
0.7
 11
32.52506171759879
 21
-194.6969594043524
 31
0.0
100
AcDbText
 73
     3
  0
TEXT
  5
FB
330
8D3
100
AcDbEntity
  8
DATA
 62
     7
100
AcDbText
 10
47.96981406454365
 20
-197.6288734668524
 30
0.0
 40
2.9319140625
  1
1
 41
0.7
 11
47.96981406454365
 21
-194.6969594043524
 31
0.0
100
AcDbText
 73
     3
  0
TEXT
  5
FC
330
8D3
100
AcDbEntity
  8
DATA
 62
     7
100
AcDbText
 10
61.901553315044
 20
-197.6288734668524
 30
0.0
 40
2.9319140625
  1
2
 41
0.7
 11
61.901553315044
 21
-194.6969594043524
 31
0.0
100
AcDbText
 73
     3
  0
TEXT
  5
FD
330
8D3
100
AcDbEntity
  8
DATA
 62
     7
100
AcDbText
 10
76.12111873254457
 20
-197.6288734668524
 30
0.0
 40
2.9319140625
  1
3
 41
0.7
 11
76.12111873254457
 21
-194.6969594043524
 31
0.0
100
AcDbText
 73
     3
  0
TEXT
  5
FE
330
8D3
100
AcDbEntity
  8
DATA
 62
     7
100
AcDbText
 10
90.05285798304495
 20
-197.6288734668524
 30
0.0
 40
2.9319140625
  1
4
 41
0.7
 11
90.05285798304495
 21
-194.6969594043524
 31
0.0
100
AcDbText
 73
     3
  0
CIRCLE
  5
FF
330
8D3
100
AcDbEntity
  8
DATA
  6
Continuous
 62
     7
100
AcDbCircle
 10
11.9999999998889
 20
-188.0094447145133
 30
0.0
 40
3.0
  0
CIRCLE
  5
100
330
8D3
100
AcDbEntity
  8
DATA
  6
Continuous
 62
     7
100
AcDbCircle
 10
11.9999999998889
 20
-188.0094447145133
 30
0.0
 40
1.75
  0
TEXT
  5
101
330
8D3
100
AcDbEntity
  8
DATA
 62
     7
100
AcDbText
 10
6.599118254149061
 20
-197.6288734668524
 30
0.0
 40
2.9319140625
  1
Ext-IR
 41
0.7
 11
6.599118254149061
 21
-194.6969594043524
 31
0.0
100
AcDbText
 73
     3
  0
ARC
  5
102
330
8D3
100
AcDbEntity
  8
DATA
  6
Continuous
 62
     7
100
AcDbCircle
 10
183.0005741545426
 20
-99.66165555197465
 30
0.0
 40
1.400000000000012
100
AcDbArc
 50
193.9853980493648
 51
346.0146019506352
  0
ARC
  5
103
330
8D3
100
AcDbEntity
  8
DATA
  6
Continuous
 62
     7
100
AcDbCircle
 10
90.9999999998889
 20
-99.66165555197465
 30
0.0
 40
1.25
100
AcDbArc
 50
195.7044704645551
 51
344.2955295354449
  0
ARC
  5
104
330
8D3
100
AcDbEntity
  8
DATA
  6
Continuous
 62
     7
100
AcDbCircle
 10
76.99999999988889
 20
-99.66165555197465
 30
0.0
 40
1.25
100
AcDbArc
 50
195.7044704645551
 51
344.2955295354449
  0
ARC
  5
105
330
8D3
100
AcDbEntity
  8
DATA
  6
Continuous
 62
     7
100
AcDbCircle
 10
62.9999999998889
 20
-99.66165555197465
 30
0.0
 40
1.250000000000014
100
AcDbArc
 50
195.7044704645549
 51
344.2955295354451
  0
ARC
  5
106
330
8D3
100
AcDbEntity
  8
DATA
  6
Continuous
 62
     7
100
AcDbCircle
 10
48.9999999998889
 20
-99.66165555197465
 30
0.0
 40
1.250000000000014
100
AcDbArc
 50
195.7044704645549
 51
344.2955295354451
  0
LINE
  5
107
330
8D3
100
AcDbEntity
  8
DATA
  6
Continuous
 62
     7
100
AcDbLine
 10
165.7499999998889
 20
-101.0000000001326
 30
0.0
 11
165.7499999998889
 21
-100.0000000001326
 31
0.0
  0
LINE
  5
108
330
8D3
100
AcDbEntity
  8
DATA
  6
Continuous
 62
     7
100
AcDbLine
 10
170.2499999998889
 20
-101.0000000001326
 30
0.0
 11
170.2499999998889
 21
-100.0000000001326
 31
0.0
  0
LINE
  5
109
330
8D3
100
AcDbEntity
  8
DATA
  6
Continuous
 62
     7
100
AcDbLine
 10
165.7499999998889
 20
-101.0000000001326
 30
0.0
 11
170.2499999998889
 21
-101.0000000001326
 31
0.0
  0
LINE
  5
10A
330
8D3
100
AcDbEntity
  8
DATA
  6
Continuous
 62
     7
100
AcDbLine
 10
8.999999999888899
 20
-100.5000000001326
 30
0.0
 11
14.9999999998889
 21
-100.5000000001326
 31
0.0
  0
LINE
  5
10B
330
8D3
100
AcDbEntity
  8
DATA
  6
Continuous
 62
     7
100
AcDbLine
 10
8.999999999888899
 20
-100.5000000001326
 30
0.0
 11
8.999999999888899
 21
-100.0000000001326
 31
0.0
  0
LINE
  5
10C
330
8D3
100
AcDbEntity
  8
DATA
  6
Continuous
 62
     7
100
AcDbLine
 10
14.9999999998889
 20
-100.5000000001326
 30
0.0
 11
14.9999999998889
 21
-100.0000000001326
 31
0.0
  0
TEXT
  5
10D
330
8D3
100
AcDbEntity
  8
DATA
 62
     7
100
AcDbText
 10
122.4501628058046
 20
128.0473672374463
 30
0.0
 40
2.9319140625
  1
IN 2
 50
180.0
 41
0.7
 11
122.4501628058046
 21
125.1154531749463
 31
0.0
100
AcDbText
 73
     3
  0
TEXT
  5
10E
330
8D3
100
AcDbEntity
  8
DATA
 62
     7
100
AcDbText
 10
78.45016280580463
 20
128.0473672374463
 30
0.0
 40
2.9319140625
  1
IN 3
 50
180.0
 41
0.7
 11
78.45016280580463
 21
125.1154531749463
 31
0.0
100
AcDbText
 73
     3
  0
TEXT
  5
10F
330
8D3
100
AcDbEntity
  8
DATA
 62
     7
100
AcDbText
 10
34.45016280580463
 20
128.0473672374463
 30
0.0
 40
2.9319140625
  1
IN 4
 50
180.0
 41
0.7
 11
34.45016280580463
 21
125.1154531749463
 31
0.0
100
AcDbText
 73
     3
  0
CIRCLE
  5
110
330
8D3
100
AcDbEntity
  8
DATA
  6
Continuous
 62
     7
100
AcDbCircle
 10
146.3382685901069
 20
116.3377651601105
 30
0.0
 40
1.175000000000068
  0
LWPOLYLINE
  5
111
330
8D3
100
AcDbEntity
  8
DATA
  6
Continuous
 62
     7
100
AcDbPolyline
 90
        6
 70
     1
 43
0.0
 10
146.3382685901069
 20
113.6377651601105
 10
143.999999999889
 20
114.9877651601105
 10
143.999999999889
 20
117.6877651601105
 10
146.3382685901069
 20
119.0377651601105
 10
148.6765371803249
 20
117.6877651601105
 10
148.6765371803249
 20
114.9877651601105
  0
CIRCLE
  5
11A
330
8D3
100
AcDbEntity
  8
DATA
  6
Continuous
 62
     7
100
AcDbCircle
 10
178.8382685901067
 20
116.3377651601105
 30
0.0
 40
1.175000000000068
  0
LWPOLYLINE
  5
11B
330
8D3
100
AcDbEntity
  8
DATA
  6
Continuous
 62
     7
100
AcDbPolyline
 90
        6
 70
     1
 43
0.0
 10
178.8382685901067
 20
113.6377651601105
 10
176.4999999998888
 20
114.9877651601105
 10
176.4999999998888
 20
117.6877651601105
 10
178.8382685901067
 20
119.0377651601105
 10
181.1765371803248
 20
117.6877651601105
 10
181.1765371803248
 20
114.9877651601105
  0
LINE
  5
124
330
8D3
100
AcDbEntity
  8
DATA
  6
Continuous
 62
     7
100
AcDbLine
 10
173.5402635778933
 20
112.4127651601105
 30
0.0
 11
151.6404538035098
 21
112.4127651601105
 31
0.0
  0
LINE
  5
125
330
8D3
100
AcDbEntity
  8
DATA
  6
Continuous
 62
     7
100
AcDbLine
 10
152.1993710009621
 20
120.2627651601105
 30
0.0
 11
172.981346380441
 21
120.2627651601105
 31
0.0
  0
LWPOLYLINE
  5
126
330
8D3
100
AcDbEntity
  8
DATA
  6
Continuous
 62
     7
100
AcDbPolyline
 90
        4
 70
     1
 43
0.0
 10
172.0604248618809
 20
117.1027651601105
 10
173.5904248618808
 20
117.1027651601105
 10
173.5904248618808
 20
115.5727651601105
 10
172.0604248618809
 20
115.5727651601105
  0
LWPOLYLINE
  5
12D
330
8D3
100
AcDbEntity
  8
DATA
  6
Continuous
 62
     7
100
AcDbPolyline
 90
        4
 70
     1
 43
0.0
 10
170.0604248618809
 20
117.1027651601105
 10
171.5904248618808
 20
117.1027651601105
 10
171.5904248618808
 20
115.5727651601105
 10
170.0604248618809
 20
115.5727651601105
  0
LWPOLYLINE
  5
134
330
8D3
100
AcDbEntity
  8
DATA
  6
Continuous
 62
     7
100
AcDbPolyline
 90
        4
 70
     1
 43
0.0
 10
168.0604248618809
 20
117.1027651601105
 10
169.5904248618808
 20
117.1027651601105
 10
169.5904248618808
 20
115.5727651601105
 10
168.0604248618809
 20
115.5727651601105
  0
LWPOLYLINE
  5
13B
330
8D3
100
AcDbEntity
  8
DATA
  6
Continuous
 62
     7
100
AcDbPolyline
 90
        4
 70
     1
 43
0.0
 10
166.0604248618809
 20
117.1027651601105
 10
167.5904248618808
 20
117.1027651601105
 10
167.5904248618808
 20
115.5727651601105
 10
166.0604248618809
 20
115.5727651601105
  0
LWPOLYLINE
  5
142
330
8D3
100
AcDbEntity
  8
DATA
  6
Continuous
 62
     7
100
AcDbPolyline
 90
        4
 70
     1
 43
0.0
 10
164.0604248618809
 20
117.1027651601105
 10
165.5904248618808
 20
117.1027651601105
 10
165.5904248618808
 20
115.5727651601105
 10
164.0604248618809
 20
115.5727651601105
  0
LWPOLYLINE
  5
149
330
8D3
100
AcDbEntity
  8
DATA
  6
Continuous
 62
     7
100
AcDbPolyline
 90
        4
 70
     1
 43
0.0
 10
162.0604248618809
 20
117.1027651601105
 10
163.5904248618808
 20
117.1027651601105
 10
163.5904248618808
 20
115.5727651601105
 10
162.0604248618809
 20
115.5727651601105
  0
LWPOLYLINE
  5
150
330
8D3
100
AcDbEntity
  8
DATA
  6
Continuous
 62
     7
100
AcDbPolyline
 90
        4
 70
     1
 43
0.0
 10
160.060424861881
 20
117.1027651601105
 10
161.5904248618809
 20
117.1027651601105
 10
161.5904248618809
 20
115.5727651601105
 10
160.060424861881
 20
115.5727651601105
  0
LWPOLYLINE
  5
157
330
8D3
100
AcDbEntity
  8
DATA
  6
Continuous
 62
     7
100
AcDbPolyline
 90
        4
 70
     1
 43
0.0
 10
158.0604248618809
 20
117.1027651601105
 10
159.5904248618809
 20
117.1027651601105
 10
159.5904248618809
 20
115.5727651601105
 10
158.0604248618809
 20
115.5727651601105
  0
LWPOLYLINE
  5
15E
330
8D3
100
AcDbEntity
  8
DATA
  6
Continuous
 62
     7
100
AcDbPolyline
 90
        4
 70
     1
 43
0.0
 10
172.0604248618809
 20
115.1027651601105
 10
173.5904248618808
 20
115.1027651601105
 10
173.5904248618808
 20
113.5727651601105
 10
172.0604248618809
 20
113.5727651601105
  0
LWPOLYLINE
  5
165
330
8D3
100
AcDbEntity
  8
DATA
  6
Continuous
 62
     7
100
AcDbPolyline
 90
        4
 70
     1
 43
0.0
 10
170.0604248618809
 20
115.1027651601105
 10
171.5904248618808
 20
115.1027651601105
 10
171.5904248618808
 20
113.5727651601105
 10
170.0604248618809
 20
113.5727651601105
  0
LWPOLYLINE
  5
16C
330
8D3
100
AcDbEntity
  8
DATA
  6
Continuous
 62
     7
100
AcDbPolyline
 90
        4
 70
     1
 43
0.0
 10
168.0604248618809
 20
115.1027651601105
 10
169.5904248618808
 20
115.1027651601105
 10
169.5904248618808
 20
113.5727651601105
 10
168.0604248618809
 20
113.5727651601105
  0
LWPOLYLINE
  5
173
330
8D3
100
AcDbEntity
  8
DATA
  6
Continuous
 62
     7
100
AcDbPolyline
 90
        4
 70
     1
 43
0.0
 10
166.0604248618809
 20
115.1027651601105
 10
167.5904248618808
 20
115.1027651601105
 10
167.5904248618808
 20
113.5727651601105
 10
166.0604248618809
 20
113.5727651601105
  0
LWPOLYLINE
  5
17A
330
8D3
100
AcDbEntity
  8
DATA
  6
Continuous
 62
     7
100
AcDbPolyline
 90
        4
 70
     1
 43
0.0
 10
164.0604248618809
 20
115.1027651601105
 10
165.5904248618808
 20
115.1027651601105
 10
165.5904248618808
 20
113.5727651601105
 10
164.0604248618809
 20
113.5727651601105
  0
LWPOLYLINE
  5
181
330
8D3
100
AcDbEntity
  8
DATA
  6
Continuous
 62
     7
100
AcDbPolyline
 90
        4
 70
     1
 43
0.0
 10
162.0604248618809
 20
115.1027651601105
 10
163.5904248618808
 20
115.1027651601105
 10
163.5904248618808
 20
113.5727651601105
 10
162.0604248618809
 20
113.5727651601105
  0
LWPOLYLINE
  5
188
330
8D3
100
AcDbEntity
  8
DATA
  6
Continuous
 62
     7
100
AcDbPolyline
 90
        4
 70
     1
 43
0.0
 10
160.060424861881
 20
115.1027651601105
 10
161.5904248618809
 20
115.1027651601105
 10
161.5904248618809
 20
113.5727651601105
 10
160.060424861881
 20
113.5727651601105
  0
LWPOLYLINE
  5
18F
330
8D3
100
AcDbEntity
  8
DATA
  6
Continuous
 62
     7
100
AcDbPolyline
 90
        4
 70
     1
 43
0.0
 10
158.0604248618809
 20
115.1027651601105
 10
159.5904248618809
 20
115.1027651601105
 10
159.5904248618809
 20
113.5727651601105
 10
158.0604248618809
 20
113.5727651601105
  0
LWPOLYLINE
  5
196
330
8D3
100
AcDbEntity
  8
DATA
  6
Continuous
 62
     7
100
AcDbPolyline
 90
        4
 70
     1
 43
0.0
 10
172.0604248618809
 20
119.1027651601105
 10
173.5904248618808
 20
119.1027651601105
 10
173.5904248618808
 20
117.5727651601105
 10
172.0604248618809
 20
117.5727651601105
  0
LWPOLYLINE
  5
19D
330
8D3
100
AcDbEntity
  8
DATA
  6
Continuous
 62
     7
100
AcDbPolyline
 90
        4
 70
     1
 43
0.0
 10
170.0604248618809
 20
119.1027651601105
 10
171.5904248618808
 20
119.1027651601105
 10
171.5904248618808
 20
117.5727651601105
 10
170.0604248618809
 20
117.5727651601105
  0
LWPOLYLINE
  5
1A4
330
8D3
100
AcDbEntity
  8
DATA
  6
Continuous
 62
     7
100
AcDbPolyline
 90
        4
 70
     1
 43
0.0
 10
168.0604248618809
 20
119.1027651601105
 10
169.5904248618808
 20
119.1027651601105
 10
169.5904248618808
 20
117.5727651601105
 10
168.0604248618809
 20
117.5727651601105
  0
LWPOLYLINE
  5
1AB
330
8D3
100
AcDbEntity
  8
DATA
  6
Continuous
 62
     7
100
AcDbPolyline
 90
        4
 70
     1
 43
0.0
 10
166.0604248618809
 20
119.1027651601105
 10
167.5904248618808
 20
119.1027651601105
 10
167.5904248618808
 20
117.5727651601105
 10
166.0604248618809
 20
117.5727651601105
  0
LWPOLYLINE
  5
1B2
330
8D3
100
AcDbEntity
  8
DATA
  6
Continuous
 62
     7
100
AcDbPolyline
 90
        4
 70
     1
 43
0.0
 10
164.0604248618809
 20
119.1027651601105
 10
165.5904248618808
 20
119.1027651601105
 10
165.5904248618808
 20
117.5727651601105
 10
164.0604248618809
 20
117.5727651601105
  0
LWPOLYLINE
  5
1B9
330
8D3
100
AcDbEntity
  8
DATA
  6
Continuous
 62
     7
100
AcDbPolyline
 90
        4
 70
     1
 43
0.0
 10
162.0604248618809
 20
119.1027651601105
 10
163.5904248618808
 20
119.1027651601105
 10
163.5904248618808
 20
117.5727651601105
 10
162.0604248618809
 20
117.5727651601105
  0
LWPOLYLINE
  5
1C0
330
8D3
100
AcDbEntity
  8
DATA
  6
Continuous
 62
     7
100
AcDbPolyline
 90
        4
 70
     1
 43
0.0
 10
160.060424861881
 20
119.1027651601105
 10
161.5904248618809
 20
119.1027651601105
 10
161.5904248618809
 20
117.5727651601105
 10
160.060424861881
 20
117.5727651601105
  0
LWPOLYLINE
  5
1C7
330
8D3
100
AcDbEntity
  8
DATA
  6
Continuous
 62
     7
100
AcDbPolyline
 90
        4
 70
     1
 43
0.0
 10
158.0604248618809
 20
119.1027651601105
 10
159.5904248618809
 20
119.1027651601105
 10
159.5904248618809
 20
117.5727651601105
 10
158.0604248618809
 20
117.5727651601105
  0
LWPOLYLINE
  5
1CE
330
8D3
100
AcDbEntity
  8
DATA
  6
Continuous
 62
     7
100
AcDbPolyline
 90
        4
 70
     0
 43
0.0
 10
154.0403586907014
 20
115.9377651601105
 10
151.9403586907014
 20
115.9377651601105
 10
151.9403586907014
 20
116.7377651601105
 10
154.0403586907014
 20
116.7377651601105
  0
LWPOLYLINE
  5
1D5
330
8D3
100
AcDbEntity
  8
DATA
  6
Continuous
 62
     7
100
AcDbPolyline
 90
        4
 70
     0
 43
0.0
 10
154.8403586907014
 20
116.7377651601105
 10
156.9403586907014
 20
116.7377651601105
 10
156.9403586907014
 20
115.9377651601105
 10
154.8403586907014
 20
115.9377651601105
  0
LWPOLYLINE
  5
1DC
330
8D3
100
AcDbEntity
  8
DATA
  6
Continuous
 62
     7
100
AcDbPolyline
 90
        4
 70
     0
 43
0.0
 10
154.0403586907014
 20
116.7377651601105
 10
154.0403586907014
 20
118.8377651601105
 10
154.8403586907014
 20
118.8377651601105
 10
154.8403586907014
 20
116.7377651601105
  0
LWPOLYLINE
  5
1E3
330
8D3
100
AcDbEntity
  8
DATA
  6
Continuous
 62
     7
100
AcDbPolyline
 90
        4
 70
     0
 43
0.0
 10
154.8403586907014
 20
115.9377651601105
 10
154.8403586907014
 20
113.8377651601105
 10
154.0403586907014
 20
113.8377651601105
 10
154.0403586907014
 20
115.9377651601105
  0
LWPOLYLINE
  5
1EA
330
8D3
100
AcDbEntity
  8
DATA
  6
Continuous
 62
     7
100
AcDbPolyline
 90
        4
 70
     1
 43
0.0
 10
155.3006431211731
 20
115.5783373494605
 10
156.3006431211731
 20
115.5783373494605
 10
156.3006431211731
 20
114.5783373494605
 10
155.3006431211731
 20
114.5783373494605
  0
LWPOLYLINE
  5
1F1
330
8D3
100
AcDbEntity
  8
DATA
  6
Continuous
 62
     7
100
AcDbPolyline
 90
        4
 70
     1
 43
0.0
 10
152.5800742602297
 20
115.5783373494605
 10
153.5800742602297
 20
115.5783373494605
 10
153.5800742602297
 20
114.5783373494605
 10
152.5800742602297
 20
114.5783373494605
  0
LWPOLYLINE
  5
1F8
330
8D3
100
AcDbEntity
  8
DATA
  6
Continuous
 62
     7
100
AcDbPolyline
 90
        4
 70
     1
 43
0.0
 10
155.3006431211731
 20
118.0971929707604
 10
156.3006431211731
 20
118.0971929707604
 10
156.3006431211731
 20
117.0971929707604
 10
155.3006431211731
 20
117.0971929707604
  0
LWPOLYLINE
  5
1FF
330
8D3
100
AcDbEntity
  8
DATA
  6
Continuous
 62
     7
100
AcDbPolyline
 90
        4
 70
     1
 43
0.0
 10
152.5800742602297
 20
118.0971929707604
 10
153.5800742602297
 20
118.0971929707604
 10
153.5800742602297
 20
117.0971929707604
 10
152.5800742602297
 20
117.0971929707604
  0
LINE
  5
206
330
8D3
100
AcDbEntity
  8
DATA
  6
Continuous
 62
     7
100
AcDbLine
 10
174.5357305086486
 20
113.5078734655967
 30
0.0
 11
173.9768133111963
 21
119.3578734655967
 31
0.0
  0
LINE
  5
207
330
8D3
100
AcDbEntity
  8
DATA
  6
Continuous
 62
     7
100
AcDbLine
 10
150.6449868727544
 20
113.5078734655967
 30
0.0
 11
151.2039040702067
 21
119.3578734655967
 31
0.0
  0
ARC
  5
208
330
8D3
100
AcDbEntity
  8
DATA
  6
Continuous
 62
     7
100
AcDbCircle
 10
173.5402635778933
 20
113.4127651601105
 30
0.0
 40
1.0
100
AcDbArc
 50
270.0
 51
5.457553485107723
  0
ARC
  5
209
330
8D3
100
AcDbEntity
  8
DATA
  6
Continuous
 62
     7
100
AcDbCircle
 10
151.6404538035098
 20
113.4127651601105
 30
0.0
 40
0.9999999999999754
100
AcDbArc
 50
174.5424465148923
 51
270.0000000000033
  0
ARC
  5
20A
330
8D3
100
AcDbEntity
  8
DATA
  6
Continuous
 62
     7
100
AcDbCircle
 10
172.981346380441
 20
119.2627651601105
 30
0.0
 40
0.9999999999999754
100
AcDbArc
 50
5.45755348510771
 51
90.0
  0
ARC
  5
20B
330
8D3
100
AcDbEntity
  8
DATA
  6
Continuous
 62
     7
100
AcDbCircle
 10
152.1993710009621
 20
119.2627651601105
 30
0.0
 40
1.0
100
AcDbArc
 50
90.0
 51
174.5424465148958
  0
CIRCLE
  5
20C
330
8D3
100
AcDbEntity
  8
DATA
  6
Continuous
 62
     7
100
AcDbCircle
 10
102.3382685901069
 20
116.3377651601105
 30
0.0
 40
1.175000000000068
  0
LWPOLYLINE
  5
20D
330
8D3
100
AcDbEntity
  8
DATA
  6
Continuous
 62
     7
100
AcDbPolyline
 90
        6
 70
     1
 43
0.0
 10
102.3382685901069
 20
113.6377651601105
 10
99.99999999988901
 20
114.9877651601105
 10
99.99999999988901
 20
117.6877651601105
 10
102.3382685901069
 20
119.0377651601105
 10
104.6765371803249
 20
117.6877651601105
 10
104.6765371803249
 20
114.9877651601105
  0
CIRCLE
  5
216
330
8D3
100
AcDbEntity
  8
DATA
  6
Continuous
 62
     7
100
AcDbCircle
 10
134.8382685901067
 20
116.3377651601105
 30
0.0
 40
1.175000000000068
  0
LWPOLYLINE
  5
217
330
8D3
100
AcDbEntity
  8
DATA
  6
Continuous
 62
     7
100
AcDbPolyline
 90
        6
 70
     1
 43
0.0
 10
134.8382685901067
 20
113.6377651601105
 10
132.4999999998888
 20
114.9877651601105
 10
132.4999999998888
 20
117.6877651601105
 10
134.8382685901067
 20
119.0377651601105
 10
137.1765371803248
 20
117.6877651601105
 10
137.1765371803248
 20
114.9877651601105
  0
LINE
  5
220
330
8D3
100
AcDbEntity
  8
DATA
  6
Continuous
 62
     7
100
AcDbLine
 10
129.5402635778932
 20
112.4127651601105
 30
0.0
 11
107.6404538035098
 21
112.4127651601105
 31
0.0
  0
LINE
  5
221
330
8D3
100
AcDbEntity
  8
DATA
  6
Continuous
 62
     7
100
AcDbLine
 10
108.1993710009621
 20
120.2627651601105
 30
0.0
 11
128.981346380441
 21
120.2627651601105
 31
0.0
  0
LWPOLYLINE
  5
222
330
8D3
100
AcDbEntity
  8
DATA
  6
Continuous
 62
     7
100
AcDbPolyline
 90
        4
 70
     1
 43
0.0
 10
128.0604248618808
 20
117.1027651601105
 10
129.5904248618808
 20
117.1027651601105
 10
129.5904248618808
 20
115.5727651601105
 10
128.0604248618808
 20
115.5727651601105
  0
LWPOLYLINE
  5
229
330
8D3
100
AcDbEntity
  8
DATA
  6
Continuous
 62
     7
100
AcDbPolyline
 90
        4
 70
     1
 43
0.0
 10
126.0604248618808
 20
117.1027651601105
 10
127.5904248618808
 20
117.1027651601105
 10
127.5904248618808
 20
115.5727651601105
 10
126.0604248618808
 20
115.5727651601105
  0
LWPOLYLINE
  5
230
330
8D3
100
AcDbEntity
  8
DATA
  6
Continuous
 62
     7
100
AcDbPolyline
 90
        4
 70
     1
 43
0.0
 10
124.0604248618808
 20
117.1027651601105
 10
125.5904248618808
 20
117.1027651601105
 10
125.5904248618808
 20
115.5727651601105
 10
124.0604248618808
 20
115.5727651601105
  0
LWPOLYLINE
  5
237
330
8D3
100
AcDbEntity
  8
DATA
  6
Continuous
 62
     7
100
AcDbPolyline
 90
        4
 70
     1
 43
0.0
 10
122.0604248618808
 20
117.1027651601105
 10
123.5904248618808
 20
117.1027651601105
 10
123.5904248618808
 20
115.5727651601105
 10
122.0604248618808
 20
115.5727651601105
  0
LWPOLYLINE
  5
23E
330
8D3
100
AcDbEntity
  8
DATA
  6
Continuous
 62
     7
100
AcDbPolyline
 90
        4
 70
     1
 43
0.0
 10
120.0604248618809
 20
117.1027651601105
 10
121.5904248618808
 20
117.1027651601105
 10
121.5904248618808
 20
115.5727651601105
 10
120.0604248618809
 20
115.5727651601105
  0
LWPOLYLINE
  5
245
330
8D3
100
AcDbEntity
  8
DATA
  6
Continuous
 62
     7
100
AcDbPolyline
 90
        4
 70
     1
 43
0.0
 10
118.0604248618809
 20
117.1027651601105
 10
119.5904248618808
 20
117.1027651601105
 10
119.5904248618808
 20
115.5727651601105
 10
118.0604248618809
 20
115.5727651601105
  0
LWPOLYLINE
  5
24C
330
8D3
100
AcDbEntity
  8
DATA
  6
Continuous
 62
     7
100
AcDbPolyline
 90
        4
 70
     1
 43
0.0
 10
116.060424861881
 20
117.1027651601105
 10
117.5904248618809
 20
117.1027651601105
 10
117.5904248618809
 20
115.5727651601105
 10
116.060424861881
 20
115.5727651601105
  0
LWPOLYLINE
  5
253
330
8D3
100
AcDbEntity
  8
DATA
  6
Continuous
 62
     7
100
AcDbPolyline
 90
        4
 70
     1
 43
0.0
 10
114.0604248618809
 20
117.1027651601105
 10
115.5904248618809
 20
117.1027651601105
 10
115.5904248618809
 20
115.5727651601105
 10
114.0604248618809
 20
115.5727651601105
  0
LWPOLYLINE
  5
25A
330
8D3
100
AcDbEntity
  8
DATA
  6
Continuous
 62
     7
100
AcDbPolyline
 90
        4
 70
     1
 43
0.0
 10
128.0604248618808
 20
115.1027651601105
 10
129.5904248618808
 20
115.1027651601105
 10
129.5904248618808
 20
113.5727651601105
 10
128.0604248618808
 20
113.5727651601105
  0
LWPOLYLINE
  5
261
330
8D3
100
AcDbEntity
  8
DATA
  6
Continuous
 62
     7
100
AcDbPolyline
 90
        4
 70
     1
 43
0.0
 10
126.0604248618808
 20
115.1027651601105
 10
127.5904248618808
 20
115.1027651601105
 10
127.5904248618808
 20
113.5727651601105
 10
126.0604248618808
 20
113.5727651601105
  0
LWPOLYLINE
  5
268
330
8D3
100
AcDbEntity
  8
DATA
  6
Continuous
 62
     7
100
AcDbPolyline
 90
        4
 70
     1
 43
0.0
 10
124.0604248618808
 20
115.1027651601105
 10
125.5904248618808
 20
115.1027651601105
 10
125.5904248618808
 20
113.5727651601105
 10
124.0604248618808
 20
113.5727651601105
  0
LWPOLYLINE
  5
26F
330
8D3
100
AcDbEntity
  8
DATA
  6
Continuous
 62
     7
100
AcDbPolyline
 90
        4
 70
     1
 43
0.0
 10
122.0604248618808
 20
115.1027651601105
 10
123.5904248618808
 20
115.1027651601105
 10
123.5904248618808
 20
113.5727651601105
 10
122.0604248618808
 20
113.5727651601105
  0
LWPOLYLINE
  5
276
330
8D3
100
AcDbEntity
  8
DATA
  6
Continuous
 62
     7
100
AcDbPolyline
 90
        4
 70
     1
 43
0.0
 10
120.0604248618809
 20
115.1027651601105
 10
121.5904248618808
 20
115.1027651601105
 10
121.5904248618808
 20
113.5727651601105
 10
120.0604248618809
 20
113.5727651601105
  0
LWPOLYLINE
  5
27D
330
8D3
100
AcDbEntity
  8
DATA
  6
Continuous
 62
     7
100
AcDbPolyline
 90
        4
 70
     1
 43
0.0
 10
118.0604248618809
 20
115.1027651601105
 10
119.5904248618808
 20
115.1027651601105
 10
119.5904248618808
 20
113.5727651601105
 10
118.0604248618809
 20
113.5727651601105
  0
LWPOLYLINE
  5
284
330
8D3
100
AcDbEntity
  8
DATA
  6
Continuous
 62
     7
100
AcDbPolyline
 90
        4
 70
     1
 43
0.0
 10
116.060424861881
 20
115.1027651601105
 10
117.5904248618809
 20
115.1027651601105
 10
117.5904248618809
 20
113.5727651601105
 10
116.060424861881
 20
113.5727651601105
  0
LWPOLYLINE
  5
28B
330
8D3
100
AcDbEntity
  8
DATA
  6
Continuous
 62
     7
100
AcDbPolyline
 90
        4
 70
     1
 43
0.0
 10
114.0604248618809
 20
115.1027651601105
 10
115.5904248618809
 20
115.1027651601105
 10
115.5904248618809
 20
113.5727651601105
 10
114.0604248618809
 20
113.5727651601105
  0
LWPOLYLINE
  5
292
330
8D3
100
AcDbEntity
  8
DATA
  6
Continuous
 62
     7
100
AcDbPolyline
 90
        4
 70
     1
 43
0.0
 10
128.0604248618808
 20
119.1027651601105
 10
129.5904248618808
 20
119.1027651601105
 10
129.5904248618808
 20
117.5727651601105
 10
128.0604248618808
 20
117.5727651601105
  0
LWPOLYLINE
  5
299
330
8D3
100
AcDbEntity
  8
DATA
  6
Continuous
 62
     7
100
AcDbPolyline
 90
        4
 70
     1
 43
0.0
 10
126.0604248618808
 20
119.1027651601105
 10
127.5904248618808
 20
119.1027651601105
 10
127.5904248618808
 20
117.5727651601105
 10
126.0604248618808
 20
117.5727651601105
  0
LWPOLYLINE
  5
2A0
330
8D3
100
AcDbEntity
  8
DATA
  6
Continuous
 62
     7
100
AcDbPolyline
 90
        4
 70
     1
 43
0.0
 10
124.0604248618808
 20
119.1027651601105
 10
125.5904248618808
 20
119.1027651601105
 10
125.5904248618808
 20
117.5727651601105
 10
124.0604248618808
 20
117.5727651601105
  0
LWPOLYLINE
  5
2A7
330
8D3
100
AcDbEntity
  8
DATA
  6
Continuous
 62
     7
100
AcDbPolyline
 90
        4
 70
     1
 43
0.0
 10
122.0604248618808
 20
119.1027651601105
 10
123.5904248618808
 20
119.1027651601105
 10
123.5904248618808
 20
117.5727651601105
 10
122.0604248618808
 20
117.5727651601105
  0
LWPOLYLINE
  5
2AE
330
8D3
100
AcDbEntity
  8
DATA
  6
Continuous
 62
     7
100
AcDbPolyline
 90
        4
 70
     1
 43
0.0
 10
120.0604248618809
 20
119.1027651601105
 10
121.5904248618808
 20
119.1027651601105
 10
121.5904248618808
 20
117.5727651601105
 10
120.0604248618809
 20
117.5727651601105
  0
LWPOLYLINE
  5
2B5
330
8D3
100
AcDbEntity
  8
DATA
  6
Continuous
 62
     7
100
AcDbPolyline
 90
        4
 70
     1
 43
0.0
 10
118.0604248618809
 20
119.1027651601105
 10
119.5904248618808
 20
119.1027651601105
 10
119.5904248618808
 20
117.5727651601105
 10
118.0604248618809
 20
117.5727651601105
  0
LWPOLYLINE
  5
2BC
330
8D3
100
AcDbEntity
  8
DATA
  6
Continuous
 62
     7
100
AcDbPolyline
 90
        4
 70
     1
 43
0.0
 10
116.060424861881
 20
119.1027651601105
 10
117.5904248618809
 20
119.1027651601105
 10
117.5904248618809
 20
117.5727651601105
 10
116.060424861881
 20
117.5727651601105
  0
LWPOLYLINE
  5
2C3
330
8D3
100
AcDbEntity
  8
DATA
  6
Continuous
 62
     7
100
AcDbPolyline
 90
        4
 70
     1
 43
0.0
 10
114.0604248618809
 20
119.1027651601105
 10
115.5904248618809
 20
119.1027651601105
 10
115.5904248618809
 20
117.5727651601105
 10
114.0604248618809
 20
117.5727651601105
  0
LWPOLYLINE
  5
2CA
330
8D3
100
AcDbEntity
  8
DATA
  6
Continuous
 62
     7
100
AcDbPolyline
 90
        4
 70
     0
 43
0.0
 10
110.0403586907014
 20
115.9377651601105
 10
107.9403586907015
 20
115.9377651601105
 10
107.9403586907015
 20
116.7377651601105
 10
110.0403586907014
 20
116.7377651601105
  0
LWPOLYLINE
  5
2D1
330
8D3
100
AcDbEntity
  8
DATA
  6
Continuous
 62
     7
100
AcDbPolyline
 90
        4
 70
     0
 43
0.0
 10
110.8403586907015
 20
116.7377651601105
 10
112.9403586907014
 20
116.7377651601105
 10
112.9403586907014
 20
115.9377651601105
 10
110.8403586907015
 20
115.9377651601105
  0
LWPOLYLINE
  5
2D8
330
8D3
100
AcDbEntity
  8
DATA
  6
Continuous
 62
     7
100
AcDbPolyline
 90
        4
 70
     0
 43
0.0
 10
110.0403586907014
 20
116.7377651601105
 10
110.0403586907014
 20
118.8377651601105
 10
110.8403586907015
 20
118.8377651601105
 10
110.8403586907015
 20
116.7377651601105
  0
LWPOLYLINE
  5
2DF
330
8D3
100
AcDbEntity
  8
DATA
  6
Continuous
 62
     7
100
AcDbPolyline
 90
        4
 70
     0
 43
0.0
 10
110.8403586907015
 20
115.9377651601105
 10
110.8403586907015
 20
113.8377651601105
 10
110.0403586907014
 20
113.8377651601105
 10
110.0403586907014
 20
115.9377651601105
  0
LWPOLYLINE
  5
2E6
330
8D3
100
AcDbEntity
  8
DATA
  6
Continuous
 62
     7
100
AcDbPolyline
 90
        4
 70
     1
 43
0.0
 10
111.3006431211732
 20
115.5783373494605
 10
112.3006431211732
 20
115.5783373494605
 10
112.3006431211732
 20
114.5783373494605
 10
111.3006431211732
 20
114.5783373494605
  0
LWPOLYLINE
  5
2ED
330
8D3
100
AcDbEntity
  8
DATA
  6
Continuous
 62
     7
100
AcDbPolyline
 90
        4
 70
     1
 43
0.0
 10
108.5800742602297
 20
115.5783373494605
 10
109.5800742602297
 20
115.5783373494605
 10
109.5800742602297
 20
114.5783373494605
 10
108.5800742602297
 20
114.5783373494605
  0
LWPOLYLINE
  5
2F4
330
8D3
100
AcDbEntity
  8
DATA
  6
Continuous
 62
     7
100
AcDbPolyline
 90
        4
 70
     1
 43
0.0
 10
111.3006431211732
 20
118.0971929707604
 10
112.3006431211732
 20
118.0971929707604
 10
112.3006431211732
 20
117.0971929707604
 10
111.3006431211732
 20
117.0971929707604
  0
LWPOLYLINE
  5
2FB
330
8D3
100
AcDbEntity
  8
DATA
  6
Continuous
 62
     7
100
AcDbPolyline
 90
        4
 70
     1
 43
0.0
 10
108.5800742602297
 20
118.0971929707604
 10
109.5800742602297
 20
118.0971929707604
 10
109.5800742602297
 20
117.0971929707604
 10
108.5800742602297
 20
117.0971929707604
  0
LINE
  5
302
330
8D3
100
AcDbEntity
  8
DATA
  6
Continuous
 62
     7
100
AcDbLine
 10
130.5357305086486
 20
113.5078734655967
 30
0.0
 11
129.9768133111963
 21
119.3578734655967
 31
0.0
  0
LINE
  5
303
330
8D3
100
AcDbEntity
  8
DATA
  6
Continuous
 62
     7
100
AcDbLine
 10
106.6449868727544
 20
113.5078734655967
 30
0.0
 11
107.2039040702067
 21
119.3578734655967
 31
0.0
  0
ARC
  5
304
330
8D3
100
AcDbEntity
  8
DATA
  6
Continuous
 62
     7
100
AcDbCircle
 10
129.5402635778932
 20
113.4127651601105
 30
0.0
 40
1.0
100
AcDbArc
 50
270.0
 51
5.457553485107723
  0
ARC
  5
305
330
8D3
100
AcDbEntity
  8
DATA
  6
Continuous
 62
     7
100
AcDbCircle
 10
107.6404538035098
 20
113.4127651601105
 30
0.0
 40
0.9999999999999754
100
AcDbArc
 50
174.5424465148923
 51
270.0000000000033
  0
ARC
  5
306
330
8D3
100
AcDbEntity
  8
DATA
  6
Continuous
 62
     7
100
AcDbCircle
 10
128.981346380441
 20
119.2627651601105
 30
0.0
 40
0.9999999999999754
100
AcDbArc
 50
5.45755348510771
 51
90.0
  0
ARC
  5
307
330
8D3
100
AcDbEntity
  8
DATA
  6
Continuous
 62
     7
100
AcDbCircle
 10
108.1993710009621
 20
119.2627651601105
 30
0.0
 40
1.0
100
AcDbArc
 50
90.0
 51
174.5424465148958
  0
CIRCLE
  5
308
330
8D3
100
AcDbEntity
  8
DATA
  6
Continuous
 62
     7
100
AcDbCircle
 10
58.3382685901069
 20
116.3377651601105
 30
0.0
 40
1.175000000000068
  0
LWPOLYLINE
  5
309
330
8D3
100
AcDbEntity
  8
DATA
  6
Continuous
 62
     7
100
AcDbPolyline
 90
        6
 70
     1
 43
0.0
 10
58.3382685901069
 20
113.6377651601105
 10
55.99999999988897
 20
114.9877651601105
 10
55.99999999988897
 20
117.6877651601105
 10
58.3382685901069
 20
119.0377651601105
 10
60.67653718032493
 20
117.6877651601105
 10
60.67653718032493
 20
114.9877651601105
  0
CIRCLE
  5
312
330
8D3
100
AcDbEntity
  8
DATA
  6
Continuous
 62
     7
100
AcDbCircle
 10
90.83826859010677
 20
116.3377651601105
 30
0.0
 40
1.175000000000068
  0
LWPOLYLINE
  5
313
330
8D3
100
AcDbEntity
  8
DATA
  6
Continuous
 62
     7
100
AcDbPolyline
 90
        6
 70
     1
 43
0.0
 10
90.83826859010677
 20
113.6377651601105
 10
88.49999999988881
 20
114.9877651601105
 10
88.49999999988881
 20
117.6877651601105
 10
90.83826859010677
 20
119.0377651601105
 10
93.17653718032479
 20
117.6877651601105
 10
93.17653718032479
 20
114.9877651601105
  0
LINE
  5
31C
330
8D3
100
AcDbEntity
  8
DATA
  6
Continuous
 62
     7
100
AcDbLine
 10
85.54026357789329
 20
112.4127651601105
 30
0.0
 11
63.64045380350984
 21
112.4127651601105
 31
0.0
  0
LINE
  5
31D
330
8D3
100
AcDbEntity
  8
DATA
  6
Continuous
 62
     7
100
AcDbLine
 10
64.19937100096212
 20
120.2627651601105
 30
0.0
 11
84.98134638044101
 21
120.2627651601105
 31
0.0
  0
LWPOLYLINE
  5
31E
330
8D3
100
AcDbEntity
  8
DATA
  6
Continuous
 62
     7
100
AcDbPolyline
 90
        4
 70
     1
 43
0.0
 10
84.06042486188086
 20
117.1027651601105
 10
85.59042486188083
 20
117.1027651601105
 10
85.59042486188083
 20
115.5727651601105
 10
84.06042486188086
 20
115.5727651601105
  0
LWPOLYLINE
  5
325
330
8D3
100
AcDbEntity
  8
DATA
  6
Continuous
 62
     7
100
AcDbPolyline
 90
        4
 70
     1
 43
0.0
 10
82.06042486188087
 20
117.1027651601105
 10
83.59042486188084
 20
117.1027651601105
 10
83.59042486188084
 20
115.5727651601105
 10
82.06042486188087
 20
115.5727651601105
  0
LWPOLYLINE
  5
32C
330
8D3
100
AcDbEntity
  8
DATA
  6
Continuous
 62
     7
100
AcDbPolyline
 90
        4
 70
     1
 43
0.0
 10
80.06042486188086
 20
117.1027651601105
 10
81.59042486188083
 20
117.1027651601105
 10
81.59042486188083
 20
115.5727651601105
 10
80.06042486188086
 20
115.5727651601105
  0
LWPOLYLINE
  5
333
330
8D3
100
AcDbEntity
  8
DATA
  6
Continuous
 62
     7
100
AcDbPolyline
 90
        4
 70
     1
 43
0.0
 10
78.06042486188086
 20
117.1027651601105
 10
79.59042486188083
 20
117.1027651601105
 10
79.59042486188083
 20
115.5727651601105
 10
78.06042486188086
 20
115.5727651601105
  0
LWPOLYLINE
  5
33A
330
8D3
100
AcDbEntity
  8
DATA
  6
Continuous
 62
     7
100
AcDbPolyline
 90
        4
 70
     1
 43
0.0
 10
76.06042486188086
 20
117.1027651601105
 10
77.59042486188083
 20
117.1027651601105
 10
77.59042486188083
 20
115.5727651601105
 10
76.06042486188086
 20
115.5727651601105
  0
LWPOLYLINE
  5
341
330
8D3
100
AcDbEntity
  8
DATA
  6
Continuous
 62
     7
100
AcDbPolyline
 90
        4
 70
     1
 43
0.0
 10
74.06042486188086
 20
117.1027651601105
 10
75.59042486188083
 20
117.1027651601105
 10
75.59042486188083
 20
115.5727651601105
 10
74.06042486188086
 20
115.5727651601105
  0
LWPOLYLINE
  5
348
330
8D3
100
AcDbEntity
  8
DATA
  6
Continuous
 62
     7
100
AcDbPolyline
 90
        4
 70
     1
 43
0.0
 10
72.06042486188099
 20
117.1027651601105
 10
73.59042486188091
 20
117.1027651601105
 10
73.59042486188091
 20
115.5727651601105
 10
72.06042486188099
 20
115.5727651601105
  0
LWPOLYLINE
  5
34F
330
8D3
100
AcDbEntity
  8
DATA
  6
Continuous
 62
     7
100
AcDbPolyline
 90
        4
 70
     1
 43
0.0
 10
70.06042486188089
 20
117.1027651601105
 10
71.59042486188091
 20
117.1027651601105
 10
71.59042486188091
 20
115.5727651601105
 10
70.06042486188089
 20
115.5727651601105
  0
LWPOLYLINE
  5
356
330
8D3
100
AcDbEntity
  8
DATA
  6
Continuous
 62
     7
100
AcDbPolyline
 90
        4
 70
     1
 43
0.0
 10
84.06042486188086
 20
115.1027651601105
 10
85.59042486188083
 20
115.1027651601105
 10
85.59042486188083
 20
113.5727651601105
 10
84.06042486188086
 20
113.5727651601105
  0
LWPOLYLINE
  5
35D
330
8D3
100
AcDbEntity
  8
DATA
  6
Continuous
 62
     7
100
AcDbPolyline
 90
        4
 70
     1
 43
0.0
 10
82.06042486188087
 20
115.1027651601105
 10
83.59042486188084
 20
115.1027651601105
 10
83.59042486188084
 20
113.5727651601105
 10
82.06042486188087
 20
113.5727651601105
  0
LWPOLYLINE
  5
364
330
8D3
100
AcDbEntity
  8
DATA
  6
Continuous
 62
     7
100
AcDbPolyline
 90
        4
 70
     1
 43
0.0
 10
80.06042486188086
 20
115.1027651601105
 10
81.59042486188083
 20
115.1027651601105
 10
81.59042486188083
 20
113.5727651601105
 10
80.06042486188086
 20
113.5727651601105
  0
LWPOLYLINE
  5
36B
330
8D3
100
AcDbEntity
  8
DATA
  6
Continuous
 62
     7
100
AcDbPolyline
 90
        4
 70
     1
 43
0.0
 10
78.06042486188086
 20
115.1027651601105
 10
79.59042486188083
 20
115.1027651601105
 10
79.59042486188083
 20
113.5727651601105
 10
78.06042486188086
 20
113.5727651601105
  0
LWPOLYLINE
  5
372
330
8D3
100
AcDbEntity
  8
DATA
  6
Continuous
 62
     7
100
AcDbPolyline
 90
        4
 70
     1
 43
0.0
 10
76.06042486188086
 20
115.1027651601105
 10
77.59042486188083
 20
115.1027651601105
 10
77.59042486188083
 20
113.5727651601105
 10
76.06042486188086
 20
113.5727651601105
  0
LWPOLYLINE
  5
379
330
8D3
100
AcDbEntity
  8
DATA
  6
Continuous
 62
     7
100
AcDbPolyline
 90
        4
 70
     1
 43
0.0
 10
74.06042486188086
 20
115.1027651601105
 10
75.59042486188083
 20
115.1027651601105
 10
75.59042486188083
 20
113.5727651601105
 10
74.06042486188086
 20
113.5727651601105
  0
LWPOLYLINE
  5
380
330
8D3
100
AcDbEntity
  8
DATA
  6
Continuous
 62
     7
100
AcDbPolyline
 90
        4
 70
     1
 43
0.0
 10
72.06042486188099
 20
115.1027651601105
 10
73.59042486188091
 20
115.1027651601105
 10
73.59042486188091
 20
113.5727651601105
 10
72.06042486188099
 20
113.5727651601105
  0
LWPOLYLINE
  5
387
330
8D3
100
AcDbEntity
  8
DATA
  6
Continuous
 62
     7
100
AcDbPolyline
 90
        4
 70
     1
 43
0.0
 10
70.06042486188089
 20
115.1027651601105
 10
71.59042486188091
 20
115.1027651601105
 10
71.59042486188091
 20
113.5727651601105
 10
70.06042486188089
 20
113.5727651601105
  0
LWPOLYLINE
  5
38E
330
8D3
100
AcDbEntity
  8
DATA
  6
Continuous
 62
     7
100
AcDbPolyline
 90
        4
 70
     1
 43
0.0
 10
84.06042486188086
 20
119.1027651601105
 10
85.59042486188083
 20
119.1027651601105
 10
85.59042486188083
 20
117.5727651601105
 10
84.06042486188086
 20
117.5727651601105
  0
LWPOLYLINE
  5
395
330
8D3
100
AcDbEntity
  8
DATA
  6
Continuous
 62
     7
100
AcDbPolyline
 90
        4
 70
     1
 43
0.0
 10
82.06042486188087
 20
119.1027651601105
 10
83.59042486188084
 20
119.1027651601105
 10
83.59042486188084
 20
117.5727651601105
 10
82.06042486188087
 20
117.5727651601105
  0
LWPOLYLINE
  5
39C
330
8D3
100
AcDbEntity
  8
DATA
  6
Continuous
 62
     7
100
AcDbPolyline
 90
        4
 70
     1
 43
0.0
 10
80.06042486188086
 20
119.1027651601105
 10
81.59042486188083
 20
119.1027651601105
 10
81.59042486188083
 20
117.5727651601105
 10
80.06042486188086
 20
117.5727651601105
  0
LWPOLYLINE
  5
3A3
330
8D3
100
AcDbEntity
  8
DATA
  6
Continuous
 62
     7
100
AcDbPolyline
 90
        4
 70
     1
 43
0.0
 10
78.06042486188086
 20
119.1027651601105
 10
79.59042486188083
 20
119.1027651601105
 10
79.59042486188083
 20
117.5727651601105
 10
78.06042486188086
 20
117.5727651601105
  0
LWPOLYLINE
  5
3AA
330
8D3
100
AcDbEntity
  8
DATA
  6
Continuous
 62
     7
100
AcDbPolyline
 90
        4
 70
     1
 43
0.0
 10
76.06042486188086
 20
119.1027651601105
 10
77.59042486188083
 20
119.1027651601105
 10
77.59042486188083
 20
117.5727651601105
 10
76.06042486188086
 20
117.5727651601105
  0
LWPOLYLINE
  5
3B1
330
8D3
100
AcDbEntity
  8
DATA
  6
Continuous
 62
     7
100
AcDbPolyline
 90
        4
 70
     1
 43
0.0
 10
74.06042486188086
 20
119.1027651601105
 10
75.59042486188083
 20
119.1027651601105
 10
75.59042486188083
 20
117.5727651601105
 10
74.06042486188086
 20
117.5727651601105
  0
LWPOLYLINE
  5
3B8
330
8D3
100
AcDbEntity
  8
DATA
  6
Continuous
 62
     7
100
AcDbPolyline
 90
        4
 70
     1
 43
0.0
 10
72.06042486188099
 20
119.1027651601105
 10
73.59042486188091
 20
119.1027651601105
 10
73.59042486188091
 20
117.5727651601105
 10
72.06042486188099
 20
117.5727651601105
  0
LWPOLYLINE
  5
3BF
330
8D3
100
AcDbEntity
  8
DATA
  6
Continuous
 62
     7
100
AcDbPolyline
 90
        4
 70
     1
 43
0.0
 10
70.06042486188089
 20
119.1027651601105
 10
71.59042486188091
 20
119.1027651601105
 10
71.59042486188091
 20
117.5727651601105
 10
70.06042486188089
 20
117.5727651601105
  0
LWPOLYLINE
  5
3C6
330
8D3
100
AcDbEntity
  8
DATA
  6
Continuous
 62
     7
100
AcDbPolyline
 90
        4
 70
     0
 43
0.0
 10
66.04035869070142
 20
115.9377651601105
 10
63.94035869070149
 20
115.9377651601105
 10
63.94035869070149
 20
116.7377651601105
 10
66.04035869070142
 20
116.7377651601105
  0
LWPOLYLINE
  5
3CD
330
8D3
100
AcDbEntity
  8
DATA
  6
Continuous
 62
     7
100
AcDbPolyline
 90
        4
 70
     0
 43
0.0
 10
66.84035869070149
 20
116.7377651601105
 10
68.94035869070147
 20
116.7377651601105
 10
68.94035869070147
 20
115.9377651601105
 10
66.84035869070149
 20
115.9377651601105
  0
LWPOLYLINE
  5
3D4
330
8D3
100
AcDbEntity
  8
DATA
  6
Continuous
 62
     7
100
AcDbPolyline
 90
        4
 70
     0
 43
0.0
 10
66.04035869070142
 20
116.7377651601105
 10
66.04035869070142
 20
118.8377651601105
 10
66.84035869070149
 20
118.8377651601105
 10
66.84035869070149
 20
116.7377651601105
  0
LWPOLYLINE
  5
3DB
330
8D3
100
AcDbEntity
  8
DATA
  6
Continuous
 62
     7
100
AcDbPolyline
 90
        4
 70
     0
 43
0.0
 10
66.84035869070149
 20
115.9377651601105
 10
66.84035869070149
 20
113.8377651601105
 10
66.04035869070142
 20
113.8377651601105
 10
66.04035869070142
 20
115.9377651601105
  0
LWPOLYLINE
  5
3E2
330
8D3
100
AcDbEntity
  8
DATA
  6
Continuous
 62
     7
100
AcDbPolyline
 90
        4
 70
     1
 43
0.0
 10
67.30064312117318
 20
115.5783373494605
 10
68.30064312117318
 20
115.5783373494605
 10
68.30064312117318
 20
114.5783373494605
 10
67.30064312117318
 20
114.5783373494605
  0
LWPOLYLINE
  5
3E9
330
8D3
100
AcDbEntity
  8
DATA
  6
Continuous
 62
     7
100
AcDbPolyline
 90
        4
 70
     1
 43
0.0
 10
64.58007426022977
 20
115.5783373494605
 10
65.58007426022976
 20
115.5783373494605
 10
65.58007426022976
 20
114.5783373494605
 10
64.58007426022977
 20
114.5783373494605
  0
LWPOLYLINE
  5
3F0
330
8D3
100
AcDbEntity
  8
DATA
  6
Continuous
 62
     7
100
AcDbPolyline
 90
        4
 70
     1
 43
0.0
 10
67.30064312117318
 20
118.0971929707604
 10
68.30064312117318
 20
118.0971929707604
 10
68.30064312117318
 20
117.0971929707604
 10
67.30064312117318
 20
117.0971929707604
  0
LWPOLYLINE
  5
3F7
330
8D3
100
AcDbEntity
  8
DATA
  6
Continuous
 62
     7
100
AcDbPolyline
 90
        4
 70
     1
 43
0.0
 10
64.58007426022977
 20
118.0971929707604
 10
65.58007426022976
 20
118.0971929707604
 10
65.58007426022976
 20
117.0971929707604
 10
64.58007426022977
 20
117.0971929707604
  0
LINE
  5
3FE
330
8D3
100
AcDbEntity
  8
DATA
  6
Continuous
 62
     7
100
AcDbLine
 10
86.53573050864864
 20
113.5078734655967
 30
0.0
 11
85.97681331119636
 21
119.3578734655967
 31
0.0
  0
LINE
  5
3FF
330
8D3
100
AcDbEntity
  8
DATA
  6
Continuous
 62
     7
100
AcDbLine
 10
62.64498687275443
 20
113.5078734655967
 30
0.0
 11
63.2039040702067
 21
119.3578734655967
 31
0.0
  0
ARC
  5
400
330
8D3
100
AcDbEntity
  8
DATA
  6
Continuous
 62
     7
100
AcDbCircle
 10
85.54026357789329
 20
113.4127651601105
 30
0.0
 40
1.0
100
AcDbArc
 50
270.0
 51
5.457553485107723
  0
ARC
  5
401
330
8D3
100
AcDbEntity
  8
DATA
  6
Continuous
 62
     7
100
AcDbCircle
 10
63.64045380350978
 20
113.4127651601105
 30
0.0
 40
0.9999999999999754
100
AcDbArc
 50
174.5424465148923
 51
270.0000000000033
  0
ARC
  5
402
330
8D3
100
AcDbEntity
  8
DATA
  6
Continuous
 62
     7
100
AcDbCircle
 10
84.98134638044101
 20
119.2627651601105
 30
0.0
 40
0.9999999999999754
100
AcDbArc
 50
5.45755348510771
 51
90.0
  0
ARC
  5
403
330
8D3
100
AcDbEntity
  8
DATA
  6
Continuous
 62
     7
100
AcDbCircle
 10
64.19937100096212
 20
119.2627651601105
 30
0.0
 40
1.0
100
AcDbArc
 50
90.0
 51
174.5424465148958
  0
CIRCLE
  5
404
330
8D3
100
AcDbEntity
  8
DATA
  6
Continuous
 62
     7
100
AcDbCircle
 10
14.33826859010691
 20
116.3377651601105
 30
0.0
 40
1.175000000000068
  0
LWPOLYLINE
  5
405
330
8D3
100
AcDbEntity
  8
DATA
  6
Continuous
 62
     7
100
AcDbPolyline
 90
        6
 70
     1
 43
0.0
 10
14.33826859010691
 20
113.6377651601105
 10
11.99999999988898
 20
114.9877651601105
 10
11.99999999988898
 20
117.6877651601105
 10
14.33826859010691
 20
119.0377651601105
 10
16.67653718032494
 20
117.6877651601105
 10
16.67653718032494
 20
114.9877651601105
  0
CIRCLE
  5
40E
330
8D3
100
AcDbEntity
  8
DATA
  6
Continuous
 62
     7
100
AcDbCircle
 10
46.83826859010677
 20
116.3377651601105
 30
0.0
 40
1.175000000000068
  0
LWPOLYLINE
  5
40F
330
8D3
100
AcDbEntity
  8
DATA
  6
Continuous
 62
     7
100
AcDbPolyline
 90
        6
 70
     1
 43
0.0
 10
46.83826859010677
 20
113.6377651601105
 10
44.49999999988884
 20
114.9877651601105
 10
44.49999999988884
 20
117.6877651601105
 10
46.83826859010677
 20
119.0377651601105
 10
49.17653718032479
 20
117.6877651601105
 10
49.17653718032479
 20
114.9877651601105
  0
LINE
  5
418
330
8D3
100
AcDbEntity
  8
DATA
  6
Continuous
 62
     7
100
AcDbLine
 10
41.54026357789329
 20
112.4127651601105
 30
0.0
 11
19.64045380350984
 21
112.4127651601105
 31
0.0
  0
LINE
  5
419
330
8D3
100
AcDbEntity
  8
DATA
  6
Continuous
 62
     7
100
AcDbLine
 10
20.19937100096212
 20
120.2627651601105
 30
0.0
 11
40.98134638044101
 21
120.2627651601105
 31
0.0
  0
LWPOLYLINE
  5
41A
330
8D3
100
AcDbEntity
  8
DATA
  6
Continuous
 62
     7
100
AcDbPolyline
 90
        4
 70
     1
 43
0.0
 10
40.06042486188088
 20
117.1027651601105
 10
41.59042486188084
 20
117.1027651601105
 10
41.59042486188084
 20
115.5727651601105
 10
40.06042486188088
 20
115.5727651601105
  0
LWPOLYLINE
  5
421
330
8D3
100
AcDbEntity
  8
DATA
  6
Continuous
 62
     7
100
AcDbPolyline
 90
        4
 70
     1
 43
0.0
 10
38.06042486188088
 20
117.1027651601105
 10
39.59042486188085
 20
117.1027651601105
 10
39.59042486188085
 20
115.5727651601105
 10
38.06042486188088
 20
115.5727651601105
  0
LWPOLYLINE
  5
428
330
8D3
100
AcDbEntity
  8
DATA
  6
Continuous
 62
     7
100
AcDbPolyline
 90
        4
 70
     1
 43
0.0
 10
36.06042486188088
 20
117.1027651601105
 10
37.59042486188085
 20
117.1027651601105
 10
37.59042486188085
 20
115.5727651601105
 10
36.06042486188088
 20
115.5727651601105
  0
LWPOLYLINE
  5
42F
330
8D3
100
AcDbEntity
  8
DATA
  6
Continuous
 62
     7
100
AcDbPolyline
 90
        4
 70
     1
 43
0.0
 10
34.06042486188088
 20
117.1027651601105
 10
35.59042486188085
 20
117.1027651601105
 10
35.59042486188085
 20
115.5727651601105
 10
34.06042486188088
 20
115.5727651601105
  0
LWPOLYLINE
  5
436
330
8D3
100
AcDbEntity
  8
DATA
  6
Continuous
 62
     7
100
AcDbPolyline
 90
        4
 70
     1
 43
0.0
 10
32.06042486188088
 20
117.1027651601105
 10
33.59042486188085
 20
117.1027651601105
 10
33.59042486188085
 20
115.5727651601105
 10
32.06042486188088
 20
115.5727651601105
  0
LWPOLYLINE
  5
43D
330
8D3
100
AcDbEntity
  8
DATA
  6
Continuous
 62
     7
100
AcDbPolyline
 90
        4
 70
     1
 43
0.0
 10
30.06042486188088
 20
117.1027651601105
 10
31.59042486188085
 20
117.1027651601105
 10
31.59042486188085
 20
115.5727651601105
 10
30.06042486188088
 20
115.5727651601105
  0
LWPOLYLINE
  5
444
330
8D3
100
AcDbEntity
  8
DATA
  6
Continuous
 62
     7
100
AcDbPolyline
 90
        4
 70
     1
 43
0.0
 10
28.06042486188099
 20
117.1027651601105
 10
29.59042486188091
 20
117.1027651601105
 10
29.59042486188091
 20
115.5727651601105
 10
28.06042486188099
 20
115.5727651601105
  0
LWPOLYLINE
  5
44B
330
8D3
100
AcDbEntity
  8
DATA
  6
Continuous
 62
     7
100
AcDbPolyline
 90
        4
 70
     1
 43
0.0
 10
26.06042486188087
 20
117.1027651601105
 10
27.59042486188091
 20
117.1027651601105
 10
27.59042486188091
 20
115.5727651601105
 10
26.06042486188087
 20
115.5727651601105
  0
LWPOLYLINE
  5
452
330
8D3
100
AcDbEntity
  8
DATA
  6
Continuous
 62
     7
100
AcDbPolyline
 90
        4
 70
     1
 43
0.0
 10
40.06042486188088
 20
115.1027651601105
 10
41.59042486188084
 20
115.1027651601105
 10
41.59042486188084
 20
113.5727651601105
 10
40.06042486188088
 20
113.5727651601105
  0
LWPOLYLINE
  5
459
330
8D3
100
AcDbEntity
  8
DATA
  6
Continuous
 62
     7
100
AcDbPolyline
 90
        4
 70
     1
 43
0.0
 10
38.06042486188088
 20
115.1027651601105
 10
39.59042486188085
 20
115.1027651601105
 10
39.59042486188085
 20
113.5727651601105
 10
38.06042486188088
 20
113.5727651601105
  0
LWPOLYLINE
  5
460
330
8D3
100
AcDbEntity
  8
DATA
  6
Continuous
 62
     7
100
AcDbPolyline
 90
        4
 70
     1
 43
0.0
 10
36.06042486188088
 20
115.1027651601105
 10
37.59042486188085
 20
115.1027651601105
 10
37.59042486188085
 20
113.5727651601105
 10
36.06042486188088
 20
113.5727651601105
  0
LWPOLYLINE
  5
467
330
8D3
100
AcDbEntity
  8
DATA
  6
Continuous
 62
     7
100
AcDbPolyline
 90
        4
 70
     1
 43
0.0
 10
34.06042486188088
 20
115.1027651601105
 10
35.59042486188085
 20
115.1027651601105
 10
35.59042486188085
 20
113.5727651601105
 10
34.06042486188088
 20
113.5727651601105
  0
LWPOLYLINE
  5
46E
330
8D3
100
AcDbEntity
  8
DATA
  6
Continuous
 62
     7
100
AcDbPolyline
 90
        4
 70
     1
 43
0.0
 10
32.06042486188088
 20
115.1027651601105
 10
33.59042486188085
 20
115.1027651601105
 10
33.59042486188085
 20
113.5727651601105
 10
32.06042486188088
 20
113.5727651601105
  0
LWPOLYLINE
  5
475
330
8D3
100
AcDbEntity
  8
DATA
  6
Continuous
 62
     7
100
AcDbPolyline
 90
        4
 70
     1
 43
0.0
 10
30.06042486188088
 20
115.1027651601105
 10
31.59042486188085
 20
115.1027651601105
 10
31.59042486188085
 20
113.5727651601105
 10
30.06042486188088
 20
113.5727651601105
  0
LWPOLYLINE
  5
47C
330
8D3
100
AcDbEntity
  8
DATA
  6
Continuous
 62
     7
100
AcDbPolyline
 90
        4
 70
     1
 43
0.0
 10
28.06042486188099
 20
115.1027651601105
 10
29.59042486188091
 20
115.1027651601105
 10
29.59042486188091
 20
113.5727651601105
 10
28.06042486188099
 20
113.5727651601105
  0
LWPOLYLINE
  5
483
330
8D3
100
AcDbEntity
  8
DATA
  6
Continuous
 62
     7
100
AcDbPolyline
 90
        4
 70
     1
 43
0.0
 10
26.06042486188087
 20
115.1027651601105
 10
27.59042486188091
 20
115.1027651601105
 10
27.59042486188091
 20
113.5727651601105
 10
26.06042486188087
 20
113.5727651601105
  0
LWPOLYLINE
  5
48A
330
8D3
100
AcDbEntity
  8
DATA
  6
Continuous
 62
     7
100
AcDbPolyline
 90
        4
 70
     1
 43
0.0
 10
40.06042486188088
 20
119.1027651601105
 10
41.59042486188084
 20
119.1027651601105
 10
41.59042486188084
 20
117.5727651601105
 10
40.06042486188088
 20
117.5727651601105
  0
LWPOLYLINE
  5
491
330
8D3
100
AcDbEntity
  8
DATA
  6
Continuous
 62
     7
100
AcDbPolyline
 90
        4
 70
     1
 43
0.0
 10
38.06042486188088
 20
119.1027651601105
 10
39.59042486188085
 20
119.1027651601105
 10
39.59042486188085
 20
117.5727651601105
 10
38.06042486188088
 20
117.5727651601105
  0
LWPOLYLINE
  5
498
330
8D3
100
AcDbEntity
  8
DATA
  6
Continuous
 62
     7
100
AcDbPolyline
 90
        4
 70
     1
 43
0.0
 10
36.06042486188088
 20
119.1027651601105
 10
37.59042486188085
 20
119.1027651601105
 10
37.59042486188085
 20
117.5727651601105
 10
36.06042486188088
 20
117.5727651601105
  0
LWPOLYLINE
  5
49F
330
8D3
100
AcDbEntity
  8
DATA
  6
Continuous
 62
     7
100
AcDbPolyline
 90
        4
 70
     1
 43
0.0
 10
34.06042486188088
 20
119.1027651601105
 10
35.59042486188085
 20
119.1027651601105
 10
35.59042486188085
 20
117.5727651601105
 10
34.06042486188088
 20
117.5727651601105
  0
LWPOLYLINE
  5
4A6
330
8D3
100
AcDbEntity
  8
DATA
  6
Continuous
 62
     7
100
AcDbPolyline
 90
        4
 70
     1
 43
0.0
 10
32.06042486188088
 20
119.1027651601105
 10
33.59042486188085
 20
119.1027651601105
 10
33.59042486188085
 20
117.5727651601105
 10
32.06042486188088
 20
117.5727651601105
  0
LWPOLYLINE
  5
4AD
330
8D3
100
AcDbEntity
  8
DATA
  6
Continuous
 62
     7
100
AcDbPolyline
 90
        4
 70
     1
 43
0.0
 10
30.06042486188088
 20
119.1027651601105
 10
31.59042486188085
 20
119.1027651601105
 10
31.59042486188085
 20
117.5727651601105
 10
30.06042486188088
 20
117.5727651601105
  0
LWPOLYLINE
  5
4B4
330
8D3
100
AcDbEntity
  8
DATA
  6
Continuous
 62
     7
100
AcDbPolyline
 90
        4
 70
     1
 43
0.0
 10
28.06042486188099
 20
119.1027651601105
 10
29.59042486188091
 20
119.1027651601105
 10
29.59042486188091
 20
117.5727651601105
 10
28.06042486188099
 20
117.5727651601105
  0
LWPOLYLINE
  5
4BB
330
8D3
100
AcDbEntity
  8
DATA
  6
Continuous
 62
     7
100
AcDbPolyline
 90
        4
 70
     1
 43
0.0
 10
26.06042486188087
 20
119.1027651601105
 10
27.59042486188091
 20
119.1027651601105
 10
27.59042486188091
 20
117.5727651601105
 10
26.06042486188087
 20
117.5727651601105
  0
LWPOLYLINE
  5
4C2
330
8D3
100
AcDbEntity
  8
DATA
  6
Continuous
 62
     7
100
AcDbPolyline
 90
        4
 70
     0
 43
0.0
 10
22.04035869070143
 20
115.9377651601105
 10
19.94035869070149
 20
115.9377651601105
 10
19.94035869070149
 20
116.7377651601105
 10
22.04035869070143
 20
116.7377651601105
  0
LWPOLYLINE
  5
4C9
330
8D3
100
AcDbEntity
  8
DATA
  6
Continuous
 62
     7
100
AcDbPolyline
 90
        4
 70
     0
 43
0.0
 10
22.84035869070149
 20
116.7377651601105
 10
24.94035869070145
 20
116.7377651601105
 10
24.94035869070145
 20
115.9377651601105
 10
22.84035869070149
 20
115.9377651601105
  0
LWPOLYLINE
  5
4D0
330
8D3
100
AcDbEntity
  8
DATA
  6
Continuous
 62
     7
100
AcDbPolyline
 90
        4
 70
     0
 43
0.0
 10
22.04035869070143
 20
116.7377651601105
 10
22.04035869070143
 20
118.8377651601105
 10
22.84035869070149
 20
118.8377651601105
 10
22.84035869070149
 20
116.7377651601105
  0
LWPOLYLINE
  5
4D7
330
8D3
100
AcDbEntity
  8
DATA
  6
Continuous
 62
     7
100
AcDbPolyline
 90
        4
 70
     0
 43
0.0
 10
22.84035869070149
 20
115.9377651601105
 10
22.84035869070149
 20
113.8377651601105
 10
22.04035869070143
 20
113.8377651601105
 10
22.04035869070143
 20
115.9377651601105
  0
LWPOLYLINE
  5
4DE
330
8D3
100
AcDbEntity
  8
DATA
  6
Continuous
 62
     7
100
AcDbPolyline
 90
        4
 70
     1
 43
0.0
 10
23.30064312117318
 20
115.5783373494605
 10
24.30064312117318
 20
115.5783373494605
 10
24.30064312117318
 20
114.5783373494605
 10
23.30064312117318
 20
114.5783373494605
  0
LWPOLYLINE
  5
4E5
330
8D3
100
AcDbEntity
  8
DATA
  6
Continuous
 62
     7
100
AcDbPolyline
 90
        4
 70
     1
 43
0.0
 10
20.58007426022976
 20
115.5783373494605
 10
21.58007426022976
 20
115.5783373494605
 10
21.58007426022976
 20
114.5783373494605
 10
20.58007426022976
 20
114.5783373494605
  0
LWPOLYLINE
  5
4EC
330
8D3
100
AcDbEntity
  8
DATA
  6
Continuous
 62
     7
100
AcDbPolyline
 90
        4
 70
     1
 43
0.0
 10
23.30064312117318
 20
118.0971929707604
 10
24.30064312117318
 20
118.0971929707604
 10
24.30064312117318
 20
117.0971929707604
 10
23.30064312117318
 20
117.0971929707604
  0
LWPOLYLINE
  5
4F3
330
8D3
100
AcDbEntity
  8
DATA
  6
Continuous
 62
     7
100
AcDbPolyline
 90
        4
 70
     1
 43
0.0
 10
20.58007426022976
 20
118.0971929707604
 10
21.58007426022976
 20
118.0971929707604
 10
21.58007426022976
 20
117.0971929707604
 10
20.58007426022976
 20
117.0971929707604
  0
LINE
  5
4FA
330
8D3
100
AcDbEntity
  8
DATA
  6
Continuous
 62
     7
100
AcDbLine
 10
42.53573050864864
 20
113.5078734655967
 30
0.0
 11
41.97681331119636
 21
119.3578734655967
 31
0.0
  0
LINE
  5
4FB
330
8D3
100
AcDbEntity
  8
DATA
  6
Continuous
 62
     7
100
AcDbLine
 10
18.64498687275443
 20
113.5078734655967
 30
0.0
 11
19.2039040702067
 21
119.3578734655967
 31
0.0
  0
ARC
  5
4FC
330
8D3
100
AcDbEntity
  8
DATA
  6
Continuous
 62
     7
100
AcDbCircle
 10
41.54026357789329
 20
113.4127651601105
 30
0.0
 40
1.0
100
AcDbArc
 50
270.0
 51
5.457553485107723
  0
ARC
  5
4FD
330
8D3
100
AcDbEntity
  8
DATA
  6
Continuous
 62
     7
100
AcDbCircle
 10
19.64045380350978
 20
113.4127651601105
 30
0.0
 40
0.9999999999999754
100
AcDbArc
 50
174.5424465148923
 51
270.0000000000033
  0
ARC
  5
4FE
330
8D3
100
AcDbEntity
  8
DATA
  6
Continuous
 62
     7
100
AcDbCircle
 10
40.98134638044101
 20
119.2627651601105
 30
0.0
 40
0.9999999999999754
100
AcDbArc
 50
5.45755348510771
 51
90.0
  0
ARC
  5
4FF
330
8D3
100
AcDbEntity
  8
DATA
  6
Continuous
 62
     7
100
AcDbCircle
 10
20.19937100096212
 20
119.2627651601105
 30
0.0
 40
1.0
100
AcDbArc
 50
90.0
 51
174.5424465148958
  0
TEXT
  5
500
330
8D3
100
AcDbEntity
  8
DATA
 62
     7
100
AcDbText
 10
-184.8910637674405
 20
128.0473672374463
 30
0.0
 40
2.9319140625
  1
DVI Out
 50
180.0
 41
0.7
 11
-184.8910637674405
 21
125.1154531749463
 31
0.0
100
AcDbText
 73
     3
  0
CIRCLE
  5
501
330
8D3
100
AcDbEntity
  8
DATA
  6
Continuous
 62
     7
100
AcDbCircle
 10
-208.3717716891877
 20
116.3377651601105
 30
0.0
 40
1.175000000000068
  0
LWPOLYLINE
  5
502
330
8D3
100
AcDbEntity
  8
DATA
  6
Continuous
 62
     7
100
AcDbPolyline
 90
        6
 70
     1
 43
0.0
 10
-208.3717716891877
 20
113.6377651601105
 10
-210.7100402794056
 20
114.9877651601105
 10
-210.7100402794056
 20
117.6877651601105
 10
-208.3717716891877
 20
119.0377651601105
 10
-206.0335030989697
 20
117.6877651601105
 10
-206.0335030989697
 20
114.9877651601105
  0
CIRCLE
  5
50B
330
8D3
100
AcDbEntity
  8
DATA
  6
Continuous
 62
     7
100
AcDbCircle
 10
-175.8717716891879
 20
116.3377651601105
 30
0.0
 40
1.175000000000068
  0
LWPOLYLINE
  5
50C
330
8D3
100
AcDbEntity
  8
DATA
  6
Continuous
 62
     7
100
AcDbPolyline
 90
        6
 70
     1
 43
0.0
 10
-175.8717716891879
 20
113.6377651601105
 10
-178.2100402794058
 20
114.9877651601105
 10
-178.2100402794058
 20
117.6877651601105
 10
-175.8717716891879
 20
119.0377651601105
 10
-173.5335030989698
 20
117.6877651601105
 10
-173.5335030989698
 20
114.9877651601105
  0
LINE
  5
515
330
8D3
100
AcDbEntity
  8
DATA
  6
Continuous
 62
     7
100
AcDbLine
 10
-181.1697767014013
 20
112.4127651601105
 30
0.0
 11
-203.0695864757848
 21
112.4127651601105
 31
0.0
  0
LINE
  5
516
330
8D3
100
AcDbEntity
  8
DATA
  6
Continuous
 62
     7
100
AcDbLine
 10
-202.5106692783325
 20
120.2627651601105
 30
0.0
 11
-181.7286938988536
 21
120.2627651601105
 31
0.0
  0
LWPOLYLINE
  5
517
330
8D3
100
AcDbEntity
  8
DATA
  6
Continuous
 62
     7
100
AcDbPolyline
 90
        4
 70
     1
 43
0.0
 10
-182.6496154174137
 20
117.1027651601105
 10
-181.1196154174138
 20
117.1027651601105
 10
-181.1196154174138
 20
115.5727651601105
 10
-182.6496154174137
 20
115.5727651601105
  0
LWPOLYLINE
  5
51E
330
8D3
100
AcDbEntity
  8
DATA
  6
Continuous
 62
     7
100
AcDbPolyline
 90
        4
 70
     1
 43
0.0
 10
-184.6496154174137
 20
117.1027651601105
 10
-183.1196154174138
 20
117.1027651601105
 10
-183.1196154174138
 20
115.5727651601105
 10
-184.6496154174137
 20
115.5727651601105
  0
LWPOLYLINE
  5
525
330
8D3
100
AcDbEntity
  8
DATA
  6
Continuous
 62
     7
100
AcDbPolyline
 90
        4
 70
     1
 43
0.0
 10
-186.6496154174137
 20
117.1027651601105
 10
-185.1196154174138
 20
117.1027651601105
 10
-185.1196154174138
 20
115.5727651601105
 10
-186.6496154174137
 20
115.5727651601105
  0
LWPOLYLINE
  5
52C
330
8D3
100
AcDbEntity
  8
DATA
  6
Continuous
 62
     7
100
AcDbPolyline
 90
        4
 70
     1
 43
0.0
 10
-188.6496154174137
 20
117.1027651601105
 10
-187.1196154174138
 20
117.1027651601105
 10
-187.1196154174138
 20
115.5727651601105
 10
-188.6496154174137
 20
115.5727651601105
  0
LWPOLYLINE
  5
533
330
8D3
100
AcDbEntity
  8
DATA
  6
Continuous
 62
     7
100
AcDbPolyline
 90
        4
 70
     1
 43
0.0
 10
-190.6496154174137
 20
117.1027651601105
 10
-189.1196154174138
 20
117.1027651601105
 10
-189.1196154174138
 20
115.5727651601105
 10
-190.6496154174137
 20
115.5727651601105
  0
LWPOLYLINE
  5
53A
330
8D3
100
AcDbEntity
  8
DATA
  6
Continuous
 62
     7
100
AcDbPolyline
 90
        4
 70
     1
 43
0.0
 10
-192.6496154174137
 20
117.1027651601105
 10
-191.1196154174138
 20
117.1027651601105
 10
-191.1196154174138
 20
115.5727651601105
 10
-192.6496154174137
 20
115.5727651601105
  0
LWPOLYLINE
  5
541
330
8D3
100
AcDbEntity
  8
DATA
  6
Continuous
 62
     7
100
AcDbPolyline
 90
        4
 70
     1
 43
0.0
 10
-194.6496154174137
 20
117.1027651601105
 10
-193.1196154174137
 20
117.1027651601105
 10
-193.1196154174137
 20
115.5727651601105
 10
-194.6496154174137
 20
115.5727651601105
  0
LWPOLYLINE
  5
548
330
8D3
100
AcDbEntity
  8
DATA
  6
Continuous
 62
     7
100
AcDbPolyline
 90
        4
 70
     1
 43
0.0
 10
-196.6496154174137
 20
117.1027651601105
 10
-195.1196154174137
 20
117.1027651601105
 10
-195.1196154174137
 20
115.5727651601105
 10
-196.6496154174137
 20
115.5727651601105
  0
LWPOLYLINE
  5
54F
330
8D3
100
AcDbEntity
  8
DATA
  6
Continuous
 62
     7
100
AcDbPolyline
 90
        4
 70
     1
 43
0.0
 10
-182.6496154174137
 20
115.1027651601105
 10
-181.1196154174138
 20
115.1027651601105
 10
-181.1196154174138
 20
113.5727651601105
 10
-182.6496154174137
 20
113.5727651601105
  0
LWPOLYLINE
  5
556
330
8D3
100
AcDbEntity
  8
DATA
  6
Continuous
 62
     7
100
AcDbPolyline
 90
        4
 70
     1
 43
0.0
 10
-184.6496154174137
 20
115.1027651601105
 10
-183.1196154174138
 20
115.1027651601105
 10
-183.1196154174138
 20
113.5727651601105
 10
-184.6496154174137
 20
113.5727651601105
  0
LWPOLYLINE
  5
55D
330
8D3
100
AcDbEntity
  8
DATA
  6
Continuous
 62
     7
100
AcDbPolyline
 90
        4
 70
     1
 43
0.0
 10
-186.6496154174137
 20
115.1027651601105
 10
-185.1196154174138
 20
115.1027651601105
 10
-185.1196154174138
 20
113.5727651601105
 10
-186.6496154174137
 20
113.5727651601105
  0
LWPOLYLINE
  5
564
330
8D3
100
AcDbEntity
  8
DATA
  6
Continuous
 62
     7
100
AcDbPolyline
 90
        4
 70
     1
 43
0.0
 10
-188.6496154174137
 20
115.1027651601105
 10
-187.1196154174138
 20
115.1027651601105
 10
-187.1196154174138
 20
113.5727651601105
 10
-188.6496154174137
 20
113.5727651601105
  0
LWPOLYLINE
  5
56B
330
8D3
100
AcDbEntity
  8
DATA
  6
Continuous
 62
     7
100
AcDbPolyline
 90
        4
 70
     1
 43
0.0
 10
-190.6496154174137
 20
115.1027651601105
 10
-189.1196154174138
 20
115.1027651601105
 10
-189.1196154174138
 20
113.5727651601105
 10
-190.6496154174137
 20
113.5727651601105
  0
LWPOLYLINE
  5
572
330
8D3
100
AcDbEntity
  8
DATA
  6
Continuous
 62
     7
100
AcDbPolyline
 90
        4
 70
     1
 43
0.0
 10
-192.6496154174137
 20
115.1027651601105
 10
-191.1196154174138
 20
115.1027651601105
 10
-191.1196154174138
 20
113.5727651601105
 10
-192.6496154174137
 20
113.5727651601105
  0
LWPOLYLINE
  5
579
330
8D3
100
AcDbEntity
  8
DATA
  6
Continuous
 62
     7
100
AcDbPolyline
 90
        4
 70
     1
 43
0.0
 10
-194.6496154174137
 20
115.1027651601105
 10
-193.1196154174137
 20
115.1027651601105
 10
-193.1196154174137
 20
113.5727651601105
 10
-194.6496154174137
 20
113.5727651601105
  0
LWPOLYLINE
  5
580
330
8D3
100
AcDbEntity
  8
DATA
  6
Continuous
 62
     7
100
AcDbPolyline
 90
        4
 70
     1
 43
0.0
 10
-196.6496154174137
 20
115.1027651601105
 10
-195.1196154174137
 20
115.1027651601105
 10
-195.1196154174137
 20
113.5727651601105
 10
-196.6496154174137
 20
113.5727651601105
  0
LWPOLYLINE
  5
587
330
8D3
100
AcDbEntity
  8
DATA
  6
Continuous
 62
     7
100
AcDbPolyline
 90
        4
 70
     1
 43
0.0
 10
-182.6496154174137
 20
119.1027651601105
 10
-181.1196154174138
 20
119.1027651601105
 10
-181.1196154174138
 20
117.5727651601105
 10
-182.6496154174137
 20
117.5727651601105
  0
LWPOLYLINE
  5
58E
330
8D3
100
AcDbEntity
  8
DATA
  6
Continuous
 62
     7
100
AcDbPolyline
 90
        4
 70
     1
 43
0.0
 10
-184.6496154174137
 20
119.1027651601105
 10
-183.1196154174138
 20
119.1027651601105
 10
-183.1196154174138
 20
117.5727651601105
 10
-184.6496154174137
 20
117.5727651601105
  0
LWPOLYLINE
  5
595
330
8D3
100
AcDbEntity
  8
DATA
  6
Continuous
 62
     7
100
AcDbPolyline
 90
        4
 70
     1
 43
0.0
 10
-186.6496154174137
 20
119.1027651601105
 10
-185.1196154174138
 20
119.1027651601105
 10
-185.1196154174138
 20
117.5727651601105
 10
-186.6496154174137
 20
117.5727651601105
  0
LWPOLYLINE
  5
59C
330
8D3
100
AcDbEntity
  8
DATA
  6
Continuous
 62
     7
100
AcDbPolyline
 90
        4
 70
     1
 43
0.0
 10
-188.6496154174137
 20
119.1027651601105
 10
-187.1196154174138
 20
119.1027651601105
 10
-187.1196154174138
 20
117.5727651601105
 10
-188.6496154174137
 20
117.5727651601105
  0
LWPOLYLINE
  5
5A3
330
8D3
100
AcDbEntity
  8
DATA
  6
Continuous
 62
     7
100
AcDbPolyline
 90
        4
 70
     1
 43
0.0
 10
-190.6496154174137
 20
119.1027651601105
 10
-189.1196154174138
 20
119.1027651601105
 10
-189.1196154174138
 20
117.5727651601105
 10
-190.6496154174137
 20
117.5727651601105
  0
LWPOLYLINE
  5
5AA
330
8D3
100
AcDbEntity
  8
DATA
  6
Continuous
 62
     7
100
AcDbPolyline
 90
        4
 70
     1
 43
0.0
 10
-192.6496154174137
 20
119.1027651601105
 10
-191.1196154174138
 20
119.1027651601105
 10
-191.1196154174138
 20
117.5727651601105
 10
-192.6496154174137
 20
117.5727651601105
  0
LWPOLYLINE
  5
5B1
330
8D3
100
AcDbEntity
  8
DATA
  6
Continuous
 62
     7
100
AcDbPolyline
 90
        4
 70
     1
 43
0.0
 10
-194.6496154174137
 20
119.1027651601105
 10
-193.1196154174137
 20
119.1027651601105
 10
-193.1196154174137
 20
117.5727651601105
 10
-194.6496154174137
 20
117.5727651601105
  0
LWPOLYLINE
  5
5B8
330
8D3
100
AcDbEntity
  8
DATA
  6
Continuous
 62
     7
100
AcDbPolyline
 90
        4
 70
     1
 43
0.0
 10
-196.6496154174137
 20
119.1027651601105
 10
-195.1196154174137
 20
119.1027651601105
 10
-195.1196154174137
 20
117.5727651601105
 10
-196.6496154174137
 20
117.5727651601105
  0
LWPOLYLINE
  5
5BF
330
8D3
100
AcDbEntity
  8
DATA
  6
Continuous
 62
     7
100
AcDbPolyline
 90
        4
 70
     0
 43
0.0
 10
-200.6696815885931
 20
115.9377651601105
 10
-202.7696815885932
 20
115.9377651601105
 10
-202.7696815885932
 20
116.7377651601105
 10
-200.6696815885931
 20
116.7377651601105
  0
LWPOLYLINE
  5
5C6
330
8D3
100
AcDbEntity
  8
DATA
  6
Continuous
 62
     7
100
AcDbPolyline
 90
        4
 70
     0
 43
0.0
 10
-199.8696815885931
 20
116.7377651601105
 10
-197.7696815885932
 20
116.7377651601105
 10
-197.7696815885932
 20
115.9377651601105
 10
-199.8696815885931
 20
115.9377651601105
  0
LWPOLYLINE
  5
5CD
330
8D3
100
AcDbEntity
  8
DATA
  6
Continuous
 62
     7
100
AcDbPolyline
 90
        4
 70
     0
 43
0.0
 10
-200.6696815885931
 20
116.7377651601105
 10
-200.6696815885931
 20
118.8377651601105
 10
-199.8696815885931
 20
118.8377651601105
 10
-199.8696815885931
 20
116.7377651601105
  0
LWPOLYLINE
  5
5D4
330
8D3
100
AcDbEntity
  8
DATA
  6
Continuous
 62
     7
100
AcDbPolyline
 90
        4
 70
     0
 43
0.0
 10
-199.8696815885931
 20
115.9377651601105
 10
-199.8696815885931
 20
113.8377651601105
 10
-200.6696815885931
 20
113.8377651601105
 10
-200.6696815885931
 20
115.9377651601105
  0
LWPOLYLINE
  5
5DB
330
8D3
100
AcDbEntity
  8
DATA
  6
Continuous
 62
     7
100
AcDbPolyline
 90
        4
 70
     1
 43
0.0
 10
-199.4093971581214
 20
115.5783373494605
 10
-198.4093971581214
 20
115.5783373494605
 10
-198.4093971581214
 20
114.5783373494605
 10
-199.4093971581214
 20
114.5783373494605
  0
LWPOLYLINE
  5
5E2
330
8D3
100
AcDbEntity
  8
DATA
  6
Continuous
 62
     7
100
AcDbPolyline
 90
        4
 70
     1
 43
0.0
 10
-202.1299660190648
 20
115.5783373494605
 10
-201.1299660190648
 20
115.5783373494605
 10
-201.1299660190648
 20
114.5783373494605
 10
-202.1299660190648
 20
114.5783373494605
  0
LWPOLYLINE
  5
5E9
330
8D3
100
AcDbEntity
  8
DATA
  6
Continuous
 62
     7
100
AcDbPolyline
 90
        4
 70
     1
 43
0.0
 10
-199.4093971581214
 20
118.0971929707604
 10
-198.4093971581214
 20
118.0971929707604
 10
-198.4093971581214
 20
117.0971929707604
 10
-199.4093971581214
 20
117.0971929707604
  0
LWPOLYLINE
  5
5F0
330
8D3
100
AcDbEntity
  8
DATA
  6
Continuous
 62
     7
100
AcDbPolyline
 90
        4
 70
     1
 43
0.0
 10
-202.1299660190648
 20
118.0971929707604
 10
-201.1299660190648
 20
118.0971929707604
 10
-201.1299660190648
 20
117.0971929707604
 10
-202.1299660190648
 20
117.0971929707604
  0
LINE
  5
5F7
330
8D3
100
AcDbEntity
  8
DATA
  6
Continuous
 62
     7
100
AcDbLine
 10
-180.174309770646
 20
113.5078734655967
 30
0.0
 11
-180.7332269680983
 21
119.3578734655967
 31
0.0
  0
LINE
  5
5F8
330
8D3
100
AcDbEntity
  8
DATA
  6
Continuous
 62
     7
100
AcDbLine
 10
-204.0650534065403
 20
113.5078734655967
 30
0.0
 11
-203.506136209088
 21
119.3578734655967
 31
0.0
  0
ARC
  5
5F9
330
8D3
100
AcDbEntity
  8
DATA
  6
Continuous
 62
     7
100
AcDbCircle
 10
-181.1697767014013
 20
113.4127651601105
 30
0.0
 40
1.0
100
AcDbArc
 50
270.0
 51
5.457553485107723
  0
ARC
  5
5FA
330
8D3
100
AcDbEntity
  8
DATA
  6
Continuous
 62
     7
100
AcDbCircle
 10
-203.0695864757849
 20
113.4127651601105
 30
0.0
 40
0.9999999999999754
100
AcDbArc
 50
174.5424465148923
 51
270.0000000000065
  0
ARC
  5
5FB
330
8D3
100
AcDbEntity
  8
DATA
  6
Continuous
 62
     7
100
AcDbCircle
 10
-181.7286938988536
 20
119.2627651601105
 30
0.0
 40
0.9999999999999754
100
AcDbArc
 50
5.45755348510771
 51
90.0
  0
ARC
  5
5FC
330
8D3
100
AcDbEntity
  8
DATA
  6
Continuous
 62
     7
100
AcDbCircle
 10
-202.5106692783325
 20
119.2627651601105
 30
0.0
 40
1.0
100
AcDbArc
 50
90.0
 51
174.5424465148961
  0
CIRCLE
  5
5FD
330
8D3
100
AcDbEntity
  8
DATA
  6
Continuous
 62
     7
100
AcDbCircle
 10
192.9999999998889
 20
112.5000000000482
 30
0.0
 40
3.849999999999993
  0
CIRCLE
  5
5FE
330
8D3
100
AcDbEntity
  8
DATA
  6
Continuous
 62
     7
100
AcDbCircle
 10
192.9999999998889
 20
112.5000000000482
 30
0.0
 40
2.800000000000011
  0
CIRCLE
  5
5FF
330
8D3
100
AcDbEntity
  8
DATA
  6
Continuous
 62
     7
100
AcDbCircle
 10
192.9999999998889
 20
112.5000000000482
 30
0.0
 40
0.5999999999999944
  0
CIRCLE
  5
600
330
8D3
100
AcDbEntity
  8
DATA
  6
Continuous
 62
     7
100
AcDbCircle
 10
192.9999999998889
 20
112.5000000000482
 30
0.0
 40
5.199999999999988
  0
LWPOLYLINE
  5
601
330
8D3
100
AcDbEntity
  8
DATA
  6
Continuous
 62
     7
100
AcDbPolyline
 90
        6
 70
     1
 43
0.0
 10
192.9999999998889
 20
117.7000000000482
 10
188.4966679002098
 20
115.1000000000482
 10
188.4966679002098
 20
109.9000000000482
 10
192.9999999998889
 20
107.3000000000482
 10
197.5033320995679
 20
109.9000000000482
 10
197.5033320995679
 20
115.1000000000482
  0
TEXT
  5
60A
330
8D3
100
AcDbEntity
  8
DATA
 62
     7
100
AcDbText
 10
197.9083833618097
 20
128.0473672374463
 30
0.0
 40
2.9319140625
  1
5V DC
 50
180.0
 41
0.7
 11
197.9083833618097
 21
125.1154531749463
 31
0.0
100
AcDbText
 73
     3
  0
CIRCLE
  5
60B
330
8D3
100
AcDbEntity
  8
DATA
  6
Continuous
 62
     7
100
AcDbCircle
 10
179.9999999998889
 20
101.5000000000482
 30
0.0
 40
3.5
  0
LINE
  5
60C
330
8D3
100
AcDbEntity
  8
DATA
  6
Continuous
 62
     7
100
AcDbLine
 10
177.9583986537572
 20
101.5000000000482
 30
0.0
 11
182.0416013460205
 21
101.5000000000482
 31
0.0
  0
LINE
  5
60D
330
8D3
100
AcDbEntity
  8
DATA
  6
Continuous
 62
     7
100
AcDbLine
 10
179.9999999998889
 20
99.45839865391649
 30
0.0
 11
179.9999999998889
 21
103.5416013461798
 31
0.0
  0
CIRCLE
  5
60E
330
8D3
100
AcDbEntity
  8
DATA
  6
Continuous
 62
     7
100
AcDbCircle
 10
-9.0000000001111
 20
101.5000000000482
 30
0.0
 40
3.5
  0
LINE
  5
60F
330
8D3
100
AcDbEntity
  8
DATA
  6
Continuous
 62
     7
100
AcDbLine
 10
-11.0416013462428
 20
101.5000000000482
 30
0.0
 11
-6.958398653979401
 21
101.5000000000482
 31
0.0
  0
LINE
  5
610
330
8D3
100
AcDbEntity
  8
DATA
  6
Continuous
 62
     7
100
AcDbLine
 10
-9.0000000001111
 20
99.45839865391649
 30
0.0
 11
-9.0000000001111
 21
103.5416013461798
 31
0.0
  0
CIRCLE
  5
611
330
8D3
100
AcDbEntity
  8
DATA
  6
Continuous
 62
     7
100
AcDbCircle
 10
87.08894267850309
 20
103.5000000000482
 30
0.0
 40
3.0
  0
CIRCLE
  5
612
330
8D3
100
AcDbEntity
  8
DATA
  6
Continuous
 62
     7
100
AcDbCircle
 10
87.08894267850309
 20
103.5000000000482
 30
0.0
 40
1.700000000000002
  0
CIRCLE
  5
613
330
8D3
100
AcDbEntity
  8
DATA
  6
Continuous
 62
     7
100
AcDbCircle
 10
67.08894267850311
 20
103.5000000000482
 30
0.0
 40
3.0
  0
CIRCLE
  5
614
330
8D3
100
AcDbEntity
  8
DATA
  6
Continuous
 62
     7
100
AcDbCircle
 10
67.08894267850311
 20
103.5000000000482
 30
0.0
 40
1.700000000000002
  0
CIRCLE
  5
615
330
8D3
100
AcDbEntity
  8
DATA
  6
Continuous
 62
     7
100
AcDbCircle
 10
47.08894267850311
 20
103.5000000000482
 30
0.0
 40
3.0
  0
CIRCLE
  5
616
330
8D3
100
AcDbEntity
  8
DATA
  6
Continuous
 62
     7
100
AcDbCircle
 10
47.08894267850311
 20
103.5000000000482
 30
0.0
 40
1.700000000000002
  0
CIRCLE
  5
617
330
8D3
100
AcDbEntity
  8
DATA
  6
Continuous
 62
     7
100
AcDbCircle
 10
27.08894267850312
 20
103.5000000000482
 30
0.0
 40
3.0
  0
CIRCLE
  5
618
330
8D3
100
AcDbEntity
  8
DATA
  6
Continuous
 62
     7
100
AcDbCircle
 10
27.08894267850312
 20
103.5000000000482
 30
0.0
 40
1.700000000000002
  0
CIRCLE
  5
619
330
8D3
100
AcDbEntity
  8
DATA
  6
Continuous
 62
     7
100
AcDbCircle
 10
7.088942678503116
 20
103.5000000000482
 30
0.0
 40
3.0
  0
CIRCLE
  5
61A
330
8D3
100
AcDbEntity
  8
DATA
  6
Continuous
 62
     7
100
AcDbCircle
 10
7.088942678503116
 20
103.5000000000482
 30
0.0
 40
1.699999999999988
  0
TEXT
  5
61B
330
8D3
100
AcDbEntity
  8
DATA
 62
     7
100
AcDbText
 10
89.12391272747653
 20
109.265987384691
 30
0.0
 40
2.05233984375
  1
 1
 50
180.0
 41
0.7
 11
89.12391272747653
 21
107.213647540941
 31
0.0
100
AcDbText
 73
     3
  0
TEXT
  5
61C
330
8D3
100
AcDbEntity
  8
DATA
 62
     7
100
AcDbText
 10
67.49321072693345
 20
109.265987384691
 30
0.0
 40
2.05233984375
  1
2
 50
180.0
 41
0.7
 11
67.49321072693345
 21
107.213647540941
 31
0.0
100
AcDbText
 73
     3
  0
TEXT
  5
61D
330
8D3
100
AcDbEntity
  8
DATA
 62
     7
100
AcDbText
 10
49.463642310923
 20
109.265987384691
 30
0.0
 40
2.05233984375
  1
 3
 50
180.0
 41
0.7
 11
49.463642310923
 21
107.213647540941
 31
0.0
100
AcDbText
 73
     3
  0
TEXT
  5
61E
330
8D3
100
AcDbEntity
  8
DATA
 62
     7
100
AcDbText
 10
27.90088622706918
 20
109.265987384691
 30
0.0
 40
2.05233984375
  1
4
 50
180.0
 41
0.7
 11
27.90088622706918
 21
107.213647540941
 31
0.0
100
AcDbText
 73
     3
  0
TEXT
  5
61F
330
8D3
100
AcDbEntity
  8
DATA
 62
     7
100
AcDbText
 10
12.29415596881196
 20
96.89387341295946
 30
0.0
 40
2.05233984375
  1
Audio Out
 50
180.0
 41
0.7
 11
12.29415596881196
 21
94.84153356920945
 31
0.0
100
AcDbText
 73
     3
  0
TEXT
  5
620
330
8D3
100
AcDbEntity
  8
DATA
 62
     7
100
AcDbText
 10
62.27981181921101
 20
96.89387341295946
 30
0.0
 40
2.05233984375
  1
Audio In
 50
180.0
 41
0.7
 11
62.27981181921101
 21
94.84153356920945
 31
0.0
100
AcDbText
 73
     3
  0
LINE
  5
621
330
8D3
100
AcDbEntity
  8
DATA
  6
Continuous
 62
     7
100
AcDbLine
 10
65.24999999988897
 20
95.86170701296742
 30
0.0
 11
87.19999999988898
 21
95.86170701296742
 31
0.0
  0
LINE
  5
622
330
8D3
100
AcDbEntity
  8
DATA
  6
Continuous
 62
     7
100
AcDbLine
 10
47.54999999988897
 20
95.86170701296742
 30
0.0
 11
25.59999999988898
 21
95.86170701296742
 31
0.0
  0
CIRCLE
  5
623
330
8D3
100
AcDbEntity
  8
DATA
  6
Continuous
 62
     7
100
AcDbCircle
 10
-188.6617314098929
 20
100.2091666805732
 30
0.0
 40
1.175000000000068
  0
LWPOLYLINE
  5
624
330
8D3
100
AcDbEntity
  8
DATA
  6
Continuous
 62
     7
100
AcDbPolyline
 90
        6
 70
     1
 43
0.0
 10
-188.6617314098929
 20
97.50916668057321
 10
-186.323462819675
 20
98.85916668057319
 10
-186.323462819675
 20
101.5591666805731
 10
-188.6617314098929
 20
102.9091666805731
 10
-191.000000000111
 20
101.5591666805731
 10
-191.000000000111
 20
98.85916668057319
  0
CIRCLE
  5
62D
330
8D3
100
AcDbEntity
  8
DATA
  6
Continuous
 62
     7
100
AcDbCircle
 10
-163.6617314098929
 20
100.2091666805732
 30
0.0
 40
1.175000000000068
  0
LWPOLYLINE
  5
62E
330
8D3
100
AcDbEntity
  8
DATA
  6
Continuous
 62
     7
100
AcDbPolyline
 90
        6
 70
     1
 43
0.0
 10
-163.6617314098929
 20
97.50916668057321
 10
-161.323462819675
 20
98.85916668057319
 10
-161.323462819675
 20
101.5591666805731
 10
-163.6617314098929
 20
102.9091666805731
 10
-166.000000000111
 20
101.5591666805731
 10
-166.000000000111
 20
98.85916668057319
  0
LINE
  5
637
330
8D3
100
AcDbEntity
  8
DATA
  6
Continuous
 62
     7
100
AcDbLine
 10
-181.7634946200815
 20
104.2091666805731
 30
0.0
 11
-170.5599681997043
 21
104.2091666805731
 31
0.0
  0
LINE
  5
638
330
8D3
100
AcDbEntity
  8
DATA
  6
Continuous
 62
     7
100
AcDbLine
 10
-169.7474681997044
 20
96.20916668057317
 30
0.0
 11
-182.5759946200815
 21
96.20916668057317
 31
0.0
  0
LINE
  5
639
330
8D3
100
AcDbEntity
  8
DATA
  6
Continuous
 62
     7
100
AcDbLine
 10
-169.1767513524527
 20
103.0252943129562
 30
0.0
 11
-168.3642513524528
 21
97.82529431295621
 31
0.0
  0
LINE
  5
63A
330
8D3
100
AcDbEntity
  8
DATA
  6
Continuous
 62
     7
100
AcDbLine
 10
-183.9592114673331
 20
97.82529431295623
 30
0.0
 11
-183.1467114673331
 21
103.0252943129562
 31
0.0
  0
CIRCLE
  5
63B
330
8D3
100
AcDbEntity
  8
DATA
  6
Continuous
 62
     7
100
AcDbCircle
 10
-176.135101639418
 20
98.5728585094195
 30
0.0
 40
0.5
  0
ARC
  5
63C
330
8D3
100
AcDbEntity
  8
DATA
  6
Continuous
 62
     7
100
AcDbCircle
 10
-169.7474681997044
 20
97.60916668057316
 30
0.0
 40
1.400000000000019
100
AcDbArc
 50
270.0
 51
8.880659150519988
  0
ARC
  5
63D
330
8D3
100
AcDbEntity
  8
DATA
  6
Continuous
 62
     7
100
AcDbCircle
 10
-182.5759946200815
 20
97.60916668057316
 30
0.0
 40
1.400000000000021
100
AcDbArc
 50
171.1193408494789
 51
270.0
  0
ARC
  5
63E
330
8D3
100
AcDbEntity
  8
DATA
  6
Continuous
 62
     7
100
AcDbCircle
 10
-170.5599681997043
 20
102.8091666805731
 30
0.0
 40
1.400000000000017
100
AcDbArc
 50
8.880659150519958
 51
90.0
  0
ARC
  5
63F
330
8D3
100
AcDbEntity
  8
DATA
  6
Continuous
 62
     7
100
AcDbCircle
 10
-181.7634946200815
 20
102.8091666805731
 30
0.0
 40
1.399999999999991
100
AcDbArc
 50
90.0
 51
171.1193408494789
  0
CIRCLE
  5
640
330
8D3
100
AcDbEntity
  8
DATA
  6
Continuous
 62
     7
100
AcDbCircle
 10
-173.635101639418
 20
98.5728585094195
 30
0.0
 40
0.5
  0
CIRCLE
  5
641
330
8D3
100
AcDbEntity
  8
DATA
  6
Continuous
 62
     7
100
AcDbCircle
 10
-171.135101639418
 20
98.5728585094195
 30
0.0
 40
0.5
  0
CIRCLE
  5
642
330
8D3
100
AcDbEntity
  8
DATA
  6
Continuous
 62
     7
100
AcDbCircle
 10
-178.635101639418
 20
98.5728585094195
 30
0.0
 40
0.5
  0
CIRCLE
  5
643
330
8D3
100
AcDbEntity
  8
DATA
  6
Continuous
 62
     7
100
AcDbCircle
 10
-181.135101639418
 20
98.5728585094195
 30
0.0
 40
0.5
  0
CIRCLE
  5
644
330
8D3
100
AcDbEntity
  8
DATA
  6
Continuous
 62
     7
100
AcDbCircle
 10
-174.9395904633467
 20
102.1913789281822
 30
0.0
 40
0.5
  0
CIRCLE
  5
645
330
8D3
100
AcDbEntity
  8
DATA
  6
Continuous
 62
     7
100
AcDbCircle
 10
-172.4395904633467
 20
102.1913789281822
 30
0.0
 40
0.5
  0
CIRCLE
  5
646
330
8D3
100
AcDbEntity
  8
DATA
  6
Continuous
 62
     7
100
AcDbCircle
 10
-177.4395904633467
 20
102.1913789281822
 30
0.0
 40
0.5
  0
CIRCLE
  5
647
330
8D3
100
AcDbEntity
  8
DATA
  6
Continuous
 62
     7
100
AcDbCircle
 10
-179.9395904633467
 20
102.1913789281822
 30
0.0
 40
0.5
  0
LINE
  5
648
330
8D3
100
AcDbEntity
  8
DATA
  6
Continuous
 62
     7
100
AcDbLine
 10
-75.97216638790412
 20
106.4241998643439
 30
0.0
 11
-75.97216638790412
 21
94.42419986434394
 31
0.0
  0
LINE
  5
649
330
8D3
100
AcDbEntity
  8
DATA
  6
Continuous
 62
     7
100
AcDbLine
 10
-87.97216638790384
 20
106.4241998643439
 30
0.0
 11
-75.97216638790412
 21
106.4241998643439
 31
0.0
  0
LINE
  5
64A
330
8D3
100
AcDbEntity
  8
DATA
  6
Continuous
 62
     7
100
AcDbLine
 10
-87.97216638790384
 20
94.42419986434394
 30
0.0
 11
-87.97216638790384
 21
106.4241998643439
 31
0.0
  0
LINE
  5
64B
330
8D3
100
AcDbEntity
  8
DATA
  6
Continuous
 62
     7
100
AcDbLine
 10
-75.97216638790412
 20
94.42419986434394
 30
0.0
 11
-87.97216638790384
 21
94.42419986434394
 31
0.0
  0
LINE
  5
64C
330
8D3
100
AcDbEntity
  8
DATA
  6
Continuous
 62
     7
100
AcDbLine
 10
-86.22216638790384
 20
104.6741998643439
 30
0.0
 11
-77.72216638790395
 21
104.6741998643439
 31
0.0
  0
LINE
  5
64D
330
8D3
100
AcDbEntity
  8
DATA
  6
Continuous
 62
     7
100
AcDbLine
 10
-77.72216638790395
 20
104.6741998643439
 30
0.0
 11
-77.72216638790395
 21
97.82419986434396
 31
0.0
  0
LINE
  5
64E
330
8D3
100
AcDbEntity
  8
DATA
  6
Continuous
 62
     7
100
AcDbLine
 10
-86.22216638790384
 20
97.82419986434396
 30
0.0
 11
-86.22216638790384
 21
104.6741998643439
 31
0.0
  0
LINE
  5
64F
330
8D3
100
AcDbEntity
  8
DATA
  6
Continuous
 62
     7
100
AcDbLine
 10
-79.72216638790384
 20
95.82419986434395
 30
0.0
 11
-84.22216638790384
 21
95.82419986434395
 31
0.0
  0
LINE
  5
650
330
8D3
100
AcDbEntity
  8
DATA
  6
Continuous
 62
     7
100
AcDbLine
 10
-77.72216638790395
 20
97.82419986434396
 30
0.0
 11
-79.72216638790384
 21
95.82419986434395
 31
0.0
  0
LINE
  5
651
330
8D3
100
AcDbEntity
  8
DATA
  6
Continuous
 62
     7
100
AcDbLine
 10
-86.22216638790384
 20
97.82419986434396
 30
0.0
 11
-84.22216638790384
 21
95.82419986434395
 31
0.0
  0
LWPOLYLINE
  5
652
330
8D3
100
AcDbEntity
  8
DATA
  6
Continuous
 62
     7
100
AcDbPolyline
 90
        4
 70
     1
 43
0.0
 10
-84.97216638790384
 20
102.732551932143
 10
-78.97216638790389
 20
102.732551932143
 10
-78.97216638790389
 20
98.93255193214299
 10
-84.97216638790384
 20
98.93255193214299
  0
TEXT
  5
659
330
8D3
100
AcDbEntity
  8
DATA
 62
     7
100
AcDbText
 10
-81.61083813970606
 20
111.2961446890175
 30
0.0
 40
2.497556423611111
  1
1
 50
180.0
 41
0.7
 11
-81.61083813970606
 21
108.7985882654064
 31
0.0
100
AcDbText
 73
     3
  0
LINE
  5
65A
330
8D3
100
AcDbEntity
  8
DATA
  6
Continuous
 62
     7
100
AcDbLine
 10
-90.97216638790412
 20
106.4241998643439
 30
0.0
 11
-90.97216638790412
 21
94.42419986434394
 31
0.0
  0
LINE
  5
65B
330
8D3
100
AcDbEntity
  8
DATA
  6
Continuous
 62
     7
100
AcDbLine
 10
-102.9721663879038
 20
106.4241998643439
 30
0.0
 11
-90.97216638790412
 21
106.4241998643439
 31
0.0
  0
LINE
  5
65C
330
8D3
100
AcDbEntity
  8
DATA
  6
Continuous
 62
     7
100
AcDbLine
 10
-102.9721663879038
 20
94.42419986434394
 30
0.0
 11
-102.9721663879038
 21
106.4241998643439
 31
0.0
  0
LINE
  5
65D
330
8D3
100
AcDbEntity
  8
DATA
  6
Continuous
 62
     7
100
AcDbLine
 10
-90.97216638790412
 20
94.42419986434394
 30
0.0
 11
-102.9721663879038
 21
94.42419986434394
 31
0.0
  0
LINE
  5
65E
330
8D3
100
AcDbEntity
  8
DATA
  6
Continuous
 62
     7
100
AcDbLine
 10
-101.2221663879038
 20
104.6741998643439
 30
0.0
 11
-92.72216638790395
 21
104.6741998643439
 31
0.0
  0
LINE
  5
65F
330
8D3
100
AcDbEntity
  8
DATA
  6
Continuous
 62
     7
100
AcDbLine
 10
-92.72216638790395
 20
104.6741998643439
 30
0.0
 11
-92.72216638790395
 21
97.82419986434396
 31
0.0
  0
LINE
  5
660
330
8D3
100
AcDbEntity
  8
DATA
  6
Continuous
 62
     7
100
AcDbLine
 10
-101.2221663879038
 20
97.82419986434396
 30
0.0
 11
-101.2221663879038
 21
104.6741998643439
 31
0.0
  0
LINE
  5
661
330
8D3
100
AcDbEntity
  8
DATA
  6
Continuous
 62
     7
100
AcDbLine
 10
-94.72216638790383
 20
95.82419986434395
 30
0.0
 11
-99.22216638790384
 21
95.82419986434395
 31
0.0
  0
LINE
  5
662
330
8D3
100
AcDbEntity
  8
DATA
  6
Continuous
 62
     7
100
AcDbLine
 10
-92.72216638790395
 20
97.82419986434396
 30
0.0
 11
-94.72216638790383
 21
95.82419986434395
 31
0.0
  0
LINE
  5
663
330
8D3
100
AcDbEntity
  8
DATA
  6
Continuous
 62
     7
100
AcDbLine
 10
-101.2221663879038
 20
97.82419986434396
 30
0.0
 11
-99.22216638790384
 21
95.82419986434395
 31
0.0
  0
LWPOLYLINE
  5
664
330
8D3
100
AcDbEntity
  8
DATA
  6
Continuous
 62
     7
100
AcDbPolyline
 90
        4
 70
     1
 43
0.0
 10
-99.97216638790384
 20
102.732551932143
 10
-93.97216638790387
 20
102.732551932143
 10
-93.97216638790387
 20
98.93255193214299
 10
-99.97216638790384
 20
98.93255193214299
  0
TEXT
  5
66B
330
8D3
100
AcDbEntity
  8
DATA
 62
     7
100
AcDbText
 10
-96.15366861530569
 20
111.2961446890175
 30
0.0
 40
2.497556423611111
  1
2
 50
180.0
 41
0.7
 11
-96.15366861530569
 21
108.7985882654064
 31
0.0
100
AcDbText
 73
     3
  0
LINE
  5
66C
330
8D3
100
AcDbEntity
  8
DATA
  6
Continuous
 62
     7
100
AcDbLine
 10
-105.972166387904
 20
106.4241998643439
 30
0.0
 11
-105.972166387904
 21
94.42419986434394
 31
0.0
  0
LINE
  5
66D
330
8D3
100
AcDbEntity
  8
DATA
  6
Continuous
 62
     7
100
AcDbLine
 10
-117.9721663879038
 20
106.4241998643439
 30
0.0
 11
-105.972166387904
 21
106.4241998643439
 31
0.0
  0
LINE
  5
66E
330
8D3
100
AcDbEntity
  8
DATA
  6
Continuous
 62
     7
100
AcDbLine
 10
-117.9721663879038
 20
94.42419986434394
 30
0.0
 11
-117.9721663879038
 21
106.4241998643439
 31
0.0
  0
LINE
  5
66F
330
8D3
100
AcDbEntity
  8
DATA
  6
Continuous
 62
     7
100
AcDbLine
 10
-105.972166387904
 20
94.42419986434394
 30
0.0
 11
-117.9721663879038
 21
94.42419986434394
 31
0.0
  0
LINE
  5
670
330
8D3
100
AcDbEntity
  8
DATA
  6
Continuous
 62
     7
100
AcDbLine
 10
-116.2221663879038
 20
104.6741998643439
 30
0.0
 11
-107.7221663879039
 21
104.6741998643439
 31
0.0
  0
LINE
  5
671
330
8D3
100
AcDbEntity
  8
DATA
  6
Continuous
 62
     7
100
AcDbLine
 10
-107.7221663879039
 20
104.6741998643439
 30
0.0
 11
-107.7221663879039
 21
97.82419986434396
 31
0.0
  0
LINE
  5
672
330
8D3
100
AcDbEntity
  8
DATA
  6
Continuous
 62
     7
100
AcDbLine
 10
-116.2221663879038
 20
97.82419986434396
 30
0.0
 11
-116.2221663879038
 21
104.6741998643439
 31
0.0
  0
LINE
  5
673
330
8D3
100
AcDbEntity
  8
DATA
  6
Continuous
 62
     7
100
AcDbLine
 10
-109.7221663879038
 20
95.82419986434395
 30
0.0
 11
-114.2221663879038
 21
95.82419986434395
 31
0.0
  0
LINE
  5
674
330
8D3
100
AcDbEntity
  8
DATA
  6
Continuous
 62
     7
100
AcDbLine
 10
-107.7221663879039
 20
97.82419986434396
 30
0.0
 11
-109.7221663879038
 21
95.82419986434395
 31
0.0
  0
LINE
  5
675
330
8D3
100
AcDbEntity
  8
DATA
  6
Continuous
 62
     7
100
AcDbLine
 10
-116.2221663879038
 20
97.82419986434396
 30
0.0
 11
-114.2221663879038
 21
95.82419986434395
 31
0.0
  0
LWPOLYLINE
  5
676
330
8D3
100
AcDbEntity
  8
DATA
  6
Continuous
 62
     7
100
AcDbPolyline
 90
        4
 70
     1
 43
0.0
 10
-114.9721663879038
 20
102.732551932143
 10
-108.9721663879038
 20
102.732551932143
 10
-108.9721663879038
 20
98.93255193214299
 10
-114.9721663879038
 20
98.93255193214299
  0
TEXT
  5
67D
330
8D3
100
AcDbEntity
  8
DATA
 62
     7
100
AcDbText
 10
-111.0230487511912
 20
111.2961446890175
 30
0.0
 40
2.497556423611111
  1
3
 50
180.0
 41
0.7
 11
-111.0230487511912
 21
108.7985882654064
 31
0.0
100
AcDbText
 73
     3
  0
LINE
  5
67E
330
8D3
100
AcDbEntity
  8
DATA
  6
Continuous
 62
     7
100
AcDbLine
 10
-120.972166387904
 20
106.4241998643439
 30
0.0
 11
-120.972166387904
 21
94.42419986434394
 31
0.0
  0
LINE
  5
67F
330
8D3
100
AcDbEntity
  8
DATA
  6
Continuous
 62
     7
100
AcDbLine
 10
-132.9721663879038
 20
106.4241998643439
 30
0.0
 11
-120.972166387904
 21
106.4241998643439
 31
0.0
  0
LINE
  5
680
330
8D3
100
AcDbEntity
  8
DATA
  6
Continuous
 62
     7
100
AcDbLine
 10
-132.9721663879038
 20
94.42419986434394
 30
0.0
 11
-132.9721663879038
 21
106.4241998643439
 31
0.0
  0
LINE
  5
681
330
8D3
100
AcDbEntity
  8
DATA
  6
Continuous
 62
     7
100
AcDbLine
 10
-120.972166387904
 20
94.42419986434394
 30
0.0
 11
-132.9721663879038
 21
94.42419986434394
 31
0.0
  0
LINE
  5
682
330
8D3
100
AcDbEntity
  8
DATA
  6
Continuous
 62
     7
100
AcDbLine
 10
-131.2221663879038
 20
104.6741998643439
 30
0.0
 11
-122.7221663879039
 21
104.6741998643439
 31
0.0
  0
LINE
  5
683
330
8D3
100
AcDbEntity
  8
DATA
  6
Continuous
 62
     7
100
AcDbLine
 10
-122.7221663879039
 20
104.6741998643439
 30
0.0
 11
-122.7221663879039
 21
97.82419986434396
 31
0.0
  0
LINE
  5
684
330
8D3
100
AcDbEntity
  8
DATA
  6
Continuous
 62
     7
100
AcDbLine
 10
-131.2221663879038
 20
97.82419986434396
 30
0.0
 11
-131.2221663879038
 21
104.6741998643439
 31
0.0
  0
LINE
  5
685
330
8D3
100
AcDbEntity
  8
DATA
  6
Continuous
 62
     7
100
AcDbLine
 10
-124.7221663879038
 20
95.82419986434395
 30
0.0
 11
-129.2221663879038
 21
95.82419986434395
 31
0.0
  0
LINE
  5
686
330
8D3
100
AcDbEntity
  8
DATA
  6
Continuous
 62
     7
100
AcDbLine
 10
-122.7221663879039
 20
97.82419986434396
 30
0.0
 11
-124.7221663879038
 21
95.82419986434395
 31
0.0
  0
LINE
  5
687
330
8D3
100
AcDbEntity
  8
DATA
  6
Continuous
 62
     7
100
AcDbLine
 10
-131.2221663879038
 20
97.82419986434396
 30
0.0
 11
-129.2221663879038
 21
95.82419986434395
 31
0.0
  0
LWPOLYLINE
  5
688
330
8D3
100
AcDbEntity
  8
DATA
  6
Continuous
 62
     7
100
AcDbPolyline
 90
        4
 70
     1
 43
0.0
 10
-129.9721663879038
 20
102.732551932143
 10
-123.9721663879038
 20
102.732551932143
 10
-123.9721663879038
 20
98.93255193214299
 10
-129.9721663879038
 20
98.93255193214299
  0
TEXT
  5
68F
330
8D3
100
AcDbEntity
  8
DATA
 62
     7
100
AcDbText
 10
-126.0209517244997
 20
111.2961446890175
 30
0.0
 40
2.497556423611111
  1
4
 50
180.0
 41
0.7
 11
-126.0209517244997
 21
108.7985882654064
 31
0.0
100
AcDbText
 73
     3
  0
LINE
  5
690
330
8D3
100
AcDbEntity
  8
DATA
  6
Continuous
 62
     7
100
AcDbLine
 10
-141.10638136178
 20
106.4474041842358
 30
0.0
 11
-136.0063813617799
 21
106.4474041842358
 31
0.0
  0
LINE
  5
691
330
8D3
100
AcDbEntity
  8
DATA
  6
Continuous
 62
     7
100
AcDbLine
 10
-136.0063813617799
 20
93.94740418423594
 30
0.0
 11
-141.10638136178
 21
93.94740418423594
 31
0.0
  0
LINE
  5
692
330
8D3
100
AcDbEntity
  8
DATA
  6
Continuous
 62
     7
100
AcDbLine
 10
-136.0063813617799
 20
106.4474041842358
 30
0.0
 11
-136.0063813617799
 21
93.94740418423594
 31
0.0
  0
LINE
  5
693
330
8D3
100
AcDbEntity
  8
DATA
  6
Continuous
 62
     7
100
AcDbLine
 10
-141.10638136178
 20
106.4474041842358
 30
0.0
 11
-141.10638136178
 21
93.94740418423594
 31
0.0
  0
LINE
  5
694
330
8D3
100
AcDbEntity
  8
DATA
  6
Continuous
 62
     7
100
AcDbLine
 10
-138.70638136178
 20
105.9474041842358
 30
0.0
 11
-138.70638136178
 21
94.44740418423592
 31
0.0
  0
LINE
  5
695
330
8D3
100
AcDbEntity
  8
DATA
  6
Continuous
 62
     7
100
AcDbLine
 10
-137.40638136178
 20
105.9474041842358
 30
0.0
 11
-137.40638136178
 21
94.44740418423592
 31
0.0
  0
LINE
  5
696
330
8D3
100
AcDbEntity
  8
DATA
  6
Continuous
 62
     7
100
AcDbLine
 10
-138.7063813616799
 20
100.7852598748801
 30
0.0
 11
-138.78138136168
 21
100.7852598748801
 31
0.0
  0
LINE
  5
697
330
8D3
100
AcDbEntity
  8
DATA
  6
Continuous
 62
     7
100
AcDbLine
 10
-138.7063813616799
 20
102.0352598748801
 30
0.0
 11
-138.78138136168
 21
102.0352598748801
 31
0.0
  0
LINE
  5
698
330
8D3
100
AcDbEntity
  8
DATA
  6
Continuous
 62
     7
100
AcDbLine
 10
-138.78138136168
 20
102.0352598748801
 30
0.0
 11
-138.78138136168
 21
100.7852598748801
 31
0.0
  0
LINE
  5
699
330
8D3
100
AcDbEntity
  8
DATA
  6
Continuous
 62
     7
100
AcDbLine
 10
-138.7063813616799
 20
99.60954849359152
 30
0.0
 11
-138.78138136168
 21
99.60954849359152
 31
0.0
  0
LINE
  5
69A
330
8D3
100
AcDbEntity
  8
DATA
  6
Continuous
 62
     7
100
AcDbLine
 10
-138.7063813616799
 20
98.35954849359152
 30
0.0
 11
-138.78138136168
 21
98.35954849359152
 31
0.0
  0
LINE
  5
69B
330
8D3
100
AcDbEntity
  8
DATA
  6
Continuous
 62
     7
100
AcDbLine
 10
-138.78138136168
 20
98.35954849359152
 30
0.0
 11
-138.78138136168
 21
99.60954849359152
 31
0.0
  0
LINE
  5
69C
330
8D3
100
AcDbEntity
  8
DATA
  6
Continuous
 62
     7
100
AcDbLine
 10
-138.7063813616799
 20
103.2052598748801
 30
0.0
 11
-138.78138136168
 21
103.2052598748801
 31
0.0
  0
LINE
  5
69D
330
8D3
100
AcDbEntity
  8
DATA
  6
Continuous
 62
     7
100
AcDbLine
 10
-138.7063813616799
 20
104.4552598748801
 30
0.0
 11
-138.78138136168
 21
104.4552598748801
 31
0.0
  0
LINE
  5
69E
330
8D3
100
AcDbEntity
  8
DATA
  6
Continuous
 62
     7
100
AcDbLine
 10
-138.78138136168
 20
104.4552598748801
 30
0.0
 11
-138.78138136168
 21
103.2052598748801
 31
0.0
  0
LINE
  5
69F
330
8D3
100
AcDbEntity
  8
DATA
  6
Continuous
 62
     7
100
AcDbLine
 10
-138.7063813616799
 20
97.18954849359157
 30
0.0
 11
-138.78138136168
 21
97.18954849359157
 31
0.0
  0
LINE
  5
6A0
330
8D3
100
AcDbEntity
  8
DATA
  6
Continuous
 62
     7
100
AcDbLine
 10
-138.7063813616799
 20
95.93954849359155
 30
0.0
 11
-138.78138136168
 21
95.93954849359155
 31
0.0
  0
LINE
  5
6A1
330
8D3
100
AcDbEntity
  8
DATA
  6
Continuous
 62
     7
100
AcDbLine
 10
-138.78138136168
 20
95.93954849359155
 30
0.0
 11
-138.78138136168
 21
97.18954849359157
 31
0.0
  0
LINE
  5
6A2
330
8D3
100
AcDbEntity
  8
DATA
  6
Continuous
 62
     7
100
AcDbLine
 10
-138.70638136178
 20
105.9474041842358
 30
0.0
 11
-137.40638136178
 21
105.9474041842358
 31
0.0
  0
LINE
  5
6A3
330
8D3
100
AcDbEntity
  8
DATA
  6
Continuous
 62
     7
100
AcDbLine
 10
-138.70638136178
 20
94.44740418423592
 30
0.0
 11
-137.40638136178
 21
94.44740418423592
 31
0.0
  0
LINE
  5
6A4
330
8D3
100
AcDbEntity
  8
DATA
  6
Continuous
 62
     7
100
AcDbLine
 10
-153.1038010071218
 20
106.4474041842358
 30
0.0
 11
-148.0038010071218
 21
106.4474041842358
 31
0.0
  0
LINE
  5
6A5
330
8D3
100
AcDbEntity
  8
DATA
  6
Continuous
 62
     7
100
AcDbLine
 10
-148.0038010071218
 20
93.94740418423594
 30
0.0
 11
-153.1038010071218
 21
93.94740418423594
 31
0.0
  0
LINE
  5
6A6
330
8D3
100
AcDbEntity
  8
DATA
  6
Continuous
 62
     7
100
AcDbLine
 10
-148.0038010071218
 20
106.4474041842358
 30
0.0
 11
-148.0038010071218
 21
93.94740418423594
 31
0.0
  0
LINE
  5
6A7
330
8D3
100
AcDbEntity
  8
DATA
  6
Continuous
 62
     7
100
AcDbLine
 10
-153.1038010071218
 20
106.4474041842358
 30
0.0
 11
-153.1038010071218
 21
93.94740418423594
 31
0.0
  0
LINE
  5
6A8
330
8D3
100
AcDbEntity
  8
DATA
  6
Continuous
 62
     7
100
AcDbLine
 10
-150.7038010071219
 20
105.9474041842358
 30
0.0
 11
-150.7038010071219
 21
94.44740418423592
 31
0.0
  0
LINE
  5
6A9
330
8D3
100
AcDbEntity
  8
DATA
  6
Continuous
 62
     7
100
AcDbLine
 10
-149.4038010071219
 20
105.9474041842358
 30
0.0
 11
-149.4038010071219
 21
94.44740418423592
 31
0.0
  0
LINE
  5
6AA
330
8D3
100
AcDbEntity
  8
DATA
  6
Continuous
 62
     7
100
AcDbLine
 10
-150.7038010070218
 20
100.7852598748801
 30
0.0
 11
-150.7788010070219
 21
100.7852598748801
 31
0.0
  0
LINE
  5
6AB
330
8D3
100
AcDbEntity
  8
DATA
  6
Continuous
 62
     7
100
AcDbLine
 10
-150.7038010070218
 20
102.0352598748801
 30
0.0
 11
-150.7788010070219
 21
102.0352598748801
 31
0.0
  0
LINE
  5
6AC
330
8D3
100
AcDbEntity
  8
DATA
  6
Continuous
 62
     7
100
AcDbLine
 10
-150.7788010070219
 20
102.0352598748801
 30
0.0
 11
-150.7788010070219
 21
100.7852598748801
 31
0.0
  0
LINE
  5
6AD
330
8D3
100
AcDbEntity
  8
DATA
  6
Continuous
 62
     7
100
AcDbLine
 10
-150.7038010070218
 20
99.60954849359152
 30
0.0
 11
-150.7788010070219
 21
99.60954849359152
 31
0.0
  0
LINE
  5
6AE
330
8D3
100
AcDbEntity
  8
DATA
  6
Continuous
 62
     7
100
AcDbLine
 10
-150.7038010070218
 20
98.35954849359152
 30
0.0
 11
-150.7788010070219
 21
98.35954849359152
 31
0.0
  0
LINE
  5
6AF
330
8D3
100
AcDbEntity
  8
DATA
  6
Continuous
 62
     7
100
AcDbLine
 10
-150.7788010070219
 20
98.35954849359152
 30
0.0
 11
-150.7788010070219
 21
99.60954849359152
 31
0.0
  0
LINE
  5
6B0
330
8D3
100
AcDbEntity
  8
DATA
  6
Continuous
 62
     7
100
AcDbLine
 10
-150.7038010070218
 20
103.2052598748801
 30
0.0
 11
-150.7788010070219
 21
103.2052598748801
 31
0.0
  0
LINE
  5
6B1
330
8D3
100
AcDbEntity
  8
DATA
  6
Continuous
 62
     7
100
AcDbLine
 10
-150.7038010070218
 20
104.4552598748801
 30
0.0
 11
-150.7788010070219
 21
104.4552598748801
 31
0.0
  0
LINE
  5
6B2
330
8D3
100
AcDbEntity
  8
DATA
  6
Continuous
 62
     7
100
AcDbLine
 10
-150.7788010070219
 20
104.4552598748801
 30
0.0
 11
-150.7788010070219
 21
103.2052598748801
 31
0.0
  0
LINE
  5
6B3
330
8D3
100
AcDbEntity
  8
DATA
  6
Continuous
 62
     7
100
AcDbLine
 10
-150.7038010070218
 20
97.18954849359157
 30
0.0
 11
-150.7788010070219
 21
97.18954849359157
 31
0.0
  0
LINE
  5
6B4
330
8D3
100
AcDbEntity
  8
DATA
  6
Continuous
 62
     7
100
AcDbLine
 10
-150.7038010070218
 20
95.93954849359155
 30
0.0
 11
-150.7788010070219
 21
95.93954849359155
 31
0.0
  0
LINE
  5
6B5
330
8D3
100
AcDbEntity
  8
DATA
  6
Continuous
 62
     7
100
AcDbLine
 10
-150.7788010070219
 20
95.93954849359155
 30
0.0
 11
-150.7788010070219
 21
97.18954849359157
 31
0.0
  0
LINE
  5
6B6
330
8D3
100
AcDbEntity
  8
DATA
  6
Continuous
 62
     7
100
AcDbLine
 10
-150.7038010071219
 20
105.9474041842358
 30
0.0
 11
-149.4038010071219
 21
105.9474041842358
 31
0.0
  0
LINE
  5
6B7
330
8D3
100
AcDbEntity
  8
DATA
  6
Continuous
 62
     7
100
AcDbLine
 10
-150.7038010071219
 20
94.44740418423592
 30
0.0
 11
-149.4038010071219
 21
94.44740418423592
 31
0.0
  0
TEXT
  5
6B8
330
8D3
100
AcDbEntity
  8
DATA
 62
     7
100
AcDbText
 10
-139.0487167163533
 20
111.2961446890175
 30
0.0
 40
2.497556423611111
  1
USB Out
 50
180.0
 41
0.7
 11
-139.0487167163533
 21
108.7985882654064
 31
0.0
100
AcDbText
 73
     3
  0
TEXT
  5
6B9
330
8D3
100
AcDbEntity
  8
DATA
 62
     7
100
AcDbText
 10
-170.7298554380551
 20
109.5522658535194
 30
0.0
 40
2.497556423611111
  1
RS-232
 50
180.0
 41
0.7
 11
-170.7298554380551
 21
107.0547094299083
 31
0.0
100
AcDbText
 73
     3
  0
LINE
  5
6BA
330
8D3
100
AcDbEntity
  8
DATA
  6
Continuous
 62
     7
100
AcDbLine
 10
99.90161575798349
 20
13.99999999986741
 30
0.0
 11
99.90161575798349
 21
8.99999999986741
 31
0.0
  0
LINE
  5
6BB
330
8D3
100
AcDbEntity
  8
DATA
  6
Continuous
 62
     7
100
AcDbLine
 10
104.5781529384194
 20
13.99999999986741
 30
0.0
 11
104.5781529384194
 21
8.99999999986741
 31
0.0
  0
LINE
  5
6BC
330
8D3
100
AcDbEntity
  8
DATA
  6
Continuous
 62
     7
100
AcDbLine
 10
132.4016157579839
 20
13.99999999986741
 30
0.0
 11
132.4016157579839
 21
8.99999999986741
 31
0.0
  0
LINE
  5
6BD
330
8D3
100
AcDbEntity
  8
DATA
  6
Continuous
 62
     7
100
AcDbLine
 10
137.0781529384201
 20
13.99999999986741
 30
0.0
 11
137.0781529384201
 21
8.99999999986741
 31
0.0
  0
LINE
  5
6BE
330
8D3
100
AcDbEntity
  8
DATA
  6
Continuous
 62
     7
100
AcDbLine
 10
106.5445125302543
 20
13.99999999986741
 30
0.0
 11
106.5445125302543
 21
8.99999999986741
 31
0.0
  0
LINE
  5
6BF
330
8D3
100
AcDbEntity
  8
DATA
  6
Continuous
 62
     7
100
AcDbLine
 10
130.4215125667974
 20
13.99999999986741
 30
0.0
 11
130.4215125667974
 21
8.99999999986741
 31
0.0
  0
LINE
  5
6C0
330
8D3
100
AcDbEntity
  8
DATA
  6
Continuous
 62
     7
100
AcDbLine
 10
137.0781529384201
 20
13.99999999986741
 30
0.0
 11
132.4016157579839
 21
13.99999999986741
 31
0.0
  0
LINE
  5
6C1
330
8D3
100
AcDbEntity
  8
DATA
  6
Continuous
 62
     7
100
AcDbLine
 10
130.4215125667974
 20
13.99999999986741
 30
0.0
 11
106.5445125302543
 21
13.99999999986741
 31
0.0
  0
LINE
  5
6C2
330
8D3
100
AcDbEntity
  8
DATA
  6
Continuous
 62
     7
100
AcDbLine
 10
104.5781529384194
 20
13.99999999986741
 30
0.0
 11
99.90161575798349
 21
13.99999999986741
 31
0.0
  0
LINE
  5
6C3
330
8D3
100
AcDbEntity
  8
DATA
  6
Continuous
 62
     7
100
AcDbLine
 10
55.90161575798349
 20
13.99999999986741
 30
0.0
 11
55.90161575798349
 21
8.99999999986741
 31
0.0
  0
LINE
  5
6C4
330
8D3
100
AcDbEntity
  8
DATA
  6
Continuous
 62
     7
100
AcDbLine
 10
60.57815293841946
 20
13.99999999986741
 30
0.0
 11
60.57815293841946
 21
8.99999999986741
 31
0.0
  0
LINE
  5
6C5
330
8D3
100
AcDbEntity
  8
DATA
  6
Continuous
 62
     7
100
AcDbLine
 10
88.40161575798392
 20
13.99999999986741
 30
0.0
 11
88.40161575798392
 21
8.99999999986741
 31
0.0
  0
LINE
  5
6C6
330
8D3
100
AcDbEntity
  8
DATA
  6
Continuous
 62
     7
100
AcDbLine
 10
93.0781529384201
 20
13.99999999986741
 30
0.0
 11
93.0781529384201
 21
8.99999999986741
 31
0.0
  0
LINE
  5
6C7
330
8D3
100
AcDbEntity
  8
DATA
  6
Continuous
 62
     7
100
AcDbLine
 10
62.54451253025432
 20
13.99999999986741
 30
0.0
 11
62.54451253025432
 21
8.99999999986741
 31
0.0
  0
LINE
  5
6C8
330
8D3
100
AcDbEntity
  8
DATA
  6
Continuous
 62
     7
100
AcDbLine
 10
86.42151256679744
 20
13.99999999986741
 30
0.0
 11
86.42151256679744
 21
8.99999999986741
 31
0.0
  0
LINE
  5
6C9
330
8D3
100
AcDbEntity
  8
DATA
  6
Continuous
 62
     7
100
AcDbLine
 10
93.0781529384201
 20
13.99999999986741
 30
0.0
 11
88.40161575798392
 21
13.99999999986741
 31
0.0
  0
LINE
  5
6CA
330
8D3
100
AcDbEntity
  8
DATA
  6
Continuous
 62
     7
100
AcDbLine
 10
86.42151256679744
 20
13.99999999986741
 30
0.0
 11
62.54451253025432
 21
13.99999999986741
 31
0.0
  0
LINE
  5
6CB
330
8D3
100
AcDbEntity
  8
DATA
  6
Continuous
 62
     7
100
AcDbLine
 10
60.57815293841946
 20
13.99999999986741
 30
0.0
 11
55.90161575798349
 21
13.99999999986741
 31
0.0
  0
LINE
  5
6CC
330
8D3
100
AcDbEntity
  8
DATA
  6
Continuous
 62
     7
100
AcDbLine
 10
11.90161575798347
 20
13.99999999986741
 30
0.0
 11
11.90161575798347
 21
8.99999999986741
 31
0.0
  0
LINE
  5
6CD
330
8D3
100
AcDbEntity
  8
DATA
  6
Continuous
 62
     7
100
AcDbLine
 10
16.57815293841943
 20
13.99999999986741
 30
0.0
 11
16.57815293841943
 21
8.99999999986741
 31
0.0
  0
LINE
  5
6CE
330
8D3
100
AcDbEntity
  8
DATA
  6
Continuous
 62
     7
100
AcDbLine
 10
44.40161575798392
 20
13.99999999986741
 30
0.0
 11
44.40161575798392
 21
8.99999999986741
 31
0.0
  0
LINE
  5
6CF
330
8D3
100
AcDbEntity
  8
DATA
  6
Continuous
 62
     7
100
AcDbLine
 10
49.0781529384201
 20
13.99999999986741
 30
0.0
 11
49.0781529384201
 21
8.99999999986741
 31
0.0
  0
LINE
  5
6D0
330
8D3
100
AcDbEntity
  8
DATA
  6
Continuous
 62
     7
100
AcDbLine
 10
18.54451253025431
 20
13.99999999986741
 30
0.0
 11
18.54451253025431
 21
8.99999999986741
 31
0.0
  0
LINE
  5
6D1
330
8D3
100
AcDbEntity
  8
DATA
  6
Continuous
 62
     7
100
AcDbLine
 10
42.42151256679746
 20
13.99999999986741
 30
0.0
 11
42.42151256679746
 21
8.99999999986741
 31
0.0
  0
LINE
  5
6D2
330
8D3
100
AcDbEntity
  8
DATA
  6
Continuous
 62
     7
100
AcDbLine
 10
49.0781529384201
 20
13.99999999986741
 30
0.0
 11
44.40161575798392
 21
13.99999999986741
 31
0.0
  0
LINE
  5
6D3
330
8D3
100
AcDbEntity
  8
DATA
  6
Continuous
 62
     7
100
AcDbLine
 10
42.42151256679746
 20
13.99999999986741
 30
0.0
 11
18.54451253025431
 21
13.99999999986741
 31
0.0
  0
LINE
  5
6D4
330
8D3
100
AcDbEntity
  8
DATA
  6
Continuous
 62
     7
100
AcDbLine
 10
16.57815293841943
 20
13.99999999986741
 30
0.0
 11
11.90161575798347
 21
13.99999999986741
 31
0.0
  0
LINE
  5
6D5
330
8D3
100
AcDbEntity
  8
DATA
  6
Continuous
 62
     7
100
AcDbLine
 10
-210.9147061662814
 20
13.99999999986741
 30
0.0
 11
-210.9147061662814
 21
8.99999999986741
 31
0.0
  0
LINE
  5
6D6
330
8D3
100
AcDbEntity
  8
DATA
  6
Continuous
 62
     7
100
AcDbLine
 10
-206.2381689858455
 20
13.99999999986741
 30
0.0
 11
-206.2381689858455
 21
8.99999999986741
 31
0.0
  0
LINE
  5
6D7
330
8D3
100
AcDbEntity
  8
DATA
  6
Continuous
 62
     7
100
AcDbLine
 10
-204.2718093940105
 20
13.99999999986741
 30
0.0
 11
-204.2718093940105
 21
8.99999999986741
 31
0.0
  0
LINE
  5
6D8
330
8D3
100
AcDbEntity
  8
DATA
  6
Continuous
 62
     7
100
AcDbLine
 10
-183.9433882312111
 20
13.99999999986741
 30
0.0
 11
-204.2718093940105
 21
13.99999999986741
 31
0.0
  0
LINE
  5
6D9
330
8D3
100
AcDbEntity
  8
DATA
  6
Continuous
 62
     7
100
AcDbLine
 10
-206.2381689858455
 20
13.99999999986741
 30
0.0
 11
-210.9147061662814
 21
13.99999999986741
 31
0.0
  0
LINE
  5
6DA
330
8D3
100
AcDbEntity
  8
DATA
  6
Continuous
 62
     7
100
AcDbLine
 10
-190.9716489160444
 20
13.99999999986741
 30
0.0
 11
-190.9716489160444
 21
8.99999999986741
 31
0.0
  0
LINE
  5
6DB
330
8D3
100
AcDbEntity
  8
DATA
  6
Continuous
 62
     7
100
AcDbLine
 10
-186.2951117356084
 20
13.99999999986741
 30
0.0
 11
-186.2951117356084
 21
8.99999999986741
 31
0.0
  0
LINE
  5
6DC
330
8D3
100
AcDbEntity
  8
DATA
  6
Continuous
 62
     7
100
AcDbLine
 10
-183.9433882312111
 20
13.99999999986741
 30
0.0
 11
-183.9433882312111
 21
8.99999999986741
 31
0.0
  0
LINE
  5
6DD
330
8D3
100
AcDbEntity
  8
DATA
  6
Continuous
 62
     7
100
AcDbLine
 10
-168.3241899454722
 20
13.99999999986741
 30
0.0
 11
-168.3241899454722
 21
8.99999999986741
 31
0.0
  0
LINE
  5
6DE
330
8D3
100
AcDbEntity
  8
DATA
  6
Continuous
 62
     7
100
AcDbLine
 10
-165.9716489160443
 20
13.99999999986741
 30
0.0
 11
-165.9716489160443
 21
8.99999999986741
 31
0.0
  0
LINE
  5
6DF
330
8D3
100
AcDbEntity
  8
DATA
  6
Continuous
 62
     7
100
AcDbLine
 10
-161.2951117356083
 20
13.99999999986741
 30
0.0
 11
-161.2951117356083
 21
8.99999999986741
 31
0.0
  0
LINE
  5
6E0
330
8D3
100
AcDbEntity
  8
DATA
  6
Continuous
 62
     7
100
AcDbLine
 10
196.8499999998888
 20
15.49999999986741
 30
0.0
 11
189.1499999998888
 21
15.49999999986741
 31
0.0
  0
LINE
  5
6E1
330
8D3
100
AcDbEntity
  8
DATA
  6
Continuous
 62
     7
100
AcDbLine
 10
188.4966679002098
 20
10.49999999986741
 30
0.0
 11
188.4966679002098
 21
8.99999999986741
 31
0.0
  0
LINE
  5
6E2
330
8D3
100
AcDbEntity
  8
DATA
  6
Continuous
 62
     7
100
AcDbLine
 10
197.5033320995679
 20
10.49999999986741
 30
0.0
 11
197.5033320995679
 21
8.99999999986741
 31
0.0
  0
LINE
  5
6E3
330
8D3
100
AcDbEntity
  8
DATA
  6
Continuous
 62
     7
100
AcDbLine
 10
188.4966679002098
 20
10.49999999986741
 30
0.0
 11
197.5033320995679
 21
10.49999999986741
 31
0.0
  0
LINE
  5
6E4
330
8D3
100
AcDbEntity
  8
DATA
  6
Continuous
 62
     7
100
AcDbLine
 10
189.1499999998888
 20
15.49999999986741
 30
0.0
 11
189.1499999998888
 21
10.49999999986741
 31
0.0
  0
LINE
  5
6E5
330
8D3
100
AcDbEntity
  8
DATA
  6
Continuous
 62
     7
100
AcDbLine
 10
196.8499999998888
 20
15.49999999986741
 30
0.0
 11
196.8499999998888
 21
10.49999999986741
 31
0.0
  0
LINE
  5
6E6
330
8D3
100
AcDbEntity
  8
DATA
  6
Continuous
 62
     7
100
AcDbLine
 10
-165.9716489160443
 20
13.99999999986741
 30
0.0
 11
-161.2951117356083
 21
13.99999999986741
 31
0.0
  0
LINE
  5
6E7
330
8D3
100
AcDbEntity
  8
DATA
  6
Continuous
 62
     7
100
AcDbLine
 10
-183.9433882312111
 20
13.99999999986741
 30
0.0
 11
-168.3241899454722
 21
13.99999999986741
 31
0.0
  0
LINE
  5
6E8
330
8D3
100
AcDbEntity
  8
DATA
  6
Continuous
 62
     7
100
AcDbLine
 10
-7.5000000001111
 20
10.99999999986741
 30
0.0
 11
-10.5000000001111
 21
10.99999999986741
 31
0.0
  0
ARC
  5
6E9
330
8D3
100
AcDbEntity
  8
DATA
  6
Continuous
 62
     7
100
AcDbCircle
 10
-10.5000000001111
 20
8.99999999986741
 30
0.0
 40
2.0
100
AcDbArc
 50
90.0
 51
180.0
  0
ARC
  5
6EA
330
8D3
100
AcDbEntity
  8
DATA
  6
Continuous
 62
     7
100
AcDbCircle
 10
-7.5000000001111
 20
8.99999999986741
 30
0.0
 40
2.0
100
AcDbArc
 50
0.0
 51
90.0
  0
LINE
  5
6EB
330
8D3
100
AcDbEntity
  8
DATA
  6
Continuous
 62
     7
100
AcDbLine
 10
181.4999999998889
 20
10.99999999986741
 30
0.0
 11
178.4999999998889
 21
10.99999999986741
 31
0.0
  0
ARC
  5
6EC
330
8D3
100
AcDbEntity
  8
DATA
  6
Continuous
 62
     7
100
AcDbCircle
 10
178.4999999998889
 20
8.99999999986741
 30
0.0
 40
2.0
100
AcDbArc
 50
90.0
 51
180.0
  0
ARC
  5
6ED
330
8D3
100
AcDbEntity
  8
DATA
  6
Continuous
 62
     7
100
AcDbCircle
 10
181.4999999998889
 20
8.99999999986741
 30
0.0
 40
2.0
100
AcDbArc
 50
0.0
 51
90.0
  0
LINE
  5
6EE
330
8D3
100
AcDbEntity
  8
DATA
  6
Continuous
 62
     7
100
AcDbLine
 10
-225.0000000001111
 20
321.499999999529
 30
0.0
 11
-225.0000000001111
 21
212.4999999995289
 31
0.0
  0
LINE
  5
6EF
330
8D3
100
AcDbEntity
  8
DATA
  6
Continuous
 62
     7
100
AcDbLine
 10
209.9999999998889
 20
321.499999999529
 30
0.0
 11
209.9999999998889
 21
212.4999999995289
 31
0.0
  0
LINE
  5
6F0
330
8D3
100
AcDbEntity
  8
DATA
  6
Continuous
 62
     7
100
AcDbLine
 10
-225.0000000001111
 20
321.499999999529
 30
0.0
 11
209.9999999998889
 21
321.499999999529
 31
0.0
  0
LINE
  5
6F1
330
8D3
100
AcDbEntity
  8
DATA
  6
Continuous
 62
     7
100
AcDbLine
 10
143.9016157579835
 20
207.499999999529
 30
0.0
 11
143.9016157579835
 21
212.4999999995289
 31
0.0
  0
LINE
  5
6F2
330
8D3
100
AcDbEntity
  8
DATA
  6
Continuous
 62
     7
100
AcDbLine
 10
148.5781529384194
 20
207.499999999529
 30
0.0
 11
148.5781529384194
 21
212.4999999995289
 31
0.0
  0
LINE
  5
6F3
330
8D3
100
AcDbEntity
  8
DATA
  6
Continuous
 62
     7
100
AcDbLine
 10
176.4016157579839
 20
207.499999999529
 30
0.0
 11
176.4016157579839
 21
212.4999999995289
 31
0.0
  0
LINE
  5
6F4
330
8D3
100
AcDbEntity
  8
DATA
  6
Continuous
 62
     7
100
AcDbLine
 10
181.0781529384201
 20
207.499999999529
 30
0.0
 11
181.0781529384201
 21
212.4999999995289
 31
0.0
  0
LINE
  5
6F5
330
8D3
100
AcDbEntity
  8
DATA
  6
Continuous
 62
     7
100
AcDbLine
 10
150.5445125302543
 20
207.499999999529
 30
0.0
 11
150.5445125302543
 21
212.4999999995289
 31
0.0
  0
LINE
  5
6F6
330
8D3
100
AcDbEntity
  8
DATA
  6
Continuous
 62
     7
100
AcDbLine
 10
174.4215125667975
 20
207.499999999529
 30
0.0
 11
174.4215125667975
 21
212.4999999995289
 31
0.0
  0
LINE
  5
6F7
330
8D3
100
AcDbEntity
  8
DATA
  6
Continuous
 62
     7
100
AcDbLine
 10
181.0781529384201
 20
207.499999999529
 30
0.0
 11
176.4016157579839
 21
207.499999999529
 31
0.0
  0
LINE
  5
6F8
330
8D3
100
AcDbEntity
  8
DATA
  6
Continuous
 62
     7
100
AcDbLine
 10
174.4215125667975
 20
207.499999999529
 30
0.0
 11
150.5445125302543
 21
207.499999999529
 31
0.0
  0
LINE
  5
6F9
330
8D3
100
AcDbEntity
  8
DATA
  6
Continuous
 62
     7
100
AcDbLine
 10
148.5781529384194
 20
207.499999999529
 30
0.0
 11
143.9016157579835
 21
207.499999999529
 31
0.0
  0
LINE
  5
6FA
330
8D3
100
AcDbEntity
  8
DATA
  6
Continuous
 62
     7
100
AcDbLine
 10
-225.0000000001111
 20
212.4999999995289
 30
0.0
 11
209.9999999998889
 21
212.4999999995289
 31
0.0
  0
ARC
  5
6FB
330
8D3
100
AcDbEntity
  8
DATA
  6
Continuous
 62
     7
100
AcDbCircle
 10
183.0005741545426
 20
321.1616555513711
 30
0.0
 40
1.400000000000012
100
AcDbArc
 50
13.98539804936487
 51
166.0146019506351
  0
ARC
  5
6FC
330
8D3
100
AcDbEntity
  8
DATA
  6
Continuous
 62
     7
100
AcDbCircle
 10
90.9999999998889
 20
321.1616555513711
 30
0.0
 40
1.25
100
AcDbArc
 50
15.70447046455507
 51
164.2955295354449
  0
ARC
  5
6FD
330
8D3
100
AcDbEntity
  8
DATA
  6
Continuous
 62
     7
100
AcDbCircle
 10
76.99999999988889
 20
321.1616555513711
 30
0.0
 40
1.25
100
AcDbArc
 50
15.70447046455507
 51
164.2955295354449
  0
ARC
  5
6FE
330
8D3
100
AcDbEntity
  8
DATA
  6
Continuous
 62
     7
100
AcDbCircle
 10
62.9999999998889
 20
321.1616555513711
 30
0.0
 40
1.250000000000014
100
AcDbArc
 50
15.70447046455489
 51
164.2955295354451
  0
ARC
  5
6FF
330
8D3
100
AcDbEntity
  8
DATA
  6
Continuous
 62
     7
100
AcDbCircle
 10
48.9999999998889
 20
321.1616555513711
 30
0.0
 40
1.250000000000014
100
AcDbArc
 50
15.70447046455489
 51
164.2955295354451
  0
LINE
  5
700
330
8D3
100
AcDbEntity
  8
DATA
  6
Continuous
 62
     7
100
AcDbLine
 10
165.7499999998889
 20
322.499999999529
 30
0.0
 11
165.7499999998889
 21
321.499999999529
 31
0.0
  0
LINE
  5
701
330
8D3
100
AcDbEntity
  8
DATA
  6
Continuous
 62
     7
100
AcDbLine
 10
170.2499999998889
 20
322.499999999529
 30
0.0
 11
170.2499999998889
 21
321.499999999529
 31
0.0
  0
LINE
  5
702
330
8D3
100
AcDbEntity
  8
DATA
  6
Continuous
 62
     7
100
AcDbLine
 10
165.7499999998889
 20
322.499999999529
 30
0.0
 11
170.2499999998889
 21
322.499999999529
 31
0.0
  0
LINE
  5
703
330
8D3
100
AcDbEntity
  8
DATA
  6
Continuous
 62
     7
100
AcDbLine
 10
8.999999999888899
 20
321.999999999529
 30
0.0
 11
14.9999999998889
 21
321.999999999529
 31
0.0
  0
LINE
  5
704
330
8D3
100
AcDbEntity
  8
DATA
  6
Continuous
 62
     7
100
AcDbLine
 10
8.999999999888899
 20
321.999999999529
 30
0.0
 11
8.999999999888899
 21
321.499999999529
 31
0.0
  0
LINE
  5
705
330
8D3
100
AcDbEntity
  8
DATA
  6
Continuous
 62
     7
100
AcDbLine
 10
14.9999999998889
 20
321.999999999529
 30
0.0
 11
14.9999999998889
 21
321.499999999529
 31
0.0
  0
LINE
  5
706
330
8D3
100
AcDbEntity
  8
DATA
  6
Continuous
 62
     7
100
AcDbLine
 10
99.90161575798349
 20
207.499999999529
 30
0.0
 11
99.90161575798349
 21
212.4999999995289
 31
0.0
  0
LINE
  5
707
330
8D3
100
AcDbEntity
  8
DATA
  6
Continuous
 62
     7
100
AcDbLine
 10
104.5781529384194
 20
207.499999999529
 30
0.0
 11
104.5781529384194
 21
212.4999999995289
 31
0.0
  0
LINE
  5
708
330
8D3
100
AcDbEntity
  8
DATA
  6
Continuous
 62
     7
100
AcDbLine
 10
132.4016157579839
 20
207.499999999529
 30
0.0
 11
132.4016157579839
 21
212.4999999995289
 31
0.0
  0
LINE
  5
709
330
8D3
100
AcDbEntity
  8
DATA
  6
Continuous
 62
     7
100
AcDbLine
 10
137.0781529384201
 20
207.499999999529
 30
0.0
 11
137.0781529384201
 21
212.4999999995289
 31
0.0
  0
LINE
  5
70A
330
8D3
100
AcDbEntity
  8
DATA
  6
Continuous
 62
     7
100
AcDbLine
 10
106.5445125302543
 20
207.499999999529
 30
0.0
 11
106.5445125302543
 21
212.4999999995289
 31
0.0
  0
LINE
  5
70B
330
8D3
100
AcDbEntity
  8
DATA
  6
Continuous
 62
     7
100
AcDbLine
 10
130.4215125667974
 20
207.499999999529
 30
0.0
 11
130.4215125667974
 21
212.4999999995289
 31
0.0
  0
LINE
  5
70C
330
8D3
100
AcDbEntity
  8
DATA
  6
Continuous
 62
     7
100
AcDbLine
 10
137.0781529384201
 20
207.499999999529
 30
0.0
 11
132.4016157579839
 21
207.499999999529
 31
0.0
  0
LINE
  5
70D
330
8D3
100
AcDbEntity
  8
DATA
  6
Continuous
 62
     7
100
AcDbLine
 10
130.4215125667974
 20
207.499999999529
 30
0.0
 11
106.5445125302543
 21
207.499999999529
 31
0.0
  0
LINE
  5
70E
330
8D3
100
AcDbEntity
  8
DATA
  6
Continuous
 62
     7
100
AcDbLine
 10
104.5781529384194
 20
207.499999999529
 30
0.0
 11
99.90161575798349
 21
207.499999999529
 31
0.0
  0
LINE
  5
70F
330
8D3
100
AcDbEntity
  8
DATA
  6
Continuous
 62
     7
100
AcDbLine
 10
55.90161575798349
 20
207.499999999529
 30
0.0
 11
55.90161575798349
 21
212.4999999995289
 31
0.0
  0
LINE
  5
710
330
8D3
100
AcDbEntity
  8
DATA
  6
Continuous
 62
     7
100
AcDbLine
 10
60.57815293841946
 20
207.499999999529
 30
0.0
 11
60.57815293841946
 21
212.4999999995289
 31
0.0
  0
LINE
  5
711
330
8D3
100
AcDbEntity
  8
DATA
  6
Continuous
 62
     7
100
AcDbLine
 10
88.40161575798392
 20
207.499999999529
 30
0.0
 11
88.40161575798392
 21
212.4999999995289
 31
0.0
  0
LINE
  5
712
330
8D3
100
AcDbEntity
  8
DATA
  6
Continuous
 62
     7
100
AcDbLine
 10
93.0781529384201
 20
207.499999999529
 30
0.0
 11
93.0781529384201
 21
212.4999999995289
 31
0.0
  0
LINE
  5
713
330
8D3
100
AcDbEntity
  8
DATA
  6
Continuous
 62
     7
100
AcDbLine
 10
62.54451253025432
 20
207.499999999529
 30
0.0
 11
62.54451253025432
 21
212.4999999995289
 31
0.0
  0
LINE
  5
714
330
8D3
100
AcDbEntity
  8
DATA
  6
Continuous
 62
     7
100
AcDbLine
 10
86.42151256679744
 20
207.499999999529
 30
0.0
 11
86.42151256679744
 21
212.4999999995289
 31
0.0
  0
LINE
  5
715
330
8D3
100
AcDbEntity
  8
DATA
  6
Continuous
 62
     7
100
AcDbLine
 10
93.0781529384201
 20
207.499999999529
 30
0.0
 11
88.40161575798392
 21
207.499999999529
 31
0.0
  0
LINE
  5
716
330
8D3
100
AcDbEntity
  8
DATA
  6
Continuous
 62
     7
100
AcDbLine
 10
86.42151256679744
 20
207.499999999529
 30
0.0
 11
62.54451253025432
 21
207.499999999529
 31
0.0
  0
LINE
  5
717
330
8D3
100
AcDbEntity
  8
DATA
  6
Continuous
 62
     7
100
AcDbLine
 10
60.57815293841946
 20
207.499999999529
 30
0.0
 11
55.90161575798349
 21
207.499999999529
 31
0.0
  0
LINE
  5
718
330
8D3
100
AcDbEntity
  8
DATA
  6
Continuous
 62
     7
100
AcDbLine
 10
11.90161575798347
 20
207.499999999529
 30
0.0
 11
11.90161575798347
 21
212.4999999995289
 31
0.0
  0
LINE
  5
719
330
8D3
100
AcDbEntity
  8
DATA
  6
Continuous
 62
     7
100
AcDbLine
 10
16.57815293841943
 20
207.499999999529
 30
0.0
 11
16.57815293841943
 21
212.4999999995289
 31
0.0
  0
LINE
  5
71A
330
8D3
100
AcDbEntity
  8
DATA
  6
Continuous
 62
     7
100
AcDbLine
 10
44.40161575798393
 20
207.499999999529
 30
0.0
 11
44.40161575798393
 21
212.4999999995289
 31
0.0
  0
LINE
  5
71B
330
8D3
100
AcDbEntity
  8
DATA
  6
Continuous
 62
     7
100
AcDbLine
 10
49.07815293842012
 20
207.499999999529
 30
0.0
 11
49.07815293842012
 21
212.4999999995289
 31
0.0
  0
LINE
  5
71C
330
8D3
100
AcDbEntity
  8
DATA
  6
Continuous
 62
     7
100
AcDbLine
 10
18.54451253025431
 20
207.499999999529
 30
0.0
 11
18.54451253025431
 21
212.4999999995289
 31
0.0
  0
LINE
  5
71D
330
8D3
100
AcDbEntity
  8
DATA
  6
Continuous
 62
     7
100
AcDbLine
 10
42.42151256679747
 20
207.499999999529
 30
0.0
 11
42.42151256679747
 21
212.4999999995289
 31
0.0
  0
LINE
  5
71E
330
8D3
100
AcDbEntity
  8
DATA
  6
Continuous
 62
     7
100
AcDbLine
 10
49.07815293842012
 20
207.499999999529
 30
0.0
 11
44.40161575798393
 21
207.499999999529
 31
0.0
  0
LINE
  5
71F
330
8D3
100
AcDbEntity
  8
DATA
  6
Continuous
 62
     7
100
AcDbLine
 10
42.42151256679747
 20
207.499999999529
 30
0.0
 11
18.54451253025431
 21
207.499999999529
 31
0.0
  0
LINE
  5
720
330
8D3
100
AcDbEntity
  8
DATA
  6
Continuous
 62
     7
100
AcDbLine
 10
16.57815293841943
 20
207.499999999529
 30
0.0
 11
11.90161575798347
 21
207.499999999529
 31
0.0
  0
LINE
  5
721
330
8D3
100
AcDbEntity
  8
DATA
  6
Continuous
 62
     7
100
AcDbLine
 10
196.8499999998888
 20
205.999999999529
 30
0.0
 11
189.1499999998888
 21
205.999999999529
 31
0.0
  0
LINE
  5
722
330
8D3
100
AcDbEntity
  8
DATA
  6
Continuous
 62
     7
100
AcDbLine
 10
188.4966679002098
 20
210.999999999529
 30
0.0
 11
188.4966679002098
 21
212.4999999995289
 31
0.0
  0
LINE
  5
723
330
8D3
100
AcDbEntity
  8
DATA
  6
Continuous
 62
     7
100
AcDbLine
 10
197.5033320995679
 20
210.999999999529
 30
0.0
 11
197.5033320995679
 21
212.4999999995289
 31
0.0
  0
LINE
  5
724
330
8D3
100
AcDbEntity
  8
DATA
  6
Continuous
 62
     7
100
AcDbLine
 10
188.4966679002098
 20
210.999999999529
 30
0.0
 11
197.5033320995679
 21
210.999999999529
 31
0.0
  0
LINE
  5
725
330
8D3
100
AcDbEntity
  8
DATA
  6
Continuous
 62
     7
100
AcDbLine
 10
189.1499999998888
 20
205.999999999529
 30
0.0
 11
189.1499999998888
 21
210.999999999529
 31
0.0
  0
LINE
  5
726
330
8D3
100
AcDbEntity
  8
DATA
  6
Continuous
 62
     7
100
AcDbLine
 10
196.8499999998888
 20
205.999999999529
 30
0.0
 11
196.8499999998888
 21
210.999999999529
 31
0.0
  0
LINE
  5
727
330
8D3
100
AcDbEntity
  8
DATA
  6
Continuous
 62
     7
100
AcDbLine
 10
-7.5000000001111
 20
210.4999999995289
 30
0.0
 11
-10.5000000001111
 21
210.4999999995289
 31
0.0
  0
ARC
  5
728
330
8D3
100
AcDbEntity
  8
DATA
  6
Continuous
 62
     7
100
AcDbCircle
 10
-10.5000000001111
 20
212.4999999995289
 30
0.0
 40
2.0
100
AcDbArc
 50
180.0
 51
270.0
  0
ARC
  5
729
330
8D3
100
AcDbEntity
  8
DATA
  6
Continuous
 62
     7
100
AcDbCircle
 10
-7.5000000001111
 20
212.4999999995289
 30
0.0
 40
2.0
100
AcDbArc
 50
270.0
 51
0.0
  0
LINE
  5
72A
330
8D3
100
AcDbEntity
  8
DATA
  6
Continuous
 62
     7
100
AcDbLine
 10
-210.9147061661165
 20
207.499999999529
 30
0.0
 11
-210.9147061661165
 21
212.4999999995289
 31
0.0
  0
LINE
  5
72B
330
8D3
100
AcDbEntity
  8
DATA
  6
Continuous
 62
     7
100
AcDbLine
 10
-206.2381689856806
 20
207.499999999529
 30
0.0
 11
-206.2381689856806
 21
212.4999999995289
 31
0.0
  0
LINE
  5
72C
330
8D3
100
AcDbEntity
  8
DATA
  6
Continuous
 62
     7
100
AcDbLine
 10
-178.414706166116
 20
207.499999999529
 30
0.0
 11
-178.414706166116
 21
212.4999999995289
 31
0.0
  0
LINE
  5
72D
330
8D3
100
AcDbEntity
  8
DATA
  6
Continuous
 62
     7
100
AcDbLine
 10
-173.7381689856799
 20
207.499999999529
 30
0.0
 11
-173.7381689856799
 21
212.4999999995289
 31
0.0
  0
LINE
  5
72E
330
8D3
100
AcDbEntity
  8
DATA
  6
Continuous
 62
     7
100
AcDbLine
 10
-204.2718093938457
 20
207.499999999529
 30
0.0
 11
-204.2718093938457
 21
212.4999999995289
 31
0.0
  0
LINE
  5
72F
330
8D3
100
AcDbEntity
  8
DATA
  6
Continuous
 62
     7
100
AcDbLine
 10
-180.3948093573024
 20
207.499999999529
 30
0.0
 11
-180.3948093573024
 21
212.4999999995289
 31
0.0
  0
LINE
  5
730
330
8D3
100
AcDbEntity
  8
DATA
  6
Continuous
 62
     7
100
AcDbLine
 10
-180.3948093573024
 20
207.499999999529
 30
0.0
 11
-204.2718093938457
 21
207.499999999529
 31
0.0
  0
LINE
  5
731
330
8D3
100
AcDbEntity
  8
DATA
  6
Continuous
 62
     7
100
AcDbLine
 10
-206.2381689856806
 20
207.499999999529
 30
0.0
 11
-210.9147061661165
 21
207.499999999529
 31
0.0
  0
LINE
  5
732
330
8D3
100
AcDbEntity
  8
DATA
  6
Continuous
 62
     7
100
AcDbLine
 10
-166.000000000111
 20
207.499999999529
 30
0.0
 11
-166.000000000111
 21
212.4999999995289
 31
0.0
  0
LINE
  5
733
330
8D3
100
AcDbEntity
  8
DATA
  6
Continuous
 62
     7
100
AcDbLine
 10
-161.323462819675
 20
207.499999999529
 30
0.0
 11
-161.323462819675
 21
212.4999999995289
 31
0.0
  0
LINE
  5
734
330
8D3
100
AcDbEntity
  8
DATA
  6
Continuous
 62
     7
100
AcDbLine
 10
-166.000000000111
 20
207.499999999529
 30
0.0
 11
-161.323462819675
 21
207.499999999529
 31
0.0
  0
LINE
  5
735
330
8D3
100
AcDbEntity
  8
DATA
  6
Continuous
 62
     7
100
AcDbLine
 10
-168.3642513524528
 20
207.499999999529
 30
0.0
 11
-168.3642513524528
 21
212.4999999995289
 31
0.0
  0
LINE
  5
736
330
8D3
100
AcDbEntity
  8
DATA
  6
Continuous
 62
     7
100
AcDbLine
 10
-180.3948093573024
 20
207.499999999529
 30
0.0
 11
-168.3642513524528
 21
207.499999999529
 31
0.0
  0
LINE
  5
737
330
8D3
100
AcDbEntity
  8
DATA
  6
Continuous
 62
     7
100
AcDbLine
 10
-225.0000000001111
 20
224.499999999529
 30
0.0
 11
209.9999999998889
 21
224.499999999529
 31
0.0
  0
LINE
  5
738
330
8D3
100
AcDbEntity
  8
DATA
  6
Continuous
 62
     7
100
AcDbLine
 10
182.9999999998889
 20
286.499999999529
 30
0.0
 11
182.9999999998889
 21
252.499999999529
 31
0.0
  0
LINE
  5
739
330
8D3
100
AcDbEntity
  8
DATA
  6
Continuous
 62
     7
100
AcDbLine
 10
190.3999999998888
 20
286.499999999529
 30
0.0
 11
190.3999999998888
 21
252.499999999529
 31
0.0
  0
LINE
  5
73A
330
8D3
100
AcDbEntity
  8
DATA
  6
Continuous
 62
     7
100
AcDbLine
 10
190.3999999998888
 20
286.499999999529
 30
0.0
 11
182.9999999998889
 21
286.499999999529
 31
0.0
  0
LINE
  5
73B
330
8D3
100
AcDbEntity
  8
DATA
  6
Continuous
 62
     7
100
AcDbLine
 10
190.3999999998888
 20
252.499999999529
 30
0.0
 11
182.9999999998889
 21
252.499999999529
 31
0.0
  0
LWPOLYLINE
  5
73C
330
8D3
100
AcDbEntity
  8
DATA
  6
Continuous
 62
     7
100
AcDbPolyline
 90
        4
 70
     1
 43
0.0
 10
185.4859086421135
 20
255.2183454323325
 10
187.4859086421135
 20
255.2183454323325
 10
187.4859086421135
 20
254.3183454323325
 10
185.4859086421135
 20
254.3183454323325
  0
LWPOLYLINE
  5
743
330
8D3
100
AcDbEntity
  8
DATA
  6
Continuous
 62
     7
100
AcDbPolyline
 90
        4
 70
     1
 43
0.0
 10
185.4859086421135
 20
257.7183454323324
 10
187.4859086421135
 20
257.7183454323324
 10
187.4859086421135
 20
256.8183454323325
 10
185.4859086421135
 20
256.8183454323325
  0
LWPOLYLINE
  5
74A
330
8D3
100
AcDbEntity
  8
DATA
  6
Continuous
 62
     7
100
AcDbPolyline
 90
        4
 70
     1
 43
0.0
 10
185.4859086421135
 20
260.2183454323324
 10
187.4859086421135
 20
260.2183454323324
 10
187.4859086421135
 20
259.3183454323325
 10
185.4859086421135
 20
259.3183454323325
  0
LWPOLYLINE
  5
751
330
8D3
100
AcDbEntity
  8
DATA
  6
Continuous
 62
     7
100
AcDbPolyline
 90
        4
 70
     1
 43
0.0
 10
185.4859086421135
 20
262.7183454323325
 10
187.4859086421135
 20
262.7183454323325
 10
187.4859086421135
 20
261.8183454323325
 10
185.4859086421135
 20
261.8183454323325
  0
LWPOLYLINE
  5
758
330
8D3
100
AcDbEntity
  8
DATA
  6
Continuous
 62
     7
100
AcDbPolyline
 90
        4
 70
     1
 43
0.0
 10
185.4859086421135
 20
265.2183454323325
 10
187.4859086421135
 20
265.2183454323325
 10
187.4859086421135
 20
264.3183454323325
 10
185.4859086421135
 20
264.3183454323325
  0
LWPOLYLINE
  5
75F
330
8D3
100
AcDbEntity
  8
DATA
  6
Continuous
 62
     7
100
AcDbPolyline
 90
        4
 70
     1
 43
0.0
 10
185.4859086421135
 20
267.7183454323325
 10
187.4859086421135
 20
267.7183454323325
 10
187.4859086421135
 20
266.8183454323326
 10
185.4859086421135
 20
266.8183454323326
  0
LWPOLYLINE
  5
766
330
8D3
100
AcDbEntity
  8
DATA
  6
Continuous
 62
     7
100
AcDbPolyline
 90
        4
 70
     1
 43
0.0
 10
185.4859086421135
 20
270.2183454323324
 10
187.4859086421135
 20
270.2183454323324
 10
187.4859086421135
 20
269.3183454323325
 10
185.4859086421135
 20
269.3183454323325
  0
LWPOLYLINE
  5
76D
330
8D3
100
AcDbEntity
  8
DATA
  6
Continuous
 62
     7
100
AcDbPolyline
 90
        4
 70
     1
 43
0.0
 10
185.4859086421135
 20
272.7183454323326
 10
187.4859086421135
 20
272.7183454323326
 10
187.4859086421135
 20
271.8183454323325
 10
185.4859086421135
 20
271.8183454323325
  0
LINE
  5
774
330
8D3
100
AcDbEntity
  8
DATA
  6
Continuous
 62
     7
100
AcDbLine
 10
186.4859086421135
 20
272.7183454323327
 30
0.0
 11
186.4859086421135
 21
271.8183454323325
 31
0.0
  0
LINE
  5
775
330
8D3
100
AcDbEntity
  8
DATA
  6
Continuous
 62
     7
100
AcDbLine
 10
186.4859086421135
 20
270.2183454323324
 30
0.0
 11
186.4859086421135
 21
269.3183454323325
 31
0.0
  0
LINE
  5
776
330
8D3
100
AcDbEntity
  8
DATA
  6
Continuous
 62
     7
100
AcDbLine
 10
186.4859086421135
 20
267.7183454323325
 30
0.0
 11
186.4859086421135
 21
266.8183454323326
 31
0.0
  0
LINE
  5
777
330
8D3
100
AcDbEntity
  8
DATA
  6
Continuous
 62
     7
100
AcDbLine
 10
186.4859086421135
 20
265.2183454323325
 30
0.0
 11
186.4859086421135
 21
264.3183454323325
 31
0.0
  0
LINE
  5
778
330
8D3
100
AcDbEntity
  8
DATA
  6
Continuous
 62
     7
100
AcDbLine
 10
186.4859086421135
 20
262.7183454323325
 30
0.0
 11
186.4859086421135
 21
261.8183454323325
 31
0.0
  0
LINE
  5
779
330
8D3
100
AcDbEntity
  8
DATA
  6
Continuous
 62
     7
100
AcDbLine
 10
186.4859086421135
 20
260.2183454323324
 30
0.0
 11
186.4859086421135
 21
259.3183454323325
 31
0.0
  0
LINE
  5
77A
330
8D3
100
AcDbEntity
  8
DATA
  6
Continuous
 62
     7
100
AcDbLine
 10
186.4859086421135
 20
257.7183454323324
 30
0.0
 11
186.4859086421135
 21
256.8183454323325
 31
0.0
  0
LINE
  5
77B
330
8D3
100
AcDbEntity
  8
DATA
  6
Continuous
 62
     7
100
AcDbLine
 10
186.4859086421135
 20
255.2183454323325
 30
0.0
 11
186.4859086421135
 21
254.3183454323325
 31
0.0
  0
TEXT
  5
77C
330
8D3
100
AcDbEntity
  8
DATA
 62
     7
100
AcDbText
 10
184.861235326694
 20
254.0558758467172
 30
0.0
 40
0.8144205729166667
  1
ON
 50
90.0
 41
0.7
 11
184.0468147537773
 21
254.0558758467172
 31
0.0
100
AcDbText
 73
     3
  0
TEXT
  5
77D
330
8D3
100
AcDbEntity
  8
DATA
 62
     7
100
AcDbText
 10
189.0595866847848
 20
254.5126703896879
 30
0.0
 40
0.8144205729166667
  1
1
 50
90.0
 41
0.7
 11
188.2451661118681
 21
254.5126703896879
 31
0.0
100
AcDbText
 73
     3
  0
TEXT
  5
77E
330
8D3
100
AcDbEntity
  8
DATA
 62
     7
100
AcDbText
 10
189.0595866847848
 20
257.0126703896879
 30
0.0
 40
0.8144205729166667
  1
2
 50
90.0
 41
0.7
 11
188.2451661118681
 21
257.0126703896879
 31
0.0
100
AcDbText
 73
     3
  0
TEXT
  5
77F
330
8D3
100
AcDbEntity
  8
DATA
 62
     7
100
AcDbText
 10
189.0595866847848
 20
259.5126703896879
 30
0.0
 40
0.8144205729166667
  1
3
 50
90.0
 41
0.7
 11
188.2451661118681
 21
259.5126703896879
 31
0.0
100
AcDbText
 73
     3
  0
TEXT
  5
780
330
8D3
100
AcDbEntity
  8
DATA
 62
     7
100
AcDbText
 10
189.0595866847848
 20
262.0126703896878
 30
0.0
 40
0.8144205729166667
  1
4
 50
90.0
 41
0.7
 11
188.2451661118681
 21
262.0126703896878
 31
0.0
100
AcDbText
 73
     3
  0
TEXT
  5
781
330
8D3
100
AcDbEntity
  8
DATA
 62
     7
100
AcDbText
 10
189.0595866847848
 20
264.5126703896878
 30
0.0
 40
0.8144205729166667
  1
5
 50
90.0
 41
0.7
 11
188.2451661118681
 21
264.5126703896878
 31
0.0
100
AcDbText
 73
     3
  0
TEXT
  5
782
330
8D3
100
AcDbEntity
  8
DATA
 62
     7
100
AcDbText
 10
189.0595866847848
 20
267.0126703896879
 30
0.0
 40
0.8144205729166667
  1
6
 50
90.0
 41
0.7
 11
188.2451661118681
 21
267.0126703896879
 31
0.0
100
AcDbText
 73
     3
  0
TEXT
  5
783
330
8D3
100
AcDbEntity
  8
DATA
 62
     7
100
AcDbText
 10
189.0595866847848
 20
269.5126703896879
 30
0.0
 40
0.8144205729166667
  1
7
 50
90.0
 41
0.7
 11
188.2451661118681
 21
269.5126703896879
 31
0.0
100
AcDbText
 73
     3
  0
TEXT
  5
784
330
8D3
100
AcDbEntity
  8
DATA
 62
     7
100
AcDbText
 10
189.0595866847848
 20
272.012670389688
 30
0.0
 40
0.8144205729166667
  1
8
 50
90.0
 41
0.7
 11
188.2451661118681
 21
272.012670389688
 31
0.0
100
AcDbText
 73
     3
  0
LINE
  5
785
330
8D3
100
AcDbEntity
  8
DATA
  6
Continuous
 62
     7
100
AcDbLine
 10
186.9733055242063
 20
254.3183454323325
 30
0.0
 11
186.9733055242063
 21
255.2183454323325
 31
0.0
  0
LINE
  5
786
330
8D3
100
AcDbEntity
  8
DATA
  6
Continuous
 62
     7
100
AcDbLine
 10
186.9733055242063
 20
256.8183454323325
 30
0.0
 11
186.9733055242063
 21
257.7183454323324
 31
0.0
  0
LINE
  5
787
330
8D3
100
AcDbEntity
  8
DATA
  6
Continuous
 62
     7
100
AcDbLine
 10
186.9733055242063
 20
259.3183454323325
 30
0.0
 11
186.9733055242063
 21
260.2183454323324
 31
0.0
  0
LINE
  5
788
330
8D3
100
AcDbEntity
  8
DATA
  6
Continuous
 62
     7
100
AcDbLine
 10
186.9733055242063
 20
261.8183454323325
 30
0.0
 11
186.9733055242063
 21
262.7183454323325
 31
0.0
  0
LINE
  5
789
330
8D3
100
AcDbEntity
  8
DATA
  6
Continuous
 62
     7
100
AcDbLine
 10
186.9733055242063
 20
264.3183454323325
 30
0.0
 11
186.9733055242063
 21
265.2183454323325
 31
0.0
  0
LINE
  5
78A
330
8D3
100
AcDbEntity
  8
DATA
  6
Continuous
 62
     7
100
AcDbLine
 10
186.9733055242063
 20
266.8183454323326
 30
0.0
 11
186.9733055242063
 21
267.7183454323325
 31
0.0
  0
LINE
  5
78B
330
8D3
100
AcDbEntity
  8
DATA
  6
Continuous
 62
     7
100
AcDbLine
 10
186.9733055242063
 20
269.3183454323325
 30
0.0
 11
186.9733055242063
 21
270.2183454323324
 31
0.0
  0
LINE
  5
78C
330
8D3
100
AcDbEntity
  8
DATA
  6
Continuous
 62
     7
100
AcDbLine
 10
186.9733055242063
 20
271.8183454323325
 30
0.0
 11
186.9733055242063
 21
272.7183454323327
 31
0.0
  0
LWPOLYLINE
  5
78D
330
8D3
100
AcDbEntity
  8
DATA
  6
Continuous
 62
     7
100
AcDbPolyline
 90
        4
 70
     1
 43
0.0
 10
185.4859086421135
 20
276.9716008385164
 10
187.4859086421135
 20
276.9716008385164
 10
187.4859086421135
 20
276.0716008385165
 10
185.4859086421135
 20
276.0716008385165
  0
LWPOLYLINE
  5
794
330
8D3
100
AcDbEntity
  8
DATA
  6
Continuous
 62
     7
100
AcDbPolyline
 90
        4
 70
     1
 43
0.0
 10
185.4859086421135
 20
279.4716008385164
 10
187.4859086421135
 20
279.4716008385164
 10
187.4859086421135
 20
278.5716008385163
 10
185.4859086421135
 20
278.5716008385163
  0
LWPOLYLINE
  5
79B
330
8D3
100
AcDbEntity
  8
DATA
  6
Continuous
 62
     7
100
AcDbPolyline
 90
        4
 70
     1
 43
0.0
 10
185.4859086421135
 20
281.9716008385162
 10
187.4859086421135
 20
281.9716008385162
 10
187.4859086421135
 20
281.0716008385163
 10
185.4859086421135
 20
281.0716008385163
  0
LWPOLYLINE
  5
7A2
330
8D3
100
AcDbEntity
  8
DATA
  6
Continuous
 62
     7
100
AcDbPolyline
 90
        4
 70
     1
 43
0.0
 10
185.4859086421135
 20
284.4716008385162
 10
187.4859086421135
 20
284.4716008385162
 10
187.4859086421135
 20
283.5716008385162
 10
185.4859086421135
 20
283.5716008385162
  0
LINE
  5
7A9
330
8D3
100
AcDbEntity
  8
DATA
  6
Continuous
 62
     7
100
AcDbLine
 10
186.4859086421135
 20
284.4716008385162
 30
0.0
 11
186.4859086421135
 21
283.5716008385162
 31
0.0
  0
LINE
  5
7AA
330
8D3
100
AcDbEntity
  8
DATA
  6
Continuous
 62
     7
100
AcDbLine
 10
186.4859086421135
 20
281.9716008385162
 30
0.0
 11
186.4859086421135
 21
281.0716008385163
 31
0.0
  0
LINE
  5
7AB
330
8D3
100
AcDbEntity
  8
DATA
  6
Continuous
 62
     7
100
AcDbLine
 10
186.4859086421135
 20
279.4716008385164
 30
0.0
 11
186.4859086421135
 21
278.5716008385163
 31
0.0
  0
LINE
  5
7AC
330
8D3
100
AcDbEntity
  8
DATA
  6
Continuous
 62
     7
100
AcDbLine
 10
186.4859086421135
 20
276.9716008385164
 30
0.0
 11
186.4859086421135
 21
276.0716008385165
 31
0.0
  0
TEXT
  5
7AD
330
8D3
100
AcDbEntity
  8
DATA
 62
     7
100
AcDbText
 10
184.861235326694
 20
275.8091312529011
 30
0.0
 40
0.8144205729166667
  1
ON
 50
90.0
 41
0.7
 11
184.0468147537773
 21
275.8091312529011
 31
0.0
100
AcDbText
 73
     3
  0
TEXT
  5
7AE
330
8D3
100
AcDbEntity
  8
DATA
 62
     7
100
AcDbText
 10
189.0595866847848
 20
276.2659257958717
 30
0.0
 40
0.8144205729166667
  1
1
 50
90.0
 41
0.7
 11
188.2451661118681
 21
276.2659257958717
 31
0.0
100
AcDbText
 73
     3
  0
TEXT
  5
7AF
330
8D3
100
AcDbEntity
  8
DATA
 62
     7
100
AcDbText
 10
189.0595866847848
 20
278.7659257958717
 30
0.0
 40
0.8144205729166667
  1
2
 50
90.0
 41
0.7
 11
188.2451661118681
 21
278.7659257958717
 31
0.0
100
AcDbText
 73
     3
  0
TEXT
  5
7B0
330
8D3
100
AcDbEntity
  8
DATA
 62
     7
100
AcDbText
 10
189.0595866847848
 20
281.2659257958716
 30
0.0
 40
0.8144205729166667
  1
3
 50
90.0
 41
0.7
 11
188.2451661118681
 21
281.2659257958716
 31
0.0
100
AcDbText
 73
     3
  0
TEXT
  5
7B1
330
8D3
100
AcDbEntity
  8
DATA
 62
     7
100
AcDbText
 10
189.0595866847848
 20
283.7659257958716
 30
0.0
 40
0.8144205729166667
  1
4
 50
90.0
 41
0.7
 11
188.2451661118681
 21
283.7659257958716
 31
0.0
100
AcDbText
 73
     3
  0
LINE
  5
7B2
330
8D3
100
AcDbEntity
  8
DATA
  6
Continuous
 62
     7
100
AcDbLine
 10
186.9733055242063
 20
276.0716008385165
 30
0.0
 11
186.9733055242063
 21
276.9716008385164
 31
0.0
  0
LINE
  5
7B3
330
8D3
100
AcDbEntity
  8
DATA
  6
Continuous
 62
     7
100
AcDbLine
 10
186.9733055242063
 20
278.5716008385163
 30
0.0
 11
186.9733055242063
 21
279.4716008385164
 31
0.0
  0
LINE
  5
7B4
330
8D3
100
AcDbEntity
  8
DATA
  6
Continuous
 62
     7
100
AcDbLine
 10
186.9733055242063
 20
281.0716008385163
 30
0.0
 11
186.9733055242063
 21
281.9716008385162
 31
0.0
  0
LINE
  5
7B5
330
8D3
100
AcDbEntity
  8
DATA
  6
Continuous
 62
     7
100
AcDbLine
 10
186.9733055242063
 20
283.5716008385162
 30
0.0
 11
186.9733055242063
 21
284.4716008385162
 31
0.0
  0
LINE
  5
7B6
330
8D3
100
AcDbEntity
  8
DATA
  6
Continuous
 62
     7
100
AcDbLine
 10
182.9999999998889
 20
274.8949731354246
 30
0.0
 11
190.3999999998888
 21
274.8949731354246
 31
0.0
  0
LINE
  5
7B7
330
8D3
100
AcDbEntity
  8
DATA
  6
Continuous
 62
     7
100
AcDbLine
 10
190.3999999998888
 20
273.8949731354245
 30
0.0
 11
182.9999999998889
 21
273.8949731354245
 31
0.0
  0
LINE
  5
7B8
330
8D3
100
AcDbEntity
  8
DATA
  6
Continuous
 62
     7
100
AcDbLine
 10
314.9434336962052
 20
453.5146215572
 30
0.0
 11
314.9434336962052
 21
79.51462155719986
 31
0.0
  0
LINE
  5
7B9
330
8D3
100
AcDbEntity
  8
DATA
  6
Continuous
 62
     7
100
AcDbLine
 10
396.3434336962052
 20
453.5146215572
 30
0.0
 11
396.3434336962052
 21
79.51462155719986
 31
0.0
  0
LINE
  5
7BA
330
8D3
100
AcDbEntity
  8
DATA
  6
Continuous
 62
     7
100
AcDbLine
 10
396.3434336962052
 20
453.5146215572
 30
0.0
 11
314.9434336962052
 21
453.5146215572
 31
0.0
  0
LINE
  5
7BB
330
8D3
100
AcDbEntity
  8
DATA
  6
Continuous
 62
     7
100
AcDbLine
 10
396.3434336962052
 20
79.51462155719986
 30
0.0
 11
314.9434336962052
 21
79.51462155719986
 31
0.0
  0
LWPOLYLINE
  5
7BC
330
8D3
100
AcDbEntity
  8
DATA
  6
Continuous
 62
     7
100
AcDbPolyline
 90
        4
 70
     1
 43
0.0
 10
342.2884287606758
 20
109.416421318039
 10
364.2884287606758
 20
109.416421318039
 10
364.2884287606758
 20
99.5164213180387
 10
342.2884287606758
 20
99.5164213180387
  0
LWPOLYLINE
  5
7C3
330
8D3
100
AcDbEntity
  8
DATA
  6
Continuous
 62
     7
100
AcDbPolyline
 90
        4
 70
     1
 43
0.0
 10
342.2884287606758
 20
136.916421318039
 10
364.2884287606758
 20
136.916421318039
 10
364.2884287606758
 20
127.0164213180387
 10
342.2884287606758
 20
127.0164213180387
  0
LWPOLYLINE
  5
7CA
330
8D3
100
AcDbEntity
  8
DATA
  6
Continuous
 62
     7
100
AcDbPolyline
 90
        4
 70
     1
 43
0.0
 10
342.2884287606758
 20
164.416421318039
 10
364.2884287606758
 20
164.416421318039
 10
364.2884287606758
 20
154.516421318039
 10
342.2884287606758
 20
154.516421318039
  0
LWPOLYLINE
  5
7D1
330
8D3
100
AcDbEntity
  8
DATA
  6
Continuous
 62
     7
100
AcDbPolyline
 90
        4
 70
     1
 43
0.0
 10
342.2884287606758
 20
191.9164213180391
 10
364.2884287606758
 20
191.9164213180391
 10
364.2884287606758
 20
182.016421318039
 10
342.2884287606758
 20
182.016421318039
  0
LWPOLYLINE
  5
7D8
330
8D3
100
AcDbEntity
  8
DATA
  6
Continuous
 62
     7
100
AcDbPolyline
 90
        4
 70
     1
 43
0.0
 10
342.2884287606758
 20
219.416421318039
 10
364.2884287606758
 20
219.416421318039
 10
364.2884287606758
 20
209.516421318039
 10
342.2884287606758
 20
209.516421318039
  0
LWPOLYLINE
  5
7DF
330
8D3
100
AcDbEntity
  8
DATA
  6
Continuous
 62
     7
100
AcDbPolyline
 90
        4
 70
     1
 43
0.0
 10
342.2884287606758
 20
246.916421318039
 10
364.2884287606758
 20
246.916421318039
 10
364.2884287606758
 20
237.016421318039
 10
342.2884287606758
 20
237.016421318039
  0
LWPOLYLINE
  5
7E6
330
8D3
100
AcDbEntity
  8
DATA
  6
Continuous
 62
     7
100
AcDbPolyline
 90
        4
 70
     1
 43
0.0
 10
342.2884287606758
 20
274.416421318039
 10
364.2884287606758
 20
274.416421318039
 10
364.2884287606758
 20
264.516421318039
 10
342.2884287606758
 20
264.516421318039
  0
LWPOLYLINE
  5
7ED
330
8D3
100
AcDbEntity
  8
DATA
  6
Continuous
 62
     7
100
AcDbPolyline
 90
        4
 70
     1
 43
0.0
 10
342.2884287606758
 20
301.9164213180408
 10
364.2884287606758
 20
301.9164213180408
 10
364.2884287606758
 20
292.0164213180395
 10
342.2884287606758
 20
292.0164213180395
  0
LINE
  5
7F4
330
8D3
100
AcDbEntity
  8
DATA
  6
Continuous
 62
     7
100
AcDbLine
 10
353.2884287606758
 20
301.9164213180409
 30
0.0
 11
353.2884287606758
 21
292.0164213180395
 31
0.0
  0
LINE
  5
7F5
330
8D3
100
AcDbEntity
  8
DATA
  6
Continuous
 62
     7
100
AcDbLine
 10
353.2884287606758
 20
274.416421318039
 30
0.0
 11
353.2884287606758
 21
264.516421318039
 31
0.0
  0
LINE
  5
7F6
330
8D3
100
AcDbEntity
  8
DATA
  6
Continuous
 62
     7
100
AcDbLine
 10
353.2884287606758
 20
246.916421318039
 30
0.0
 11
353.2884287606758
 21
237.016421318039
 31
0.0
  0
LINE
  5
7F7
330
8D3
100
AcDbEntity
  8
DATA
  6
Continuous
 62
     7
100
AcDbLine
 10
353.2884287606758
 20
219.416421318039
 30
0.0
 11
353.2884287606758
 21
209.516421318039
 31
0.0
  0
LINE
  5
7F8
330
8D3
100
AcDbEntity
  8
DATA
  6
Continuous
 62
     7
100
AcDbLine
 10
353.2884287606758
 20
191.9164213180391
 30
0.0
 11
353.2884287606758
 21
182.016421318039
 31
0.0
  0
LINE
  5
7F9
330
8D3
100
AcDbEntity
  8
DATA
  6
Continuous
 62
     7
100
AcDbLine
 10
353.2884287606758
 20
164.416421318039
 30
0.0
 11
353.2884287606758
 21
154.516421318039
 31
0.0
  0
LINE
  5
7FA
330
8D3
100
AcDbEntity
  8
DATA
  6
Continuous
 62
     7
100
AcDbLine
 10
353.2884287606758
 20
136.916421318039
 30
0.0
 11
353.2884287606758
 21
127.0164213180387
 31
0.0
  0
LINE
  5
7FB
330
8D3
100
AcDbEntity
  8
DATA
  6
Continuous
 62
     7
100
AcDbLine
 10
353.2884287606758
 20
109.416421318039
 30
0.0
 11
353.2884287606758
 21
99.5164213180387
 31
0.0
  0
TEXT
  5
7FC
330
8D3
100
AcDbEntity
  8
DATA
 62
     7
100
AcDbText
 10
335.4170222910614
 20
96.62925587626986
 30
0.0
 40
8.958626302083336
  1
ON
 50
90.0
 41
0.7
 11
326.458395988978
 21
96.62925587626986
 31
0.0
100
AcDbText
 73
     3
  0
TEXT
  5
7FD
330
8D3
100
AcDbEntity
  8
DATA
 62
     7
100
AcDbText
 10
381.5988872300602
 20
101.6539958489475
 30
0.0
 40
8.958626302083336
  1
1
 50
90.0
 41
0.7
 11
372.6402609279769
 21
101.6539958489475
 31
0.0
100
AcDbText
 73
     3
  0
TEXT
  5
7FE
330
8D3
100
AcDbEntity
  8
DATA
 62
     7
100
AcDbText
 10
381.5988872300602
 20
129.1539958489475
 30
0.0
 40
8.958626302083336
  1
2
 50
90.0
 41
0.7
 11
372.6402609279769
 21
129.1539958489475
 31
0.0
100
AcDbText
 73
     3
  0
TEXT
  5
7FF
330
8D3
100
AcDbEntity
  8
DATA
 62
     7
100
AcDbText
 10
381.5988872300602
 20
156.6539958489475
 30
0.0
 40
8.958626302083336
  1
3
 50
90.0
 41
0.7
 11
372.6402609279769
 21
156.6539958489475
 31
0.0
100
AcDbText
 73
     3
  0
TEXT
  5
800
330
8D3
100
AcDbEntity
  8
DATA
 62
     7
100
AcDbText
 10
381.5988872300602
 20
184.1539958489476
 30
0.0
 40
8.958626302083336
  1
4
 50
90.0
 41
0.7
 11
372.6402609279769
 21
184.1539958489476
 31
0.0
100
AcDbText
 73
     3
  0
TEXT
  5
801
330
8D3
100
AcDbEntity
  8
DATA
 62
     7
100
AcDbText
 10
381.5988872300602
 20
211.6539958489476
 30
0.0
 40
8.958626302083336
  1
5
 50
90.0
 41
0.7
 11
372.6402609279769
 21
211.6539958489476
 31
0.0
100
AcDbText
 73
     3
  0
TEXT
  5
802
330
8D3
100
AcDbEntity
  8
DATA
 62
     7
100
AcDbText
 10
381.5988872300602
 20
239.1539958489475
 30
0.0
 40
8.958626302083336
  1
6
 50
90.0
 41
0.7
 11
372.6402609279769
 21
239.1539958489475
 31
0.0
100
AcDbText
 73
     3
  0
TEXT
  5
803
330
8D3
100
AcDbEntity
  8
DATA
 62
     7
100
AcDbText
 10
381.5988872300602
 20
266.6539958489475
 30
0.0
 40
8.958626302083336
  1
7
 50
90.0
 41
0.7
 11
372.6402609279769
 21
266.6539958489475
 31
0.0
100
AcDbText
 73
     3
  0
TEXT
  5
804
330
8D3
100
AcDbEntity
  8
DATA
 62
     7
100
AcDbText
 10
381.5988872300602
 20
294.1539958489483
 30
0.0
 40
8.958626302083336
  1
8
 50
90.0
 41
0.7
 11
372.6402609279769
 21
294.1539958489483
 31
0.0
100
AcDbText
 73
     3
  0
LINE
  5
805
330
8D3
100
AcDbEntity
  8
DATA
  6
Continuous
 62
     7
100
AcDbLine
 10
358.6497944636961
 20
99.5164213180387
 30
0.0
 11
358.6497944636961
 21
109.416421318039
 31
0.0
  0
LINE
  5
806
330
8D3
100
AcDbEntity
  8
DATA
  6
Continuous
 62
     7
100
AcDbLine
 10
358.6497944636961
 20
127.0164213180387
 30
0.0
 11
358.6497944636961
 21
136.916421318039
 31
0.0
  0
LINE
  5
807
330
8D3
100
AcDbEntity
  8
DATA
  6
Continuous
 62
     7
100
AcDbLine
 10
358.6497944636961
 20
154.516421318039
 30
0.0
 11
358.6497944636961
 21
164.416421318039
 31
0.0
  0
LINE
  5
808
330
8D3
100
AcDbEntity
  8
DATA
  6
Continuous
 62
     7
100
AcDbLine
 10
358.6497944636961
 20
182.016421318039
 30
0.0
 11
358.6497944636961
 21
191.9164213180391
 31
0.0
  0
LINE
  5
809
330
8D3
100
AcDbEntity
  8
DATA
  6
Continuous
 62
     7
100
AcDbLine
 10
358.6497944636961
 20
209.516421318039
 30
0.0
 11
358.6497944636961
 21
219.416421318039
 31
0.0
  0
LINE
  5
80A
330
8D3
100
AcDbEntity
  8
DATA
  6
Continuous
 62
     7
100
AcDbLine
 10
358.6497944636961
 20
237.016421318039
 30
0.0
 11
358.6497944636961
 21
246.916421318039
 31
0.0
  0
LINE
  5
80B
330
8D3
100
AcDbEntity
  8
DATA
  6
Continuous
 62
     7
100
AcDbLine
 10
358.6497944636961
 20
264.516421318039
 30
0.0
 11
358.6497944636961
 21
274.416421318039
 31
0.0
  0
LINE
  5
80C
330
8D3
100
AcDbEntity
  8
DATA
  6
Continuous
 62
     7
100
AcDbLine
 10
358.6497944636961
 20
292.0164213180395
 30
0.0
 11
358.6497944636961
 21
301.9164213180409
 31
0.0
  0
LWPOLYLINE
  5
80D
330
8D3
100
AcDbEntity
  8
DATA
  6
Continuous
 62
     7
100
AcDbPolyline
 90
        4
 70
     1
 43
0.0
 10
342.2884287606758
 20
348.7022307860628
 10
364.2884287606758
 20
348.7022307860628
 10
364.2884287606758
 20
338.8022307860624
 10
342.2884287606758
 20
338.8022307860624
  0
LWPOLYLINE
  5
814
330
8D3
100
AcDbEntity
  8
DATA
  6
Continuous
 62
     7
100
AcDbPolyline
 90
        4
 70
     1
 43
0.0
 10
342.2884287606758
 20
376.2022307860605
 10
364.2884287606758
 20
376.2022307860605
 10
364.2884287606758
 20
366.3022307860616
 10
342.2884287606758
 20
366.3022307860616
  0
LWPOLYLINE
  5
81B
330
8D3
100
AcDbEntity
  8
DATA
  6
Continuous
 62
     7
100
AcDbPolyline
 90
        4
 70
     1
 43
0.0
 10
342.2884287606758
 20
403.70223078606
 10
364.2884287606758
 20
403.70223078606
 10
364.2884287606758
 20
393.8022307860597
 10
342.2884287606758
 20
393.8022307860597
  0
LWPOLYLINE
  5
822
330
8D3
100
AcDbEntity
  8
DATA
  6
Continuous
 62
     7
100
AcDbPolyline
 90
        4
 70
     1
 43
0.0
 10
342.2884287606758
 20
431.20223078606
 10
364.2884287606758
 20
431.20223078606
 10
364.2884287606758
 20
421.3022307860597
 10
342.2884287606758
 20
421.3022307860597
  0
LINE
  5
829
330
8D3
100
AcDbEntity
  8
DATA
  6
Continuous
 62
     7
100
AcDbLine
 10
353.2884287606758
 20
431.20223078606
 30
0.0
 11
353.2884287606758
 21
421.3022307860597
 31
0.0
  0
LINE
  5
82A
330
8D3
100
AcDbEntity
  8
DATA
  6
Continuous
 62
     7
100
AcDbLine
 10
353.2884287606758
 20
403.70223078606
 30
0.0
 11
353.2884287606758
 21
393.8022307860597
 31
0.0
  0
LINE
  5
82B
330
8D3
100
AcDbEntity
  8
DATA
  6
Continuous
 62
     7
100
AcDbLine
 10
353.2884287606758
 20
376.2022307860605
 30
0.0
 11
353.2884287606758
 21
366.3022307860616
 31
0.0
  0
LINE
  5
82C
330
8D3
100
AcDbEntity
  8
DATA
  6
Continuous
 62
     7
100
AcDbLine
 10
353.2884287606758
 20
348.7022307860628
 30
0.0
 11
353.2884287606758
 21
338.8022307860624
 31
0.0
  0
TEXT
  5
82D
330
8D3
100
AcDbEntity
  8
DATA
 62
     7
100
AcDbText
 10
335.4170222910614
 20
335.9150653442936
 30
0.0
 40
8.958626302083336
  1
ON
 50
90.0
 41
0.7
 11
326.458395988978
 21
335.9150653442936
 31
0.0
100
AcDbText
 73
     3
  0
TEXT
  5
82E
330
8D3
100
AcDbEntity
  8
DATA
 62
     7
100
AcDbText
 10
381.5988872300602
 20
340.9398053169712
 30
0.0
 40
8.958626302083336
  1
1
 50
90.0
 41
0.7
 11
372.6402609279769
 21
340.9398053169712
 31
0.0
100
AcDbText
 73
     3
  0
TEXT
  5
82F
330
8D3
100
AcDbEntity
  8
DATA
 62
     7
100
AcDbText
 10
381.5988872300602
 20
368.4398053169701
 30
0.0
 40
8.958626302083336
  1
2
 50
90.0
 41
0.7
 11
372.6402609279769
 21
368.4398053169701
 31
0.0
100
AcDbText
 73
     3
  0
TEXT
  5
830
330
8D3
100
AcDbEntity
  8
DATA
 62
     7
100
AcDbText
 10
381.5988872300602
 20
395.9398053169683
 30
0.0
 40
8.958626302083336
  1
3
 50
90.0
 41
0.7
 11
372.6402609279769
 21
395.9398053169683
 31
0.0
100
AcDbText
 73
     3
  0
TEXT
  5
831
330
8D3
100
AcDbEntity
  8
DATA
 62
     7
100
AcDbText
 10
381.5988872300602
 20
423.4398053169683
 30
0.0
 40
8.958626302083336
  1
4
 50
90.0
 41
0.7
 11
372.6402609279769
 21
423.4398053169683
 31
0.0
100
AcDbText
 73
     3
  0
LINE
  5
832
330
8D3
100
AcDbEntity
  8
DATA
  6
Continuous
 62
     7
100
AcDbLine
 10
358.6497944636961
 20
338.8022307860624
 30
0.0
 11
358.6497944636961
 21
348.7022307860628
 31
0.0
  0
LINE
  5
833
330
8D3
100
AcDbEntity
  8
DATA
  6
Continuous
 62
     7
100
AcDbLine
 10
358.6497944636961
 20
366.3022307860616
 30
0.0
 11
358.6497944636961
 21
376.2022307860605
 31
0.0
  0
LINE
  5
834
330
8D3
100
AcDbEntity
  8
DATA
  6
Continuous
 62
     7
100
AcDbLine
 10
358.6497944636961
 20
393.8022307860597
 30
0.0
 11
358.6497944636961
 21
403.70223078606
 31
0.0
  0
LINE
  5
835
330
8D3
100
AcDbEntity
  8
DATA
  6
Continuous
 62
     7
100
AcDbLine
 10
358.6497944636961
 20
421.3022307860597
 30
0.0
 11
358.6497944636961
 21
431.20223078606
 31
0.0
  0
LINE
  5
836
330
8D3
100
AcDbEntity
  8
DATA
  6
Continuous
 62
     7
100
AcDbLine
 10
314.9434336962052
 20
325.8593260520517
 30
0.0
 11
396.3434336962052
 21
325.8593260520517
 31
0.0
  0
LINE
  5
837
330
8D3
100
AcDbEntity
  8
DATA
  6
Continuous
 62
     7
100
AcDbLine
 10
396.3434336962052
 20
314.8593260520517
 30
0.0
 11
314.9434336962052
 21
314.8593260520517
 31
0.0
  0
TEXT
  5
838
330
8D3
100
AcDbEntity
  8
DATA
 62
     7
100
AcDbText
 10
264.745569338801
 20
55.52276363804031
 30
0.0
 40
13.57367621527778
  1
ディップスイッチ拡大図
 41
0.7
 11
264.745569338801
 21
69.09643985331809
 31
0.0
100
AcDbText
 73
     3
  0
LINE
  5
839
330
8D3
100
AcDbEntity
  8
DATA
  6
Continuous
 62
     7
100
AcDbLine
 10
-223.5000000001111
 20
314.499999999529
 30
0.0
 11
-223.5000000001111
 21
224.499999999529
 31
0.0
  0
LINE
  5
83A
330
8D3
100
AcDbEntity
  8
DATA
  6
Continuous
 62
     7
100
AcDbLine
 10
208.4999999998889
 20
314.499999999529
 30
0.0
 11
208.4999999998889
 21
224.499999999529
 31
0.0
  0
LINE
  5
83B
330
8D3
100
AcDbEntity
  8
DATA
  6
Continuous
 62
     7
100
AcDbLine
 10
-225.0000000001111
 20
314.499999999529
 30
0.0
 11
-223.5000000001111
 21
314.499999999529
 31
0.0
  0
LINE
  5
83C
330
8D3
100
AcDbEntity
  8
DATA
  6
Continuous
 62
     7
100
AcDbLine
 10
208.4999999998889
 20
314.499999999529
 30
0.0
 11
209.9999999998889
 21
314.499999999529
 31
0.0
  0
CIRCLE
  5
83D
330
8D3
100
AcDbEntity
  8
DATA
  6
Continuous
 62
     7
100
AcDbCircle
 10
-7.5000000001111
 20
218.499999999529
 30
0.0
 40
2.75
  0
LINE
  5
83E
330
8D3
100
AcDbEntity
  8
DATA
  6
Continuous
 62
     7
100
AcDbLine
 10
-7.5000000001111
 20
217.0999999991905
 30
0.0
 11
-7.5000000001111
 21
219.8999999998675
 31
0.0
  0
LINE
  5
83F
330
8D3
100
AcDbEntity
  8
DATA
  6
Continuous
 62
     7
100
AcDbLine
 10
-8.90000000044958
 20
218.499999999529
 30
0.0
 11
-6.09999999977262
 21
218.499999999529
 31
0.0
  0
CIRCLE
  5
840
330
8D3
100
AcDbEntity
  8
DATA
  6
Continuous
 62
     7
100
AcDbCircle
 10
-107.5000000001111
 20
218.499999999529
 30
0.0
 40
2.75
  0
LINE
  5
841
330
8D3
100
AcDbEntity
  8
DATA
  6
Continuous
 62
     7
100
AcDbLine
 10
-107.5000000001111
 20
217.0999999991905
 30
0.0
 11
-107.5000000001111
 21
219.8999999998675
 31
0.0
  0
LINE
  5
842
330
8D3
100
AcDbEntity
  8
DATA
  6
Continuous
 62
     7
100
AcDbLine
 10
-108.9000000004495
 20
218.499999999529
 30
0.0
 11
-106.0999999997726
 21
218.499999999529
 31
0.0
  0
CIRCLE
  5
843
330
8D3
100
AcDbEntity
  8
DATA
  6
Continuous
 62
     7
100
AcDbCircle
 10
-207.5000000001111
 20
218.499999999529
 30
0.0
 40
2.75
  0
LINE
  5
844
330
8D3
100
AcDbEntity
  8
DATA
  6
Continuous
 62
     7
100
AcDbLine
 10
-207.5000000001111
 20
217.0999999991905
 30
0.0
 11
-207.5000000001111
 21
219.8999999998675
 31
0.0
  0
LINE
  5
845
330
8D3
100
AcDbEntity
  8
DATA
  6
Continuous
 62
     7
100
AcDbLine
 10
-208.9000000004495
 20
218.499999999529
 30
0.0
 11
-206.0999999997726
 21
218.499999999529
 31
0.0
  0
CIRCLE
  5
846
330
8D3
100
AcDbEntity
  8
DATA
  6
Continuous
 62
     7
100
AcDbCircle
 10
92.4999999998889
 20
218.499999999529
 30
0.0
 40
2.75
  0
LINE
  5
847
330
8D3
100
AcDbEntity
  8
DATA
  6
Continuous
 62
     7
100
AcDbLine
 10
92.4999999998889
 20
217.0999999991905
 30
0.0
 11
92.4999999998889
 21
219.8999999998675
 31
0.0
  0
LINE
  5
848
330
8D3
100
AcDbEntity
  8
DATA
  6
Continuous
 62
     7
100
AcDbLine
 10
91.09999999955041
 20
218.499999999529
 30
0.0
 11
93.90000000022741
 21
218.499999999529
 31
0.0
  0
CIRCLE
  5
849
330
8D3
100
AcDbEntity
  8
DATA
  6
Continuous
 62
     7
100
AcDbCircle
 10
192.4999999998889
 20
218.499999999529
 30
0.0
 40
2.75
  0
LINE
  5
84A
330
8D3
100
AcDbEntity
  8
DATA
  6
Continuous
 62
     7
100
AcDbLine
 10
192.4999999998889
 20
217.0999999991905
 30
0.0
 11
192.4999999998889
 21
219.8999999998675
 31
0.0
  0
LINE
  5
84B
330
8D3
100
AcDbEntity
  8
DATA
  6
Continuous
 62
     7
100
AcDbLine
 10
191.0999999995503
 20
218.499999999529
 30
0.0
 11
193.9000000002273
 21
218.499999999529
 31
0.0
  0
CIRCLE
  5
84C
330
8D3
100
AcDbEntity
  8
DATA
  6
Continuous
 62
     7
100
AcDbCircle
 10
376.0169788751746
 20
-193.0000000001325
 30
0.0
 40
2.75
  0
LINE
  5
84D
330
8D3
100
AcDbEntity
  8
DATA
  6
Continuous
 62
     7
100
AcDbLine
 10
374.3481469483468
 20
-193.0000000001325
 30
0.0
 11
377.6858108020025
 21
-193.0000000001325
 31
0.0
  0
LINE
  5
84E
330
8D3
100
AcDbEntity
  8
DATA
  6
Continuous
 62
     7
100
AcDbLine
 10
376.0169788751746
 20
-194.6688319269604
 30
0.0
 11
376.0169788751746
 21
-191.3311680733046
 31
0.0
  0
CIRCLE
  5
84F
330
8D3
100
AcDbEntity
  8
DATA
  6
Continuous
 62
     7
100
AcDbCircle
 10
-213.0000000001111
 20
305.0767656413017
 30
0.0
 40
9.5
  0
CIRCLE
  5
850
330
8D3
100
AcDbEntity
  8
DATA
  6
Continuous
 62
     7
100
AcDbCircle
 10
-213.0000000001111
 20
305.0767656413017
 30
0.0
 40
8.0
  0
CIRCLE
  5
851
330
8D3
100
AcDbEntity
  8
DATA
  6
Continuous
 62
     7
100
AcDbCircle
 10
-213.0000000001111
 20
235.8220596430608
 30
0.0
 40
9.5
  0
CIRCLE
  5
852
330
8D3
100
AcDbEntity
  8
DATA
  6
Continuous
 62
     7
100
AcDbCircle
 10
-213.0000000001111
 20
235.8220596430608
 30
0.0
 40
8.0
  0
CIRCLE
  5
853
330
8D3
100
AcDbEntity
  8
DATA
  6
Continuous
 62
     7
100
AcDbCircle
 10
197.9999999998889
 20
305.0767656413017
 30
0.0
 40
9.5
  0
CIRCLE
  5
854
330
8D3
100
AcDbEntity
  8
DATA
  6
Continuous
 62
     7
100
AcDbCircle
 10
197.9999999998889
 20
305.0767656413017
 30
0.0
 40
8.0
  0
CIRCLE
  5
855
330
8D3
100
AcDbEntity
  8
DATA
  6
Continuous
 62
     7
100
AcDbCircle
 10
197.9999999998889
 20
235.8220596430608
 30
0.0
 40
9.5
  0
CIRCLE
  5
856
330
8D3
100
AcDbEntity
  8
DATA
  6
Continuous
 62
     7
100
AcDbCircle
 10
197.9999999998889
 20
235.8220596430608
 30
0.0
 40
8.0
  0
LINE
  5
857
330
8D3
100
AcDbEntity
  8
DATA
  6
Continuous
 62
     7
100
AcDbLine
 10
286.4999999998889
 20
-189.2500000001325
 30
0.0
 11
287.4999999998889
 21
-189.2500000001325
 31
0.0
  0
LINE
  5
858
330
8D3
100
AcDbEntity
  8
DATA
  6
Continuous
 62
     7
100
AcDbLine
 10
286.4999999998889
 20
-189.2500000001325
 30
0.0
 11
286.4999999998889
 21
-185.5495061314067
 31
0.0
  0
ARC
  5
859
330
8D3
100
AcDbEntity
  8
DATA
  6
Continuous
 62
     7
100
AcDbCircle
 10
287.7780054362505
 20
-184.9779275238346
 30
0.0
 40
1.400000000000088
100
AcDbArc
 50
101.45365949466
 51
258.54634050534
  0
LINE
  5
85A
330
8D3
100
AcDbEntity
  8
DATA
  6
Continuous
 62
     7
100
AcDbLine
 10
402.9999999995681
 20
-185.1000000001325
 30
0.0
 11
402.9999999995681
 21
-177.4000000001325
 31
0.0
  0
LINE
  5
85B
330
8D3
100
AcDbEntity
  8
DATA
  6
Continuous
 62
     7
100
AcDbLine
 10
397.9999999995681
 20
-176.7466679004535
 30
0.0
 11
396.4999999995681
 21
-176.7466679004535
 31
0.0
  0
LINE
  5
85C
330
8D3
100
AcDbEntity
  8
DATA
  6
Continuous
 62
     7
100
AcDbLine
 10
397.9999999995681
 20
-185.7533320998117
 30
0.0
 11
396.4999999995681
 21
-185.7533320998117
 31
0.0
  0
LINE
  5
85D
330
8D3
100
AcDbEntity
  8
DATA
  6
Continuous
 62
     7
100
AcDbLine
 10
397.9999999995681
 20
-176.7466679004535
 30
0.0
 11
397.9999999995681
 21
-185.7533320998117
 31
0.0
  0
LINE
  5
85E
330
8D3
100
AcDbEntity
  8
DATA
  6
Continuous
 62
     7
100
AcDbLine
 10
402.9999999995681
 20
-177.4000000001325
 30
0.0
 11
397.9999999995681
 21
-177.4000000001325
 31
0.0
  0
LINE
  5
85F
330
8D3
100
AcDbEntity
  8
DATA
  6
Continuous
 62
     7
100
AcDbLine
 10
402.9999999995681
 20
-185.1000000001325
 30
0.0
 11
397.9999999995681
 21
-185.1000000001325
 31
0.0
  0
LINE
  5
860
330
8D3
100
AcDbEntity
  8
DATA
  6
Continuous
 62
     7
100
AcDbLine
 10
395.4999999998889
 20
-198.2000000001326
 30
0.0
 11
395.4999999998889
 21
-157.0000000001325
 31
0.0
  0
LINE
  5
861
330
8D3
100
AcDbEntity
  8
DATA
  6
Continuous
 62
     7
100
AcDbLine
 10
384.499999999889
 20
-199.0000000001325
 30
0.0
 11
384.499999999889
 21
-200.0000000001326
 31
0.0
  0
LINE
  5
862
330
8D3
100
AcDbEntity
  8
DATA
  6
Continuous
 62
     7
100
AcDbLine
 10
384.499999999889
 20
-199.0000000001325
 30
0.0
 11
394.6999999998889
 21
-199.0000000001325
 31
0.0
  0
ARC
  5
863
330
8D3
100
AcDbEntity
  8
DATA
  6
Continuous
 62
     7
100
AcDbCircle
 10
395.6999999998889
 20
-156.8000000001326
 30
0.0
 40
0.8000000000000682
100
AcDbArc
 50
0.0
 51
89.99999999999589
  0
ARC
  5
864
330
8D3
100
AcDbEntity
  8
DATA
  6
Continuous
 62
     7
100
AcDbCircle
 10
394.6999999998889
 20
-198.2000000001326
 30
0.0
 40
0.7999999999999546
100
AcDbArc
 50
270.0
 51
0.0
  0
ARC
  5
865
330
8D3
100
AcDbEntity
  8
DATA
  6
Continuous
 62
     7
100
AcDbCircle
 10
395.6999999998889
 20
-199.2000000001326
 30
0.0
 40
0.7999999999999546
100
AcDbArc
 50
270.0
 51
0.0
  0
LINE
  5
866
330
8D3
100
AcDbEntity
  8
DATA
  6
Continuous
 62
     7
100
AcDbLine
 10
262.4999999998889
 20
49.99999999986741
 30
0.0
 11
462.4999999998889
 21
49.99999999986741
 31
0.0
  0
ENDSEC
  0
SECTION
  2
OBJECTS
  0
DICTIONARY
  5
874
330
0
100
AcDbDictionary
281
     1
  3
ACAD_COLOR
350
8CA
  3
ACAD_GROUP
350
875
  3
ACAD_LAYOUT
350
8C9
  3
ACAD_MATERIAL
350
878
  3
ACAD_MLEADERSTYLE
350
8CD
  3
ACAD_MLINESTYLE
350
8C6
  3
ACAD_PLOTSETTINGS
350
8C8
  3
ACAD_PLOTSTYLENAME
350
876
  3
ACAD_SCALELIST
350
8AA
  3
ACAD_TABLESTYLE
350
8CB
  3
ACAD_VISUALSTYLE
350
891
  3
ACDB_RECOMPOSE_DATA
350
8FF
  3
AcDbVariableDictionary
350
8F5
  3
DWGPROPS
350
900
  0
DICTIONARY
  5
8EB
330
8BC
100
AcDbDictionary
280
     1
281
     1
  3
ADSK_XREC_LAYER_RECONCILED
360
8EC
  0
DICTIONARY
  5
8ED
330
8D7
100
AcDbDictionary
280
     1
281
     1
  3
ADSK_XREC_LAYER_RECONCILED
360
8EE
  0
DICTIONARY
  5
8EF
330
8E3
100
AcDbDictionary
280
     1
281
     1
  3
ADSK_XREC_LAYER_RECONCILED
360
8F0
  0
DICTIONARY
  5
8F1
330
8E4
100
AcDbDictionary
280
     1
281
     1
  3
ADSK_XREC_LAYER_RECONCILED
360
8F2
  0
DICTIONARY
  5
8F3
330
8E5
100
AcDbDictionary
280
     1
281
     1
  3
ADSK_XREC_LAYER_RECONCILED
360
8F4
  0
DICTIONARY
  5
8CA
102
{ACAD_REACTORS
330
874
102
}
330
874
100
AcDbDictionary
281
     1
  0
DICTIONARY
  5
875
102
{ACAD_REACTORS
330
874
102
}
330
874
100
AcDbDictionary
281
     1
  0
DICTIONARY
  5
8C9
102
{ACAD_REACTORS
330
874
102
}
330
874
100
AcDbDictionary
281
     1
  3
Model
350
8D6
  3
レイアウト1
350
8D2
  0
DICTIONARY
  5
878
102
{ACAD_REACTORS
330
874
102
}
330
874
100
AcDbDictionary
281
     1
  3
ByBlock
350
881
  3
ByLayer
350
879
  3
Global
350
889
  0
DICTIONARY
  5
8CD
102
{ACAD_REACTORS
330
874
102
}
330
874
100
AcDbDictionary
281
     1
  3
Standard
350
8CE
  0
DICTIONARY
  5
8C6
102
{ACAD_REACTORS
330
874
102
}
330
874
100
AcDbDictionary
281
     1
  3
Standard
350
8C7
  0
DICTIONARY
  5
8C8
102
{ACAD_REACTORS
330
874
102
}
330
874
100
AcDbDictionary
281
     1
  0
ACDBDICTIONARYWDFLT
  5
876
102
{ACAD_REACTORS
330
874
102
}
330
874
100
AcDbDictionary
281
     1
  3
Normal
350
877
100
AcDbDictionaryWithDefault
340
877
  0
DICTIONARY
  5
8AA
102
{ACAD_REACTORS
330
874
102
}
330
874
100
AcDbDictionary
281
     1
  3
A0
350
8AB
  3
A1
350
8AC
  3
A2
350
8AD
  3
A3
350
8AE
  3
A4
350
8AF
  3
A5
350
8B0
  3
A6
350
8B1
  3
A7
350
8B2
  3
A8
350
8B3
  3
A9
350
8B4
  3
B0
350
8B5
  3
B1
350
8B6
  3
B2
350
8B7
  3
B3
350
8B8
  3
B4
350
8B9
  3
B5
350
8BA
  3
B6
350
8BB
  0
DICTIONARY
  5
8CB
102
{ACAD_REACTORS
330
874
102
}
330
874
100
AcDbDictionary
281
     1
  3
Standard
350
8CC
  0
DICTIONARY
  5
891
102
{ACAD_REACTORS
330
874
102
}
330
874
100
AcDbDictionary
281
     1
  3
2dWireframe
350
897
  3
Basic
350
896
  3
Brighten
350
89D
  3
ColorChange
350
8A1
  3
Conceptual
350
89A
  3
Dim
350
89C
  3
EdgeColorOff
350
8A9
  3
Facepattern
350
8A0
  3
Flat
350
892
  3
FlatWithEdges
350
893
  3
Gouraud
350
894
  3
GouraudWithEdges
350
895
  3
Hidden
350
899
  3
JitterOff
350
8A7
  3
Linepattern
350
89F
  3
OverhangOff
350
8A8
  3
Realistic
350
89B
  3
Shaded
350
8A6
  3
Shaded with edges
350
8A5
  3
Shades of Gray
350
8A2
  3
Sketchy
350
8A3
  3
Thicken
350
89E
  3
Wireframe
350
898
  3
X-Ray
350
8A4
  0
XRECORD
  5
8FF
102
{ACAD_REACTORS
330
874
102
}
330
874
100
AcDbXrecord
280
     1
 90
        1
330
8CC
  0
DICTIONARY
  5
8F5
102
{ACAD_REACTORS
330
874
102
}
330
874
100
AcDbDictionary
281
     1
  3
CANNOSCALE
350
8F8
  3
CMLEADERSTYLE
350
8F7
  3
CTABLESTYLE
350
8F6
  3
DIMASSOC
350
8FB
  3
INDEXCTL
350
8FA
  3
SORTENTS
350
8F9
  3
XCLIPFRAME
350
8FC
  0
XRECORD
  5
900
102
{ACAD_REACTORS
330
874
102
}
330
874
100
AcDbXrecord
280
     1
  1
DWGPROPS COOKIE
  2

  3

  4

  6

  7

  8
sasaki_n
  9

300
=
301
=
302
=
303
=
304
=
305
=
306
=
307
=
308
=
309
=
 40
0.0002805324074074
 41
2455477.42212963
 42
2455477.428701817
  1

 90
        0
  0
XRECORD
  5
8EC
102
{ACAD_REACTORS
330
8EB
102
}
330
8EB
100
AcDbXrecord
280
     1
290
     1
  0
XRECORD
  5
8EE
102
{ACAD_REACTORS
330
8ED
102
}
330
8ED
100
AcDbXrecord
280
     1
290
     1
  0
XRECORD
  5
8F0
102
{ACAD_REACTORS
330
8EF
102
}
330
8EF
100
AcDbXrecord
280
     1
290
     1
  0
XRECORD
  5
8F2
102
{ACAD_REACTORS
330
8F1
102
}
330
8F1
100
AcDbXrecord
280
     1
290
     1
  0
XRECORD
  5
8F4
102
{ACAD_REACTORS
330
8F3
102
}
330
8F3
100
AcDbXrecord
280
     1
290
     1
  0
LAYOUT
  5
8D6
102
{ACAD_XDICTIONARY
360
938
102
}
102
{ACAD_REACTORS
330
8C9
102
}
330
8C9
100
AcDbPlotSettings
  1

  2
DocuPrint 255-1
  4

  6

 40
0.0
 41
0.0
 42
0.0
 43
0.0
 44
0.0
 45
0.0
 46
0.0
 47
0.0
 48
0.0
 49
0.0
140
0.0
141
0.0
142
1.0
143
1.0
 70
  1712
 72
     0
 73
     0
 74
     0
  7

 75
     0
147
1.0
148
0.0
149
0.0
100
AcDbLayout
  1
Model
 70
     1
 71
     0
 10
0.0
 20
0.0
 11
12.0
 21
9.0
 12
0.0
 22
0.0
 32
0.0
 14
0.0
 24
0.0
 34
0.0
 15
0.0
 25
0.0
 35
0.0
146
0.0
 13
0.0
 23
0.0
 33
0.0
 16
1.0
 26
0.0
 36
0.0
 17
0.0
 27
1.0
 37
0.0
 76
     0
330
8D3
331
8D8
  0
LAYOUT
  5
8D2
102
{ACAD_XDICTIONARY
360
936
102
}
102
{ACAD_REACTORS
330
8C9
102
}
330
8C9
100
AcDbPlotSettings
  1

  2
DocuPrint 255-1
  4

  6

 40
0.0
 41
0.0
 42
0.0
 43
0.0
 44
0.0
 45
0.0
 46
0.0
 47
0.0
 48
0.0
 49
0.0
140
0.0
141
0.0
142
1.0
143
1.0
 70
   688
 72
     0
 73
     0
 74
     5
  7

 75
    16
147
1.0
148
0.0
149
0.0
100
AcDbLayout
  1
レイアウト1
 70
     0
 71
     1
 10
0.0
 20
0.0
 11
12.0
 21
9.0
 12
0.0
 22
0.0
 32
0.0
 14
1.000000000000000E+20
 24
1.000000000000000E+20
 34
1.000000000000000E+20
 15
-1.000000000000000E+20
 25
-1.000000000000000E+20
 35
-1.000000000000000E+20
146
0.0
 13
0.0
 23
0.0
 33
0.0
 16
1.0
 26
0.0
 36
0.0
 17
0.0
 27
1.0
 37
0.0
 76
     0
330
8CF
  0
MATERIAL
  5
881
102
{ACAD_XDICTIONARY
360
882
102
}
102
{ACAD_REACTORS
330
878
102
}
330
878
100
AcDbMaterial
  1
ByBlock
 72
     0
 43
0.0208333333333333
 43
0.0
 43
0.0
 43
0.0
 43
0.0
 43
0.0208333333333333
 43
0.0
 43
0.0
 43
0.0
 43
0.0
 43
1.0
 43
0.0
 43
0.0
 43
0.0
 43
0.0
 43
1.0
 77
     0
 47
0.0208333333333333
 47
0.0
 47
0.0
 47
0.0
 47
0.0
 47
0.0208333333333333
 47
0.0
 47
0.0
 47
0.0
 47
0.0
 47
1.0
 47
0.0
 47
0.0
 47
0.0
 47
0.0
 47
1.0
171
     0
 49
0.0208333333333333
 49
0.0
 49
0.0
 49
0.0
 49
0.0
 49
0.0208333333333333
 49
0.0
 49
0.0
 49
0.0
 49
0.0
 49
1.0
 49
0.0
 49
0.0
 49
0.0
 49
0.0
 49
1.0
175
     0
142
0.0208333333333333
142
0.0
142
0.0
142
0.0
142
0.0
142
0.0208333333333333
142
0.0
142
0.0
142
0.0
142
0.0
142
1.0
142
0.0
142
0.0
142
0.0
142
0.0
142
1.0
179
     0
144
0.0208333333333333
144
0.0
144
0.0
144
0.0
144
0.0
144
0.0208333333333333
144
0.0
144
0.0
144
0.0
144
0.0
144
1.0
144
0.0
144
0.0
144
0.0
144
0.0
144
1.0
147
0.0208333333333333
147
0.0
147
0.0
147
0.0
147
0.0
147
0.0208333333333333
147
0.0
147
0.0
147
0.0
147
0.0
147
1.0
147
0.0
147
0.0
147
0.0
147
0.0
147
1.0
  0
MATERIAL
  5
879
102
{ACAD_XDICTIONARY
360
87A
102
}
102
{ACAD_REACTORS
330
878
102
}
330
878
100
AcDbMaterial
  1
ByLayer
 72
     0
 43
0.0208333333333333
 43
0.0
 43
0.0
 43
0.0
 43
0.0
 43
0.0208333333333333
 43
0.0
 43
0.0
 43
0.0
 43
0.0
 43
1.0
 43
0.0
 43
0.0
 43
0.0
 43
0.0
 43
1.0
 77
     0
 47
0.0208333333333333
 47
0.0
 47
0.0
 47
0.0
 47
0.0
 47
0.0208333333333333
 47
0.0
 47
0.0
 47
0.0
 47
0.0
 47
1.0
 47
0.0
 47
0.0
 47
0.0
 47
0.0
 47
1.0
171
     0
 49
0.0208333333333333
 49
0.0
 49
0.0
 49
0.0
 49
0.0
 49
0.0208333333333333
 49
0.0
 49
0.0
 49
0.0
 49
0.0
 49
1.0
 49
0.0
 49
0.0
 49
0.0
 49
0.0
 49
1.0
175
     0
142
0.0208333333333333
142
0.0
142
0.0
142
0.0
142
0.0
142
0.0208333333333333
142
0.0
142
0.0
142
0.0
142
0.0
142
1.0
142
0.0
142
0.0
142
0.0
142
0.0
142
1.0
179
     0
144
0.0208333333333333
144
0.0
144
0.0
144
0.0
144
0.0
144
0.0208333333333333
144
0.0
144
0.0
144
0.0
144
0.0
144
1.0
144
0.0
144
0.0
144
0.0
144
0.0
144
1.0
147
0.0208333333333333
147
0.0
147
0.0
147
0.0
147
0.0
147
0.0208333333333333
147
0.0
147
0.0
147
0.0
147
0.0
147
1.0
147
0.0
147
0.0
147
0.0
147
0.0
147
1.0
  0
MATERIAL
  5
889
102
{ACAD_XDICTIONARY
360
88A
102
}
102
{ACAD_REACTORS
330
878
102
}
330
878
100
AcDbMaterial
  1
Global
 72
     0
 43
0.0208333333333333
 43
0.0
 43
0.0
 43
0.0
 43
0.0
 43
0.0208333333333333
 43
0.0
 43
0.0
 43
0.0
 43
0.0
 43
1.0
 43
0.0
 43
0.0
 43
0.0
 43
0.0
 43
1.0
 77
     0
 47
0.0208333333333333
 47
0.0
 47
0.0
 47
0.0
 47
0.0
 47
0.0208333333333333
 47
0.0
 47
0.0
 47
0.0
 47
0.0
 47
1.0
 47
0.0
 47
0.0
 47
0.0
 47
0.0
 47
1.0
171
     0
 49
0.0208333333333333
 49
0.0
 49
0.0
 49
0.0
 49
0.0
 49
0.0208333333333333
 49
0.0
 49
0.0
 49
0.0
 49
0.0
 49
1.0
 49
0.0
 49
0.0
 49
0.0
 49
0.0
 49
1.0
175
     0
142
0.0208333333333333
142
0.0
142
0.0
142
0.0
142
0.0
142
0.0208333333333333
142
0.0
142
0.0
142
0.0
142
0.0
142
1.0
142
0.0
142
0.0
142
0.0
142
0.0
142
1.0
179
     0
144
0.0208333333333333
144
0.0
144
0.0
144
0.0
144
0.0
144
0.0208333333333333
144
0.0
144
0.0
144
0.0
144
0.0
144
1.0
144
0.0
144
0.0
144
0.0
144
0.0
144
1.0
147
0.0208333333333333
147
0.0
147
0.0
147
0.0
147
0.0
147
0.0208333333333333
147
0.0
147
0.0
147
0.0
147
0.0
147
1.0
147
0.0
147
0.0
147
0.0
147
0.0
147
1.0
  0
MLEADERSTYLE
  5
8CE
102
{ACAD_REACTORS
330
8CD
102
}
330
8CD
100
AcDbMLeaderStyle
170
     2
171
     1
172
     0
 90
        2
 40
0.0
 41
0.0
173
     1
 91
-1056964608
340
8C2
 92
       -2
290
     1
 42
0.09
291
     1
 43
0.36
  3
Standard
 44
0.18
300

342
8BD
174
     1
178
     6
175
     1
176
     0
 93
-1056964608
 45
0.18
292
     0
297
     0
 46
0.18
 94
-1056964608
 47
1.0
 49
1.0
140
1.0
293
     1
141
0.0
294
     1
177
     0
142
1.0
295
     0
296
     0
143
0.125
1001
ACAD_MLEADERVER
1070
     2
  0
MLINESTYLE
  5
8C7
102
{ACAD_REACTORS
330
8C6
102
}
330
8C6
100
AcDbMlineStyle
  2
STANDARD
 70
     0
  3

 62
   256
 51
90.0
 52
90.0
 71
     2
 49
0.5
 62
   256
  6
BYLAYER
 49
-0.5
 62
   256
  6
BYLAYER
  0
ACDBPLACEHOLDER
  5
877
102
{ACAD_REACTORS
330
876
102
}
330
876
  0
SCALE
  5
8AB
102
{ACAD_REACTORS
330
8AA
102
}
330
8AA
100
AcDbScale
 70
     0
300
1:1
140
1.0
141
1.0
290
     1
  0
SCALE
  5
8AC
102
{ACAD_REACTORS
330
8AA
102
}
330
8AA
100
AcDbScale
 70
     0
300
1/128" = 1'-0"
140
0.0078125
141
12.0
290
     0
  0
SCALE
  5
8AD
102
{ACAD_REACTORS
330
8AA
102
}
330
8AA
100
AcDbScale
 70
     0
300
1/64" = 1'-0"
140
0.015625
141
12.0
290
     0
  0
SCALE
  5
8AE
102
{ACAD_REACTORS
330
8AA
102
}
330
8AA
100
AcDbScale
 70
     0
300
1/32" = 1'-0"
140
0.03125
141
12.0
290
     0
  0
SCALE
  5
8AF
102
{ACAD_REACTORS
330
8AA
102
}
330
8AA
100
AcDbScale
 70
     0
300
1/16" = 1'-0"
140
0.0625
141
12.0
290
     0
  0
SCALE
  5
8B0
102
{ACAD_REACTORS
330
8AA
102
}
330
8AA
100
AcDbScale
 70
     0
300
3/32" = 1'-0"
140
0.09375
141
12.0
290
     0
  0
SCALE
  5
8B1
102
{ACAD_REACTORS
330
8AA
102
}
330
8AA
100
AcDbScale
 70
     0
300
1/8" = 1'-0"
140
0.125
141
12.0
290
     0
  0
SCALE
  5
8B2
102
{ACAD_REACTORS
330
8AA
102
}
330
8AA
100
AcDbScale
 70
     0
300
3/16" = 1'-0"
140
0.1875
141
12.0
290
     0
  0
SCALE
  5
8B3
102
{ACAD_REACTORS
330
8AA
102
}
330
8AA
100
AcDbScale
 70
     0
300
1/4" = 1'-0"
140
0.25
141
12.0
290
     0
  0
SCALE
  5
8B4
102
{ACAD_REACTORS
330
8AA
102
}
330
8AA
100
AcDbScale
 70
     0
300
3/8" = 1'-0"
140
0.375
141
12.0
290
     0
  0
SCALE
  5
8B5
102
{ACAD_REACTORS
330
8AA
102
}
330
8AA
100
AcDbScale
 70
     0
300
1/2" = 1'-0"
140
0.5
141
12.0
290
     0
  0
SCALE
  5
8B6
102
{ACAD_REACTORS
330
8AA
102
}
330
8AA
100
AcDbScale
 70
     0
300
3/4" = 1'-0"
140
0.75
141
12.0
290
     0
  0
SCALE
  5
8B7
102
{ACAD_REACTORS
330
8AA
102
}
330
8AA
100
AcDbScale
 70
     0
300
1" = 1'-0"
140
1.0
141
12.0
290
     0
  0
SCALE
  5
8B8
102
{ACAD_REACTORS
330
8AA
102
}
330
8AA
100
AcDbScale
 70
     0
300
1-1/2" = 1'-0"
140
1.5
141
12.0
290
     0
  0
SCALE
  5
8B9
102
{ACAD_REACTORS
330
8AA
102
}
330
8AA
100
AcDbScale
 70
     0
300
3" = 1'-0"
140
3.0
141
12.0
290
     0
  0
SCALE
  5
8BA
102
{ACAD_REACTORS
330
8AA
102
}
330
8AA
100
AcDbScale
 70
     0
300
6" = 1'-0"
140
6.0
141
12.0
290
     0
  0
SCALE
  5
8BB
102
{ACAD_REACTORS
330
8AA
102
}
330
8AA
100
AcDbScale
 70
     0
300
1'-0" = 1'-0"
140
12.0
141
12.0
290
     0
  0
TABLESTYLE
  5
8CC
102
{ACAD_XDICTIONARY
360
8FD
102
}
102
{ACAD_REACTORS
330
8CB
102
}
330
8CB
100
AcDbTableStyle
  3
Standard
 70
     0
 71
     0
 40
0.06
 41
0.06
280
     0
281
     0
  7
STANDARD
140
0.18
170
     2
 62
     0
 63
     7
283
     0
274
    -2
284
     1
 64
     0
275
    -2
285
     1
 65
     0
276
    -2
286
     1
 66
     0
277
    -2
287
     1
 67
     0
278
    -2
288
     1
 68
     0
279
    -2
289
     1
 69
     0
  7
STANDARD
140
0.25
170
     5
 62
     0
 63
     7
283
     0
274
    -2
284
     1
 64
     0
275
    -2
285
     1
 65
     0
276
    -2
286
     1
 66
     0
277
    -2
287
     1
 67
     0
278
    -2
288
     1
 68
     0
279
    -2
289
     1
 69
     0
  7
STANDARD
140
0.18
170
     5
 62
     0
 63
     7
283
     0
274
    -2
284
     1
 64
     0
275
    -2
285
     1
 65
     0
276
    -2
286
     1
 66
     0
277
    -2
287
     1
 67
     0
278
    -2
288
     1
 68
     0
279
    -2
289
     1
 69
     0
  0
VISUALSTYLE
  5
897
102
{ACAD_XDICTIONARY
360
90E
102
}
102
{ACAD_REACTORS
330
891
102
}
330
891
100
AcDbVisualStyle
  2
2dWireframe
 70
     4
 71
     0
 72
     2
 73
     0
 90
        0
 40
-0.6
 41
-30.0
 62
     5
 63
     7
 74
     1
 91
        4
 64
     7
 65
   257
 75
     1
175
     1
 42
1.0
 92
        0
 66
   257
 43
1.0
 76
     1
 77
     6
 78
     2
 67
     7
 79
     5
170
     0
171
     0
290
     0
174
     0
 93
        1
 44
0.0
173
     0
291
     0
 45
0.0
1001
ACAD
1000
AcDbSavedByObjectVersion
1070
     0
  0
VISUALSTYLE
  5
896
102
{ACAD_XDICTIONARY
360
90C
102
}
102
{ACAD_REACTORS
330
891
102
}
330
891
100
AcDbVisualStyle
  2
Basic
 70
     7
 71
     1
 72
     0
 73
     1
 90
        0
 40
-0.6
 41
-30.0
 62
     5
 63
     7
 74
     0
 91
        4
 64
     7
 65
   257
 75
     1
175
     1
 42
1.0
 92
        8
 66
     7
 43
1.0
 76
     1
 77
     6
 78
     2
 67
     7
 79
     5
170
     0
171
     0
290
     0
174
     0
 93
        1
 44
0.0
173
     0
291
     1
 45
0.0
1001
ACAD
1000
AcDbSavedByObjectVersion
1070
     0
  0
VISUALSTYLE
  5
89D
102
{ACAD_XDICTIONARY
360
91A
102
}
102
{ACAD_REACTORS
330
891
102
}
330
891
100
AcDbVisualStyle
  2
Brighten
 70
    12
 71
     2
 72
     2
 73
     0
 90
        0
 40
-0.6
 41
-30.0
 62
     5
 63
     7
 74
     1
 91
        4
 64
     7
 65
   257
 75
     1
175
     1
 42
1.0
 92
        8
 66
     7
 43
1.0
 76
     1
 77
     6
 78
     2
 67
     7
 79
     5
170
     0
171
     0
290
     0
174
     0
 93
        1
 44
50.0
173
     0
291
     1
 45
0.0
1001
ACAD
1000
AcDbSavedByObjectVersion
1070
     0
  0
VISUALSTYLE
  5
8A1
102
{ACAD_XDICTIONARY
360
922
102
}
102
{ACAD_REACTORS
330
891
102
}
330
891
100
AcDbVisualStyle
  2
ColorChange
 70
    16
 71
     2
 72
     2
 73
     3
 90
        0
 40
-0.6
 41
-30.0
 62
     5
 63
     8
 74
     1
 91
        4
 64
     7
 65
   257
 75
     1
175
     1
 42
1.0
 92
        8
 66
     8
 43
1.0
 76
     1
 77
     6
 78
     2
 67
     7
 79
     5
170
     0
171
     0
290
     0
174
     0
 93
        1
 44
0.0
173
     0
291
     1
 45
0.0
1001
ACAD
1000
AcDbSavedByObjectVersion
1070
     0
  0
VISUALSTYLE
  5
89A
102
{ACAD_XDICTIONARY
360
914
102
}
102
{ACAD_REACTORS
330
891
102
}
330
891
100
AcDbVisualStyle
  2
Conceptual
 70
     9
 71
     3
 72
     2
 73
     0
 90
        0
 40
-0.6
 41
-30.0
 62
     5
 63
     7
 74
     2
 91
        2
 64
     7
 65
   257
 75
     1
175
     1
 42
179.0
 92
        8
 66
     7
 43
1.0
 76
     1
 77
     6
 78
     2
 67
     7
 79
     3
170
     0
171
     0
290
     0
174
     0
 93
        1
 44
0.0
173
     0
291
     0
 45
0.0
1001
ACAD
1000
AcDbSavedByObjectVersion
1070
     0
  0
VISUALSTYLE
  5
89C
102
{ACAD_XDICTIONARY
360
918
102
}
102
{ACAD_REACTORS
330
891
102
}
330
891
100
AcDbVisualStyle
  2
Dim
 70
    11
 71
     2
 72
     2
 73
     0
 90
        0
 40
-0.6
 41
-30.0
 62
     5
 63
     7
 74
     1
 91
        4
 64
     7
 65
   257
 75
     1
175
     1
 42
1.0
 92
        8
 66
     7
 43
1.0
 76
     1
 77
     6
 78
     2
 67
     7
 79
     5
170
     0
171
     0
290
     0
174
     0
 93
        1
 44
-50.0
173
     0
291
     1
 45
0.0
1001
ACAD
1000
AcDbSavedByObjectVersion
1070
     0
  0
VISUALSTYLE
  5
8A9
102
{ACAD_XDICTIONARY
360
932
102
}
102
{ACAD_REACTORS
330
891
102
}
330
891
100
AcDbVisualStyle
  2
EdgeColorOff
 70
    22
 71
     2
 72
     2
 73
     0
 90
        0
 40
-0.6
 41
-30.0
 62
     5
 63
     7
 74
     1
 91
        4
 64
     7
 65
   257
 75
     1
175
     1
 42
1.0
 92
        8
 66
     7
 43
1.0
 76
     1
 77
     6
 78
     2
 67
     7
 79
     5
170
     0
171
     0
290
     0
174
     0
 93
        1
 44
0.0
173
     0
291
     1
 45
0.0
1001
ACAD
1000
AcDbSavedByObjectVersion
1070
     0
  0
VISUALSTYLE
  5
8A0
102
{ACAD_XDICTIONARY
360
920
102
}
102
{ACAD_REACTORS
330
891
102
}
330
891
100
AcDbVisualStyle
  2
Facepattern
 70
    15
 71
     2
 72
     2
 73
     0
 90
        0
 40
-0.6
 41
-30.0
 62
     5
 63
     7
 74
     1
 91
        4
 64
     7
 65
   257
 75
     1
175
     1
 42
1.0
 92
        8
 66
     7
 43
1.0
 76
     1
 77
     6
 78
     2
 67
     7
 79
     5
170
     0
171
     0
290
     0
174
     0
 93
        1
 44
0.0
173
     0
291
     1
 45
0.0
1001
ACAD
1000
AcDbSavedByObjectVersion
1070
     0
  0
VISUALSTYLE
  5
892
102
{ACAD_XDICTIONARY
360
904
102
}
102
{ACAD_REACTORS
330
891
102
}
330
891
100
AcDbVisualStyle
  2
Flat
 70
     0
 71
     2
 72
     1
 73
     1
 90
        2
 40
-0.6
 41
30.0
 62
     5
 63
     7
 74
     0
 91
        0
 64
     7
 65
   257
 75
     1
175
     1
 42
1.0
 92
        8
 66
     7
 43
1.0
 76
     1
 77
     6
 78
     2
 67
     7
 79
     5
170
     0
171
     0
290
     0
174
     0
 93
       13
 44
0.0
173
     0
291
     1
 45
0.0
1001
ACAD
1000
AcDbSavedByObjectVersion
1070
     0
  0
VISUALSTYLE
  5
893
102
{ACAD_XDICTIONARY
360
906
102
}
102
{ACAD_REACTORS
330
891
102
}
330
891
100
AcDbVisualStyle
  2
FlatWithEdges
 70
     1
 71
     2
 72
     1
 73
     1
 90
        2
 40
-0.6
 41
30.0
 62
     5
 63
     7
 74
     1
 91
        0
 64
     7
 65
   257
 75
     1
175
     1
 42
1.0
 92
        0
 66
   257
 43
1.0
 76
     1
 77
     6
 78
     2
 67
     7
 79
     5
170
     0
171
     0
290
     0
174
     0
 93
       13
 44
0.0
173
     0
291
     1
 45
0.0
1001
ACAD
1000
AcDbSavedByObjectVersion
1070
     0
  0
VISUALSTYLE
  5
894
102
{ACAD_XDICTIONARY
360
908
102
}
102
{ACAD_REACTORS
330
891
102
}
330
891
100
AcDbVisualStyle
  2
Gouraud
 70
     2
 71
     2
 72
     2
 73
     1
 90
        2
 40
-0.6
 41
30.0
 62
     5
 63
     7
 74
     0
 91
        0
 64
     7
 65
   257
 75
     1
175
     1
 42
1.0
 92
        0
 66
     7
 43
1.0
 76
     1
 77
     6
 78
     2
 67
     7
 79
     5
170
     0
171
     0
290
     0
174
     0
 93
       13
 44
0.0
173
     0
291
     1
 45
0.0
1001
ACAD
1000
AcDbSavedByObjectVersion
1070
     0
  0
VISUALSTYLE
  5
895
102
{ACAD_XDICTIONARY
360
90A
102
}
102
{ACAD_REACTORS
330
891
102
}
330
891
100
AcDbVisualStyle
  2
GouraudWithEdges
 70
     3
 71
     2
 72
     2
 73
     1
 90
        2
 40
-0.6
 41
30.0
 62
     5
 63
     7
 74
     1
 91
        0
 64
     7
 65
   257
 75
     1
175
     1
 42
1.0
 92
        0
 66
   257
 43
1.0
 76
     1
 77
     6
 78
     2
 67
     7
 79
     5
170
     0
171
     0
290
     0
174
     0
 93
       13
 44
0.0
173
     0
291
     1
 45
0.0
1001
ACAD
1000
AcDbSavedByObjectVersion
1070
     0
  0
VISUALSTYLE
  5
899
102
{ACAD_XDICTIONARY
360
912
102
}
102
{ACAD_REACTORS
330
891
102
}
330
891
100
AcDbVisualStyle
  2
Hidden
 70
     6
 71
     1
 72
     2
 73
     2
 90
        0
 40
-0.6
 41
-30.0
 62
     5
 63
     7
 74
     2
 91
        2
 64
     7
 65
   257
 75
     2
175
     1
 42
40.0
 92
        0
 66
   257
 43
1.0
 76
     1
 77
     6
 78
     2
 67
     7
 79
     3
170
     0
171
     0
290
     0
174
     0
 93
        1
 44
0.0
173
     0
291
     0
 45
0.0
1001
ACAD
1000
AcDbSavedByObjectVersion
1070
     0
  0
VISUALSTYLE
  5
8A7
102
{ACAD_XDICTIONARY
360
92E
102
}
102
{ACAD_REACTORS
330
891
102
}
330
891
100
AcDbVisualStyle
  2
JitterOff
 70
    20
 71
     2
 72
     2
 73
     0
 90
        0
 40
-0.6
 41
-30.0
 62
     5
 63
     7
 74
     1
 91
        4
 64
     7
 65
   257
 75
     1
175
     1
 42
1.0
 92
       10
 66
     7
 43
1.0
 76
     1
 77
     6
 78
     2
 67
     7
 79
     5
170
     0
171
     0
290
     0
174
     0
 93
        1
 44
0.0
173
     0
291
     1
 45
0.0
1001
ACAD
1000
AcDbSavedByObjectVersion
1070
     0
  0
VISUALSTYLE
  5
89F
102
{ACAD_XDICTIONARY
360
91E
102
}
102
{ACAD_REACTORS
330
891
102
}
330
891
100
AcDbVisualStyle
  2
Linepattern
 70
    14
 71
     2
 72
     2
 73
     0
 90
        0
 40
-0.6
 41
-30.0
 62
     5
 63
     7
 74
     1
 91
        4
 64
     7
 65
   257
 75
     7
175
     7
 42
1.0
 92
        8
 66
     7
 43
1.0
 76
     1
 77
     6
 78
     2
 67
     7
 79
     5
170
     0
171
     0
290
     0
174
     0
 93
        1
 44
0.0
173
     0
291
     1
 45
0.0
1001
ACAD
1000
AcDbSavedByObjectVersion
1070
     0
  0
VISUALSTYLE
  5
8A8
102
{ACAD_XDICTIONARY
360
930
102
}
102
{ACAD_REACTORS
330
891
102
}
330
891
100
AcDbVisualStyle
  2
OverhangOff
 70
    21
 71
     2
 72
     2
 73
     0
 90
        0
 40
-0.6
 41
-30.0
 62
     5
 63
     7
 74
     1
 91
        4
 64
     7
 65
   257
 75
     1
175
     1
 42
1.0
 92
        9
 66
     7
 43
1.0
 76
     1
 77
     6
 78
     2
 67
     7
 79
     5
170
     0
171
     0
290
     0
174
     0
 93
        1
 44
0.0
173
     0
291
     1
 45
0.0
1001
ACAD
1000
AcDbSavedByObjectVersion
1070
     0
  0
VISUALSTYLE
  5
89B
102
{ACAD_XDICTIONARY
360
916
102
}
102
{ACAD_REACTORS
330
891
102
}
330
891
100
AcDbVisualStyle
  2
Realistic
 70
     8
 71
     2
 72
     3
 73
     0
 90
        2
 40
-0.6
 41
30.0
 62
     5
 63
     7
 74
     0
 91
        0
 64
     7
 65
   257
 75
     1
175
     1
 42
1.0
 92
        8
 66
   257
 43
1.0
 76
     1
 77
     6
 78
     2
 67
     7
 79
     3
170
     0
171
     0
290
     0
174
     0
 93
       13
 44
0.0
173
     0
291
     0
 45
0.0
1001
ACAD
1000
AcDbSavedByObjectVersion
1070
     0
  0
VISUALSTYLE
  5
8A6
102
{ACAD_XDICTIONARY
360
92C
102
}
102
{ACAD_REACTORS
330
891
102
}
330
891
100
AcDbVisualStyle
  2
Shaded
 70
    27
 71
     2
 72
     2
 73
     1
 90
        2
 40
-0.6
 41
30.0
 62
     5
 63
     7
 74
     0
 91
        4
 64
     7
 65
   257
 75
     1
175
     1
 42
1.0
 92
        8
 66
   257
 43
1.0
 76
     1
 77
     6
 78
     2
 67
     8
 79
     3
170
     0
171
     0
290
     0
174
     0
 93
        5
 44
0.0
173
     0
291
     0
 45
0.0
1001
ACAD
1000
AcDbSavedByObjectVersion
1070
     0
  0
VISUALSTYLE
  5
8A5
102
{ACAD_XDICTIONARY
360
92A
102
}
102
{ACAD_REACTORS
330
891
102
}
330
891
100
AcDbVisualStyle
  2
Shaded with edges
 70
    26
 71
     2
 72
     2
 73
     1
 90
        2
 40
-0.6
 41
30.0
 62
     5
 63
     7
 74
     1
 91
       10
 64
     7
 65
   257
 75
     2
175
     1
 42
1.0
 92
        8
 66
   257
 43
1.0
 76
     1
 77
     6
 78
     2
 67
     7
 79
     3
170
     0
171
     0
290
     0
174
     0
 93
        5
 44
0.0
173
     0
291
     0
 45
0.0
1001
ACAD
1000
AcDbSavedByObjectVersion
1070
     0
  0
VISUALSTYLE
  5
8A2
102
{ACAD_XDICTIONARY
360
924
102
}
102
{ACAD_REACTORS
330
891
102
}
330
891
100
AcDbVisualStyle
  2
Shades of Gray
 70
    23
 71
     2
 72
     2
 73
     3
 90
        0
 40
-0.6
 41
-30.0
 62
     5
 63
     7
 74
     2
 91
        2
 64
     7
 65
     7
 75
     1
175
     1
 42
40.0
 92
        8
 66
     7
 43
1.0
 76
     1
 77
     6
 78
     2
 67
     7
 79
     3
170
     0
171
     0
290
     0
174
     0
 93
        1
 44
0.0
173
     0
291
     0
 45
0.0
1001
ACAD
1000
AcDbSavedByObjectVersion
1070
     0
  0
VISUALSTYLE
  5
8A3
102
{ACAD_XDICTIONARY
360
926
102
}
102
{ACAD_REACTORS
330
891
102
}
330
891
100
AcDbVisualStyle
  2
Sketchy
 70
    24
 71
     1
 72
     2
 73
     2
 90
        0
 40
-0.6
 41
-30.0
 62
     5
 63
     7
 74
     2
 91
        2
 64
     7
 65
     7
 75
     1
175
     1
 42
40.0
 92
       11
 66
     7
 43
1.0
 76
     1
 77
     6
 78
     2
 67
     7
 79
     6
170
     0
171
     0
290
     0
174
     0
 93
        1
 44
0.0
173
     0
291
     0
 45
0.0
1001
ACAD
1000
AcDbSavedByObjectVersion
1070
     0
  0
VISUALSTYLE
  5
89E
102
{ACAD_XDICTIONARY
360
91C
102
}
102
{ACAD_REACTORS
330
891
102
}
330
891
100
AcDbVisualStyle
  2
Thicken
 70
    13
 71
     2
 72
     2
 73
     0
 90
        0
 40
-0.6
 41
-30.0
 62
     5
 63
     7
 74
     1
 91
        4
 64
     7
 65
   257
 75
     1
175
     1
 42
1.0
 92
       12
 66
     7
 43
1.0
 76
     1
 77
     6
 78
     2
 67
     7
 79
     5
170
     0
171
     0
290
     0
174
     0
 93
        1
 44
0.0
173
     0
291
     1
 45
0.0
1001
ACAD
1000
AcDbSavedByObjectVersion
1070
     0
  0
VISUALSTYLE
  5
898
102
{ACAD_XDICTIONARY
360
910
102
}
102
{ACAD_REACTORS
330
891
102
}
330
891
100
AcDbVisualStyle
  2
Wireframe
 70
     5
 71
     0
 72
     2
 73
     0
 90
        0
 40
-0.6
 41
-30.0
 62
     5
 63
     7
 74
     1
 91
        4
 64
     7
 65
   257
 75
     1
175
     1
 42
1.0
 92
        0
 66
   257
 43
1.0
 76
     1
 77
     6
 78
     2
 67
     7
 79
     3
170
     0
171
     0
290
     0
174
     0
 93
        1
 44
0.0
173
     0
291
     0
 45
0.0
1001
ACAD
1000
AcDbSavedByObjectVersion
1070
     0
  0
VISUALSTYLE
  5
8A4
102
{ACAD_XDICTIONARY
360
928
102
}
102
{ACAD_REACTORS
330
891
102
}
330
891
100
AcDbVisualStyle
  2
X-Ray
 70
    25
 71
     2
 72
     2
 73
     1
 90
        1
 40
0.5
 41
-30.0
 62
     5
 63
     7
 74
     1
 91
        0
 64
     7
 65
   257
 75
     1
175
     1
 42
1.0
 92
        8
 66
     7
 43
1.0
 76
     1
 77
     6
 78
     2
 67
     7
 79
     3
170
     0
171
     0
290
     0
174
     0
 93
       13
 44
0.0
173
     0
291
     0
 45
0.0
1001
ACAD
1000
AcDbSavedByObjectVersion
1070
     0
  0
DICTIONARYVAR
  5
8F8
102
{ACAD_REACTORS
330
8F5
102
}
330
8F5
100
DictionaryVariables
280
     0
  1
1:1
  0
DICTIONARYVAR
  5
8F7
102
{ACAD_REACTORS
330
8F5
102
}
330
8F5
100
DictionaryVariables
280
     0
  1
STANDARD
  0
DICTIONARYVAR
  5
8F6
102
{ACAD_REACTORS
330
8F5
102
}
330
8F5
100
DictionaryVariables
280
     0
  1
STANDARD
  0
DICTIONARYVAR
  5
8FB
102
{ACAD_REACTORS
330
8F5
102
}
330
8F5
100
DictionaryVariables
280
     0
  1
1
  0
DICTIONARYVAR
  5
8FA
102
{ACAD_REACTORS
330
8F5
102
}
330
8F5
100
DictionaryVariables
280
     0
  1
0
  0
DICTIONARYVAR
  5
8F9
102
{ACAD_REACTORS
330
8F5
102
}
330
8F5
100
DictionaryVariables
280
     0
  1
127
  0
DICTIONARYVAR
  5
8FC
102
{ACAD_REACTORS
330
8F5
102
}
330
8F5
100
DictionaryVariables
280
     0
  1
2
  0
DICTIONARY
  5
938
330
8D6
100
AcDbDictionary
280
     1
281
     1
  3
ACAD_XREC_ROUNDTRIP
360
939
  0
DICTIONARY
  5
936
330
8D2
100
AcDbDictionary
280
     1
281
     1
  3
ACAD_XREC_ROUNDTRIP
360
937
  0
DICTIONARY
  5
882
330
881
100
AcDbDictionary
280
     1
281
     1
  3
ACAD_XREC_ROUNDTRIP
360
902
  3
BUMPTILE
360
884
  3
DIFFUSETILE
360
883
  3
OPACITYTILE
360
887
  3
REFLECTIONTILE
360
886
  3
REFRACTIONTILE
360
888
  3
SPECULARTILE
360
885
  0
DICTIONARY
  5
87A
330
879
100
AcDbDictionary
280
     1
281
     1
  3
ACAD_XREC_ROUNDTRIP
360
901
  3
BUMPTILE
360
87C
  3
DIFFUSETILE
360
87B
  3
OPACITYTILE
360
87F
  3
REFLECTIONTILE
360
87E
  3
REFRACTIONTILE
360
880
  3
SPECULARTILE
360
87D
  0
DICTIONARY
  5
88A
330
889
100
AcDbDictionary
280
     1
281
     1
  3
ACAD_XREC_ROUNDTRIP
360
903
  3
BUMPTILE
360
88C
  3
DIFFUSETILE
360
88B
  3
OPACITYTILE
360
88F
  3
REFLECTIONTILE
360
88E
  3
REFRACTIONTILE
360
890
  3
SPECULARTILE
360
88D
  0
DICTIONARY
  5
8FD
330
8CC
100
AcDbDictionary
280
     1
281
     1
  3
ACAD_ROUNDTRIP_2008_TABLESTYLE_CELLSTYLEMAP
360
8FE
  3
ACAD_XREC_ROUNDTRIP
360
934
  0
DICTIONARY
  5
90E
330
897
100
AcDbDictionary
280
     1
281
     1
  3
ACAD_XREC_ROUNDTRIP
360
90F
  0
DICTIONARY
  5
90C
330
896
100
AcDbDictionary
280
     1
281
     1
  3
ACAD_XREC_ROUNDTRIP
360
90D
  0
DICTIONARY
  5
91A
330
89D
100
AcDbDictionary
280
     1
281
     1
  3
ACAD_XREC_ROUNDTRIP
360
91B
  0
DICTIONARY
  5
922
330
8A1
100
AcDbDictionary
280
     1
281
     1
  3
ACAD_XREC_ROUNDTRIP
360
923
  0
DICTIONARY
  5
914
330
89A
100
AcDbDictionary
280
     1
281
     1
  3
ACAD_XREC_ROUNDTRIP
360
915
  0
DICTIONARY
  5
918
330
89C
100
AcDbDictionary
280
     1
281
     1
  3
ACAD_XREC_ROUNDTRIP
360
919
  0
DICTIONARY
  5
932
330
8A9
100
AcDbDictionary
280
     1
281
     1
  3
ACAD_XREC_ROUNDTRIP
360
933
  0
DICTIONARY
  5
920
330
8A0
100
AcDbDictionary
280
     1
281
     1
  3
ACAD_XREC_ROUNDTRIP
360
921
  0
DICTIONARY
  5
904
330
892
100
AcDbDictionary
280
     1
281
     1
  3
ACAD_XREC_ROUNDTRIP
360
905
  0
DICTIONARY
  5
906
330
893
100
AcDbDictionary
280
     1
281
     1
  3
ACAD_XREC_ROUNDTRIP
360
907
  0
DICTIONARY
  5
908
330
894
100
AcDbDictionary
280
     1
281
     1
  3
ACAD_XREC_ROUNDTRIP
360
909
  0
DICTIONARY
  5
90A
330
895
100
AcDbDictionary
280
     1
281
     1
  3
ACAD_XREC_ROUNDTRIP
360
90B
  0
DICTIONARY
  5
912
330
899
100
AcDbDictionary
280
     1
281
     1
  3
ACAD_XREC_ROUNDTRIP
360
913
  0
DICTIONARY
  5
92E
330
8A7
100
AcDbDictionary
280
     1
281
     1
  3
ACAD_XREC_ROUNDTRIP
360
92F
  0
DICTIONARY
  5
91E
330
89F
100
AcDbDictionary
280
     1
281
     1
  3
ACAD_XREC_ROUNDTRIP
360
91F
  0
DICTIONARY
  5
930
330
8A8
100
AcDbDictionary
280
     1
281
     1
  3
ACAD_XREC_ROUNDTRIP
360
931
  0
DICTIONARY
  5
916
330
89B
100
AcDbDictionary
280
     1
281
     1
  3
ACAD_XREC_ROUNDTRIP
360
917
  0
DICTIONARY
  5
92C
330
8A6
100
AcDbDictionary
280
     1
281
     1
  3
ACAD_XREC_ROUNDTRIP
360
92D
  0
DICTIONARY
  5
92A
330
8A5
100
AcDbDictionary
280
     1
281
     1
  3
ACAD_XREC_ROUNDTRIP
360
92B
  0
DICTIONARY
  5
924
330
8A2
100
AcDbDictionary
280
     1
281
     1
  3
ACAD_XREC_ROUNDTRIP
360
925
  0
DICTIONARY
  5
926
330
8A3
100
AcDbDictionary
280
     1
281
     1
  3
ACAD_XREC_ROUNDTRIP
360
927
  0
DICTIONARY
  5
91C
330
89E
100
AcDbDictionary
280
     1
281
     1
  3
ACAD_XREC_ROUNDTRIP
360
91D
  0
DICTIONARY
  5
910
330
898
100
AcDbDictionary
280
     1
281
     1
  3
ACAD_XREC_ROUNDTRIP
360
911
  0
DICTIONARY
  5
928
330
8A4
100
AcDbDictionary
280
     1
281
     1
  3
ACAD_XREC_ROUNDTRIP
360
929
  0
XRECORD
  5
939
102
{ACAD_REACTORS
330
938
102
}
330
938
100
AcDbXrecord
280
     1
102
SHADEPLOT
 70
     0
102
SHADEPLOTRESLEVEL
 70
     2
102
SHADEPLOTCUSTOMDPI
 70
   300
  0
XRECORD
  5
937
102
{ACAD_REACTORS
330
936
102
}
330
936
100
AcDbXrecord
280
     1
102
SHADEPLOT
 70
     0
102
SHADEPLOTRESLEVEL
 70
     2
102
SHADEPLOTCUSTOMDPI
 70
   300
  0
XRECORD
  5
902
102
{ACAD_REACTORS
330
882
102
}
330
882
100
AcDbXrecord
280
     1
102
MATERIAL
148
0.0
149
0.0
149
0.0
 93
        0
 94
      127
282
     0
 72
     0
 77
     0
171
     0
175
     0
179
     0
273
     0
  0
XRECORD
  5
884
102
{ACAD_REACTORS
330
882
102
}
330
882
100
AcDbXrecord
280
     1
270
     1
271
     1
  0
XRECORD
  5
883
102
{ACAD_REACTORS
330
882
102
}
330
882
100
AcDbXrecord
280
     1
270
     1
271
     1
  0
XRECORD
  5
887
102
{ACAD_REACTORS
330
882
102
}
330
882
100
AcDbXrecord
280
     1
270
     1
271
     1
  0
XRECORD
  5
886
102
{ACAD_REACTORS
330
882
102
}
330
882
100
AcDbXrecord
280
     1
270
     1
271
     1
  0
XRECORD
  5
888
102
{ACAD_REACTORS
330
882
102
}
330
882
100
AcDbXrecord
280
     1
270
     1
271
     1
  0
XRECORD
  5
885
102
{ACAD_REACTORS
330
882
102
}
330
882
100
AcDbXrecord
280
     1
270
     1
271
     1
  0
XRECORD
  5
901
102
{ACAD_REACTORS
330
87A
102
}
330
87A
100
AcDbXrecord
280
     1
102
MATERIAL
148
0.0
149
0.0
149
0.0
 93
        0
 94
      127
282
     0
 72
     0
 77
     0
171
     0
175
     0
179
     0
273
     0
  0
XRECORD
  5
87C
102
{ACAD_REACTORS
330
87A
102
}
330
87A
100
AcDbXrecord
280
     1
270
     1
271
     1
  0
XRECORD
  5
87B
102
{ACAD_REACTORS
330
87A
102
}
330
87A
100
AcDbXrecord
280
     1
270
     1
271
     1
  0
XRECORD
  5
87F
102
{ACAD_REACTORS
330
87A
102
}
330
87A
100
AcDbXrecord
280
     1
270
     1
271
     1
  0
XRECORD
  5
87E
102
{ACAD_REACTORS
330
87A
102
}
330
87A
100
AcDbXrecord
280
     1
270
     1
271
     1
  0
XRECORD
  5
880
102
{ACAD_REACTORS
330
87A
102
}
330
87A
100
AcDbXrecord
280
     1
270
     1
271
     1
  0
XRECORD
  5
87D
102
{ACAD_REACTORS
330
87A
102
}
330
87A
100
AcDbXrecord
280
     1
270
     1
271
     1
  0
XRECORD
  5
903
102
{ACAD_REACTORS
330
88A
102
}
330
88A
100
AcDbXrecord
280
     1
102
MATERIAL
148
0.0
149
0.0
149
0.0
 93
        0
 94
      127
282
     0
 72
     0
 77
     0
171
     0
175
     0
179
     0
273
     0
  0
XRECORD
  5
88C
102
{ACAD_REACTORS
330
88A
102
}
330
88A
100
AcDbXrecord
280
     1
270
     1
271
     1
  0
XRECORD
  5
88B
102
{ACAD_REACTORS
330
88A
102
}
330
88A
100
AcDbXrecord
280
     1
270
     1
271
     1
  0
XRECORD
  5
88F
102
{ACAD_REACTORS
330
88A
102
}
330
88A
100
AcDbXrecord
280
     1
270
     1
271
     1
  0
XRECORD
  5
88E
102
{ACAD_REACTORS
330
88A
102
}
330
88A
100
AcDbXrecord
280
     1
270
     1
271
     1
  0
XRECORD
  5
890
102
{ACAD_REACTORS
330
88A
102
}
330
88A
100
AcDbXrecord
280
     1
270
     1
271
     1
  0
XRECORD
  5
88D
102
{ACAD_REACTORS
330
88A
102
}
330
88A
100
AcDbXrecord
280
     1
270
     1
271
     1
  0
CELLSTYLEMAP
  5
8FE
102
{ACAD_REACTORS
330
8FD
102
}
330
8FD
100
AcDbCellStyleMap
 90
        3
300
CELLSTYLE
  1
TABLEFORMAT_BEGIN
 90
        5
170
     1
 91
        0
 92
    32768
 62
   257
 93
        1
300
CONTENTFORMAT
  1
CONTENTFORMAT_BEGIN
 90
        0
 91
        0
 92
      512
 93
        0
300

 40
0.0
140
1.0
 94
        5
 62
     0
340
8BD
144
0.25
309
CONTENTFORMAT_END
171
     0
 94
        0
309
TABLEFORMAT_END
  1
CELLSTYLE_BEGIN
 90
        1
 91
        1
300
_TITLE
309
CELLSTYLE_END
300
CELLSTYLE
  1
TABLEFORMAT_BEGIN
 90
        5
170
     1
 91
        0
 92
        0
 62
   257
 93
        1
300
CONTENTFORMAT
  1
CONTENTFORMAT_BEGIN
 90
        0
 91
        0
 92
      512
 93
        0
300

 40
0.0
140
1.0
 94
        5
 62
     0
340
8BD
144
0.18
309
CONTENTFORMAT_END
171
     0
 94
        0
309
TABLEFORMAT_END
  1
CELLSTYLE_BEGIN
 90
        2
 91
        1
300
_HEADER
309
CELLSTYLE_END
300
CELLSTYLE
  1
TABLEFORMAT_BEGIN
 90
        5
170
     1
 91
        0
 92
        0
 62
   257
 93
        1
300
CONTENTFORMAT
  1
CONTENTFORMAT_BEGIN
 90
        0
 91
        0
 92
      512
 93
        0
300

 40
0.0
140
1.0
 94
        2
 62
     0
340
8BD
144
0.18
309
CONTENTFORMAT_END
171
     0
 94
        0
309
TABLEFORMAT_END
  1
CELLSTYLE_BEGIN
 90
        3
 91
        2
300
_DATA
309
CELLSTYLE_END
  0
XRECORD
  5
934
102
{ACAD_REACTORS
330
8FD
102
}
330
8FD
100
AcDbXrecord
280
     1
102
ACAD_ROUNDTRIP_PRE2007_TABLESTYLE
 90
      512
 91
        0
  1

 92
      512
 93
        0
  2

 94
      512
 95
        0
  3

  0
XRECORD
  5
90F
102
{ACAD_REACTORS
330
90E
102
}
330
90E
100
AcDbXrecord
280
     1
102
RTVSPropertyOp0
 70
     1
102
RTVSPropertyOp1
 70
     1
102
RTVSPropertyOp2
 70
     1
102
RTVSPropertyOp3
 70
     1
102
RTVSPropertyOp4
 70
     1
102
RTVSPropertyOp5
 70
     1
102
RTVSPropertyOp6
 70
     1
102
RTVSPropertyOp7
 70
     1
102
RTVSPropertyOp8
 70
     1
102
RTVSPropertyOp9
 70
     1
102
RTVSPropertyOp10
 70
     1
102
RTVSPropertyOp11
 70
     1
102
RTVSPropertyOp12
 70
     1
102
RTVSPropertyOp13
 70
     1
102
RTVSPropertyOp14
 70
     1
102
RTVSPropertyOp15
 70
     1
102
RTVSPropertyOp16
 70
     1
102
RTVSPropertyOp17
 70
     1
102
RTVSPropertyOp18
 70
     1
102
RTVSPropertyOp19
 70
     1
102
RTVSPropertyOp20
 70
     1
102
RTVSPropertyOp21
 70
     1
102
RTVSPropertyOp22
 70
     1
102
RTVSPropertyOp23
 70
     1
102
RTVSPropertyOp24
 70
     1
102
RTVSPropertyOp25
 70
     1
102
RTVSPropertyOp26
 70
     1
102
RTVSPropertyOp27
 70
     1
102
RTVSPropertyOp28
 70
     1
102
RTVSPropertyOp29
 70
     1
102
RTVSPropertyOp30
 70
     1
102
RTVSPropertyOp31
 70
     1
102
RTVSPropertyOp32
 70
     1
  0
XRECORD
  5
90D
102
{ACAD_REACTORS
330
90C
102
}
330
90C
100
AcDbXrecord
280
     1
102
RTVSPropertyOp0
 70
     1
102
RTVSPropertyOp1
 70
     1
102
RTVSPropertyOp2
 70
     1
102
RTVSPropertyOp3
 70
     1
102
RTVSPropertyOp4
 70
     1
102
RTVSPropertyOp5
 70
     1
102
RTVSPropertyOp6
 70
     1
102
RTVSPropertyOp7
 70
     1
102
RTVSPropertyOp8
 70
     1
102
RTVSPropertyOp9
 70
     1
102
RTVSPropertyOp10
 70
     1
102
RTVSPropertyOp11
 70
     1
102
RTVSPropertyOp12
 70
     1
102
RTVSPropertyOp13
 70
     1
102
RTVSPropertyOp14
 70
     1
102
RTVSPropertyOp15
 70
     1
102
RTVSPropertyOp16
 70
     1
102
RTVSPropertyOp17
 70
     1
102
RTVSPropertyOp18
 70
     1
102
RTVSPropertyOp19
 70
     1
102
RTVSPropertyOp20
 70
     1
102
RTVSPropertyOp21
 70
     1
102
RTVSPropertyOp22
 70
     1
102
RTVSPropertyOp23
 70
     1
102
RTVSPropertyOp24
 70
     1
102
RTVSPropertyOp25
 70
     1
102
RTVSPropertyOp26
 70
     1
102
RTVSPropertyOp27
 70
     1
102
RTVSPropertyOp28
 70
     1
102
RTVSPropertyOp29
 70
     1
102
RTVSPropertyOp30
 70
     1
102
RTVSPropertyOp31
 70
     1
102
RTVSPropertyOp32
 70
     1
  0
XRECORD
  5
91B
102
{ACAD_REACTORS
330
91A
102
}
330
91A
100
AcDbXrecord
280
     1
102
RTVSPropertyOp0
 70
     1
102
RTVSPropertyOp1
 70
     1
102
RTVSPropertyOp2
 70
     1
102
RTVSPropertyOp3
 70
     1
102
RTVSPropertyOp4
 70
     1
102
RTVSPropertyOp5
 70
     1
102
RTVSPropertyOp6
 70
     1
102
RTVSPropertyOp7
 70
     1
102
RTVSPropertyOp8
 70
     1
102
RTVSPropertyOp9
 70
     1
102
RTVSPropertyOp10
 70
     1
102
RTVSPropertyOp11
 70
     1
102
RTVSPropertyOp12
 70
     1
102
RTVSPropertyOp13
 70
     1
102
RTVSPropertyOp14
 70
     1
102
RTVSPropertyOp15
 70
     1
102
RTVSPropertyOp16
 70
     1
102
RTVSPropertyOp17
 70
     1
102
RTVSPropertyOp18
 70
     1
102
RTVSPropertyOp19
 70
     1
102
RTVSPropertyOp20
 70
     1
102
RTVSPropertyOp21
 70
     1
102
RTVSPropertyOp22
 70
     1
102
RTVSPropertyOp23
 70
     1
102
RTVSPropertyOp24
 70
     1
102
RTVSPropertyOp25
 70
     1
102
RTVSPropertyOp26
 70
     1
102
RTVSPropertyOp27
 70
     1
102
RTVSPropertyOp28
 70
     1
102
RTVSPropertyOp29
 70
     1
102
RTVSPropertyOp30
 70
     1
102
RTVSPropertyOp31
 70
     1
102
RTVSPropertyOp32
 70
     1
  0
XRECORD
  5
923
102
{ACAD_REACTORS
330
922
102
}
330
922
100
AcDbXrecord
280
     1
102
RTVSPropertyOp0
 70
     1
102
RTVSPropertyOp1
 70
     1
102
RTVSPropertyOp2
 70
     1
102
RTVSPropertyOp3
 70
     1
102
RTVSPropertyOp4
 70
     1
102
RTVSPropertyOp5
 70
     1
102
RTVSPropertyOp6
 70
     1
102
RTVSPropertyOp7
 70
     1
102
RTVSPropertyOp8
 70
     1
102
RTVSPropertyOp9
 70
     1
102
RTVSPropertyOp10
 70
     1
102
RTVSPropertyOp11
 70
     1
102
RTVSPropertyOp12
 70
     1
102
RTVSPropertyOp13
 70
     1
102
RTVSPropertyOp14
 70
     1
102
RTVSPropertyOp15
 70
     1
102
RTVSPropertyOp16
 70
     1
102
RTVSPropertyOp17
 70
     1
102
RTVSPropertyOp18
 70
     1
102
RTVSPropertyOp19
 70
     1
102
RTVSPropertyOp20
 70
     1
102
RTVSPropertyOp21
 70
     1
102
RTVSPropertyOp22
 70
     1
102
RTVSPropertyOp23
 70
     1
102
RTVSPropertyOp24
 70
     1
102
RTVSPropertyOp25
 70
     1
102
RTVSPropertyOp26
 70
     1
102
RTVSPropertyOp27
 70
     1
102
RTVSPropertyOp28
 70
     1
102
RTVSPropertyOp29
 70
     1
102
RTVSPropertyOp30
 70
     1
102
RTVSPropertyOp31
 70
     1
102
RTVSPropertyOp32
 70
     1
  0
XRECORD
  5
915
102
{ACAD_REACTORS
330
914
102
}
330
914
100
AcDbXrecord
280
     1
102
RTVSPropertyOp0
 70
     1
102
RTVSPropertyOp1
 70
     1
102
RTVSPropertyOp2
 70
     1
102
RTVSPropertyOp3
 70
     1
102
RTVSPropertyOp4
 70
     1
102
RTVSPropertyOp5
 70
     1
102
RTVSPropertyOp6
 70
     1
102
RTVSPropertyOp7
 70
     1
102
RTVSPropertyOp8
 70
     1
102
RTVSPropertyOp9
 70
     1
102
RTVSPropertyOp10
 70
     1
102
RTVSPropertyOp11
 70
     1
102
RTVSPropertyOp12
 70
     1
102
RTVSPropertyOp13
 70
     1
102
RTVSPropertyOp14
 70
     1
102
RTVSPropertyOp15
 70
     1
102
RTVSPropertyOp16
 70
     1
102
RTVSPropertyOp17
 70
     1
102
RTVSPropertyOp18
 70
     1
102
RTVSPropertyOp19
 70
     1
102
RTVSPropertyOp20
 70
     1
102
RTVSPropertyOp21
 70
     1
102
RTVSPropertyOp22
 70
     1
102
RTVSPropertyOp23
 70
     1
102
RTVSPropertyOp24
 70
     1
102
RTVSPropertyOp25
 70
     1
102
RTVSPropertyOp26
 70
     1
102
RTVSPropertyOp27
 70
     1
102
RTVSPropertyOp28
 70
     1
102
RTVSPropertyOp29
 70
     1
102
RTVSPropertyOp30
 70
     1
102
RTVSPropertyOp31
 70
     1
102
RTVSPropertyOp32
 70
     1
  0
XRECORD
  5
919
102
{ACAD_REACTORS
330
918
102
}
330
918
100
AcDbXrecord
280
     1
102
RTVSPropertyOp0
 70
     1
102
RTVSPropertyOp1
 70
     1
102
RTVSPropertyOp2
 70
     1
102
RTVSPropertyOp3
 70
     1
102
RTVSPropertyOp4
 70
     1
102
RTVSPropertyOp5
 70
     1
102
RTVSPropertyOp6
 70
     1
102
RTVSPropertyOp7
 70
     1
102
RTVSPropertyOp8
 70
     1
102
RTVSPropertyOp9
 70
     1
102
RTVSPropertyOp10
 70
     1
102
RTVSPropertyOp11
 70
     1
102
RTVSPropertyOp12
 70
     1
102
RTVSPropertyOp13
 70
     1
102
RTVSPropertyOp14
 70
     1
102
RTVSPropertyOp15
 70
     1
102
RTVSPropertyOp16
 70
     1
102
RTVSPropertyOp17
 70
     1
102
RTVSPropertyOp18
 70
     1
102
RTVSPropertyOp19
 70
     1
102
RTVSPropertyOp20
 70
     1
102
RTVSPropertyOp21
 70
     1
102
RTVSPropertyOp22
 70
     1
102
RTVSPropertyOp23
 70
     1
102
RTVSPropertyOp24
 70
     1
102
RTVSPropertyOp25
 70
     1
102
RTVSPropertyOp26
 70
     1
102
RTVSPropertyOp27
 70
     1
102
RTVSPropertyOp28
 70
     1
102
RTVSPropertyOp29
 70
     1
102
RTVSPropertyOp30
 70
     1
102
RTVSPropertyOp31
 70
     1
102
RTVSPropertyOp32
 70
     1
  0
XRECORD
  5
933
102
{ACAD_REACTORS
330
932
102
}
330
932
100
AcDbXrecord
280
     1
102
RTVSPropertyOp0
 70
     0
102
RTVSPropertyOp1
 70
     0
102
RTVSPropertyOp2
 70
     0
102
RTVSPropertyOp3
 70
     0
102
RTVSPropertyOp4
 70
     0
102
RTVSPropertyOp5
 70
     0
102
RTVSPropertyOp6
 70
     0
102
RTVSPropertyOp7
 70
     0
102
RTVSPropertyOp8
 70
     0
102
RTVSPropertyOp9
 70
     0
102
RTVSPropertyOp10
 70
     0
102
RTVSPropertyOp11
 70
     0
102
RTVSPropertyOp12
 70
     0
102
RTVSPropertyOp13
 70
     0
102
RTVSPropertyOp14
 70
     2
102
RTVSPropertyOp15
 70
     0
102
RTVSPropertyOp16
 70
     0
102
RTVSPropertyOp17
 70
     0
102
RTVSPropertyOp18
 70
     0
102
RTVSPropertyOp19
 70
     0
102
RTVSPropertyOp20
 70
     0
102
RTVSPropertyOp21
 70
     0
102
RTVSPropertyOp22
 70
     0
102
RTVSPropertyOp23
 70
     0
102
RTVSPropertyOp24
 70
     0
102
RTVSPropertyOp25
 70
     0
102
RTVSPropertyOp26
 70
     0
102
RTVSPropertyOp27
 70
     0
102
RTVSPropertyOp28
 70
     0
102
RTVSPropertyOp29
 70
     0
102
RTVSPropertyOp30
 70
     0
102
RTVSPropertyOp31
 70
     0
102
RTVSPropertyOp32
 70
     0
  0
XRECORD
  5
921
102
{ACAD_REACTORS
330
920
102
}
330
920
100
AcDbXrecord
280
     1
102
RTVSPropertyOp0
 70
     1
102
RTVSPropertyOp1
 70
     1
102
RTVSPropertyOp2
 70
     1
102
RTVSPropertyOp3
 70
     1
102
RTVSPropertyOp4
 70
     1
102
RTVSPropertyOp5
 70
     1
102
RTVSPropertyOp6
 70
     1
102
RTVSPropertyOp7
 70
     1
102
RTVSPropertyOp8
 70
     1
102
RTVSPropertyOp9
 70
     1
102
RTVSPropertyOp10
 70
     1
102
RTVSPropertyOp11
 70
     1
102
RTVSPropertyOp12
 70
     1
102
RTVSPropertyOp13
 70
     1
102
RTVSPropertyOp14
 70
     1
102
RTVSPropertyOp15
 70
     1
102
RTVSPropertyOp16
 70
     1
102
RTVSPropertyOp17
 70
     1
102
RTVSPropertyOp18
 70
     1
102
RTVSPropertyOp19
 70
     1
102
RTVSPropertyOp20
 70
     1
102
RTVSPropertyOp21
 70
     1
102
RTVSPropertyOp22
 70
     1
102
RTVSPropertyOp23
 70
     1
102
RTVSPropertyOp24
 70
     1
102
RTVSPropertyOp25
 70
     1
102
RTVSPropertyOp26
 70
     1
102
RTVSPropertyOp27
 70
     1
102
RTVSPropertyOp28
 70
     1
102
RTVSPropertyOp29
 70
     1
102
RTVSPropertyOp30
 70
     1
102
RTVSPropertyOp31
 70
     1
102
RTVSPropertyOp32
 70
     1
  0
XRECORD
  5
905
102
{ACAD_REACTORS
330
904
102
}
330
904
100
AcDbXrecord
280
     1
102
RTVSPropertyOp0
 70
     1
102
RTVSPropertyOp1
 70
     1
102
RTVSPropertyOp2
 70
     1
102
RTVSPropertyOp3
 70
     1
102
RTVSPropertyOp4
 70
     1
102
RTVSPropertyOp5
 70
     1
102
RTVSPropertyOp6
 70
     1
102
RTVSPropertyOp7
 70
     1
102
RTVSPropertyOp8
 70
     1
102
RTVSPropertyOp9
 70
     1
102
RTVSPropertyOp10
 70
     1
102
RTVSPropertyOp11
 70
     1
102
RTVSPropertyOp12
 70
     1
102
RTVSPropertyOp13
 70
     1
102
RTVSPropertyOp14
 70
     1
102
RTVSPropertyOp15
 70
     1
102
RTVSPropertyOp16
 70
     1
102
RTVSPropertyOp17
 70
     1
102
RTVSPropertyOp18
 70
     1
102
RTVSPropertyOp19
 70
     1
102
RTVSPropertyOp20
 70
     1
102
RTVSPropertyOp21
 70
     1
102
RTVSPropertyOp22
 70
     1
102
RTVSPropertyOp23
 70
     1
102
RTVSPropertyOp24
 70
     1
102
RTVSPropertyOp25
 70
     1
102
RTVSPropertyOp26
 70
     1
102
RTVSPropertyOp27
 70
     1
102
RTVSPropertyOp28
 70
     1
102
RTVSPropertyOp29
 70
     1
102
RTVSPropertyOp30
 70
     1
102
RTVSPropertyOp31
 70
     1
102
RTVSPropertyOp32
 70
     1
  0
XRECORD
  5
907
102
{ACAD_REACTORS
330
906
102
}
330
906
100
AcDbXrecord
280
     1
102
RTVSPropertyOp0
 70
     1
102
RTVSPropertyOp1
 70
     1
102
RTVSPropertyOp2
 70
     1
102
RTVSPropertyOp3
 70
     1
102
RTVSPropertyOp4
 70
     1
102
RTVSPropertyOp5
 70
     1
102
RTVSPropertyOp6
 70
     1
102
RTVSPropertyOp7
 70
     1
102
RTVSPropertyOp8
 70
     1
102
RTVSPropertyOp9
 70
     1
102
RTVSPropertyOp10
 70
     1
102
RTVSPropertyOp11
 70
     1
102
RTVSPropertyOp12
 70
     1
102
RTVSPropertyOp13
 70
     1
102
RTVSPropertyOp14
 70
     1
102
RTVSPropertyOp15
 70
     1
102
RTVSPropertyOp16
 70
     1
102
RTVSPropertyOp17
 70
     1
102
RTVSPropertyOp18
 70
     1
102
RTVSPropertyOp19
 70
     1
102
RTVSPropertyOp20
 70
     1
102
RTVSPropertyOp21
 70
     1
102
RTVSPropertyOp22
 70
     1
102
RTVSPropertyOp23
 70
     1
102
RTVSPropertyOp24
 70
     1
102
RTVSPropertyOp25
 70
     1
102
RTVSPropertyOp26
 70
     1
102
RTVSPropertyOp27
 70
     1
102
RTVSPropertyOp28
 70
     1
102
RTVSPropertyOp29
 70
     1
102
RTVSPropertyOp30
 70
     1
102
RTVSPropertyOp31
 70
     1
102
RTVSPropertyOp32
 70
     1
  0
XRECORD
  5
909
102
{ACAD_REACTORS
330
908
102
}
330
908
100
AcDbXrecord
280
     1
102
RTVSPropertyOp0
 70
     1
102
RTVSPropertyOp1
 70
     1
102
RTVSPropertyOp2
 70
     1
102
RTVSPropertyOp3
 70
     1
102
RTVSPropertyOp4
 70
     1
102
RTVSPropertyOp5
 70
     1
102
RTVSPropertyOp6
 70
     1
102
RTVSPropertyOp7
 70
     1
102
RTVSPropertyOp8
 70
     1
102
RTVSPropertyOp9
 70
     1
102
RTVSPropertyOp10
 70
     1
102
RTVSPropertyOp11
 70
     1
102
RTVSPropertyOp12
 70
     1
102
RTVSPropertyOp13
 70
     1
102
RTVSPropertyOp14
 70
     1
102
RTVSPropertyOp15
 70
     1
102
RTVSPropertyOp16
 70
     1
102
RTVSPropertyOp17
 70
     1
102
RTVSPropertyOp18
 70
     1
102
RTVSPropertyOp19
 70
     1
102
RTVSPropertyOp20
 70
     1
102
RTVSPropertyOp21
 70
     1
102
RTVSPropertyOp22
 70
     1
102
RTVSPropertyOp23
 70
     1
102
RTVSPropertyOp24
 70
     1
102
RTVSPropertyOp25
 70
     1
102
RTVSPropertyOp26
 70
     1
102
RTVSPropertyOp27
 70
     1
102
RTVSPropertyOp28
 70
     1
102
RTVSPropertyOp29
 70
     1
102
RTVSPropertyOp30
 70
     1
102
RTVSPropertyOp31
 70
     1
102
RTVSPropertyOp32
 70
     1
  0
XRECORD
  5
90B
102
{ACAD_REACTORS
330
90A
102
}
330
90A
100
AcDbXrecord
280
     1
102
RTVSPropertyOp0
 70
     1
102
RTVSPropertyOp1
 70
     1
102
RTVSPropertyOp2
 70
     1
102
RTVSPropertyOp3
 70
     1
102
RTVSPropertyOp4
 70
     1
102
RTVSPropertyOp5
 70
     1
102
RTVSPropertyOp6
 70
     1
102
RTVSPropertyOp7
 70
     1
102
RTVSPropertyOp8
 70
     1
102
RTVSPropertyOp9
 70
     1
102
RTVSPropertyOp10
 70
     1
102
RTVSPropertyOp11
 70
     1
102
RTVSPropertyOp12
 70
     1
102
RTVSPropertyOp13
 70
     1
102
RTVSPropertyOp14
 70
     1
102
RTVSPropertyOp15
 70
     1
102
RTVSPropertyOp16
 70
     1
102
RTVSPropertyOp17
 70
     1
102
RTVSPropertyOp18
 70
     1
102
RTVSPropertyOp19
 70
     1
102
RTVSPropertyOp20
 70
     1
102
RTVSPropertyOp21
 70
     1
102
RTVSPropertyOp22
 70
     1
102
RTVSPropertyOp23
 70
     1
102
RTVSPropertyOp24
 70
     1
102
RTVSPropertyOp25
 70
     1
102
RTVSPropertyOp26
 70
     1
102
RTVSPropertyOp27
 70
     1
102
RTVSPropertyOp28
 70
     1
102
RTVSPropertyOp29
 70
     1
102
RTVSPropertyOp30
 70
     1
102
RTVSPropertyOp31
 70
     1
102
RTVSPropertyOp32
 70
     1
  0
XRECORD
  5
913
102
{ACAD_REACTORS
330
912
102
}
330
912
100
AcDbXrecord
280
     1
102
RTVSPropertyOp0
 70
     1
102
RTVSPropertyOp1
 70
     1
102
RTVSPropertyOp2
 70
     1
102
RTVSPropertyOp3
 70
     1
102
RTVSPropertyOp4
 70
     1
102
RTVSPropertyOp5
 70
     1
102
RTVSPropertyOp6
 70
     1
102
RTVSPropertyOp7
 70
     1
102
RTVSPropertyOp8
 70
     1
102
RTVSPropertyOp9
 70
     1
102
RTVSPropertyOp10
 70
     1
102
RTVSPropertyOp11
 70
     1
102
RTVSPropertyOp12
 70
     1
102
RTVSPropertyOp13
 70
     1
102
RTVSPropertyOp14
 70
     1
102
RTVSPropertyOp15
 70
     1
102
RTVSPropertyOp16
 70
     1
102
RTVSPropertyOp17
 70
     1
102
RTVSPropertyOp18
 70
     1
102
RTVSPropertyOp19
 70
     1
102
RTVSPropertyOp20
 70
     1
102
RTVSPropertyOp21
 70
     1
102
RTVSPropertyOp22
 70
     1
102
RTVSPropertyOp23
 70
     1
102
RTVSPropertyOp24
 70
     1
102
RTVSPropertyOp25
 70
     1
102
RTVSPropertyOp26
 70
     1
102
RTVSPropertyOp27
 70
     1
102
RTVSPropertyOp28
 70
     1
102
RTVSPropertyOp29
 70
     1
102
RTVSPropertyOp30
 70
     1
102
RTVSPropertyOp31
 70
     1
102
RTVSPropertyOp32
 70
     1
  0
XRECORD
  5
92F
102
{ACAD_REACTORS
330
92E
102
}
330
92E
100
AcDbXrecord
280
     1
102
RTVSPropertyOp0
 70
     0
102
RTVSPropertyOp1
 70
     0
102
RTVSPropertyOp2
 70
     0
102
RTVSPropertyOp3
 70
     0
102
RTVSPropertyOp4
 70
     0
102
RTVSPropertyOp5
 70
     0
102
RTVSPropertyOp6
 70
     0
102
RTVSPropertyOp7
 70
     0
102
RTVSPropertyOp8
 70
     0
102
RTVSPropertyOp9
 70
     0
102
RTVSPropertyOp10
 70
     0
102
RTVSPropertyOp11
 70
     0
102
RTVSPropertyOp12
 70
     0
102
RTVSPropertyOp13
 70
     0
102
RTVSPropertyOp14
 70
     2
102
RTVSPropertyOp15
 70
     0
102
RTVSPropertyOp16
 70
     0
102
RTVSPropertyOp17
 70
     0
102
RTVSPropertyOp18
 70
     0
102
RTVSPropertyOp19
 70
     0
102
RTVSPropertyOp20
 70
     0
102
RTVSPropertyOp21
 70
     0
102
RTVSPropertyOp22
 70
     0
102
RTVSPropertyOp23
 70
     0
102
RTVSPropertyOp24
 70
     0
102
RTVSPropertyOp25
 70
     0
102
RTVSPropertyOp26
 70
     0
102
RTVSPropertyOp27
 70
     0
102
RTVSPropertyOp28
 70
     0
102
RTVSPropertyOp29
 70
     0
102
RTVSPropertyOp30
 70
     0
102
RTVSPropertyOp31
 70
     0
102
RTVSPropertyOp32
 70
     0
  0
XRECORD
  5
91F
102
{ACAD_REACTORS
330
91E
102
}
330
91E
100
AcDbXrecord
280
     1
102
RTVSPropertyOp0
 70
     1
102
RTVSPropertyOp1
 70
     1
102
RTVSPropertyOp2
 70
     1
102
RTVSPropertyOp3
 70
     1
102
RTVSPropertyOp4
 70
     1
102
RTVSPropertyOp5
 70
     1
102
RTVSPropertyOp6
 70
     1
102
RTVSPropertyOp7
 70
     1
102
RTVSPropertyOp8
 70
     1
102
RTVSPropertyOp9
 70
     1
102
RTVSPropertyOp10
 70
     1
102
RTVSPropertyOp11
 70
     1
102
RTVSPropertyOp12
 70
     1
102
RTVSPropertyOp13
 70
     1
102
RTVSPropertyOp14
 70
     1
102
RTVSPropertyOp15
 70
     1
102
RTVSPropertyOp16
 70
     1
102
RTVSPropertyOp17
 70
     1
102
RTVSPropertyOp18
 70
     1
102
RTVSPropertyOp19
 70
     1
102
RTVSPropertyOp20
 70
     1
102
RTVSPropertyOp21
 70
     1
102
RTVSPropertyOp22
 70
     1
102
RTVSPropertyOp23
 70
     1
102
RTVSPropertyOp24
 70
     1
102
RTVSPropertyOp25
 70
     1
102
RTVSPropertyOp26
 70
     1
102
RTVSPropertyOp27
 70
     1
102
RTVSPropertyOp28
 70
     1
102
RTVSPropertyOp29
 70
     1
102
RTVSPropertyOp30
 70
     1
102
RTVSPropertyOp31
 70
     1
102
RTVSPropertyOp32
 70
     1
  0
XRECORD
  5
931
102
{ACAD_REACTORS
330
930
102
}
330
930
100
AcDbXrecord
280
     1
102
RTVSPropertyOp0
 70
     0
102
RTVSPropertyOp1
 70
     0
102
RTVSPropertyOp2
 70
     0
102
RTVSPropertyOp3
 70
     0
102
RTVSPropertyOp4
 70
     0
102
RTVSPropertyOp5
 70
     0
102
RTVSPropertyOp6
 70
     0
102
RTVSPropertyOp7
 70
     0
102
RTVSPropertyOp8
 70
     0
102
RTVSPropertyOp9
 70
     0
102
RTVSPropertyOp10
 70
     0
102
RTVSPropertyOp11
 70
     0
102
RTVSPropertyOp12
 70
     0
102
RTVSPropertyOp13
 70
     0
102
RTVSPropertyOp14
 70
     2
102
RTVSPropertyOp15
 70
     0
102
RTVSPropertyOp16
 70
     0
102
RTVSPropertyOp17
 70
     0
102
RTVSPropertyOp18
 70
     0
102
RTVSPropertyOp19
 70
     0
102
RTVSPropertyOp20
 70
     0
102
RTVSPropertyOp21
 70
     0
102
RTVSPropertyOp22
 70
     0
102
RTVSPropertyOp23
 70
     0
102
RTVSPropertyOp24
 70
     0
102
RTVSPropertyOp25
 70
     0
102
RTVSPropertyOp26
 70
     0
102
RTVSPropertyOp27
 70
     0
102
RTVSPropertyOp28
 70
     0
102
RTVSPropertyOp29
 70
     0
102
RTVSPropertyOp30
 70
     0
102
RTVSPropertyOp31
 70
     0
102
RTVSPropertyOp32
 70
     0
  0
XRECORD
  5
917
102
{ACAD_REACTORS
330
916
102
}
330
916
100
AcDbXrecord
280
     1
102
RTVSPropertyOp0
 70
     1
102
RTVSPropertyOp1
 70
     1
102
RTVSPropertyOp2
 70
     1
102
RTVSPropertyOp3
 70
     1
102
RTVSPropertyOp4
 70
     1
102
RTVSPropertyOp5
 70
     1
102
RTVSPropertyOp6
 70
     1
102
RTVSPropertyOp7
 70
     1
102
RTVSPropertyOp8
 70
     1
102
RTVSPropertyOp9
 70
     1
102
RTVSPropertyOp10
 70
     1
102
RTVSPropertyOp11
 70
     1
102
RTVSPropertyOp12
 70
     1
102
RTVSPropertyOp13
 70
     1
102
RTVSPropertyOp14
 70
     1
102
RTVSPropertyOp15
 70
     1
102
RTVSPropertyOp16
 70
     1
102
RTVSPropertyOp17
 70
     1
102
RTVSPropertyOp18
 70
     1
102
RTVSPropertyOp19
 70
     1
102
RTVSPropertyOp20
 70
     1
102
RTVSPropertyOp21
 70
     1
102
RTVSPropertyOp22
 70
     1
102
RTVSPropertyOp23
 70
     1
102
RTVSPropertyOp24
 70
     1
102
RTVSPropertyOp25
 70
     1
102
RTVSPropertyOp26
 70
     1
102
RTVSPropertyOp27
 70
     1
102
RTVSPropertyOp28
 70
     1
102
RTVSPropertyOp29
 70
     1
102
RTVSPropertyOp30
 70
     1
102
RTVSPropertyOp31
 70
     1
102
RTVSPropertyOp32
 70
     1
  0
XRECORD
  5
92D
102
{ACAD_REACTORS
330
92C
102
}
330
92C
100
AcDbXrecord
280
     1
102
RTVSPropertyOp0
 70
     1
102
RTVSPropertyOp1
 70
     1
102
RTVSPropertyOp2
 70
     1
102
RTVSPropertyOp3
 70
     1
102
RTVSPropertyOp4
 70
     1
102
RTVSPropertyOp5
 70
     1
102
RTVSPropertyOp6
 70
     1
102
RTVSPropertyOp7
 70
     1
102
RTVSPropertyOp8
 70
     1
102
RTVSPropertyOp9
 70
     1
102
RTVSPropertyOp10
 70
     1
102
RTVSPropertyOp11
 70
     1
102
RTVSPropertyOp12
 70
     1
102
RTVSPropertyOp13
 70
     1
102
RTVSPropertyOp14
 70
     1
102
RTVSPropertyOp15
 70
     1
102
RTVSPropertyOp16
 70
     1
102
RTVSPropertyOp17
 70
     1
102
RTVSPropertyOp18
 70
     1
102
RTVSPropertyOp19
 70
     1
102
RTVSPropertyOp20
 70
     1
102
RTVSPropertyOp21
 70
     1
102
RTVSPropertyOp22
 70
     1
102
RTVSPropertyOp23
 70
     1
102
RTVSPropertyOp24
 70
     1
102
RTVSPropertyOp25
 70
     1
102
RTVSPropertyOp26
 70
     1
102
RTVSPropertyOp27
 70
     1
102
RTVSPropertyOp28
 70
     1
102
RTVSPropertyOp29
 70
     1
102
RTVSPropertyOp30
 70
     1
102
RTVSPropertyOp31
 70
     1
102
RTVSPropertyOp32
 70
     1
  0
XRECORD
  5
92B
102
{ACAD_REACTORS
330
92A
102
}
330
92A
100
AcDbXrecord
280
     1
102
RTVSPropertyOp0
 70
     1
102
RTVSPropertyOp1
 70
     1
102
RTVSPropertyOp2
 70
     1
102
RTVSPropertyOp3
 70
     1
102
RTVSPropertyOp4
 70
     1
102
RTVSPropertyOp5
 70
     1
102
RTVSPropertyOp6
 70
     1
102
RTVSPropertyOp7
 70
     1
102
RTVSPropertyOp8
 70
     1
102
RTVSPropertyOp9
 70
     1
102
RTVSPropertyOp10
 70
     1
102
RTVSPropertyOp11
 70
     1
102
RTVSPropertyOp12
 70
     1
102
RTVSPropertyOp13
 70
     1
102
RTVSPropertyOp14
 70
     1
102
RTVSPropertyOp15
 70
     1
102
RTVSPropertyOp16
 70
     1
102
RTVSPropertyOp17
 70
     1
102
RTVSPropertyOp18
 70
     1
102
RTVSPropertyOp19
 70
     1
102
RTVSPropertyOp20
 70
     1
102
RTVSPropertyOp21
 70
     1
102
RTVSPropertyOp22
 70
     1
102
RTVSPropertyOp23
 70
     1
102
RTVSPropertyOp24
 70
     1
102
RTVSPropertyOp25
 70
     1
102
RTVSPropertyOp26
 70
     1
102
RTVSPropertyOp27
 70
     1
102
RTVSPropertyOp28
 70
     1
102
RTVSPropertyOp29
 70
     1
102
RTVSPropertyOp30
 70
     1
102
RTVSPropertyOp31
 70
     1
102
RTVSPropertyOp32
 70
     1
  0
XRECORD
  5
925
102
{ACAD_REACTORS
330
924
102
}
330
924
100
AcDbXrecord
280
     1
102
RTVSPropertyOp0
 70
     1
102
RTVSPropertyOp1
 70
     1
102
RTVSPropertyOp2
 70
     1
102
RTVSPropertyOp3
 70
     1
102
RTVSPropertyOp4
 70
     1
102
RTVSPropertyOp5
 70
     1
102
RTVSPropertyOp6
 70
     1
102
RTVSPropertyOp7
 70
     1
102
RTVSPropertyOp8
 70
     1
102
RTVSPropertyOp9
 70
     1
102
RTVSPropertyOp10
 70
     1
102
RTVSPropertyOp11
 70
     1
102
RTVSPropertyOp12
 70
     1
102
RTVSPropertyOp13
 70
     1
102
RTVSPropertyOp14
 70
     1
102
RTVSPropertyOp15
 70
     1
102
RTVSPropertyOp16
 70
     1
102
RTVSPropertyOp17
 70
     1
102
RTVSPropertyOp18
 70
     1
102
RTVSPropertyOp19
 70
     1
102
RTVSPropertyOp20
 70
     1
102
RTVSPropertyOp21
 70
     1
102
RTVSPropertyOp22
 70
     1
102
RTVSPropertyOp23
 70
     1
102
RTVSPropertyOp24
 70
     1
102
RTVSPropertyOp25
 70
     1
102
RTVSPropertyOp26
 70
     1
102
RTVSPropertyOp27
 70
     1
102
RTVSPropertyOp28
 70
     1
102
RTVSPropertyOp29
 70
     1
102
RTVSPropertyOp30
 70
     1
102
RTVSPropertyOp31
 70
     1
102
RTVSPropertyOp32
 70
     1
  0
XRECORD
  5
927
102
{ACAD_REACTORS
330
926
102
}
330
926
100
AcDbXrecord
280
     1
102
RTVSPropertyOp0
 70
     1
102
RTVSPropertyOp1
 70
     1
102
RTVSPropertyOp2
 70
     1
102
RTVSPropertyOp3
 70
     1
102
RTVSPropertyOp4
 70
     1
102
RTVSPropertyOp5
 70
     1
102
RTVSPropertyOp6
 70
     1
102
RTVSPropertyOp7
 70
     1
102
RTVSPropertyOp8
 70
     1
102
RTVSPropertyOp9
 70
     1
102
RTVSPropertyOp10
 70
     1
102
RTVSPropertyOp11
 70
     1
102
RTVSPropertyOp12
 70
     1
102
RTVSPropertyOp13
 70
     1
102
RTVSPropertyOp14
 70
     1
102
RTVSPropertyOp15
 70
     1
102
RTVSPropertyOp16
 70
     1
102
RTVSPropertyOp17
 70
     1
102
RTVSPropertyOp18
 70
     1
102
RTVSPropertyOp19
 70
     1
102
RTVSPropertyOp20
 70
     1
102
RTVSPropertyOp21
 70
     1
102
RTVSPropertyOp22
 70
     1
102
RTVSPropertyOp23
 70
     1
102
RTVSPropertyOp24
 70
     1
102
RTVSPropertyOp25
 70
     1
102
RTVSPropertyOp26
 70
     1
102
RTVSPropertyOp27
 70
     1
102
RTVSPropertyOp28
 70
     1
102
RTVSPropertyOp29
 70
     1
102
RTVSPropertyOp30
 70
     1
102
RTVSPropertyOp31
 70
     1
102
RTVSPropertyOp32
 70
     1
  0
XRECORD
  5
91D
102
{ACAD_REACTORS
330
91C
102
}
330
91C
100
AcDbXrecord
280
     1
102
RTVSPropertyOp0
 70
     1
102
RTVSPropertyOp1
 70
     1
102
RTVSPropertyOp2
 70
     1
102
RTVSPropertyOp3
 70
     1
102
RTVSPropertyOp4
 70
     1
102
RTVSPropertyOp5
 70
     1
102
RTVSPropertyOp6
 70
     1
102
RTVSPropertyOp7
 70
     1
102
RTVSPropertyOp8
 70
     1
102
RTVSPropertyOp9
 70
     1
102
RTVSPropertyOp10
 70
     1
102
RTVSPropertyOp11
 70
     1
102
RTVSPropertyOp12
 70
     1
102
RTVSPropertyOp13
 70
     1
102
RTVSPropertyOp14
 70
     1
102
RTVSPropertyOp15
 70
     1
102
RTVSPropertyOp16
 70
     1
102
RTVSPropertyOp17
 70
     1
102
RTVSPropertyOp18
 70
     1
102
RTVSPropertyOp19
 70
     1
102
RTVSPropertyOp20
 70
     1
102
RTVSPropertyOp21
 70
     1
102
RTVSPropertyOp22
 70
     1
102
RTVSPropertyOp23
 70
     1
102
RTVSPropertyOp24
 70
     1
102
RTVSPropertyOp25
 70
     1
102
RTVSPropertyOp26
 70
     1
102
RTVSPropertyOp27
 70
     1
102
RTVSPropertyOp28
 70
     1
102
RTVSPropertyOp29
 70
     1
102
RTVSPropertyOp30
 70
     1
102
RTVSPropertyOp31
 70
     1
102
RTVSPropertyOp32
 70
     1
  0
XRECORD
  5
911
102
{ACAD_REACTORS
330
910
102
}
330
910
100
AcDbXrecord
280
     1
102
RTVSPropertyOp0
 70
     1
102
RTVSPropertyOp1
 70
     1
102
RTVSPropertyOp2
 70
     1
102
RTVSPropertyOp3
 70
     1
102
RTVSPropertyOp4
 70
     1
102
RTVSPropertyOp5
 70
     1
102
RTVSPropertyOp6
 70
     1
102
RTVSPropertyOp7
 70
     1
102
RTVSPropertyOp8
 70
     1
102
RTVSPropertyOp9
 70
     1
102
RTVSPropertyOp10
 70
     1
102
RTVSPropertyOp11
 70
     1
102
RTVSPropertyOp12
 70
     1
102
RTVSPropertyOp13
 70
     1
102
RTVSPropertyOp14
 70
     1
102
RTVSPropertyOp15
 70
     1
102
RTVSPropertyOp16
 70
     1
102
RTVSPropertyOp17
 70
     1
102
RTVSPropertyOp18
 70
     1
102
RTVSPropertyOp19
 70
     1
102
RTVSPropertyOp20
 70
     1
102
RTVSPropertyOp21
 70
     1
102
RTVSPropertyOp22
 70
     1
102
RTVSPropertyOp23
 70
     1
102
RTVSPropertyOp24
 70
     1
102
RTVSPropertyOp25
 70
     1
102
RTVSPropertyOp26
 70
     1
102
RTVSPropertyOp27
 70
     1
102
RTVSPropertyOp28
 70
     1
102
RTVSPropertyOp29
 70
     1
102
RTVSPropertyOp30
 70
     1
102
RTVSPropertyOp31
 70
     1
102
RTVSPropertyOp32
 70
     1
  0
XRECORD
  5
929
102
{ACAD_REACTORS
330
928
102
}
330
928
100
AcDbXrecord
280
     1
102
RTVSPropertyOp0
 70
     1
102
RTVSPropertyOp1
 70
     1
102
RTVSPropertyOp2
 70
     1
102
RTVSPropertyOp3
 70
     1
102
RTVSPropertyOp4
 70
     1
102
RTVSPropertyOp5
 70
     1
102
RTVSPropertyOp6
 70
     1
102
RTVSPropertyOp7
 70
     1
102
RTVSPropertyOp8
 70
     1
102
RTVSPropertyOp9
 70
     1
102
RTVSPropertyOp10
 70
     1
102
RTVSPropertyOp11
 70
     1
102
RTVSPropertyOp12
 70
     1
102
RTVSPropertyOp13
 70
     1
102
RTVSPropertyOp14
 70
     1
102
RTVSPropertyOp15
 70
     1
102
RTVSPropertyOp16
 70
     1
102
RTVSPropertyOp17
 70
     1
102
RTVSPropertyOp18
 70
     1
102
RTVSPropertyOp19
 70
     1
102
RTVSPropertyOp20
 70
     1
102
RTVSPropertyOp21
 70
     1
102
RTVSPropertyOp22
 70
     1
102
RTVSPropertyOp23
 70
     1
102
RTVSPropertyOp24
 70
     1
102
RTVSPropertyOp25
 70
     1
102
RTVSPropertyOp26
 70
     1
102
RTVSPropertyOp27
 70
     1
102
RTVSPropertyOp28
 70
     1
102
RTVSPropertyOp29
 70
     1
102
RTVSPropertyOp30
 70
     1
102
RTVSPropertyOp31
 70
     1
102
RTVSPropertyOp32
 70
     1
  0
ENDSEC
  0
EOF
