  0
SECTION
  2
HEADER
  9
$ACADVER
  1
AC1009
  9
$INSBASE
 10
0.0
 20
0.0
 30
0.0
  9
$EXTMIN
 10
49.981691723202402
 20
11.90643626254314
 30
-0.0015258207003583
  9
$EXTMAX
 10
950.02899391114363
 20
1350.04120187373
 30
0.0000000349246037
  9
$LIMMIN
 10
0.0
 20
0.0
  9
$LIMMAX
 10
0.0
 20
0.0
  9
$ORTHOMODE
 70
     0
  9
$REGENMODE
 70
     1
  9
$FILLMODE
 70
     1
  9
$QTEXTMODE
 70
     0
  9
$MIRRTEXT
 70
     1
  9
$DRAGMODE
 70
     2
  9
$LTSCALE
 40
25.399999999999999
  9
$OSMODE
 70
   231
  9
$ATTMODE
 70
     1
  9
$TEXTSIZE
 40
0.0
  9
$TRACEWID
 40
1.0
  9
$TEXTSTYLE
  7
STANDARD
  9
$CLAYER
  8
DATA
  9
$CELTYPE
  6
BYLAYER
  9
$CECOLOR
 62
   256
  9
$DIMSCALE
 40
1.0
  9
$DIMASZ
 40
0.18
  9
$DIMEXO
 40
0.0625
  9
$DIMDLI
 40
0.38
  9
$DIMRND
 40
0.0
  9
$DIMDLE
 40
0.0
  9
$DIMEXE
 40
0.18
  9
$DIMTP
 40
0.0
  9
$DIMTM
 40
0.0
  9
$DIMTXT
 40
0.18
  9
$DIMCEN
 40
0.09
  9
$DIMTSZ
 40
0.0
  9
$DIMTOL
 70
     0
  9
$DIMLIM
 70
     0
  9
$DIMTIH
 70
     1
  9
$DIMTOH
 70
     1
  9
$DIMSE1
 70
     0
  9
$DIMSE2
 70
     0
  9
$DIMTAD
 70
     0
  9
$DIMZIN
 70
     0
  9
$DIMBLK
  1

  9
$DIMASO
 70
     1
  9
$DIMSHO
 70
     1
  9
$DIMPOST
  1

  9
$DIMAPOST
  1

  9
$DIMALT
 70
     0
  9
$DIMALTD
 70
     2
  9
$DIMALTF
 40
25.399999999999999
  9
$DIMLFAC
 40
1.0
  9
$DIMTOFL
 70
     0
  9
$DIMTVP
 40
0.0
  9
$DIMTIX
 70
     0
  9
$DIMSOXD
 70
     0
  9
$DIMSAH
 70
     0
  9
$DIMBLK1
  1

  9
$DIMBLK2
  1

  9
$DIMSTYLE
  2
STANDARD
  9
$DIMCLRD
 70
     0
  9
$DIMCLRE
 70
     0
  9
$DIMCLRT
 70
     0
  9
$DIMTFAC
 40
1.0
  9
$DIMGAP
 40
0.09
  9
$LUNITS
 70
     2
  9
$LUPREC
 70
     4
  9
$SKETCHINC
 40
0.1
  9
$FILLETRAD
 40
0.0
  9
$AUNITS
 70
     0
  9
$AUPREC
 70
     0
  9
$MENU
  1
acad
  9
$ELEVATION
 40
0.0
  9
$PELEVATION
 40
0.0
  9
$THICKNESS
 40
0.0
  9
$LIMCHECK
 70
     0
  9
$BLIPMODE
 70
     0
  9
$CHAMFERA
 40
0.0
  9
$CHAMFERB
 40
0.0
  9
$SKPOLY
 70
     0
  9
$TDCREATE
 40
2455314.5473842588
  9
$TDUPDATE
 40
2455314.5503028361
  9
$TDINDWG
 40
0.0004708218
  9
$TDUSRTIMER
 40
0.0004673843
  9
$USRTIMER
 70
     1
  9
$ANGBASE
 50
0.0
  9
$ANGDIR
 70
     0
  9
$PDMODE
 70
     1
  9
$PDSIZE
 40
-2.0
  9
$PLINEWID
 40
0.0
  9
$COORDS
 70
     0
  9
$SPLFRAME
 70
     0
  9
$SPLINETYPE
 70
     6
  9
$SPLINESEGS
 70
     8
  9
$ATTDIA
 70
     0
  9
$ATTREQ
 70
     1
  9
$HANDLING
 70
     1
  9
$HANDSEED
  5
4D6
  9
$SURFTAB1
 70
     6
  9
$SURFTAB2
 70
     6
  9
$SURFTYPE
 70
     6
  9
$SURFU
 70
     6
  9
$SURFV
 70
     6
  9
$UCSNAME
  2

  9
$UCSORG
 10
0.0
 20
0.0
 30
0.0
  9
$UCSXDIR
 10
1.0
 20
0.0
 30
0.0
  9
$UCSYDIR
 10
0.0
 20
1.0
 30
0.0
  9
$PUCSNAME
  2

  9
$PUCSORG
 10
0.0
 20
0.0
 30
0.0
  9
$PUCSXDIR
 10
1.0
 20
0.0
 30
0.0
  9
$PUCSYDIR
 10
0.0
 20
1.0
 30
0.0
  9
$USERI1
 70
     0
  9
$USERI2
 70
     0
  9
$USERI3
 70
     0
  9
$USERI4
 70
     0
  9
$USERI5
 70
     0
  9
$USERR1
 40
0.0
  9
$USERR2
 40
0.0
  9
$USERR3
 40
0.0
  9
$USERR4
 40
0.0
  9
$USERR5
 40
0.0
  9
$WORLDVIEW
 70
     1
  9
$SHADEDGE
 70
     3
  9
$SHADEDIF
 70
    70
  9
$TILEMODE
 70
     1
  9
$MAXACTVP
 70
    64
  9
$PLIMCHECK
 70
     0
  9
$PEXTMIN
 10
1.0000000000000000E+020
 20
1.0000000000000000E+020
 30
1.0000000000000000E+020
  9
$PEXTMAX
 10
-1.0000000000000000E+020
 20
-1.0000000000000000E+020
 30
-1.0000000000000000E+020
  9
$PLIMMIN
 10
0.0
 20
0.0
  9
$PLIMMAX
 10
12.0
 20
9.0
  9
$UNITMODE
 70
     0
  9
$VISRETAIN
 70
     0
  9
$PLINEGEN
 70
     1
  9
$PSLTSCALE
 70
     0
  0
ENDSEC
  0
SECTION
  2
TABLES
  0
TABLE
  2
VPORT
 70
     1
  0
VPORT
  2
*ACTIVE
 70
     0
 10
0.0
 20
0.0
 11
1.0
 21
1.0
 12
500.00534281717279
 22
680.97381906813666
 13
0.0
 23
0.0
 14
1.0
 24
1.0
 15
0.0
 25
0.0
 16
0.0
 26
0.0
 36
1.0
 17
0.0
 27
0.0
 37
0.0
 40
1348.010298936731
 41
1.9667487684729059
 42
50.0
 43
0.0
 44
0.0
 50
0.0
 51
0.0
 71
     0
 72
  2000
 73
     1
 74
     1
 75
     0
 76
     0
 77
     0
 78
     0
  0
ENDTAB
  0
TABLE
  2
LTYPE
 70
    11
  0
LTYPE
  2
CONTINUOUS
 70
     0
  3
Solid line
 72
    65
 73
     0
 40
0.0
  0
ENDTAB
  0
TABLE
  2
LAYER
 70
     5
  0
LAYER
  2
0
 70
     0
 62
     7
  6
CONTINUOUS
  0
LAYER
  2
DATA
 70
     0
 62
     7
  6
CONTINUOUS
  0
LAYER
  2
HIBINO-BASE
 70
     0
 62
     7
  6
CONTINUOUS
  0
LAYER
  2
SPEC
 70
     0
 62
     7
  6
CONTINUOUS
  0
LAYER
  2
DIMNSIONS
 70
     0
 62
     7
  6
CONTINUOUS
  0
ENDTAB
  0
TABLE
  2
STYLE
 70
     3
  0
STYLE
  2
STANDARD
 70
     0
 40
0.0
 41
1.0
 50
0.0
 71
     0
 42
0.0
  3
txt
  4
BIGFONT.SHX
  0
ENDTAB
  0
TABLE
  2
VIEW
 70
     0
  0
ENDTAB
  0
TABLE
  2
UCS
 70
     0
  0
ENDTAB
  0
TABLE
  2
APPID
 70
     3
  0
APPID
  2
ACAD
 70
     0
  0
APPID
  2
ACADANNOTATIVE
 70
     0
  0
APPID
  2
ACAD_MLEADERVER
 70
     0
  0
ENDTAB
  0
TABLE
  2
DIMSTYLE
 70
     2
  0
DIMSTYLE
  2
STANDARD
 70
     0
  3

  4

  5

  6

  7

 40
1.0
 41
0.18
 42
0.0625
 43
0.38
 44
0.18
 45
0.0
 46
0.0
 47
0.0
 48
0.0
140
0.18
141
0.09
142
0.0
143
25.399999999999999
144
1.0
145
0.0
146
1.0
147
0.09
 71
     0
 72
     0
 73
     1
 74
     1
 75
     0
 76
     0
 77
     0
 78
     0
170
     0
171
     2
172
     0
173
     0
174
     0
175
     0
176
     0
177
     0
178
     0
  0
ENDTAB
  0
ENDSEC
  0
SECTION
  2
BLOCKS
  0
BLOCK
  8
0
  2
$MODEL_SPACE
 70
     0
 10
0.0
 20
0.0
 30
0.0
  3
$MODEL_SPACE
  1

  0
ENDBLK
  5
388
  8
0
  0
BLOCK
 67
     1
  8
0
  2
$PAPER_SPACE
 70
     0
 10
0.0
 20
0.0
 30
0.0
  3
$PAPER_SPACE
  1

  0
ENDBLK
  5
384
 67
     1
  8
0
  0
ENDSEC
  0
SECTION
  2
ENTITIES
  0
LINE
  5
2C
  8
HIBINO-BASE
  6
CONTINUOUS
 62
     7
 10
50.0
 20
1350.0
 30
0.0
 11
950.0
 21
1350.0
 31
0.0
  0
LINE
  5
2D
  8
HIBINO-BASE
  6
CONTINUOUS
 62
     7
 10
950.0
 20
50.0
 30
0.0
 11
50.0
 21
50.0
 31
0.0
  0
LINE
  5
2E
  8
HIBINO-BASE
  6
CONTINUOUS
 62
     7
 10
50.0
 20
50.0
 30
0.0
 11
50.0
 21
1350.0
 31
0.0
  0
LINE
  5
2F
  8
HIBINO-BASE
  6
CONTINUOUS
 62
     7
 10
950.0
 20
1350.0
 30
0.0
 11
950.0
 21
50.0
 31
0.0
  0
LINE
  5
30
  8
HIBINO-BASE
  6
CONTINUOUS
 62
     7
 10
500.0
 20
162.50000000000011
 30
0.0
 11
950.0
 21
162.50000000000011
 31
0.0
  0
LINE
  5
31
  8
HIBINO-BASE
  6
CONTINUOUS
 62
     7
 10
500.0
 20
50.0
 30
0.0
 11
500.0
 21
162.50000000000011
 31
0.0
  0
TEXT
  5
32
  8
HIBINO-BASE
 62
     7
 10
504.49999999999989
 20
149.9565333333334
 30
0.0
 40
8.1442057291666661
  1
NOTE
 41
0.7
 11
504.49999999999989
 21
158.10073906250011
 31
0.0
 73
     3
  0
LINE
  5
33
  8
HIBINO-BASE
  6
CONTINUOUS
 62
     7
 10
675.0
 20
50.0
 30
0.0
 11
675.0
 21
162.50000000000011
 31
0.0
  0
TEXT
  5
34
  8
HIBINO-BASE
 62
     7
 10
679.49999999999989
 20
149.9565333333334
 30
0.0
 40
8.1442057291666661
  1
TITLE
 41
0.7
 11
679.49999999999989
 21
158.10073906250011
 31
0.0
 73
     3
  0
LINE
  5
35
  8
HIBINO-BASE
  6
CONTINUOUS
 62
     7
 10
500.0
 20
100.0000000000001
 30
0.0
 11
950.0
 21
100.0000000000001
 31
0.0
  0
TEXT
  5
36
  8
HIBINO-BASE
 62
     7
 10
742.0
 20
87.738133333333465
 30
0.0
 40
8.1442057291666661
  1
DRAWN
 41
0.7
 11
742.0
 21
95.882339062500137
 31
0.0
 73
     3
  0
TEXT
  5
37
  8
HIBINO-BASE
 62
     7
 10
617.0
 20
87.738133333333465
 30
0.0
 40
8.1442057291666661
  1
DATE
 41
0.7
 11
617.0
 21
95.882339062500137
 31
0.0
 73
     3
  0
TEXT
  5
38
  8
HIBINO-BASE
 62
     7
 10
567.0
 20
87.738133333333465
 30
0.0
 40
8.1442057291666661
  1
SCALE
 41
0.7
 11
567.0
 21
95.882339062500137
 31
0.0
 73
     3
  0
TEXT
  5
39
  8
HIBINO-BASE
 62
     7
 10
679.49999999999989
 20
87.738133333333465
 30
0.0
 40
8.1442057291666661
  1
DESIGN
 41
0.7
 11
679.49999999999989
 21
95.882339062500137
 31
0.0
 73
     3
  0
TEXT
  5
3A
  8
HIBINO-BASE
 62
     7
 10
867.0
 20
87.738133333333465
 30
0.0
 40
8.1442057291666661
  1
DRAWING NO.
 41
0.7
 11
867.0
 21
95.882339062500137
 31
0.0
 73
     3
  0
TEXT
  5
3B
  8
HIBINO-BASE
 62
     7
 10
804.49999999999989
 20
87.738133333333465
 30
0.0
 40
8.1442057291666661
  1
CHECK
 41
0.7
 11
804.49999999999989
 21
95.882339062500137
 31
0.0
 73
     3
  0
LINE
  5
3C
  8
HIBINO-BASE
  6
CONTINUOUS
 62
     7
 10
571.87499999999989
 20
56.25
 30
0.0
 11
590.625
 21
75.000000000000099
 31
0.0
  0
TEXT
  5
3D
  8
HIBINO-BASE
 62
     7
 10
568.74999999999989
 20
69.455283333333384
 30
0.0
 40
8.1442057291666661
  1
1
 41
0.7
 11
568.74999999999989
 21
77.599489062500069
 31
0.0
 73
     3
  0
LINE
  5
3E
  8
HIBINO-BASE
  6
CONTINUOUS
 62
     7
 10
562.49999999999989
 20
50.0
 30
0.0
 11
562.49999999999989
 21
100.0000000000001
 31
0.0
  0
LINE
  5
3F
  8
HIBINO-BASE
  6
CONTINUOUS
 62
     7
 10
612.49999999999989
 20
50.0
 30
0.0
 11
612.49999999999989
 21
100.0000000000001
 31
0.0
  0
LINE
  5
40
  8
HIBINO-BASE
  6
CONTINUOUS
 62
     7
 10
737.5
 20
100.0000000000001
 30
0.0
 11
737.5
 21
50.0
 31
0.0
  0
LINE
  5
41
  8
HIBINO-BASE
  6
CONTINUOUS
 62
     7
 10
862.5
 20
100.0000000000001
 30
0.0
 11
862.5
 21
50.0
 31
0.0
  0
LINE
  5
42
  8
HIBINO-BASE
  6
CONTINUOUS
 62
     7
 10
800.0
 20
50.0
 30
0.0
 11
800.0
 21
100.0000000000001
 31
0.0
  0
TEXT
  5
43
  8
HIBINO-BASE
 62
     7
 10
616.78269999999986
 20
64.318233333333382
 30
0.0
 40
8.1442057291666661
  1
'10.04.
 41
0.7
 11
616.78269999999986
 21
72.462439062500053
 31
0.0
 73
     3
  0
TEXT
  5
44
  8
HIBINO-BASE
 62
     7
 10
587.5
 20
60.080283333333398
 30
0.0
 40
8.1442057291666661
  1
5
 41
0.7
 11
587.5
 21
68.224489062500069
 31
0.0
 73
     3
  0
TEXT
  5
45
  8
HIBINO-BASE
 62
     7
 10
519.41666666666674
 20
59.880000000000031
 30
0.0
 40
16.288411458333329
  1
A4
 41
0.7
 11
519.41666666666674
 21
76.168411458333352
 31
0.0
 73
     3
  0
TEXT
  5
46
  8
HIBINO-BASE
 62
     7
 10
504.79166666666652
 20
86.902725000000103
 30
0.0
 40
8.1442057291666661
  1
PAPER SIZE
 41
0.7
 11
504.79166666666652
 21
95.046930729166775
 31
0.0
 73
     3
  0
TEXT
  5
47
  8
HIBINO-BASE
 62
     7
 10
63.798176284450903
 20
17.873798829118741
 30
0.0
 40
17.645779079861111
  1
Hibino-Intersound Corporation
 41
0.7
 11
63.798176284450903
 21
35.519577908979848
 31
0.0
 73
     3
  0
TEXT
  5
48
  8
HIBINO-BASE
 62
     7
 10
600.90304840106944
 20
19.629240095565791
 30
0.0
 40
17.645779079861111
  1
ヒビノインターサウンド株式会社
 41
0.7
 11
600.90304840106944
 21
37.275019175426912
 31
0.0
 73
     3
  0
TEXT
  5
49
  8
HIBINO-BASE
 62
     7
 10
748.11290852642674
 20
64.348739923245901
 30
0.0
 40
8.1442057291666661
  1
T.Ootake
 41
0.7
 11
748.11290852642674
 21
72.492945652412573
 31
0.0
 73
     3
  0
LINE
  5
4A
  8
SPEC
  6
CONTINUOUS
 62
     7
 10
87.5
 20
1300.0
 30
0.0
 11
825.0
 21
1300.0
 31
0.0
  0
LINE
  5
4B
  8
SPEC
  6
CONTINUOUS
 62
     7
 10
87.5
 20
1281.25
 30
0.0
 11
825.0
 21
1281.25
 31
0.0
  0
LINE
  5
4C
  8
SPEC
  6
CONTINUOUS
 62
     7
 10
87.5
 20
1243.75
 30
0.0
 11
825.0
 21
1243.75
 31
0.0
  0
LINE
  5
4D
  8
SPEC
  6
CONTINUOUS
 62
     7
 10
87.5
 20
1262.5
 30
0.0
 11
825.0
 21
1262.5
 31
0.0
  0
LINE
  5
4E
  8
SPEC
  6
CONTINUOUS
 62
     7
 10
87.5
 20
1300.0
 30
0.0
 11
87.5
 21
962.5
 31
0.0
  0
TEXT
  5
4F
  8
SPEC
 62
     7
 10
93.75
 20
1306.9663499999999
 30
0.0
 40
12.21630859375
  1
仕様
 41
0.7
 11
93.75
 21
1319.1826585937499
 31
0.0
 73
     3
  0
LINE
  5
50
  8
SPEC
  6
CONTINUOUS
 62
     7
 10
270.0
 20
1300.0
 30
0.0
 11
270.0
 21
962.5
 31
0.0
  0
LINE
  5
51
  8
SPEC
  6
CONTINUOUS
 62
     7
 10
825.0
 20
1300.0
 30
0.0
 11
825.0
 21
962.5
 31
0.0
  0
LINE
  5
52
  8
SPEC
  6
CONTINUOUS
 62
     7
 10
87.5
 20
1225.0
 30
0.0
 11
825.0
 21
1225.0
 31
0.0
  0
LINE
  5
53
  8
SPEC
  6
CONTINUOUS
 62
     7
 10
87.5
 20
1206.25
 30
0.0
 11
825.0
 21
1206.25
 31
0.0
  0
LINE
  5
54
  8
SPEC
  6
CONTINUOUS
 62
     7
 10
87.5
 20
1187.5
 30
0.0
 11
825.0
 21
1187.5
 31
0.0
  0
LINE
  5
55
  8
SPEC
  6
CONTINUOUS
 62
     7
 10
87.5
 20
1168.75
 30
0.0
 11
825.0
 21
1168.75
 31
0.0
  0
LINE
  5
56
  8
SPEC
  6
CONTINUOUS
 62
     7
 10
87.5
 20
1150.0
 30
0.0
 11
825.0
 21
1150.0
 31
0.0
  0
LINE
  5
57
  8
SPEC
  6
CONTINUOUS
 62
     7
 10
87.5
 20
1131.25
 30
0.0
 11
825.0
 21
1131.25
 31
0.0
  0
LINE
  5
58
  8
SPEC
  6
CONTINUOUS
 62
     7
 10
87.5
 20
1112.5
 30
0.0
 11
825.0
 21
1112.5
 31
0.0
  0
LINE
  5
59
  8
SPEC
  6
CONTINUOUS
 62
     7
 10
87.5
 20
1093.75
 30
0.0
 11
825.0
 21
1093.75
 31
0.0
  0
LINE
  5
5A
  8
SPEC
  6
CONTINUOUS
 62
     7
 10
87.5
 20
1075.0
 30
0.0
 11
825.0
 21
1075.0
 31
0.0
  0
LINE
  5
5B
  8
SPEC
  6
CONTINUOUS
 62
     7
 10
87.5
 20
1056.25
 30
0.0
 11
825.0
 21
1056.25
 31
0.0
  0
TEXT
  5
5C
  8
SPEC
 62
     7
 10
91.661462635007283
 20
986.51360861273815
 30
0.0
 40
9.5015733506944464
  1
寸法
 41
0.7
 11
91.661462635007283
 21
996.01518196343284
 31
0.0
 73
     3
  0
TEXT
  5
5D
  8
SPEC
 62
     7
 10
274.58510711349601
 20
985.67998134334562
 30
0.0
 40
9.5015733506944464
  1
435(W)\U+00D744(H)\U+00D7173(D)mm(突起部含まず）
 41
0.7
 11
274.58510711349601
 21
995.18155469403996
 31
0.0
 73
     3
  0
TEXT
  5
5E
  8
SPEC
 62
     7
 10
274.26037139847671
 20
968.12103977323693
 30
0.0
 40
9.5015733506944464
  1
約1.2kg
 41
0.7
 11
274.26037139847671
 21
977.62261312393127
 31
0.0
 73
     3
  0
TEXT
  5
5F
  8
SPEC
 62
     7
 10
91.891576627352848
 20
967.42503901511611
 30
0.0
 40
9.5015733506944464
  1
重量
 41
0.7
 11
91.891576627352848
 21
976.92661236581068
 31
0.0
 73
     3
  0
TEXT
  5
60
  8
SPEC
 62
     7
 10
91.567145361181488
 20
1023.981308590554
 30
0.0
 40
9.5015733506944464
  1
電源
 41
0.7
 11
91.567145361181488
 21
1033.4828819412489
 31
0.0
 73
     3
  0
TEXT
  5
61
  8
SPEC
 62
     7
 10
274.48089793656942
 20
1023.25645800379
 30
0.0
 40
9.5015733506944464
  1
5V DC
 41
0.7
 11
274.48089793656942
 21
1032.758031354484
 31
0.0
 73
     3
  0
TEXT
  5
62
  8
SPEC
 62
     7
 10
91.685512793282584
 20
1004.892848057228
 30
0.0
 40
9.5015733506944464
  1
消費電力
 41
0.7
 11
91.685512793282584
 21
1014.394421407923
 31
0.0
 73
     3
  0
TEXT
  5
63
  8
SPEC
 62
     7
 10
274.49782903857778
 20
1004.491765512402
 30
0.0
 40
9.5015733506944464
  1
8W(最大)
 41
0.7
 11
274.49782903857778
 21
1013.993338863096
 31
0.0
 73
     3
  0
TEXT
  5
64
  8
SPEC
 62
     7
 10
274.70225117388151
 20
1136.1147124473939
 30
0.0
 40
9.5015733506944464
  1
3\U+00D72 RCA R+L
 41
0.7
 11
274.70225117388151
 21
1145.616285798088
 31
0.0
 73
     3
  0
TEXT
  5
65
  8
SPEC
 62
     7
 10
273.89488753799498
 20
1154.9805595585519
 30
0.0
 40
9.5015733506944464
  1
1 S-Video
 41
0.7
 11
273.89488753799498
 21
1164.482132909246
 31
0.0
 73
     3
  0
TEXT
  5
66
  8
SPEC
 62
     7
 10
91.352682475349638
 20
1173.625209255513
 30
0.0
 40
9.5015733506944464
  1
アナログビデオ入力端子2
 41
0.7
 11
91.352682475349638
 21
1183.1267826062081
 31
0.0
 73
     3
  0
TEXT
  5
67
  8
SPEC
 62
     7
 10
273.9899702049442
 20
1173.8464066697099
 30
0.0
 40
9.5015733506944464
  1
1 RCA コンポーネント
 41
0.7
 11
273.9899702049442
 21
1183.3479800204041
 31
0.0
 73
     3
  0
TEXT
  5
68
  8
SPEC
 62
     7
 10
91.226427371797271
 20
1192.1754296163381
 30
0.0
 40
9.5015733506944464
  1
アナログビデオ入力端子1
 41
0.7
 11
91.226427371797271
 21
1201.677002967032
 31
0.0
 73
     3
  0
TEXT
  5
69
  8
SPEC
 62
     7
 10
274.61073464915319
 20
1192.1320996430579
 30
0.0
 40
9.5015733506944464
  1
3 RCA コンポーネント
 41
0.7
 11
274.61073464915319
 21
1201.633672993752
 31
0.0
 73
     3
  0
TEXT
  5
6A
  8
SPEC
 62
     7
 10
90.805607719037894
 20
1211.0674516114809
 30
0.0
 40
9.5015733506944464
  1
シングルリンク対応解像度
 41
0.7
 11
90.805607719037894
 21
1220.569024962175
 31
0.0
 73
     3
  0
TEXT
  5
6B
  8
SPEC
 62
     7
 10
274.01537384760849
 20
1210.764132547587
 30
0.0
 40
9.5015733506944464
  1
1080p/1920\U+00D71200
 41
0.7
 11
274.01537384760849
 21
1220.2657058982811
 31
0.0
 73
     3
  0
TEXT
  5
6C
  8
SPEC
 62
     7
 10
91.94211530266432
 20
1229.7958797906899
 30
0.0
 40
9.5015733506944464
  1
入力ビデオ信号
 41
0.7
 11
91.94211530266432
 21
1239.297453141384
 31
0.0
 73
     3
  0
TEXT
  5
6D
  8
SPEC
 62
     7
 10
273.94273962850838
 20
1230.4497062232001
 30
0.0
 40
9.5015733506944464
  1
1.2V p-p　
 41
0.7
 11
273.94273962850838
 21
1239.951279573894
 31
0.0
 73
     3
  0
TEXT
  5
6E
  8
SPEC
 62
     7
 10
91.668451583687215
 20
1248.5458797906899
 30
0.0
 40
9.5015733506944464
  1
入力DDC信号
 41
0.7
 11
91.668451583687215
 21
1258.047453141384
 31
0.0
 73
     3
  0
TEXT
  5
6F
  8
SPEC
 62
     7
 10
274.49463741522533
 20
1248.3776395219479
 30
0.0
 40
9.5015733506944464
  1
5V (TTL)
 41
0.7
 11
274.49463741522533
 21
1257.879212872642
 31
0.0
 73
     3
  0
TEXT
  5
70
  8
SPEC
 62
     7
 10
90.68346079238205
 20
1267.484482383114
 30
0.0
 40
9.5015733506944464
  1
コンポーネントビデオ帯域
 41
0.7
 11
90.68346079238205
 21
1276.9860557338079
 31
0.0
 73
     3
  0
TEXT
  5
71
  8
SPEC
 62
     7
 10
274.61073464915319
 20
1267.3647124473939
 30
0.0
 40
9.5015733506944464
  1
350MHz
 41
0.7
 11
274.61073464915319
 21
1276.866285798088
 31
0.0
 73
     3
  0
TEXT
  5
72
  8
SPEC
 62
     7
 10
91.55447201514869
 20
1285.6705295493459
 30
0.0
 40
9.5015733506944464
  1
デジタルビデオアンプ帯域
 41
0.7
 11
91.55447201514869
 21
1295.17210290004
 31
0.0
 73
     3
  0
TEXT
  5
73
  8
SPEC
 62
     7
 10
273.89754317379698
 20
1285.639251463823
 30
0.0
 40
9.5015733506944464
  1
165MHz
 41
0.7
 11
273.89754317379698
 21
1295.1408248145169
 31
0.0
 73
     3
  0
TEXT
  5
74
  8
SPEC
 62
     7
 10
91.456567091768605
 20
1154.9086269342879
 30
0.0
 40
9.5015733506944464
  1
アナログビデオ入力端子3
 41
0.7
 11
91.456567091768605
 21
1164.410200284982
 31
0.0
 73
     3
  0
TEXT
  5
75
  8
SPEC
 62
     7
 10
91.406288898557492
 20
1136.4354978341739
 30
0.0
 40
9.5015733506944464
  1
アナログオーディオ入力端子
 41
0.7
 11
91.406288898557492
 21
1145.937071184869
 31
0.0
 73
     3
  0
TEXT
  5
76
  8
SPEC
 62
     7
 10
274.48319367443747
 20
1117.192516011482
 30
0.0
 40
9.5015733506944464
  1
2 Optical TOSLINK and2 Coaxial SPDIF　
 41
0.7
 11
274.48319367443747
 21
1126.694089362177
 31
0.0
 73
     3
  0
TEXT
  5
77
  8
SPEC
 62
     7
 10
91.333144068989156
 20
1117.6859890823671
 30
0.0
 40
9.5015733506944464
  1
デジタルオーディオ入力端子
 41
0.7
 11
91.333144068989156
 21
1127.1875624330621
 31
0.0
 73
     3
  0
TEXT
  5
78
  8
SPEC
 62
     7
 10
274.58222699154908
 20
1079.750458618591
 30
0.0
 40
9.5015733506944464
  1
2 TypeA 19pinメス
 41
0.7
 11
274.58222699154908
 21
1089.252031969286
 31
0.0
 73
     3
  0
TEXT
  5
79
  8
SPEC
 62
     7
 10
91.988254832833036
 20
1079.9810414786059
 30
0.0
 40
9.5015733506944464
  1
HDMI入力端子
 41
0.7
 11
91.988254832833036
 21
1089.4826148293
 31
0.0
 73
     3
  0
TEXT
  5
7A
  8
SPEC
 62
     7
 10
274.69274052603839
 20
1042.3647124473939
 30
0.0
 40
9.5015733506944464
  1
DVI-I 29pinメス
 41
0.7
 11
274.69274052603839
 21
1051.866285798088
 31
0.0
 73
     3
  0
TEXT
  5
7B
  8
SPEC
 62
     7
 10
91.740667134318869
 20
1042.1672744869809
 30
0.0
 40
9.5015733506944464
  1
DVI入力端子
 41
0.7
 11
91.740667134318869
 21
1051.6688478376759
 31
0.0
 73
     3
  0
LINE
  5
7C
  8
SPEC
  6
CONTINUOUS
 62
     7
 10
87.5
 20
1037.5
 30
0.0
 11
825.0
 21
1037.5
 31
0.0
  0
LINE
  5
7D
  8
SPEC
  6
CONTINUOUS
 62
     7
 10
87.5
 20
1018.75
 30
0.0
 11
825.0
 21
1018.75
 31
0.0
  0
LINE
  5
7E
  8
SPEC
  6
CONTINUOUS
 62
     7
 10
87.5
 20
1000.0
 30
0.0
 11
825.0
 21
1000.0
 31
0.0
  0
LINE
  5
7F
  8
SPEC
  6
CONTINUOUS
 62
     7
 10
87.5
 20
981.25
 30
0.0
 11
825.0
 21
981.25
 31
0.0
  0
LINE
  5
80
  8
SPEC
  6
CONTINUOUS
 62
     7
 10
87.5
 20
962.5
 30
0.0
 11
825.0
 21
962.5
 31
0.0
  0
TEXT
  5
81
  8
SPEC
 62
     7
 10
91.352682475349638
 20
1098.935989082368
 30
0.0
 40
9.5015733506944464
  1
デジタルオーディオ出力端子
 41
0.7
 11
91.352682475349638
 21
1108.4375624330621
 31
0.0
 73
     3
  0
TEXT
  5
82
  8
SPEC
 62
     7
 10
274.1246689028074
 20
1098.443196010807
 30
0.0
 40
9.5015733506944464
  1
1 Optical TOSLINK and1 Coaxial SPDIF　
 41
0.7
 11
274.1246689028074
 21
1107.9447693615009
 31
0.0
 73
     3
  0
TEXT
  5
83
  8
SPEC
 62
     7
 10
273.86932671909722
 20
1061.456120377449
 30
0.0
 40
9.5015733506944464
  1
1 TypeA 19pinメス
 41
0.7
 11
273.86932671909722
 21
1070.957693728144
 31
0.0
 73
     3
  0
TEXT
  5
84
  8
SPEC
 62
     7
 10
91.979458348494944
 20
1061.396118441681
 30
0.0
 40
9.5015733506944464
  1
HDMI出力端子
 41
0.7
 11
91.979458348494944
 21
1070.897691792376
 31
0.0
 73
     3
  0
TEXT
  5
85
  8
DIMNSIONS
 62
     7
 10
400.0
 20
111.34744999999999
 30
0.0
 40
12.21630859375
  1
(単位：mm)
 41
0.7
 11
400.0
 21
123.5637585937499
 31
0.0
 73
     3
  0
LINE
  5
86
  8
DIMNSIONS
  6
CONTINUOUS
 62
     7
 10
152.49999999999989
 20
350.0
 30
0.0
 11
115.0
 21
350.0
 31
0.0
  0
LINE
  5
87
  8
DIMNSIONS
  6
CONTINUOUS
 62
     7
 10
152.49999999999989
 20
394.0
 30
0.0
 11
115.0
 21
394.0
 31
0.0
  0
LINE
  5
88
  8
DIMNSIONS
  6
CONTINUOUS
 62
     7
 10
125.0
 20
350.0
 30
0.0
 11
125.0
 21
394.0
 31
0.0
  0
LINE
  5
89
  8
DIMNSIONS
  6
CONTINUOUS
 62
     7
 10
125.0
 20
350.0
 30
0.0
 11
121.6498010242488
 21
362.50311279296881
 31
0.0
  0
LINE
  5
8A
  8
DIMNSIONS
  6
CONTINUOUS
 62
     7
 10
125.0
 20
350.0
 30
0.0
 11
128.3501989757512
 21
362.50311279296881
 31
0.0
  0
LINE
  5
8B
  8
DIMNSIONS
  6
CONTINUOUS
 62
     7
 10
125.0
 20
394.0
 30
0.0
 11
128.3501989757512
 21
381.49688720703131
 31
0.0
  0
LINE
  5
8C
  8
DIMNSIONS
  6
CONTINUOUS
 62
     7
 10
125.0
 20
394.0
 30
0.0
 11
121.6498010242488
 21
381.49688720703131
 31
0.0
  0
TEXT
  5
8D
  8
DIMNSIONS
 62
     7
 10
120.03055555555549
 20
363.18055555555549
 30
0.0
 40
13.57367621527778
  1
44
 50
90.0
 41
0.7
 11
106.45687934027769
 21
363.18055555555549
 31
0.0
 73
     3
  0
LINE
  5
8E
  8
DIMNSIONS
  6
CONTINUOUS
 62
     7
 10
162.49999999999989
 20
340.0
 30
0.0
 11
162.49999999999989
 21
302.5
 31
0.0
  0
LINE
  5
8F
  8
DIMNSIONS
  6
CONTINUOUS
 62
     7
 10
597.5
 20
340.0
 30
0.0
 11
597.5
 21
302.5
 31
0.0
  0
LINE
  5
90
  8
DIMNSIONS
  6
CONTINUOUS
 62
     7
 10
162.49999999999989
 20
312.5
 30
0.0
 11
597.5
 21
312.5
 31
0.0
  0
LINE
  5
91
  8
DIMNSIONS
  6
CONTINUOUS
 62
     7
 10
162.49999999999989
 20
312.5
 30
0.0
 11
175.00311279296869
 21
315.8501989757512
 31
0.0
  0
LINE
  5
92
  8
DIMNSIONS
  6
CONTINUOUS
 62
     7
 10
162.49999999999989
 20
312.5
 30
0.0
 11
175.00311279296869
 21
309.1498010242488
 31
0.0
  0
LINE
  5
93
  8
DIMNSIONS
  6
CONTINUOUS
 62
     7
 10
597.5
 20
312.5
 30
0.0
 11
584.99688720703125
 21
309.1498010242488
 31
0.0
  0
LINE
  5
94
  8
DIMNSIONS
  6
CONTINUOUS
 62
     7
 10
597.5
 20
312.5
 30
0.0
 11
584.99688720703125
 21
315.8501989757512
 31
0.0
  0
TEXT
  5
95
  8
DIMNSIONS
 62
     7
 10
366.77083333333331
 20
317.46944444444449
 30
0.0
 40
13.57367621527778
  1
435
 41
0.7
 11
366.77083333333331
 21
331.04312065972232
 31
0.0
 73
     3
  0
LINE
  5
96
  8
DIMNSIONS
  6
CONTINUOUS
 62
     7
 10
152.5
 20
462.5
 30
0.0
 11
115.0
 21
462.5
 31
0.0
  0
LINE
  5
97
  8
DIMNSIONS
  6
CONTINUOUS
 62
     7
 10
152.5
 20
635.5
 30
0.0
 11
115.0
 21
635.5
 31
0.0
  0
LINE
  5
98
  8
DIMNSIONS
  6
CONTINUOUS
 62
     7
 10
125.0
 20
462.5
 30
0.0
 11
125.0
 21
635.5
 31
0.0
  0
LINE
  5
99
  8
DIMNSIONS
  6
CONTINUOUS
 62
     7
 10
125.0
 20
462.5
 30
0.0
 11
121.6498010242488
 21
475.00311279296881
 31
0.0
  0
LINE
  5
9A
  8
DIMNSIONS
  6
CONTINUOUS
 62
     7
 10
125.0
 20
462.5
 30
0.0
 11
128.3501989757512
 21
475.00311279296881
 31
0.0
  0
LINE
  5
9B
  8
DIMNSIONS
  6
CONTINUOUS
 62
     7
 10
125.0
 20
635.5
 30
0.0
 11
128.3501989757512
 21
622.99688720703125
 31
0.0
  0
LINE
  5
9C
  8
DIMNSIONS
  6
CONTINUOUS
 62
     7
 10
125.0
 20
635.5
 30
0.0
 11
121.6498010242488
 21
622.99688720703125
 31
0.0
  0
TEXT
  5
9D
  8
DIMNSIONS
 62
     7
 10
120.03055555555549
 20
535.77083333333326
 30
0.0
 40
13.57367621527778
  1
173
 50
90.0
 41
0.7
 11
106.45687934027769
 21
535.77083333333326
 31
0.0
 73
     3
  0
LINE
  5
9E
  8
DIMNSIONS
  6
CONTINUOUS
 62
     7
 10
158.377358490566
 20
346.0
 30
0.0
 11
115.0
 21
346.0
 31
0.0
  0
LINE
  5
9F
  8
DIMNSIONS
  6
CONTINUOUS
 62
     7
 10
152.49999999999989
 20
350.0
 30
0.0
 11
115.0
 21
350.0
 31
0.0
  0
LINE
  5
A0
  8
DIMNSIONS
  6
CONTINUOUS
 62
     7
 10
125.0
 20
350.0
 30
0.0
 11
125.0
 21
346.0
 31
0.0
  0
LINE
  5
A1
  8
DIMNSIONS
  6
CONTINUOUS
 62
     7
 10
125.0
 20
346.0
 30
0.0
 11
125.0
 21
328.6805555555556
 31
0.0
  0
LINE
  5
A2
  8
DIMNSIONS
  6
CONTINUOUS
 62
     7
 10
125.0
 20
346.0
 30
0.0
 11
128.3501989757512
 21
333.49688720703131
 31
0.0
  0
LINE
  5
A3
  8
DIMNSIONS
  6
CONTINUOUS
 62
     7
 10
125.0
 20
346.0
 30
0.0
 11
121.6498010242488
 21
333.49688720703131
 31
0.0
  0
LINE
  5
A4
  8
DIMNSIONS
  6
CONTINUOUS
 62
     7
 10
125.0
 20
350.0
 30
0.0
 11
125.0
 21
375.0
 31
0.0
  0
LINE
  5
A5
  8
DIMNSIONS
  6
CONTINUOUS
 62
     7
 10
125.0
 20
350.0
 30
0.0
 11
121.6498010242488
 21
362.50311279296881
 31
0.0
  0
LINE
  5
A6
  8
DIMNSIONS
  6
CONTINUOUS
 62
     7
 10
125.0
 20
350.0
 30
0.0
 11
128.3501989757512
 21
362.50311279296881
 31
0.0
  0
TEXT
  5
A7
  8
DIMNSIONS
 62
     7
 10
120.03055555555549
 20
328.6805555555556
 30
0.0
 40
13.57367621527778
  1
4
 50
90.0
 41
0.7
 11
106.45687934027769
 21
328.6805555555556
 31
0.0
 73
     3
  0
LINE
  5
A8
  8
DIMNSIONS
  6
CONTINUOUS
 62
     7
 10
152.5
 20
635.5
 30
0.0
 11
115.0
 21
635.5
 31
0.0
  0
LINE
  5
A9
  8
DIMNSIONS
  6
CONTINUOUS
 62
     7
 10
215.34999999999999
 20
642.49999999999989
 30
0.0
 11
115.0
 21
642.49999999999989
 31
0.0
  0
LINE
  5
AA
  8
DIMNSIONS
  6
CONTINUOUS
 62
     7
 10
125.0
 20
642.49999999999989
 30
0.0
 11
125.0
 21
635.5
 31
0.0
  0
LINE
  5
AB
  8
DIMNSIONS
  6
CONTINUOUS
 62
     7
 10
125.0
 20
635.5
 30
0.0
 11
125.0
 21
610.5
 31
0.0
  0
LINE
  5
AC
  8
DIMNSIONS
  6
CONTINUOUS
 62
     7
 10
125.0
 20
635.5
 30
0.0
 11
128.3501989757512
 21
622.99688720703125
 31
0.0
  0
LINE
  5
AD
  8
DIMNSIONS
  6
CONTINUOUS
 62
     7
 10
125.0
 20
635.5
 30
0.0
 11
121.6498010242488
 21
622.99688720703125
 31
0.0
  0
LINE
  5
AE
  8
DIMNSIONS
  6
CONTINUOUS
 62
     7
 10
125.0
 20
642.49999999999989
 30
0.0
 11
125.0
 21
671.31944444444434
 31
0.0
  0
LINE
  5
AF
  8
DIMNSIONS
  6
CONTINUOUS
 62
     7
 10
125.0
 20
642.49999999999989
 30
0.0
 11
121.6498010242488
 21
655.00311279296875
 31
0.0
  0
LINE
  5
B0
  8
DIMNSIONS
  6
CONTINUOUS
 62
     7
 10
125.0
 20
642.49999999999989
 30
0.0
 11
128.3501989757512
 21
655.00311279296875
 31
0.0
  0
TEXT
  5
B1
  8
DIMNSIONS
 62
     7
 10
120.03055555555549
 20
662.5
 30
0.0
 40
13.57367621527778
  1
7
 50
90.0
 41
0.7
 11
106.45687934027769
 21
662.5
 31
0.0
 73
     3
  0
TEXT
  5
B2
  8
DATA
 62
     7
 10
750.0
 20
105.51107397085561
 30
0.0
 40
12.21630859375
  1
EXT-GSCALER-PRON
 41
0.7
 11
750.0
 21
117.72738256460561
 31
0.0
 73
     3
  0
TEXT
  5
B3
  8
DATA
 62
     7
 10
750.0
 20
144.1117387050208
 30
0.0
 40
12.21630859375
  1
Gefen
 41
0.7
 11
750.0
 21
156.3280472987708
 31
0.0
 73
     3
  0
TEXT
  5
B4
  8
DATA
 62
     7
 10
100.0
 20
71.190000000000111
 30
0.0
 40
8.1442057291666661
  1
仕様および外観は予告なく変更されることがありますので、ご了承ください。
 41
0.7
 11
100.0
 21
79.334205729166783
 31
0.0
 73
     3
  0
LINE
  5
B5
  8
DATA
  6
CONTINUOUS
 62
     7
 10
162.49999999999989
 20
350.0
 30
0.0
 11
162.49999999999989
 21
394.0
 31
0.0
  0
LINE
  5
B6
  8
DATA
  6
CONTINUOUS
 62
     7
 10
597.5
 20
350.0
 30
0.0
 11
162.49999999999989
 21
350.0
 31
0.0
  0
LINE
  5
B7
  8
DATA
  6
CONTINUOUS
 62
     7
 10
597.5
 20
394.0
 30
0.0
 11
597.5
 21
350.0
 31
0.0
  0
LINE
  5
B8
  8
DATA
  6
CONTINUOUS
 62
     7
 10
162.49999999999989
 20
394.0
 30
0.0
 11
597.5
 21
394.0
 31
0.0
  0
LINE
  5
B9
  8
DATA
  6
CONTINUOUS
 62
     7
 10
162.5
 20
462.5
 30
0.0
 11
162.5
 21
635.5
 31
0.0
  0
LINE
  5
BA
  8
DATA
  6
CONTINUOUS
 62
     7
 10
597.5
 20
462.5
 30
0.0
 11
162.5
 21
462.5
 31
0.0
  0
LINE
  5
BB
  8
DATA
  6
CONTINUOUS
 62
     7
 10
597.5
 20
635.5
 30
0.0
 11
597.5
 21
462.5
 31
0.0
  0
LINE
  5
BC
  8
DATA
  6
CONTINUOUS
 62
     7
 10
162.5
 20
635.5
 30
0.0
 11
597.5
 21
635.5
 31
0.0
  0
TEXT
  5
BD
  8
DATA
 62
     7
 10
742.0597714917136
 20
127.445505912339
 30
0.0
 40
8.1442057291666661
  1
Audio/Video切替機
 41
0.7
 11
742.0597714917136
 21
135.58971164150569
 31
0.0
 73
     3
  0
LINE
  5
BE
  8
DATA
  6
CONTINUOUS
 62
     7
 10
167.99999999999989
 20
350.0
 30
0.0
 11
168.377358490566
 21
346.0
 31
0.0
  0
LINE
  5
BF
  8
DATA
  6
CONTINUOUS
 62
     7
 10
186.99999999999989
 20
350.0
 30
0.0
 11
186.62264150943381
 21
346.0
 31
0.0
  0
LINE
  5
C0
  8
DATA
  6
CONTINUOUS
 62
     7
 10
168.377358490566
 20
346.0
 30
0.0
 11
186.62264150943381
 21
346.0
 31
0.0
  0
LINE
  5
C1
  8
DATA
  6
CONTINUOUS
 62
     7
 10
592.0
 20
350.0
 30
0.0
 11
591.62264150943372
 21
346.0
 31
0.0
  0
LINE
  5
C2
  8
DATA
  6
CONTINUOUS
 62
     7
 10
573.0
 20
350.0
 30
0.0
 11
573.37735849056605
 21
346.0
 31
0.0
  0
LINE
  5
C3
  8
DATA
  6
CONTINUOUS
 62
     7
 10
591.62264150943372
 20
346.0
 30
0.0
 11
573.37735849056605
 21
346.0
 31
0.0
  0
CIRCLE
  5
C4
  8
DATA
  6
CONTINUOUS
 62
     7
 10
224.5
 20
367.0
 30
0.0
 40
5.0
  0
CIRCLE
  5
C5
  8
DATA
  6
CONTINUOUS
 62
     7
 10
250.0
 20
366.0
 30
0.0
 40
1.400000000000005
  0
CIRCLE
  5
C6
  8
DATA
  6
CONTINUOUS
 62
     7
 10
270.5
 20
366.0
 30
0.0
 40
1.400000000000005
  0
CIRCLE
  5
C7
  8
DATA
  6
CONTINUOUS
 62
     7
 10
280.49999999999989
 20
366.0
 30
0.0
 40
1.400000000000005
  0
CIRCLE
  5
C8
  8
DATA
  6
CONTINUOUS
 62
     7
 10
290.49999999999989
 20
366.0
 30
0.0
 40
1.400000000000005
  0
CIRCLE
  5
C9
  8
DATA
  6
CONTINUOUS
 62
     7
 10
300.49999999999989
 20
366.0
 30
0.0
 40
1.400000000000005
  0
CIRCLE
  5
CA
  8
DATA
  6
CONTINUOUS
 62
     7
 10
310.49999999999989
 20
366.0
 30
0.0
 40
1.400000000000005
  0
CIRCLE
  5
CB
  8
DATA
  6
CONTINUOUS
 62
     7
 10
320.5
 20
366.0
 30
0.0
 40
1.400000000000005
  0
TEXT
  5
CC
  8
DATA
 62
     7
 10
222.39817096457071
 20
352.42796561676693
 30
0.0
 40
2.7147352430555549
  1
IR
 41
0.7
 11
222.39817096457071
 21
355.14270085982253
 31
0.0
 73
     3
  0
TEXT
  5
CD
  8
DATA
 62
     7
 10
245.60101719161631
 20
352.42796561676693
 30
0.0
 40
2.7147352430555549
  1
Power
 41
0.7
 11
245.60101719161631
 21
355.14270085982253
 31
0.0
 73
     3
  0
TEXT
  5
CE
  8
DATA
 62
     7
 10
268.56958134297997
 20
352.42796561676693
 30
0.0
 40
2.7147352430555549
  1
CV
 41
0.7
 11
268.56958134297997
 21
355.14270085982253
 31
0.0
 73
     3
  0
TEXT
  5
CF
  8
DATA
 62
     7
 10
278.68672238082092
 20
352.42796561676693
 30
0.0
 40
2.7147352430555549
  1
SV
 41
0.7
 11
278.68672238082092
 21
355.14270085982253
 31
0.0
 73
     3
  0
TEXT
  5
D0
  8
DATA
 62
     7
 10
287.63245304025259
 20
352.42796561676693
 30
0.0
 40
2.7147352430555549
  1
Comp
 41
0.7
 11
287.63245304025259
 21
355.14270085982253
 31
0.0
 73
     3
  0
TEXT
  5
D1
  8
DATA
 62
     7
 10
299.74099172138921
 20
352.42796561676693
 30
0.0
 40
2.7147352430555549
  1
1
 41
0.7
 11
299.74099172138921
 21
355.14270085982253
 31
0.0
 73
     3
  0
TEXT
  5
D2
  8
DATA
 62
     7
 10
309.74099172138921
 20
352.42796561676693
 30
0.0
 40
2.7147352430555549
  1
2
 41
0.7
 11
309.74099172138921
 21
355.14270085982253
 31
0.0
 73
     3
  0
TEXT
  5
D3
  8
DATA
 62
     7
 10
318.68672238082092
 20
352.42796561676693
 30
0.0
 40
2.7147352430555549
  1
DVI
 41
0.7
 11
318.68672238082092
 21
355.14270085982253
 31
0.0
 73
     3
  0
TEXT
  5
D4
  8
DATA
 62
     7
 10
301.84857688647719
 20
357.26895733815689
 30
0.0
 40
2.7147352430555549
  1
HDMI
 41
0.7
 11
301.84857688647719
 21
359.98369258121238
 31
0.0
 73
     3
  0
TEXT
  5
D5
  8
DATA
 62
     7
 10
425.2619190963274
 20
368.07873230889351
 30
0.0
 40
10.85894097222222
  1
Audio/Video Scaler Pro
 41
0.7
 11
425.2619190963274
 21
378.93767328111568
 31
0.0
 73
     3
  0
LINE
  5
D6
  8
DATA
  6
CONTINUOUS
 62
     7
 10
597.5
 20
471.0
 30
0.0
 11
162.5
 21
471.0
 31
0.0
  0
LINE
  5
D7
  8
DATA
  6
CONTINUOUS
 62
     7
 10
675.0
 20
350.80000000000001
 30
0.0
 11
675.0
 21
393.19999999999999
 31
0.0
  0
LINE
  5
D8
  8
DATA
  6
CONTINUOUS
 62
     7
 10
848.0
 20
350.80000000000001
 30
0.0
 11
848.0
 21
394.0
 31
0.0
  0
LINE
  5
D9
  8
DATA
  6
CONTINUOUS
 62
     7
 10
675.79999999999995
 20
350.0
 30
0.0
 11
847.20000000000005
 21
350.0
 31
0.0
  0
LINE
  5
DA
  8
DATA
  6
CONTINUOUS
 62
     7
 10
675.79999999999995
 20
394.0
 30
0.0
 11
848.0
 21
394.0
 31
0.0
  0
LINE
  5
DB
  8
DATA
  6
CONTINUOUS
 62
     7
 10
699.42006050435634
 20
350.0
 30
0.0
 11
699.04270201379006
 21
346.0
 31
0.0
  0
LINE
  5
DC
  8
DATA
  6
CONTINUOUS
 62
     7
 10
680.42006050435634
 20
350.0
 30
0.0
 11
680.7974189949224
 21
346.0
 31
0.0
  0
LINE
  5
DD
  8
DATA
  6
CONTINUOUS
 62
     7
 10
699.04270201379006
 20
346.0
 30
0.0
 11
680.7974189949224
 21
346.0
 31
0.0
  0
LINE
  5
DE
  8
DATA
  6
CONTINUOUS
 62
     7
 10
823.57993949564332
 20
350.0
 30
0.0
 11
823.95729798620982
 21
346.0
 31
0.0
  0
LINE
  5
DF
  8
DATA
  6
CONTINUOUS
 62
     7
 10
842.57993949564354
 20
350.0
 30
0.0
 11
842.20258100507783
 21
346.0
 31
0.0
  0
LINE
  5
E0
  8
DATA
  6
CONTINUOUS
 62
     7
 10
823.95729798620982
 20
346.0
 30
0.0
 11
842.20258100507783
 21
346.0
 31
0.0
  0
ARC
  5
E1
  8
DATA
  6
CONTINUOUS
 62
     7
 10
250.0
 20
462.97971903344421
 30
0.0
 40
1.479719033444145
 50
198.91687372095529
 51
341.08312627904468
  0
ARC
  5
E2
  8
DATA
  6
CONTINUOUS
 62
     7
 10
270.5
 20
462.97971903344421
 30
0.0
 40
1.479719033444145
 50
198.91687372095529
 51
341.08312627904468
  0
ARC
  5
E3
  8
DATA
  6
CONTINUOUS
 62
     7
 10
280.49999999999989
 20
462.97971903344421
 30
0.0
 40
1.479719033444145
 50
198.91687372095529
 51
341.08312627904468
  0
ARC
  5
E4
  8
DATA
  6
CONTINUOUS
 62
     7
 10
290.49999999999989
 20
462.97971903344421
 30
0.0
 40
1.479719033444145
 50
198.91687372095529
 51
341.08312627904468
  0
ARC
  5
E5
  8
DATA
  6
CONTINUOUS
 62
     7
 10
300.49999999999989
 20
462.97971903344421
 30
0.0
 40
1.479719033444145
 50
198.91687372095529
 51
341.08312627904468
  0
ARC
  5
E6
  8
DATA
  6
CONTINUOUS
 62
     7
 10
310.49999999999989
 20
462.97971903344421
 30
0.0
 40
1.479719033444145
 50
198.91687372095529
 51
341.08312627904468
  0
ARC
  5
E7
  8
DATA
  6
CONTINUOUS
 62
     7
 10
320.5
 20
462.97971903344421
 30
0.0
 40
1.479719033444145
 50
198.91687372095529
 51
341.08312627904468
  0
LINE
  5
E8
  8
DATA
  6
CONTINUOUS
 62
     7
 10
597.5
 20
756.49999999984755
 30
0.0
 11
597.5
 21
712.49999999984755
 31
0.0
  0
LINE
  5
E9
  8
DATA
  6
CONTINUOUS
 62
     7
 10
162.49999999999989
 20
756.49999999984755
 30
0.0
 11
597.5
 21
756.49999999984755
 31
0.0
  0
LINE
  5
EA
  8
DATA
  6
CONTINUOUS
 62
     7
 10
162.49999999999989
 20
712.49999999984755
 30
0.0
 11
162.49999999999989
 21
756.49999999984755
 31
0.0
  0
LINE
  5
EB
  8
DATA
  6
CONTINUOUS
 62
     7
 10
597.5
 20
712.49999999984755
 30
0.0
 11
162.49999999999989
 21
712.49999999984755
 31
0.0
  0
LINE
  5
EC
  8
DATA
  6
CONTINUOUS
 62
     7
 10
592.0
 20
756.49999999984755
 30
0.0
 11
591.62264150943372
 21
760.49999999984755
 31
0.0
  0
LINE
  5
ED
  8
DATA
  6
CONTINUOUS
 62
     7
 10
573.0
 20
756.49999999984755
 30
0.0
 11
573.37735849056605
 21
760.49999999984755
 31
0.0
  0
LINE
  5
EE
  8
DATA
  6
CONTINUOUS
 62
     7
 10
591.62264150943372
 20
760.49999999984755
 30
0.0
 11
573.37735849056605
 21
760.49999999984755
 31
0.0
  0
LINE
  5
EF
  8
DATA
  6
CONTINUOUS
 62
     7
 10
167.99999999999989
 20
756.49999999984755
 30
0.0
 11
168.377358490566
 21
760.49999999984755
 31
0.0
  0
LINE
  5
F0
  8
DATA
  6
CONTINUOUS
 62
     7
 10
186.99999999999989
 20
756.49999999984755
 30
0.0
 11
186.62264150943381
 21
760.49999999984755
 31
0.0
  0
LINE
  5
F1
  8
DATA
  6
CONTINUOUS
 62
     7
 10
168.377358490566
 20
760.49999999984755
 30
0.0
 11
186.62264150943381
 21
760.49999999984755
 31
0.0
  0
CIRCLE
  5
F2
  8
DATA
  6
CONTINUOUS
 62
     7
 10
497.5
 20
741.49999999984755
 30
0.0
 40
4.1999999999999877
  0
CIRCLE
  5
F3
  8
DATA
  6
CONTINUOUS
 62
     7
 10
509.49999999999989
 20
742.82819213054734
 30
0.0
 40
3.5
  0
POLYLINE
  5
F4
  8
DATA
  6
CONTINUOUS
 62
     7
 66
     1
 10
0.0
 20
0.0
 30
0.0
 70
     1
  0
VERTEX
  5
3B4
  8
DATA
  6
CONTINUOUS
 62
     7
 10
479.49999999999989
 20
746.49999999984755
 30
0.0
  0
VERTEX
  5
3B5
  8
DATA
  6
CONTINUOUS
 62
     7
 10
489.5
 20
746.49999999984755
 30
0.0
  0
VERTEX
  5
3B6
  8
DATA
  6
CONTINUOUS
 62
     7
 10
489.5
 20
736.49999999984755
 30
0.0
  0
VERTEX
  5
3B7
  8
DATA
  6
CONTINUOUS
 62
     7
 10
479.49999999999989
 20
736.49999999984755
 30
0.0
  0
SEQEND
  5
3B8
  8
DATA
  6
CONTINUOUS
 62
     7
  0
POLYLINE
  5
FB
  8
DATA
  6
CONTINUOUS
 62
     7
 66
     1
 10
0.0
 20
0.0
 30
0.0
 70
     1
  0
VERTEX
  5
3B9
  8
DATA
  6
CONTINUOUS
 62
     7
 10
465.98185539148369
 20
732.3204610683847
 30
0.0
  0
VERTEX
  5
3BA
  8
DATA
  6
CONTINUOUS
 62
     7
 10
468.48185539148358
 20
730.87708539541075
 30
0.0
  0
VERTEX
  5
3BB
  8
DATA
  6
CONTINUOUS
 62
     7
 10
470.98185539148358
 20
732.3204610683847
 30
0.0
  0
VERTEX
  5
3BC
  8
DATA
  6
CONTINUOUS
 62
     7
 10
470.98185539148358
 20
735.20721241433296
 30
0.0
  0
VERTEX
  5
3BD
  8
DATA
  6
CONTINUOUS
 62
     7
 10
468.48185539148358
 20
736.65058808730703
 30
0.0
  0
VERTEX
  5
3BE
  8
DATA
  6
CONTINUOUS
 62
     7
 10
465.98185539148369
 20
735.20721241433296
 30
0.0
  0
SEQEND
  5
3BF
  8
DATA
  6
CONTINUOUS
 62
     7
  0
CIRCLE
  5
104
  8
DATA
  6
CONTINUOUS
 62
     7
 10
468.48185539148358
 20
733.763836741359
 30
0.0
 40
1.2000000000000171
  0
LINE
  5
105
  8
DATA
  6
CONTINUOUS
 62
     7
 10
460.63185539148361
 20
740.76383674135889
 30
0.0
 11
476.33185539148371
 21
740.76383674135889
 31
0.0
  0
LINE
  5
106
  8
DATA
  6
CONTINUOUS
 62
     7
 10
460.63185539148361
 20
740.76383674135889
 30
0.0
 11
460.63185539148361
 21
745.06383674135895
 31
0.0
  0
LINE
  5
107
  8
DATA
  6
CONTINUOUS
 62
     7
 10
476.33185539148371
 20
740.76383674135889
 30
0.0
 11
476.33185539148371
 21
745.06383674135895
 31
0.0
  0
LINE
  5
108
  8
DATA
  6
CONTINUOUS
 62
     7
 10
460.63185539148361
 20
745.06383674135895
 30
0.0
 11
463.23185539148369
 21
746.763836741359
 31
0.0
  0
LINE
  5
109
  8
DATA
  6
CONTINUOUS
 62
     7
 10
476.33185539148371
 20
745.06383674135895
 30
0.0
 11
473.73185539148358
 21
746.763836741359
 31
0.0
  0
LINE
  5
10A
  8
DATA
  6
CONTINUOUS
 62
     7
 10
463.23185539148369
 20
746.763836741359
 30
0.0
 11
473.73185539148358
 21
746.763836741359
 31
0.0
  0
POLYLINE
  5
10B
  8
DATA
  6
CONTINUOUS
 62
     7
 66
     1
 10
0.0
 20
0.0
 30
0.0
 70
     1
  0
VERTEX
  5
3C0
  8
DATA
  6
CONTINUOUS
 62
     7
 10
463.48185539148358
 20
743.54999991585169
 30
0.0
  0
VERTEX
  5
3C1
  8
DATA
  6
CONTINUOUS
 62
     7
 10
473.48185539148369
 20
743.54999991585169
 30
0.0
  0
VERTEX
  5
3C2
  8
DATA
  6
CONTINUOUS
 62
     7
 10
473.48185539148369
 20
743.04999991585169
 30
0.0
  0
VERTEX
  5
3C3
  8
DATA
  6
CONTINUOUS
 62
     7
 10
463.48185539148358
 20
743.04999991585169
 30
0.0
  0
SEQEND
  5
3C4
  8
DATA
  6
CONTINUOUS
 62
     7
  0
TEXT
  5
112
  8
DATA
 62
     7
 10
514.12565782252454
 20
753.2745834754686
 30
0.0
 40
2.646866861979166
  1
Reset
 50
180.0
 41
0.7
 11
514.12565782252454
 21
750.6277166134895
 31
0.0
 73
     3
  0
TEXT
  5
113
  8
DATA
 62
     7
 10
501.48372752026643
 20
730.06921746736191
 30
0.0
 40
2.646866861979166
  1
SPDIF
 50
180.0
 41
0.7
 11
501.48372752026643
 21
727.42235060538269
 31
0.0
 73
     3
  0
TEXT
  5
114
  8
DATA
 62
     7
 10
499.97303687521702
 20
733.57990811241098
 30
0.0
 40
2.646866861979166
  1
Out
 50
180.0
 41
0.7
 11
499.97303687521702
 21
730.93304125043176
 31
0.0
 73
     3
  0
TEXT
  5
115
  8
DATA
 62
     7
 10
490.53954586711052
 20
730.06921746736191
 30
0.0
 40
2.646866861979166
  1
Optical
 50
180.0
 41
0.7
 11
490.53954586711052
 21
727.42235060538269
 31
0.0
 73
     3
  0
TEXT
  5
116
  8
DATA
 62
     7
 10
487.3293282463809
 20
733.57990811241098
 30
0.0
 40
2.646866861979166
  1
Out
 50
180.0
 41
0.7
 11
487.3293282463809
 21
730.93304125043176
 31
0.0
 73
     3
  0
TEXT
  5
117
  8
DATA
 62
     7
 10
474.46236554371711
 20
753.2745834754686
 30
0.0
 40
2.646866861979166
  1
HDMI Out
 50
180.0
 41
0.7
 11
474.46236554371711
 21
750.6277166134895
 31
0.0
 73
     3
  0
CIRCLE
  5
118
  8
DATA
  6
CONTINUOUS
 62
     7
 10
451.49999999999989
 20
741.49999999984755
 30
0.0
 40
4.1999999999999877
  0
POLYLINE
  5
119
  8
DATA
  6
CONTINUOUS
 62
     7
 66
     1
 10
0.0
 20
0.0
 30
0.0
 70
     1
  0
VERTEX
  5
3C5
  8
DATA
  6
CONTINUOUS
 62
     7
 10
433.49999999999989
 20
746.49999999984755
 30
0.0
  0
VERTEX
  5
3C6
  8
DATA
  6
CONTINUOUS
 62
     7
 10
443.5
 20
746.49999999984755
 30
0.0
  0
VERTEX
  5
3C7
  8
DATA
  6
CONTINUOUS
 62
     7
 10
443.5
 20
736.49999999984755
 30
0.0
  0
VERTEX
  5
3C8
  8
DATA
  6
CONTINUOUS
 62
     7
 10
433.49999999999989
 20
736.49999999984755
 30
0.0
  0
SEQEND
  5
3C9
  8
DATA
  6
CONTINUOUS
 62
     7
  0
POLYLINE
  5
120
  8
DATA
  6
CONTINUOUS
 62
     7
 66
     1
 10
0.0
 20
0.0
 30
0.0
 70
     1
  0
VERTEX
  5
3CA
  8
DATA
  6
CONTINUOUS
 62
     7
 10
419.98185539148369
 20
732.3204610683847
 30
0.0
  0
VERTEX
  5
3CB
  8
DATA
  6
CONTINUOUS
 62
     7
 10
422.48185539148358
 20
730.87708539541075
 30
0.0
  0
VERTEX
  5
3CC
  8
DATA
  6
CONTINUOUS
 62
     7
 10
424.98185539148358
 20
732.3204610683847
 30
0.0
  0
VERTEX
  5
3CD
  8
DATA
  6
CONTINUOUS
 62
     7
 10
424.98185539148358
 20
735.20721241433296
 30
0.0
  0
VERTEX
  5
3CE
  8
DATA
  6
CONTINUOUS
 62
     7
 10
422.48185539148358
 20
736.65058808730703
 30
0.0
  0
VERTEX
  5
3CF
  8
DATA
  6
CONTINUOUS
 62
     7
 10
419.98185539148369
 20
735.20721241433296
 30
0.0
  0
SEQEND
  5
3D0
  8
DATA
  6
CONTINUOUS
 62
     7
  0
CIRCLE
  5
129
  8
DATA
  6
CONTINUOUS
 62
     7
 10
422.48185539148358
 20
733.763836741359
 30
0.0
 40
1.2000000000000171
  0
LINE
  5
12A
  8
DATA
  6
CONTINUOUS
 62
     7
 10
414.63185539148361
 20
740.76383674135889
 30
0.0
 11
430.33185539148371
 21
740.76383674135889
 31
0.0
  0
LINE
  5
12B
  8
DATA
  6
CONTINUOUS
 62
     7
 10
414.63185539148361
 20
740.76383674135889
 30
0.0
 11
414.63185539148361
 21
745.06383674135895
 31
0.0
  0
LINE
  5
12C
  8
DATA
  6
CONTINUOUS
 62
     7
 10
430.33185539148371
 20
740.76383674135889
 30
0.0
 11
430.33185539148371
 21
745.06383674135895
 31
0.0
  0
LINE
  5
12D
  8
DATA
  6
CONTINUOUS
 62
     7
 10
414.63185539148361
 20
745.06383674135895
 30
0.0
 11
417.23185539148369
 21
746.763836741359
 31
0.0
  0
LINE
  5
12E
  8
DATA
  6
CONTINUOUS
 62
     7
 10
430.33185539148371
 20
745.06383674135895
 30
0.0
 11
427.73185539148358
 21
746.763836741359
 31
0.0
  0
LINE
  5
12F
  8
DATA
  6
CONTINUOUS
 62
     7
 10
417.23185539148369
 20
746.763836741359
 30
0.0
 11
427.73185539148358
 21
746.763836741359
 31
0.0
  0
POLYLINE
  5
130
  8
DATA
  6
CONTINUOUS
 62
     7
 66
     1
 10
0.0
 20
0.0
 30
0.0
 70
     1
  0
VERTEX
  5
3D1
  8
DATA
  6
CONTINUOUS
 62
     7
 10
417.48185539148358
 20
743.54999991585169
 30
0.0
  0
VERTEX
  5
3D2
  8
DATA
  6
CONTINUOUS
 62
     7
 10
427.48185539148369
 20
743.54999991585169
 30
0.0
  0
VERTEX
  5
3D3
  8
DATA
  6
CONTINUOUS
 62
     7
 10
427.48185539148369
 20
743.04999991585169
 30
0.0
  0
VERTEX
  5
3D4
  8
DATA
  6
CONTINUOUS
 62
     7
 10
417.48185539148358
 20
743.04999991585169
 30
0.0
  0
SEQEND
  5
3D5
  8
DATA
  6
CONTINUOUS
 62
     7
  0
TEXT
  5
137
  8
DATA
 62
     7
 10
455.48372752026643
 20
730.06921746736191
 30
0.0
 40
2.646866861979166
  1
SPDIF
 50
180.0
 41
0.7
 11
455.48372752026643
 21
727.42235060538269
 31
0.0
 73
     3
  0
TEXT
  5
138
  8
DATA
 62
     7
 10
453.97303687521702
 20
733.57990811241098
 30
0.0
 40
2.646866861979166
  1
In 2
 50
180.0
 41
0.7
 11
453.97303687521702
 21
730.93304125043176
 31
0.0
 73
     3
  0
TEXT
  5
139
  8
DATA
 62
     7
 10
444.53954586711052
 20
730.06921746736191
 30
0.0
 40
2.646866861979166
  1
Optical
 50
180.0
 41
0.7
 11
444.53954586711052
 21
727.42235060538269
 31
0.0
 73
     3
  0
TEXT
  5
13A
  8
DATA
 62
     7
 10
441.3293282463809
 20
733.57990811241098
 30
0.0
 40
2.646866861979166
  1
In 2
 50
180.0
 41
0.7
 11
441.3293282463809
 21
730.93304125043176
 31
0.0
 73
     3
  0
TEXT
  5
13B
  8
DATA
 62
     7
 10
430.05718606859369
 20
753.2745834754686
 30
0.0
 40
2.646866861979166
  1
HDMI In 2
 50
180.0
 41
0.7
 11
430.05718606859369
 21
750.6277166134895
 31
0.0
 73
     3
  0
CIRCLE
  5
13C
  8
DATA
  6
CONTINUOUS
 62
     7
 10
405.49999999999989
 20
741.49999999984755
 30
0.0
 40
4.1999999999999877
  0
POLYLINE
  5
13D
  8
DATA
  6
CONTINUOUS
 62
     7
 66
     1
 10
0.0
 20
0.0
 30
0.0
 70
     1
  0
VERTEX
  5
3D6
  8
DATA
  6
CONTINUOUS
 62
     7
 10
387.5
 20
746.49999999984755
 30
0.0
  0
VERTEX
  5
3D7
  8
DATA
  6
CONTINUOUS
 62
     7
 10
397.5
 20
746.49999999984755
 30
0.0
  0
VERTEX
  5
3D8
  8
DATA
  6
CONTINUOUS
 62
     7
 10
397.5
 20
736.49999999984755
 30
0.0
  0
VERTEX
  5
3D9
  8
DATA
  6
CONTINUOUS
 62
     7
 10
387.5
 20
736.49999999984755
 30
0.0
  0
SEQEND
  5
3DA
  8
DATA
  6
CONTINUOUS
 62
     7
  0
POLYLINE
  5
144
  8
DATA
  6
CONTINUOUS
 62
     7
 66
     1
 10
0.0
 20
0.0
 30
0.0
 70
     1
  0
VERTEX
  5
3DB
  8
DATA
  6
CONTINUOUS
 62
     7
 10
373.98185539148369
 20
732.3204610683847
 30
0.0
  0
VERTEX
  5
3DC
  8
DATA
  6
CONTINUOUS
 62
     7
 10
376.48185539148369
 20
730.87708539541075
 30
0.0
  0
VERTEX
  5
3DD
  8
DATA
  6
CONTINUOUS
 62
     7
 10
378.98185539148369
 20
732.3204610683847
 30
0.0
  0
VERTEX
  5
3DE
  8
DATA
  6
CONTINUOUS
 62
     7
 10
378.98185539148369
 20
735.20721241433296
 30
0.0
  0
VERTEX
  5
3DF
  8
DATA
  6
CONTINUOUS
 62
     7
 10
376.48185539148369
 20
736.65058808730703
 30
0.0
  0
VERTEX
  5
3E0
  8
DATA
  6
CONTINUOUS
 62
     7
 10
373.98185539148369
 20
735.20721241433296
 30
0.0
  0
SEQEND
  5
3E1
  8
DATA
  6
CONTINUOUS
 62
     7
  0
CIRCLE
  5
14D
  8
DATA
  6
CONTINUOUS
 62
     7
 10
376.48185539148369
 20
733.763836741359
 30
0.0
 40
1.2000000000000171
  0
LINE
  5
14E
  8
DATA
  6
CONTINUOUS
 62
     7
 10
368.63185539148373
 20
740.76383674135889
 30
0.0
 11
384.33185539148371
 21
740.76383674135889
 31
0.0
  0
LINE
  5
14F
  8
DATA
  6
CONTINUOUS
 62
     7
 10
368.63185539148373
 20
740.76383674135889
 30
0.0
 11
368.63185539148373
 21
745.06383674135895
 31
0.0
  0
LINE
  5
150
  8
DATA
  6
CONTINUOUS
 62
     7
 10
384.33185539148371
 20
740.76383674135889
 30
0.0
 11
384.33185539148371
 21
745.06383674135895
 31
0.0
  0
LINE
  5
151
  8
DATA
  6
CONTINUOUS
 62
     7
 10
368.63185539148373
 20
745.06383674135895
 30
0.0
 11
371.23185539148369
 21
746.763836741359
 31
0.0
  0
LINE
  5
152
  8
DATA
  6
CONTINUOUS
 62
     7
 10
384.33185539148371
 20
745.06383674135895
 30
0.0
 11
381.73185539148369
 21
746.763836741359
 31
0.0
  0
LINE
  5
153
  8
DATA
  6
CONTINUOUS
 62
     7
 10
371.23185539148369
 20
746.763836741359
 30
0.0
 11
381.73185539148369
 21
746.763836741359
 31
0.0
  0
POLYLINE
  5
154
  8
DATA
  6
CONTINUOUS
 62
     7
 66
     1
 10
0.0
 20
0.0
 30
0.0
 70
     1
  0
VERTEX
  5
3E2
  8
DATA
  6
CONTINUOUS
 62
     7
 10
371.48185539148369
 20
743.54999991585169
 30
0.0
  0
VERTEX
  5
3E3
  8
DATA
  6
CONTINUOUS
 62
     7
 10
381.48185539148369
 20
743.54999991585169
 30
0.0
  0
VERTEX
  5
3E4
  8
DATA
  6
CONTINUOUS
 62
     7
 10
381.48185539148369
 20
743.04999991585169
 30
0.0
  0
VERTEX
  5
3E5
  8
DATA
  6
CONTINUOUS
 62
     7
 10
371.48185539148369
 20
743.04999991585169
 30
0.0
  0
SEQEND
  5
3E6
  8
DATA
  6
CONTINUOUS
 62
     7
  0
TEXT
  5
15B
  8
DATA
 62
     7
 10
409.48372752026631
 20
730.06921746736191
 30
0.0
 40
2.646866861979166
  1
SPDIF
 50
180.0
 41
0.7
 11
409.48372752026631
 21
727.42235060538269
 31
0.0
 73
     3
  0
TEXT
  5
15C
  8
DATA
 62
     7
 10
407.97303687521702
 20
733.57990811241098
 30
0.0
 40
2.646866861979166
  1
In 1
 50
180.0
 41
0.7
 11
407.97303687521702
 21
730.93304125043176
 31
0.0
 73
     3
  0
TEXT
  5
15D
  8
DATA
 62
     7
 10
398.53954586711052
 20
730.06921746736191
 30
0.0
 40
2.646866861979166
  1
Optical
 50
180.0
 41
0.7
 11
398.53954586711052
 21
727.42235060538269
 31
0.0
 73
     3
  0
TEXT
  5
15E
  8
DATA
 62
     7
 10
395.72586707691278
 20
733.57990811241098
 30
0.0
 40
2.646866861979166
  1
In 1
 50
180.0
 41
0.7
 11
395.72586707691278
 21
730.93304125043176
 31
0.0
 73
     3
  0
TEXT
  5
15F
  8
DATA
 62
     7
 10
384.05718606859369
 20
753.2745834754686
 30
0.0
 40
2.646866861979166
  1
HDMI In 1
 50
180.0
 41
0.7
 11
384.05718606859369
 21
750.6277166134895
 31
0.0
 73
     3
  0
CIRCLE
  5
160
  8
DATA
  6
CONTINUOUS
 62
     7
 10
217.5
 20
742.49999999984755
 30
0.0
 40
3.3500000000000218
  0
CIRCLE
  5
161
  8
DATA
  6
CONTINUOUS
 62
     7
 10
217.5
 20
742.49999999984755
 30
0.0
 40
0.5
  0
CIRCLE
  5
162
  8
DATA
  6
CONTINUOUS
 62
     7
 10
229.5
 20
742.49999999984755
 30
0.0
 40
4.1499999999999764
  0
CIRCLE
  5
163
  8
DATA
  6
CONTINUOUS
 62
     7
 10
229.5
 20
742.49999999984755
 30
0.0
 40
1.699999999999988
  0
CIRCLE
  5
164
  8
DATA
  6
CONTINUOUS
 62
     7
 10
257.62851293861269
 20
742.49999999984755
 30
0.0
 40
4.1500000000000048
  0
CIRCLE
  5
165
  8
DATA
  6
CONTINUOUS
 62
     7
 10
257.62851293861269
 20
742.49999999984755
 30
0.0
 40
1.7000000000000171
  0
CIRCLE
  5
166
  8
DATA
  6
CONTINUOUS
 62
     7
 10
257.62851293861269
 20
728.49999999984755
 30
0.0
 40
4.1500000000000048
  0
CIRCLE
  5
167
  8
DATA
  6
CONTINUOUS
 62
     7
 10
257.62851293861269
 20
728.49999999984755
 30
0.0
 40
1.7000000000000171
  0
CIRCLE
  5
168
  8
DATA
  6
CONTINUOUS
 62
     7
 10
273.12851293861269
 20
723.24515995721072
 30
0.0
 40
4.1500000000000048
  0
CIRCLE
  5
169
  8
DATA
  6
CONTINUOUS
 62
     7
 10
273.12851293861269
 20
723.24515995721072
 30
0.0
 40
1.7000000000000171
  0
CIRCLE
  5
16A
  8
DATA
  6
CONTINUOUS
 62
     7
 10
292.12851293861269
 20
742.49999999984755
 30
0.0
 40
4.1500000000000048
  0
CIRCLE
  5
16B
  8
DATA
  6
CONTINUOUS
 62
     7
 10
292.12851293861269
 20
742.49999999984755
 30
0.0
 40
1.7000000000000171
  0
CIRCLE
  5
16C
  8
DATA
  6
CONTINUOUS
 62
     7
 10
305.62851293861257
 20
742.49999999984755
 30
0.0
 40
4.149999999999948
  0
CIRCLE
  5
16D
  8
DATA
  6
CONTINUOUS
 62
     7
 10
305.62851293861257
 20
742.49999999984755
 30
0.0
 40
1.699999999999988
  0
CIRCLE
  5
16E
  8
DATA
  6
CONTINUOUS
 62
     7
 10
292.12851293861269
 20
728.49999999984755
 30
0.0
 40
4.1500000000000048
  0
CIRCLE
  5
16F
  8
DATA
  6
CONTINUOUS
 62
     7
 10
292.12851293861269
 20
728.49999999984755
 30
0.0
 40
1.7000000000000171
  0
CIRCLE
  5
170
  8
DATA
  6
CONTINUOUS
 62
     7
 10
305.62851293861257
 20
728.49999999984755
 30
0.0
 40
4.149999999999948
  0
CIRCLE
  5
171
  8
DATA
  6
CONTINUOUS
 62
     7
 10
305.62851293861257
 20
728.49999999984755
 30
0.0
 40
1.699999999999988
  0
CIRCLE
  5
172
  8
DATA
  6
CONTINUOUS
 62
     7
 10
273.12851293861269
 20
737.49999999984755
 30
0.0
 40
6.3000000000000114
  0
CIRCLE
  5
173
  8
DATA
  6
CONTINUOUS
 62
     7
 10
323.38376967040517
 20
727.35254189196837
 30
0.0
 40
1.175000000000068
  0
POLYLINE
  5
174
  8
DATA
  6
CONTINUOUS
 62
     7
 66
     1
 10
0.0
 20
0.0
 30
0.0
 70
     1
  0
VERTEX
  5
3E7
  8
DATA
  6
CONTINUOUS
 62
     7
 10
323.38376967040517
 20
724.65254189196855
 30
0.0
  0
VERTEX
  5
3E8
  8
DATA
  6
CONTINUOUS
 62
     7
 10
325.72203826062309
 20
726.00254189196869
 30
0.0
  0
VERTEX
  5
3E9
  8
DATA
  6
CONTINUOUS
 62
     7
 10
325.72203826062309
 20
728.70254189196851
 30
0.0
  0
VERTEX
  5
3EA
  8
DATA
  6
CONTINUOUS
 62
     7
 10
323.38376967040517
 20
730.05254189196842
 30
0.0
  0
VERTEX
  5
3EB
  8
DATA
  6
CONTINUOUS
 62
     7
 10
321.04550108018719
 20
728.70254189196851
 30
0.0
  0
VERTEX
  5
3EC
  8
DATA
  6
CONTINUOUS
 62
     7
 10
321.04550108018719
 20
726.00254189196869
 30
0.0
  0
SEQEND
  5
3ED
  8
DATA
  6
CONTINUOUS
 62
     7
  0
CIRCLE
  5
17D
  8
DATA
  6
CONTINUOUS
 62
     7
 10
348.3837696704054
 20
727.35254189196837
 30
0.0
 40
1.175000000000068
  0
POLYLINE
  5
17E
  8
DATA
  6
CONTINUOUS
 62
     7
 66
     1
 10
0.0
 20
0.0
 30
0.0
 70
     1
  0
VERTEX
  5
3EE
  8
DATA
  6
CONTINUOUS
 62
     7
 10
348.3837696704054
 20
724.65254189196855
 30
0.0
  0
VERTEX
  5
3EF
  8
DATA
  6
CONTINUOUS
 62
     7
 10
350.72203826062338
 20
726.00254189196869
 30
0.0
  0
VERTEX
  5
3F0
  8
DATA
  6
CONTINUOUS
 62
     7
 10
350.72203826062338
 20
728.70254189196851
 30
0.0
  0
VERTEX
  5
3F1
  8
DATA
  6
CONTINUOUS
 62
     7
 10
348.3837696704054
 20
730.05254189196842
 30
0.0
  0
VERTEX
  5
3F2
  8
DATA
  6
CONTINUOUS
 62
     7
 10
346.04550108018748
 20
728.70254189196851
 30
0.0
  0
VERTEX
  5
3F3
  8
DATA
  6
CONTINUOUS
 62
     7
 10
346.04550108018748
 20
726.00254189196869
 30
0.0
  0
SEQEND
  5
3F4
  8
DATA
  6
CONTINUOUS
 62
     7
  0
LINE
  5
187
  8
DATA
  6
CONTINUOUS
 62
     7
 10
330.28200646021668
 20
731.35254189196837
 30
0.0
 11
341.48553288059401
 21
731.35254189196837
 31
0.0
  0
LINE
  5
188
  8
DATA
  6
CONTINUOUS
 62
     7
 10
342.29803288059378
 20
723.35254189196871
 30
0.0
 11
329.46950646021668
 21
723.35254189196871
 31
0.0
  0
LINE
  5
189
  8
DATA
  6
CONTINUOUS
 62
     7
 10
342.86874972784551
 20
730.16866952435134
 30
0.0
 11
343.6812497278454
 21
724.96866952435164
 31
0.0
  0
LINE
  5
18A
  8
DATA
  6
CONTINUOUS
 62
     7
 10
328.08628961296512
 20
724.96866952435164
 30
0.0
 11
328.89878961296517
 21
730.16866952435134
 31
0.0
  0
CIRCLE
  5
18B
  8
DATA
  6
CONTINUOUS
 62
     7
 10
335.91039944088021
 20
725.71623372081467
 30
0.0
 40
0.5
  0
ARC
  5
18C
  8
DATA
  6
CONTINUOUS
 62
     7
 10
342.29803288059378
 20
724.75254189196858
 30
0.0
 40
1.400000000000005
 50
270.0
 51
8.8806591505205574
  0
ARC
  5
18D
  8
DATA
  6
CONTINUOUS
 62
     7
 10
329.46950646021668
 20
724.75254189196858
 30
0.0
 40
1.4000000000000521
 50
171.1193408494785
 51
270.0
  0
ARC
  5
18E
  8
DATA
  6
CONTINUOUS
 62
     7
 10
341.48553288059401
 20
729.95254189196851
 30
0.0
 40
1.400000000000015
 50
8.8806591505193833
 51
89.999999999999986
  0
ARC
  5
18F
  8
DATA
  6
CONTINUOUS
 62
     7
 10
330.28200646021668
 20
729.95254189196851
 30
0.0
 40
1.399999999999991
 50
90.0
 51
171.1193408494797
  0
CIRCLE
  5
190
  8
DATA
  6
CONTINUOUS
 62
     7
 10
338.41039944088021
 20
725.71623372081467
 30
0.0
 40
0.5
  0
CIRCLE
  5
191
  8
DATA
  6
CONTINUOUS
 62
     7
 10
340.91039944088021
 20
725.71623372081467
 30
0.0
 40
0.5
  0
CIRCLE
  5
192
  8
DATA
  6
CONTINUOUS
 62
     7
 10
333.41039944088021
 20
725.71623372081467
 30
0.0
 40
0.5
  0
CIRCLE
  5
193
  8
DATA
  6
CONTINUOUS
 62
     7
 10
330.91039944088021
 20
725.71623372081467
 30
0.0
 40
0.5
  0
CIRCLE
  5
194
  8
DATA
  6
CONTINUOUS
 62
     7
 10
337.10591061695152
 20
729.33475413957751
 30
0.0
 40
0.5
  0
CIRCLE
  5
195
  8
DATA
  6
CONTINUOUS
 62
     7
 10
339.60591061695152
 20
729.33475413957751
 30
0.0
 40
0.5
  0
CIRCLE
  5
196
  8
DATA
  6
CONTINUOUS
 62
     7
 10
334.60591061695152
 20
729.33475413957751
 30
0.0
 40
0.5
  0
CIRCLE
  5
197
  8
DATA
  6
CONTINUOUS
 62
     7
 10
332.10591061695141
 20
729.33475413957751
 30
0.0
 40
0.5
  0
CIRCLE
  5
198
  8
DATA
  6
CONTINUOUS
 62
     7
 10
352.34093229153331
 20
743.65190122369199
 30
0.0
 40
1.175000000000068
  0
POLYLINE
  5
199
  8
DATA
  6
CONTINUOUS
 62
     7
 66
     1
 10
0.0
 20
0.0
 30
0.0
 70
     1
  0
VERTEX
  5
3F5
  8
DATA
  6
CONTINUOUS
 62
     7
 10
352.34093229153331
 20
740.95190122369183
 30
0.0
  0
VERTEX
  5
3F6
  8
DATA
  6
CONTINUOUS
 62
     7
 10
354.67920088175123
 20
742.30190122369186
 30
0.0
  0
VERTEX
  5
3F7
  8
DATA
  6
CONTINUOUS
 62
     7
 10
354.67920088175123
 20
745.00190122369202
 30
0.0
  0
VERTEX
  5
3F8
  8
DATA
  6
CONTINUOUS
 62
     7
 10
352.34093229153331
 20
746.3519012236917
 30
0.0
  0
VERTEX
  5
3F9
  8
DATA
  6
CONTINUOUS
 62
     7
 10
350.00266370131521
 20
745.00190122369202
 30
0.0
  0
VERTEX
  5
3FA
  8
DATA
  6
CONTINUOUS
 62
     7
 10
350.00266370131521
 20
742.30190122369186
 30
0.0
  0
SEQEND
  5
3FB
  8
DATA
  6
CONTINUOUS
 62
     7
  0
CIRCLE
  5
1A2
  8
DATA
  6
CONTINUOUS
 62
     7
 10
319.84093229153279
 20
743.65190122369199
 30
0.0
 40
1.175000000000068
  0
POLYLINE
  5
1A3
  8
DATA
  6
CONTINUOUS
 62
     7
 66
     1
 10
0.0
 20
0.0
 30
0.0
 70
     1
  0
VERTEX
  5
3FC
  8
DATA
  6
CONTINUOUS
 62
     7
 10
319.84093229153279
 20
740.95190122369183
 30
0.0
  0
VERTEX
  5
3FD
  8
DATA
  6
CONTINUOUS
 62
     7
 10
322.1792008817506
 20
742.30190122369186
 30
0.0
  0
VERTEX
  5
3FE
  8
DATA
  6
CONTINUOUS
 62
     7
 10
322.1792008817506
 20
745.00190122369202
 30
0.0
  0
VERTEX
  5
3FF
  8
DATA
  6
CONTINUOUS
 62
     7
 10
319.84093229153279
 20
746.3519012236917
 30
0.0
  0
VERTEX
  5
400
  8
DATA
  6
CONTINUOUS
 62
     7
 10
317.5026637013147
 20
745.00190122369202
 30
0.0
  0
VERTEX
  5
401
  8
DATA
  6
CONTINUOUS
 62
     7
 10
317.5026637013147
 20
742.30190122369186
 30
0.0
  0
SEQEND
  5
402
  8
DATA
  6
CONTINUOUS
 62
     7
  0
LINE
  5
1AC
  8
DATA
  6
CONTINUOUS
 62
     7
 10
347.04083717872498
 20
739.72690122369181
 30
0.0
 11
325.14102740434078
 21
739.72690122369181
 31
0.0
  0
LINE
  5
1AD
  8
DATA
  6
CONTINUOUS
 62
     7
 10
325.69994460179288
 20
747.57690122369183
 30
0.0
 11
346.48191998127271
 21
747.57690122369183
 31
0.0
  0
POLYLINE
  5
1AE
  8
DATA
  6
CONTINUOUS
 62
     7
 66
     1
 10
0.0
 20
0.0
 30
0.0
 70
     1
  0
VERTEX
  5
403
  8
DATA
  6
CONTINUOUS
 62
     7
 10
345.56099846271258
 20
744.41690122369175
 30
0.0
  0
VERTEX
  5
404
  8
DATA
  6
CONTINUOUS
 62
     7
 10
347.09099846271249
 20
744.41690122369175
 30
0.0
  0
VERTEX
  5
405
  8
DATA
  6
CONTINUOUS
 62
     7
 10
347.09099846271249
 20
742.88690122369201
 30
0.0
  0
VERTEX
  5
406
  8
DATA
  6
CONTINUOUS
 62
     7
 10
345.56099846271258
 20
742.88690122369201
 30
0.0
  0
SEQEND
  5
407
  8
DATA
  6
CONTINUOUS
 62
     7
  0
POLYLINE
  5
1B5
  8
DATA
  6
CONTINUOUS
 62
     7
 66
     1
 10
0.0
 20
0.0
 30
0.0
 70
     1
  0
VERTEX
  5
408
  8
DATA
  6
CONTINUOUS
 62
     7
 10
343.56099846271252
 20
744.41690122369175
 30
0.0
  0
VERTEX
  5
409
  8
DATA
  6
CONTINUOUS
 62
     7
 10
345.09099846271249
 20
744.41690122369175
 30
0.0
  0
VERTEX
  5
40A
  8
DATA
  6
CONTINUOUS
 62
     7
 10
345.09099846271249
 20
742.88690122369201
 30
0.0
  0
VERTEX
  5
40B
  8
DATA
  6
CONTINUOUS
 62
     7
 10
343.56099846271252
 20
742.88690122369201
 30
0.0
  0
SEQEND
  5
40C
  8
DATA
  6
CONTINUOUS
 62
     7
  0
POLYLINE
  5
1BC
  8
DATA
  6
CONTINUOUS
 62
     7
 66
     1
 10
0.0
 20
0.0
 30
0.0
 70
     1
  0
VERTEX
  5
40D
  8
DATA
  6
CONTINUOUS
 62
     7
 10
341.56099846271252
 20
744.41690122369175
 30
0.0
  0
VERTEX
  5
40E
  8
DATA
  6
CONTINUOUS
 62
     7
 10
343.09099846271249
 20
744.41690122369175
 30
0.0
  0
VERTEX
  5
40F
  8
DATA
  6
CONTINUOUS
 62
     7
 10
343.09099846271249
 20
742.88690122369201
 30
0.0
  0
VERTEX
  5
410
  8
DATA
  6
CONTINUOUS
 62
     7
 10
341.56099846271252
 20
742.88690122369201
 30
0.0
  0
SEQEND
  5
411
  8
DATA
  6
CONTINUOUS
 62
     7
  0
POLYLINE
  5
1C3
  8
DATA
  6
CONTINUOUS
 62
     7
 66
     1
 10
0.0
 20
0.0
 30
0.0
 70
     1
  0
VERTEX
  5
412
  8
DATA
  6
CONTINUOUS
 62
     7
 10
339.56099846271252
 20
744.41690122369175
 30
0.0
  0
VERTEX
  5
413
  8
DATA
  6
CONTINUOUS
 62
     7
 10
341.09099846271249
 20
744.41690122369175
 30
0.0
  0
VERTEX
  5
414
  8
DATA
  6
CONTINUOUS
 62
     7
 10
341.09099846271249
 20
742.88690122369201
 30
0.0
  0
VERTEX
  5
415
  8
DATA
  6
CONTINUOUS
 62
     7
 10
339.56099846271252
 20
742.88690122369201
 30
0.0
  0
SEQEND
  5
416
  8
DATA
  6
CONTINUOUS
 62
     7
  0
POLYLINE
  5
1CA
  8
DATA
  6
CONTINUOUS
 62
     7
 66
     1
 10
0.0
 20
0.0
 30
0.0
 70
     1
  0
VERTEX
  5
417
  8
DATA
  6
CONTINUOUS
 62
     7
 10
337.5609984627124
 20
744.41690122369175
 30
0.0
  0
VERTEX
  5
418
  8
DATA
  6
CONTINUOUS
 62
     7
 10
339.09099846271249
 20
744.41690122369175
 30
0.0
  0
VERTEX
  5
419
  8
DATA
  6
CONTINUOUS
 62
     7
 10
339.09099846271249
 20
742.88690122369201
 30
0.0
  0
VERTEX
  5
41A
  8
DATA
  6
CONTINUOUS
 62
     7
 10
337.5609984627124
 20
742.88690122369201
 30
0.0
  0
SEQEND
  5
41B
  8
DATA
  6
CONTINUOUS
 62
     7
  0
POLYLINE
  5
1D1
  8
DATA
  6
CONTINUOUS
 62
     7
 66
     1
 10
0.0
 20
0.0
 30
0.0
 70
     1
  0
VERTEX
  5
41C
  8
DATA
  6
CONTINUOUS
 62
     7
 10
335.56099846271218
 20
744.41690122369175
 30
0.0
  0
VERTEX
  5
41D
  8
DATA
  6
CONTINUOUS
 62
     7
 10
337.09099846271238
 20
744.41690122369175
 30
0.0
  0
VERTEX
  5
41E
  8
DATA
  6
CONTINUOUS
 62
     7
 10
337.09099846271238
 20
742.88690122369201
 30
0.0
  0
VERTEX
  5
41F
  8
DATA
  6
CONTINUOUS
 62
     7
 10
335.56099846271218
 20
742.88690122369201
 30
0.0
  0
SEQEND
  5
420
  8
DATA
  6
CONTINUOUS
 62
     7
  0
POLYLINE
  5
1D8
  8
DATA
  6
CONTINUOUS
 62
     7
 66
     1
 10
0.0
 20
0.0
 30
0.0
 70
     1
  0
VERTEX
  5
421
  8
DATA
  6
CONTINUOUS
 62
     7
 10
333.56099846271201
 20
744.41690122369175
 30
0.0
  0
VERTEX
  5
422
  8
DATA
  6
CONTINUOUS
 62
     7
 10
335.09099846271221
 20
744.41690122369175
 30
0.0
  0
VERTEX
  5
423
  8
DATA
  6
CONTINUOUS
 62
     7
 10
335.09099846271221
 20
742.88690122369201
 30
0.0
  0
VERTEX
  5
424
  8
DATA
  6
CONTINUOUS
 62
     7
 10
333.56099846271201
 20
742.88690122369201
 30
0.0
  0
SEQEND
  5
425
  8
DATA
  6
CONTINUOUS
 62
     7
  0
POLYLINE
  5
1DF
  8
DATA
  6
CONTINUOUS
 62
     7
 66
     1
 10
0.0
 20
0.0
 30
0.0
 70
     1
  0
VERTEX
  5
426
  8
DATA
  6
CONTINUOUS
 62
     7
 10
331.56099846271201
 20
744.41690122369175
 30
0.0
  0
VERTEX
  5
427
  8
DATA
  6
CONTINUOUS
 62
     7
 10
333.09099846271198
 20
744.41690122369175
 30
0.0
  0
VERTEX
  5
428
  8
DATA
  6
CONTINUOUS
 62
     7
 10
333.09099846271198
 20
742.88690122369201
 30
0.0
  0
VERTEX
  5
429
  8
DATA
  6
CONTINUOUS
 62
     7
 10
331.56099846271201
 20
742.88690122369201
 30
0.0
  0
SEQEND
  5
42A
  8
DATA
  6
CONTINUOUS
 62
     7
  0
POLYLINE
  5
1E6
  8
DATA
  6
CONTINUOUS
 62
     7
 66
     1
 10
0.0
 20
0.0
 30
0.0
 70
     1
  0
VERTEX
  5
42B
  8
DATA
  6
CONTINUOUS
 62
     7
 10
345.56099846271258
 20
742.41690122369187
 30
0.0
  0
VERTEX
  5
42C
  8
DATA
  6
CONTINUOUS
 62
     7
 10
347.09099846271249
 20
742.41690122369187
 30
0.0
  0
VERTEX
  5
42D
  8
DATA
  6
CONTINUOUS
 62
     7
 10
347.09099846271249
 20
740.88690122369201
 30
0.0
  0
VERTEX
  5
42E
  8
DATA
  6
CONTINUOUS
 62
     7
 10
345.56099846271258
 20
740.88690122369201
 30
0.0
  0
SEQEND
  5
42F
  8
DATA
  6
CONTINUOUS
 62
     7
  0
POLYLINE
  5
1ED
  8
DATA
  6
CONTINUOUS
 62
     7
 66
     1
 10
0.0
 20
0.0
 30
0.0
 70
     1
  0
VERTEX
  5
430
  8
DATA
  6
CONTINUOUS
 62
     7
 10
343.56099846271252
 20
742.41690122369187
 30
0.0
  0
VERTEX
  5
431
  8
DATA
  6
CONTINUOUS
 62
     7
 10
345.09099846271249
 20
742.41690122369187
 30
0.0
  0
VERTEX
  5
432
  8
DATA
  6
CONTINUOUS
 62
     7
 10
345.09099846271249
 20
740.88690122369201
 30
0.0
  0
VERTEX
  5
433
  8
DATA
  6
CONTINUOUS
 62
     7
 10
343.56099846271252
 20
740.88690122369201
 30
0.0
  0
SEQEND
  5
434
  8
DATA
  6
CONTINUOUS
 62
     7
  0
POLYLINE
  5
1F4
  8
DATA
  6
CONTINUOUS
 62
     7
 66
     1
 10
0.0
 20
0.0
 30
0.0
 70
     1
  0
VERTEX
  5
435
  8
DATA
  6
CONTINUOUS
 62
     7
 10
341.56099846271252
 20
742.41690122369187
 30
0.0
  0
VERTEX
  5
436
  8
DATA
  6
CONTINUOUS
 62
     7
 10
343.09099846271249
 20
742.41690122369187
 30
0.0
  0
VERTEX
  5
437
  8
DATA
  6
CONTINUOUS
 62
     7
 10
343.09099846271249
 20
740.88690122369201
 30
0.0
  0
VERTEX
  5
438
  8
DATA
  6
CONTINUOUS
 62
     7
 10
341.56099846271252
 20
740.88690122369201
 30
0.0
  0
SEQEND
  5
439
  8
DATA
  6
CONTINUOUS
 62
     7
  0
POLYLINE
  5
1FB
  8
DATA
  6
CONTINUOUS
 62
     7
 66
     1
 10
0.0
 20
0.0
 30
0.0
 70
     1
  0
VERTEX
  5
43A
  8
DATA
  6
CONTINUOUS
 62
     7
 10
339.56099846271252
 20
742.41690122369187
 30
0.0
  0
VERTEX
  5
43B
  8
DATA
  6
CONTINUOUS
 62
     7
 10
341.09099846271249
 20
742.41690122369187
 30
0.0
  0
VERTEX
  5
43C
  8
DATA
  6
CONTINUOUS
 62
     7
 10
341.09099846271249
 20
740.88690122369201
 30
0.0
  0
VERTEX
  5
43D
  8
DATA
  6
CONTINUOUS
 62
     7
 10
339.56099846271252
 20
740.88690122369201
 30
0.0
  0
SEQEND
  5
43E
  8
DATA
  6
CONTINUOUS
 62
     7
  0
POLYLINE
  5
202
  8
DATA
  6
CONTINUOUS
 62
     7
 66
     1
 10
0.0
 20
0.0
 30
0.0
 70
     1
  0
VERTEX
  5
43F
  8
DATA
  6
CONTINUOUS
 62
     7
 10
337.5609984627124
 20
742.41690122369187
 30
0.0
  0
VERTEX
  5
440
  8
DATA
  6
CONTINUOUS
 62
     7
 10
339.09099846271249
 20
742.41690122369187
 30
0.0
  0
VERTEX
  5
441
  8
DATA
  6
CONTINUOUS
 62
     7
 10
339.09099846271249
 20
740.88690122369201
 30
0.0
  0
VERTEX
  5
442
  8
DATA
  6
CONTINUOUS
 62
     7
 10
337.5609984627124
 20
740.88690122369201
 30
0.0
  0
SEQEND
  5
443
  8
DATA
  6
CONTINUOUS
 62
     7
  0
POLYLINE
  5
209
  8
DATA
  6
CONTINUOUS
 62
     7
 66
     1
 10
0.0
 20
0.0
 30
0.0
 70
     1
  0
VERTEX
  5
444
  8
DATA
  6
CONTINUOUS
 62
     7
 10
335.56099846271218
 20
742.41690122369187
 30
0.0
  0
VERTEX
  5
445
  8
DATA
  6
CONTINUOUS
 62
     7
 10
337.09099846271238
 20
742.41690122369187
 30
0.0
  0
VERTEX
  5
446
  8
DATA
  6
CONTINUOUS
 62
     7
 10
337.09099846271238
 20
740.88690122369201
 30
0.0
  0
VERTEX
  5
447
  8
DATA
  6
CONTINUOUS
 62
     7
 10
335.56099846271218
 20
740.88690122369201
 30
0.0
  0
SEQEND
  5
448
  8
DATA
  6
CONTINUOUS
 62
     7
  0
POLYLINE
  5
210
  8
DATA
  6
CONTINUOUS
 62
     7
 66
     1
 10
0.0
 20
0.0
 30
0.0
 70
     1
  0
VERTEX
  5
449
  8
DATA
  6
CONTINUOUS
 62
     7
 10
333.56099846271201
 20
742.41690122369187
 30
0.0
  0
VERTEX
  5
44A
  8
DATA
  6
CONTINUOUS
 62
     7
 10
335.09099846271221
 20
742.41690122369187
 30
0.0
  0
VERTEX
  5
44B
  8
DATA
  6
CONTINUOUS
 62
     7
 10
335.09099846271221
 20
740.88690122369201
 30
0.0
  0
VERTEX
  5
44C
  8
DATA
  6
CONTINUOUS
 62
     7
 10
333.56099846271201
 20
740.88690122369201
 30
0.0
  0
SEQEND
  5
44D
  8
DATA
  6
CONTINUOUS
 62
     7
  0
POLYLINE
  5
217
  8
DATA
  6
CONTINUOUS
 62
     7
 66
     1
 10
0.0
 20
0.0
 30
0.0
 70
     1
  0
VERTEX
  5
44E
  8
DATA
  6
CONTINUOUS
 62
     7
 10
331.56099846271201
 20
742.41690122369187
 30
0.0
  0
VERTEX
  5
44F
  8
DATA
  6
CONTINUOUS
 62
     7
 10
333.09099846271198
 20
742.41690122369187
 30
0.0
  0
VERTEX
  5
450
  8
DATA
  6
CONTINUOUS
 62
     7
 10
333.09099846271198
 20
740.88690122369201
 30
0.0
  0
VERTEX
  5
451
  8
DATA
  6
CONTINUOUS
 62
     7
 10
331.56099846271201
 20
740.88690122369201
 30
0.0
  0
SEQEND
  5
452
  8
DATA
  6
CONTINUOUS
 62
     7
  0
POLYLINE
  5
21E
  8
DATA
  6
CONTINUOUS
 62
     7
 66
     1
 10
0.0
 20
0.0
 30
0.0
 70
     1
  0
VERTEX
  5
453
  8
DATA
  6
CONTINUOUS
 62
     7
 10
345.56099846271258
 20
746.41690122369187
 30
0.0
  0
VERTEX
  5
454
  8
DATA
  6
CONTINUOUS
 62
     7
 10
347.09099846271249
 20
746.41690122369187
 30
0.0
  0
VERTEX
  5
455
  8
DATA
  6
CONTINUOUS
 62
     7
 10
347.09099846271249
 20
744.88690122369201
 30
0.0
  0
VERTEX
  5
456
  8
DATA
  6
CONTINUOUS
 62
     7
 10
345.56099846271258
 20
744.88690122369201
 30
0.0
  0
SEQEND
  5
457
  8
DATA
  6
CONTINUOUS
 62
     7
  0
POLYLINE
  5
225
  8
DATA
  6
CONTINUOUS
 62
     7
 66
     1
 10
0.0
 20
0.0
 30
0.0
 70
     1
  0
VERTEX
  5
458
  8
DATA
  6
CONTINUOUS
 62
     7
 10
343.56099846271252
 20
746.41690122369187
 30
0.0
  0
VERTEX
  5
459
  8
DATA
  6
CONTINUOUS
 62
     7
 10
345.09099846271249
 20
746.41690122369187
 30
0.0
  0
VERTEX
  5
45A
  8
DATA
  6
CONTINUOUS
 62
     7
 10
345.09099846271249
 20
744.88690122369201
 30
0.0
  0
VERTEX
  5
45B
  8
DATA
  6
CONTINUOUS
 62
     7
 10
343.56099846271252
 20
744.88690122369201
 30
0.0
  0
SEQEND
  5
45C
  8
DATA
  6
CONTINUOUS
 62
     7
  0
POLYLINE
  5
22C
  8
DATA
  6
CONTINUOUS
 62
     7
 66
     1
 10
0.0
 20
0.0
 30
0.0
 70
     1
  0
VERTEX
  5
45D
  8
DATA
  6
CONTINUOUS
 62
     7
 10
341.56099846271252
 20
746.41690122369187
 30
0.0
  0
VERTEX
  5
45E
  8
DATA
  6
CONTINUOUS
 62
     7
 10
343.09099846271249
 20
746.41690122369187
 30
0.0
  0
VERTEX
  5
45F
  8
DATA
  6
CONTINUOUS
 62
     7
 10
343.09099846271249
 20
744.88690122369201
 30
0.0
  0
VERTEX
  5
460
  8
DATA
  6
CONTINUOUS
 62
     7
 10
341.56099846271252
 20
744.88690122369201
 30
0.0
  0
SEQEND
  5
461
  8
DATA
  6
CONTINUOUS
 62
     7
  0
POLYLINE
  5
233
  8
DATA
  6
CONTINUOUS
 62
     7
 66
     1
 10
0.0
 20
0.0
 30
0.0
 70
     1
  0
VERTEX
  5
462
  8
DATA
  6
CONTINUOUS
 62
     7
 10
339.56099846271252
 20
746.41690122369187
 30
0.0
  0
VERTEX
  5
463
  8
DATA
  6
CONTINUOUS
 62
     7
 10
341.09099846271249
 20
746.41690122369187
 30
0.0
  0
VERTEX
  5
464
  8
DATA
  6
CONTINUOUS
 62
     7
 10
341.09099846271249
 20
744.88690122369201
 30
0.0
  0
VERTEX
  5
465
  8
DATA
  6
CONTINUOUS
 62
     7
 10
339.56099846271252
 20
744.88690122369201
 30
0.0
  0
SEQEND
  5
466
  8
DATA
  6
CONTINUOUS
 62
     7
  0
POLYLINE
  5
23A
  8
DATA
  6
CONTINUOUS
 62
     7
 66
     1
 10
0.0
 20
0.0
 30
0.0
 70
     1
  0
VERTEX
  5
467
  8
DATA
  6
CONTINUOUS
 62
     7
 10
337.5609984627124
 20
746.41690122369187
 30
0.0
  0
VERTEX
  5
468
  8
DATA
  6
CONTINUOUS
 62
     7
 10
339.09099846271249
 20
746.41690122369187
 30
0.0
  0
VERTEX
  5
469
  8
DATA
  6
CONTINUOUS
 62
     7
 10
339.09099846271249
 20
744.88690122369201
 30
0.0
  0
VERTEX
  5
46A
  8
DATA
  6
CONTINUOUS
 62
     7
 10
337.5609984627124
 20
744.88690122369201
 30
0.0
  0
SEQEND
  5
46B
  8
DATA
  6
CONTINUOUS
 62
     7
  0
POLYLINE
  5
241
  8
DATA
  6
CONTINUOUS
 62
     7
 66
     1
 10
0.0
 20
0.0
 30
0.0
 70
     1
  0
VERTEX
  5
46C
  8
DATA
  6
CONTINUOUS
 62
     7
 10
335.56099846271218
 20
746.41690122369187
 30
0.0
  0
VERTEX
  5
46D
  8
DATA
  6
CONTINUOUS
 62
     7
 10
337.09099846271238
 20
746.41690122369187
 30
0.0
  0
VERTEX
  5
46E
  8
DATA
  6
CONTINUOUS
 62
     7
 10
337.09099846271238
 20
744.88690122369201
 30
0.0
  0
VERTEX
  5
46F
  8
DATA
  6
CONTINUOUS
 62
     7
 10
335.56099846271218
 20
744.88690122369201
 30
0.0
  0
SEQEND
  5
470
  8
DATA
  6
CONTINUOUS
 62
     7
  0
POLYLINE
  5
248
  8
DATA
  6
CONTINUOUS
 62
     7
 66
     1
 10
0.0
 20
0.0
 30
0.0
 70
     1
  0
VERTEX
  5
471
  8
DATA
  6
CONTINUOUS
 62
     7
 10
333.56099846271201
 20
746.41690122369187
 30
0.0
  0
VERTEX
  5
472
  8
DATA
  6
CONTINUOUS
 62
     7
 10
335.09099846271221
 20
746.41690122369187
 30
0.0
  0
VERTEX
  5
473
  8
DATA
  6
CONTINUOUS
 62
     7
 10
335.09099846271221
 20
744.88690122369201
 30
0.0
  0
VERTEX
  5
474
  8
DATA
  6
CONTINUOUS
 62
     7
 10
333.56099846271201
 20
744.88690122369201
 30
0.0
  0
SEQEND
  5
475
  8
DATA
  6
CONTINUOUS
 62
     7
  0
POLYLINE
  5
24F
  8
DATA
  6
CONTINUOUS
 62
     7
 66
     1
 10
0.0
 20
0.0
 30
0.0
 70
     1
  0
VERTEX
  5
476
  8
DATA
  6
CONTINUOUS
 62
     7
 10
331.56099846271201
 20
746.41690122369187
 30
0.0
  0
VERTEX
  5
477
  8
DATA
  6
CONTINUOUS
 62
     7
 10
333.09099846271198
 20
746.41690122369187
 30
0.0
  0
VERTEX
  5
478
  8
DATA
  6
CONTINUOUS
 62
     7
 10
333.09099846271198
 20
744.88690122369201
 30
0.0
  0
VERTEX
  5
479
  8
DATA
  6
CONTINUOUS
 62
     7
 10
331.56099846271201
 20
744.88690122369201
 30
0.0
  0
SEQEND
  5
47A
  8
DATA
  6
CONTINUOUS
 62
     7
  0
POLYLINE
  5
256
  8
DATA
  6
CONTINUOUS
 62
     7
 66
     1
 10
0.0
 20
0.0
 30
0.0
  0
VERTEX
  5
47B
  8
DATA
  6
CONTINUOUS
 62
     7
 10
327.54093229153239
 20
743.25190122369202
 30
0.0
  0
VERTEX
  5
47C
  8
DATA
  6
CONTINUOUS
 62
     7
 10
325.44093229153248
 20
743.25190122369202
 30
0.0
  0
VERTEX
  5
47D
  8
DATA
  6
CONTINUOUS
 62
     7
 10
325.44093229153248
 20
744.05190122369186
 30
0.0
  0
VERTEX
  5
47E
  8
DATA
  6
CONTINUOUS
 62
     7
 10
327.54093229153239
 20
744.05190122369186
 30
0.0
  0
SEQEND
  5
47F
  8
DATA
  6
CONTINUOUS
 62
     7
  0
POLYLINE
  5
25D
  8
DATA
  6
CONTINUOUS
 62
     7
 66
     1
 10
0.0
 20
0.0
 30
0.0
  0
VERTEX
  5
480
  8
DATA
  6
CONTINUOUS
 62
     7
 10
328.3409322915324
 20
744.05190122369186
 30
0.0
  0
VERTEX
  5
481
  8
DATA
  6
CONTINUOUS
 62
     7
 10
330.44093229153231
 20
744.05190122369186
 30
0.0
  0
VERTEX
  5
482
  8
DATA
  6
CONTINUOUS
 62
     7
 10
330.44093229153231
 20
743.25190122369202
 30
0.0
  0
VERTEX
  5
483
  8
DATA
  6
CONTINUOUS
 62
     7
 10
328.3409322915324
 20
743.25190122369202
 30
0.0
  0
SEQEND
  5
484
  8
DATA
  6
CONTINUOUS
 62
     7
  0
POLYLINE
  5
264
  8
DATA
  6
CONTINUOUS
 62
     7
 66
     1
 10
0.0
 20
0.0
 30
0.0
  0
VERTEX
  5
485
  8
DATA
  6
CONTINUOUS
 62
     7
 10
327.54093229153239
 20
744.05190122369186
 30
0.0
  0
VERTEX
  5
486
  8
DATA
  6
CONTINUOUS
 62
     7
 10
327.54093229153239
 20
746.15190122369188
 30
0.0
  0
VERTEX
  5
487
  8
DATA
  6
CONTINUOUS
 62
     7
 10
328.3409322915324
 20
746.15190122369188
 30
0.0
  0
VERTEX
  5
488
  8
DATA
  6
CONTINUOUS
 62
     7
 10
328.3409322915324
 20
744.05190122369186
 30
0.0
  0
SEQEND
  5
489
  8
DATA
  6
CONTINUOUS
 62
     7
  0
POLYLINE
  5
26B
  8
DATA
  6
CONTINUOUS
 62
     7
 66
     1
 10
0.0
 20
0.0
 30
0.0
  0
VERTEX
  5
48A
  8
DATA
  6
CONTINUOUS
 62
     7
 10
328.3409322915324
 20
743.25190122369202
 30
0.0
  0
VERTEX
  5
48B
  8
DATA
  6
CONTINUOUS
 62
     7
 10
328.3409322915324
 20
741.15190122369199
 30
0.0
  0
VERTEX
  5
48C
  8
DATA
  6
CONTINUOUS
 62
     7
 10
327.54093229153239
 20
741.15190122369199
 30
0.0
  0
VERTEX
  5
48D
  8
DATA
  6
CONTINUOUS
 62
     7
 10
327.54093229153239
 20
743.25190122369202
 30
0.0
  0
SEQEND
  5
48E
  8
DATA
  6
CONTINUOUS
 62
     7
  0
POLYLINE
  5
272
  8
DATA
  6
CONTINUOUS
 62
     7
 66
     1
 10
0.0
 20
0.0
 30
0.0
 70
     1
  0
VERTEX
  5
48F
  8
DATA
  6
CONTINUOUS
 62
     7
 10
328.80121672200403
 20
742.89247341304178
 30
0.0
  0
VERTEX
  5
490
  8
DATA
  6
CONTINUOUS
 62
     7
 10
329.80121672200409
 20
742.89247341304178
 30
0.0
  0
VERTEX
  5
491
  8
DATA
  6
CONTINUOUS
 62
     7
 10
329.80121672200409
 20
741.89247341304178
 30
0.0
  0
VERTEX
  5
492
  8
DATA
  6
CONTINUOUS
 62
     7
 10
328.80121672200403
 20
741.89247341304178
 30
0.0
  0
SEQEND
  5
493
  8
DATA
  6
CONTINUOUS
 62
     7
  0
POLYLINE
  5
279
  8
DATA
  6
CONTINUOUS
 62
     7
 66
     1
 10
0.0
 20
0.0
 30
0.0
 70
     1
  0
VERTEX
  5
494
  8
DATA
  6
CONTINUOUS
 62
     7
 10
326.0806478610607
 20
742.89247341304178
 30
0.0
  0
VERTEX
  5
495
  8
DATA
  6
CONTINUOUS
 62
     7
 10
327.08064786106058
 20
742.89247341304178
 30
0.0
  0
VERTEX
  5
496
  8
DATA
  6
CONTINUOUS
 62
     7
 10
327.08064786106058
 20
741.89247341304178
 30
0.0
  0
VERTEX
  5
497
  8
DATA
  6
CONTINUOUS
 62
     7
 10
326.0806478610607
 20
741.89247341304178
 30
0.0
  0
SEQEND
  5
498
  8
DATA
  6
CONTINUOUS
 62
     7
  0
POLYLINE
  5
280
  8
DATA
  6
CONTINUOUS
 62
     7
 66
     1
 10
0.0
 20
0.0
 30
0.0
 70
     1
  0
VERTEX
  5
499
  8
DATA
  6
CONTINUOUS
 62
     7
 10
328.80121672200403
 20
745.41132903434175
 30
0.0
  0
VERTEX
  5
49A
  8
DATA
  6
CONTINUOUS
 62
     7
 10
329.80121672200409
 20
745.41132903434175
 30
0.0
  0
VERTEX
  5
49B
  8
DATA
  6
CONTINUOUS
 62
     7
 10
329.80121672200409
 20
744.41132903434175
 30
0.0
  0
VERTEX
  5
49C
  8
DATA
  6
CONTINUOUS
 62
     7
 10
328.80121672200403
 20
744.41132903434175
 30
0.0
  0
SEQEND
  5
49D
  8
DATA
  6
CONTINUOUS
 62
     7
  0
POLYLINE
  5
287
  8
DATA
  6
CONTINUOUS
 62
     7
 66
     1
 10
0.0
 20
0.0
 30
0.0
 70
     1
  0
VERTEX
  5
49E
  8
DATA
  6
CONTINUOUS
 62
     7
 10
326.0806478610607
 20
745.41132903434175
 30
0.0
  0
VERTEX
  5
49F
  8
DATA
  6
CONTINUOUS
 62
     7
 10
327.08064786106058
 20
745.41132903434175
 30
0.0
  0
VERTEX
  5
4A0
  8
DATA
  6
CONTINUOUS
 62
     7
 10
327.08064786106058
 20
744.41132903434175
 30
0.0
  0
VERTEX
  5
4A1
  8
DATA
  6
CONTINUOUS
 62
     7
 10
326.0806478610607
 20
744.41132903434175
 30
0.0
  0
SEQEND
  5
4A2
  8
DATA
  6
CONTINUOUS
 62
     7
  0
LINE
  5
28E
  8
DATA
  6
CONTINUOUS
 62
     7
 10
348.0363041094804
 20
740.82200952917833
 30
0.0
 11
347.47738691202801
 21
746.67200952917813
 31
0.0
  0
LINE
  5
28F
  8
DATA
  6
CONTINUOUS
 62
     7
 10
324.14556047358548
 20
740.82200952917833
 30
0.0
 11
324.70447767103781
 21
746.67200952917813
 31
0.0
  0
ARC
  5
290
  8
DATA
  6
CONTINUOUS
 62
     7
 10
347.04083717872498
 20
740.72690122369181
 30
0.0
 40
1.0
 50
270.0
 51
5.4575534851073844
  0
ARC
  5
291
  8
DATA
  6
CONTINUOUS
 62
     7
 10
325.14102740434078
 20
740.72690122369181
 30
0.0
 40
0.9999999999999191
 50
174.54244651489199
 51
270.0
  0
ARC
  5
292
  8
DATA
  6
CONTINUOUS
 62
     7
 10
346.48191998127271
 20
746.57690122369183
 30
0.0
 40
1.000000000000032
 50
5.4575534851074012
 51
90.0
  0
ARC
  5
293
  8
DATA
  6
CONTINUOUS
 62
     7
 10
325.69994460179288
 20
746.57690122369183
 30
0.0
 40
1.0
 50
90.0
 51
174.542446514895
  0
TEXT
  5
294
  8
DATA
 62
     7
 10
340.77606730776472
 20
737.5763522917814
 30
0.0
 40
2.646866861979166
  1
RS-232
 50
180.0
 41
0.7
 11
340.77606730776472
 21
734.92948542980218
 31
0.0
 73
     3
  0
TEXT
  5
295
  8
DATA
 62
     7
 10
340.77606730776472
 20
752.55264451580172
 30
0.0
 40
2.646866861979166
  1
DVI In
 50
180.0
 41
0.7
 11
340.77606730776472
 21
749.9057776538225
 31
0.0
 73
     3
  0
CIRCLE
  5
296
  8
DATA
  6
CONTINUOUS
 62
     7
 10
362.93188382320398
 20
740.92761879224236
 30
0.0
 40
3.0
  0
CIRCLE
  5
297
  8
DATA
  6
CONTINUOUS
 62
     7
 10
362.93188382320398
 20
740.92761879224236
 30
0.0
 40
1.75
  0
TEXT
  5
298
  8
DATA
 62
     7
 10
364.96236554371711
 20
753.2745834754686
 30
0.0
 40
2.646866861979166
  1
PL
 50
180.0
 41
0.7
 11
364.96236554371711
 21
750.6277166134895
 31
0.0
 73
     3
  0
TEXT
  5
299
  8
DATA
 62
     7
 10
219.9667648824954
 20
754.47041534102596
 30
0.0
 40
2.1174934895833331
  1
5V DC
 50
180.0
 41
0.7
 11
219.9667648824954
 21
752.3529218514426
 31
0.0
 73
     3
  0
TEXT
  5
29A
  8
DATA
 62
     7
 10
229.4501489155335
 20
754.47041534102596
 30
0.0
 40
2.1174934895833331
  1
Y
 50
180.0
 41
0.7
 11
229.4501489155335
 21
752.3529218514426
 31
0.0
 73
     3
  0
TEXT
  5
29B
  8
DATA
 62
     7
 10
246.0252672151334
 20
754.47041534102596
 30
0.0
 40
2.1174934895833331
  1
Pb/Cb
 50
180.0
 41
0.7
 11
246.0252672151334
 21
752.3529218514426
 31
0.0
 73
     3
  0
CIRCLE
  5
29C
  8
DATA
  6
CONTINUOUS
 62
     7
 10
243.5
 20
742.49999999984755
 30
0.0
 40
4.1499999999999764
  0
CIRCLE
  5
29D
  8
DATA
  6
CONTINUOUS
 62
     7
 10
243.5
 20
742.49999999984755
 30
0.0
 40
1.699999999999988
  0
CIRCLE
  5
29E
  8
DATA
  6
CONTINUOUS
 62
     7
 10
243.5
 20
728.49999999984755
 30
0.0
 40
4.1499999999999764
  0
CIRCLE
  5
29F
  8
DATA
  6
CONTINUOUS
 62
     7
 10
243.5
 20
728.49999999984755
 30
0.0
 40
1.699999999999988
  0
TEXT
  5
2A0
  8
DATA
 62
     7
 10
260.51890702309328
 20
754.47041534102596
 30
0.0
 40
2.1174934895833331
  1
Pr/Cr
 50
180.0
 41
0.7
 11
260.51890702309328
 21
752.3529218514426
 31
0.0
 73
     3
  0
TEXT
  5
2A1
  8
DATA
 62
     7
 10
276.4248336278406
 20
750.39054528701865
 30
0.0
 40
2.1174934895833331
  1
Video
 50
180.0
 41
0.7
 11
276.4248336278406
 21
748.2730517974353
 31
0.0
 73
     3
  0
TEXT
  5
2A2
  8
DATA
 62
     7
 10
292.37695847909919
 20
750.39054528701865
 30
0.0
 40
2.1174934895833331
  1
L
 50
180.0
 41
0.7
 11
292.37695847909919
 21
748.2730517974353
 31
0.0
 73
     3
  0
TEXT
  5
2A3
  8
DATA
 62
     7
 10
306.10026003426589
 20
750.39054528701865
 30
0.0
 40
2.1174934895833331
  1
R
 50
180.0
 41
0.7
 11
306.10026003426589
 21
748.2730517974353
 31
0.0
 73
     3
  0
TEXT
  5
2A4
  8
DATA
 62
     7
 10
292.37695847909919
 20
722.60511842330095
 30
0.0
 40
2.1174934895833331
  1
L
 50
180.0
 41
0.7
 11
292.37695847909919
 21
720.4876249337176
 31
0.0
 73
     3
  0
TEXT
  5
2A5
  8
DATA
 62
     7
 10
306.10026003426589
 20
722.60511842330095
 30
0.0
 40
2.1174934895833331
  1
R
 50
180.0
 41
0.7
 11
306.10026003426589
 21
720.4876249337176
 31
0.0
 73
     3
  0
TEXT
  5
2A6
  8
DATA
 62
     7
 10
244.8019275022244
 20
722.60511842330095
 30
0.0
 40
2.1174934895833331
  1
L
 50
180.0
 41
0.7
 11
244.8019275022244
 21
720.4876249337176
 31
0.0
 73
     3
  0
TEXT
  5
2A7
  8
DATA
 62
     7
 10
258.52522905739119
 20
722.60511842330095
 30
0.0
 40
2.1174934895833331
  1
R
 50
180.0
 41
0.7
 11
258.52522905739119
 21
720.4876249337176
 31
0.0
 73
     3
  0
TEXT
  5
2A8
  8
DATA
 62
     7
 10
300.96127126850291
 20
754.47041534102596
 30
0.0
 40
2.1174934895833331
  1
S Video/Audio In
 50
180.0
 41
0.7
 11
300.96127126850291
 21
752.3529218514426
 31
0.0
 73
     3
  0
TEXT
  5
2A9
  8
DATA
 62
     7
 10
302.15585387042461
 20
717.23387453942667
 30
0.0
 40
2.1174934895833331
  1
Composite/Audio In
 50
180.0
 41
0.7
 11
302.15585387042461
 21
715.11638104984343
 31
0.0
 73
     3
  0
TEXT
  5
2AA
  8
DATA
 62
     7
 10
257.30965106643453
 20
717.23387453942667
 30
0.0
 40
2.1174934895833331
  1
Component/Audio In
 50
180.0
 41
0.7
 11
257.30965106643453
 21
715.11638104984343
 31
0.0
 73
     3
  0
LINE
  5
2AB
  8
DATA
  6
CONTINUOUS
 62
     7
 10
303.64374170568919
 20
716.41117580069522
 30
0.0
 11
309.61736804623848
 21
716.41117580069522
 31
0.0
  0
LINE
  5
2AC
  8
DATA
  6
CONTINUOUS
 62
     7
 10
303.64374170568919
 20
753.51657971116094
 30
0.0
 11
309.61736804623848
 21
753.51657971116094
 31
0.0
  0
LINE
  5
2AD
  8
DATA
  6
CONTINUOUS
 62
     7
 10
270.15980829281438
 20
716.41117580069522
 30
0.0
 11
276.13343463336372
 21
716.41117580069522
 31
0.0
  0
LINE
  5
2AE
  8
DATA
  6
CONTINUOUS
 62
     7
 10
270.15980829281438
 20
753.51657971116094
 30
0.0
 11
276.13343463336372
 21
753.51657971116094
 31
0.0
  0
LINE
  5
2AF
  8
DATA
  6
CONTINUOUS
 62
     7
 10
259.10869525754998
 20
716.41117580069522
 30
0.0
 11
261.59999999999991
 21
716.41117580069522
 31
0.0
  0
LINE
  5
2B0
  8
DATA
  6
CONTINUOUS
 62
     7
 10
228.2914584903036
 20
716.41117580069522
 30
0.0
 11
230.7827632327535
 21
716.41117580069522
 31
0.0
  0
LINE
  5
2B1
  8
DATA
  6
CONTINUOUS
 62
     7
 10
225.34999999999999
 20
642.49999999999989
 30
0.0
 11
233.64999999999989
 21
642.49999999999989
 31
0.0
  0
LINE
  5
2B2
  8
DATA
  6
CONTINUOUS
 62
     7
 10
239.34999999999999
 20
642.49999999999989
 30
0.0
 11
247.64999999999989
 21
642.49999999999989
 31
0.0
  0
LINE
  5
2B3
  8
DATA
  6
CONTINUOUS
 62
     7
 10
253.47851293861271
 20
642.49999999999989
 30
0.0
 11
261.77851293861272
 21
642.49999999999989
 31
0.0
  0
LINE
  5
2B4
  8
DATA
  6
CONTINUOUS
 62
     7
 10
268.97851293861271
 20
642.49999999999989
 30
0.0
 11
277.27851293861272
 21
642.49999999999989
 31
0.0
  0
LINE
  5
2B5
  8
DATA
  6
CONTINUOUS
 62
     7
 10
287.97851293861271
 20
642.49999999999989
 30
0.0
 11
296.27851293861272
 21
642.49999999999989
 31
0.0
  0
LINE
  5
2B6
  8
DATA
  6
CONTINUOUS
 62
     7
 10
301.4785129386126
 20
642.49999999999989
 30
0.0
 11
309.77851293861261
 21
642.49999999999989
 31
0.0
  0
LINE
  5
2B7
  8
DATA
  6
CONTINUOUS
 62
     7
 10
401.2999999999999
 20
642.49999999999989
 30
0.0
 11
409.69999999999987
 21
642.49999999999989
 31
0.0
  0
LINE
  5
2B8
  8
DATA
  6
CONTINUOUS
 62
     7
 10
447.2999999999999
 20
642.49999999999989
 30
0.0
 11
455.69999999999987
 21
642.49999999999989
 31
0.0
  0
LINE
  5
2B9
  8
DATA
  6
CONTINUOUS
 62
     7
 10
493.2999999999999
 20
642.49999999999989
 30
0.0
 11
501.69999999999987
 21
642.49999999999989
 31
0.0
  0
LINE
  5
2BA
  8
DATA
  6
CONTINUOUS
 62
     7
 10
506.0
 20
642.49999999999989
 30
0.0
 11
513.0
 21
642.49999999999989
 31
0.0
  0
LINE
  5
2BB
  8
DATA
  6
CONTINUOUS
 62
     7
 10
225.34999999999999
 20
642.49999999999989
 30
0.0
 11
225.34999999999999
 21
635.5
 31
0.0
  0
LINE
  5
2BC
  8
DATA
  6
CONTINUOUS
 62
     7
 10
233.64999999999989
 20
642.49999999999989
 30
0.0
 11
233.64999999999989
 21
635.5
 31
0.0
  0
LINE
  5
2BD
  8
DATA
  6
CONTINUOUS
 62
     7
 10
239.34999999999999
 20
642.49999999999989
 30
0.0
 11
239.34999999999999
 21
635.5
 31
0.0
  0
LINE
  5
2BE
  8
DATA
  6
CONTINUOUS
 62
     7
 10
247.64999999999989
 20
642.49999999999989
 30
0.0
 11
247.64999999999989
 21
635.5
 31
0.0
  0
LINE
  5
2BF
  8
DATA
  6
CONTINUOUS
 62
     7
 10
253.47851293861271
 20
642.49999999999989
 30
0.0
 11
253.47851293861271
 21
635.5
 31
0.0
  0
LINE
  5
2C0
  8
DATA
  6
CONTINUOUS
 62
     7
 10
261.77851293861272
 20
642.49999999999989
 30
0.0
 11
261.77851293861272
 21
635.5
 31
0.0
  0
LINE
  5
2C1
  8
DATA
  6
CONTINUOUS
 62
     7
 10
268.97851293861271
 20
642.49999999999989
 30
0.0
 11
268.97851293861271
 21
635.5
 31
0.0
  0
LINE
  5
2C2
  8
DATA
  6
CONTINUOUS
 62
     7
 10
277.27851293861272
 20
642.49999999999989
 30
0.0
 11
277.27851293861272
 21
635.5
 31
0.0
  0
LINE
  5
2C3
  8
DATA
  6
CONTINUOUS
 62
     7
 10
287.97851293861271
 20
642.49999999999989
 30
0.0
 11
287.97851293861271
 21
635.5
 31
0.0
  0
LINE
  5
2C4
  8
DATA
  6
CONTINUOUS
 62
     7
 10
296.27851293861272
 20
642.49999999999989
 30
0.0
 11
296.27851293861272
 21
635.5
 31
0.0
  0
LINE
  5
2C5
  8
DATA
  6
CONTINUOUS
 62
     7
 10
301.4785129386126
 20
642.49999999999989
 30
0.0
 11
301.4785129386126
 21
635.5
 31
0.0
  0
LINE
  5
2C6
  8
DATA
  6
CONTINUOUS
 62
     7
 10
309.77851293861261
 20
642.49999999999989
 30
0.0
 11
309.77851293861261
 21
635.5
 31
0.0
  0
LINE
  5
2C7
  8
DATA
  6
CONTINUOUS
 62
     7
 10
401.2999999999999
 20
642.49999999999989
 30
0.0
 11
401.2999999999999
 21
635.5
 31
0.0
  0
LINE
  5
2C8
  8
DATA
  6
CONTINUOUS
 62
     7
 10
409.69999999999987
 20
642.49999999999989
 30
0.0
 11
409.69999999999987
 21
635.5
 31
0.0
  0
LINE
  5
2C9
  8
DATA
  6
CONTINUOUS
 62
     7
 10
447.2999999999999
 20
642.49999999999989
 30
0.0
 11
447.2999999999999
 21
635.5
 31
0.0
  0
LINE
  5
2CA
  8
DATA
  6
CONTINUOUS
 62
     7
 10
455.69999999999987
 20
642.49999999999989
 30
0.0
 11
455.69999999999987
 21
635.5
 31
0.0
  0
LINE
  5
2CB
  8
DATA
  6
CONTINUOUS
 62
     7
 10
493.2999999999999
 20
642.49999999999989
 30
0.0
 11
493.2999999999999
 21
635.5
 31
0.0
  0
LINE
  5
2CC
  8
DATA
  6
CONTINUOUS
 62
     7
 10
501.69999999999987
 20
642.49999999999989
 30
0.0
 11
501.69999999999987
 21
635.5
 31
0.0
  0
LINE
  5
2CD
  8
DATA
  6
CONTINUOUS
 62
     7
 10
506.0
 20
642.49999999999989
 30
0.0
 11
506.0
 21
635.5
 31
0.0
  0
LINE
  5
2CE
  8
DATA
  6
CONTINUOUS
 62
     7
 10
513.0
 20
642.49999999999989
 30
0.0
 11
513.0
 21
635.5
 31
0.0
  0
LINE
  5
2CF
  8
DATA
  6
CONTINUOUS
 62
     7
 10
470.98185539148358
 20
640.5
 30
0.0
 11
465.98185539148369
 21
640.5
 31
0.0
  0
LINE
  5
2D0
  8
DATA
  6
CONTINUOUS
 62
     7
 10
424.98185539148358
 20
640.5
 30
0.0
 11
419.98185539148369
 21
640.5
 31
0.0
  0
LINE
  5
2D1
  8
DATA
  6
CONTINUOUS
 62
     7
 10
378.98185539148369
 20
640.5
 30
0.0
 11
373.98185539148369
 21
640.5
 31
0.0
  0
LINE
  5
2D2
  8
DATA
  6
CONTINUOUS
 62
     7
 10
373.98185539148369
 20
640.5
 30
0.0
 11
373.98185539148369
 21
635.5
 31
0.0
  0
LINE
  5
2D3
  8
DATA
  6
CONTINUOUS
 62
     7
 10
378.98185539148369
 20
640.5
 30
0.0
 11
378.98185539148369
 21
635.5
 31
0.0
  0
LINE
  5
2D4
  8
DATA
  6
CONTINUOUS
 62
     7
 10
419.98185539148369
 20
640.5
 30
0.0
 11
419.98185539148369
 21
635.5
 31
0.0
  0
LINE
  5
2D5
  8
DATA
  6
CONTINUOUS
 62
     7
 10
424.98185539148358
 20
640.5
 30
0.0
 11
424.98185539148358
 21
635.5
 31
0.0
  0
LINE
  5
2D6
  8
DATA
  6
CONTINUOUS
 62
     7
 10
465.98185539148369
 20
640.5
 30
0.0
 11
465.98185539148369
 21
635.5
 31
0.0
  0
LINE
  5
2D7
  8
DATA
  6
CONTINUOUS
 62
     7
 10
470.98185539148358
 20
640.5
 30
0.0
 11
470.98185539148358
 21
635.5
 31
0.0
  0
LINE
  5
2D8
  8
DATA
  6
CONTINUOUS
 62
     7
 10
350.72203826062338
 20
640.5
 30
0.0
 11
346.04550108018748
 21
640.5
 31
0.0
  0
LINE
  5
2D9
  8
DATA
  6
CONTINUOUS
 62
     7
 10
325.72203826062309
 20
640.5
 30
0.0
 11
321.04550108018719
 21
640.5
 31
0.0
  0
LINE
  5
2DA
  8
DATA
  6
CONTINUOUS
 62
     7
 10
321.04550108018719
 20
640.5
 30
0.0
 11
321.04550108018719
 21
635.5
 31
0.0
  0
LINE
  5
2DB
  8
DATA
  6
CONTINUOUS
 62
     7
 10
325.72203826062309
 20
640.5
 30
0.0
 11
325.72203826062309
 21
635.5
 31
0.0
  0
LINE
  5
2DC
  8
DATA
  6
CONTINUOUS
 62
     7
 10
346.04550108018748
 20
640.5
 30
0.0
 11
346.04550108018748
 21
635.5
 31
0.0
  0
LINE
  5
2DD
  8
DATA
  6
CONTINUOUS
 62
     7
 10
350.72203826062338
 20
640.5
 30
0.0
 11
350.72203826062338
 21
635.5
 31
0.0
  0
LINE
  5
2DE
  8
DATA
  6
CONTINUOUS
 62
     7
 10
328.07015297112531
 20
640.5
 30
0.0
 11
328.07015297112531
 21
635.5
 31
0.0
  0
LINE
  5
2DF
  8
DATA
  6
CONTINUOUS
 62
     7
 10
343.69741889784569
 20
640.5
 30
0.0
 11
343.69741889784569
 21
635.5
 31
0.0
  0
LINE
  5
2E0
  8
DATA
  6
CONTINUOUS
 62
     7
 10
328.07015297112531
 20
640.5
 30
0.0
 11
343.69741889784569
 21
640.5
 31
0.0
  0
LINE
  5
2E1
  8
DATA
  6
CONTINUOUS
 62
     7
 10
317.5026637013147
 20
640.5
 30
0.0
 11
317.5026637013147
 21
635.5
 31
0.0
  0
LINE
  5
2E2
  8
DATA
  6
CONTINUOUS
 62
     7
 10
354.67920088175123
 20
640.5
 30
0.0
 11
354.67920088175123
 21
635.5
 31
0.0
  0
LINE
  5
2E3
  8
DATA
  6
CONTINUOUS
 62
     7
 10
321.04550108018719
 20
640.5
 30
0.0
 11
317.5026637013147
 21
640.5
 31
0.0
  0
LINE
  5
2E4
  8
DATA
  6
CONTINUOUS
 62
     7
 10
350.72203826062338
 20
640.5
 30
0.0
 11
354.67920088175123
 21
640.5
 31
0.0
  0
CIRCLE
  5
2E5
  8
DATA
  6
CONTINUOUS
 62
     7
 10
236.40000000000001
 20
735.49999999984755
 30
0.0
 40
2.5
  0
CIRCLE
  5
2E6
  8
DATA
  6
CONTINUOUS
 62
     7
 10
251.0
 20
735.49999999984755
 30
0.0
 40
2.5
  0
CIRCLE
  5
2E7
  8
DATA
  6
CONTINUOUS
 62
     7
 10
299.0
 20
735.49999999984755
 30
0.0
 40
2.5
  0
CIRCLE
  5
2E8
  8
DATA
  6
CONTINUOUS
 62
     7
 10
282.80000000000001
 20
730.60000000000002
 30
0.0
 40
2.5
  0
LINE
  5
2E9
  8
DATA
  6
CONTINUOUS
 62
     7
 10
235.09999999999999
 20
735.49999999984755
 30
0.0
 11
237.69999999999999
 21
735.49999999984755
 31
0.0
  0
LINE
  5
2EA
  8
DATA
  6
CONTINUOUS
 62
     7
 10
236.40000000000001
 20
734.19999999984759
 30
0.0
 11
236.40000000000001
 21
736.79999999984761
 31
0.0
  0
LINE
  5
2EB
  8
DATA
  6
CONTINUOUS
 62
     7
 10
249.69999999999999
 20
735.49999999984755
 30
0.0
 11
252.30000000000001
 21
735.49999999984755
 31
0.0
  0
LINE
  5
2EC
  8
DATA
  6
CONTINUOUS
 62
     7
 10
251.0
 20
734.19999999984759
 30
0.0
 11
251.0
 21
736.79999999984761
 31
0.0
  0
LINE
  5
2ED
  8
DATA
  6
CONTINUOUS
 62
     7
 10
281.5
 20
730.60000000000002
 30
0.0
 11
284.10000000000002
 21
730.60000000000002
 31
0.0
  0
LINE
  5
2EE
  8
DATA
  6
CONTINUOUS
 62
     7
 10
282.80000000000001
 20
729.29999999999995
 30
0.0
 11
282.80000000000001
 21
731.9000000000002
 31
0.0
  0
LINE
  5
2EF
  8
DATA
  6
CONTINUOUS
 62
     7
 10
299.0
 20
734.19999999984759
 30
0.0
 11
299.0
 21
736.79999999984761
 31
0.0
  0
LINE
  5
2F0
  8
DATA
  6
CONTINUOUS
 62
     7
 10
297.7000000000001
 20
735.49999999984755
 30
0.0
 11
300.30000000000013
 21
735.49999999984755
 31
0.0
  0
ARC
  5
2F1
  8
DATA
  6
CONTINUOUS
 62
     7
 10
236.40000000000001
 20
634.4614199085762
 30
0.0
 40
2.7071476883062471
 50
22.559563807649031
 51
157.44043619235089
  0
ARC
  5
2F2
  8
DATA
  6
CONTINUOUS
 62
     7
 10
251.0
 20
634.4614199085762
 30
0.0
 40
2.7071476883062471
 50
22.559563807649031
 51
157.44043619235089
  0
ARC
  5
2F3
  8
DATA
  6
CONTINUOUS
 62
     7
 10
282.7999999999999
 20
634.4614199085762
 30
0.0
 40
2.7071476883062471
 50
22.559563807649031
 51
157.44043619235089
  0
ARC
  5
2F4
  8
DATA
  6
CONTINUOUS
 62
     7
 10
299.0
 20
634.4614199085762
 30
0.0
 40
2.7071476883062471
 50
22.559563807649031
 51
157.44043619235089
  0
LINE
  5
2F5
  8
DATA
  6
CONTINUOUS
 62
     7
 10
676.0
 20
351.80000000000001
 30
0.0
 11
676.0
 21
392.19999999999999
 31
0.0
  0
LINE
  5
2F6
  8
DATA
  6
CONTINUOUS
 62
     7
 10
683.49999999999989
 20
393.0
 30
0.0
 11
683.49999999999989
 21
394.0
 31
0.0
  0
LINE
  5
2F7
  8
DATA
  6
CONTINUOUS
 62
     7
 10
683.49999999999989
 20
393.0
 30
0.0
 11
676.79999999999995
 21
393.0
 31
0.0
  0
LINE
  5
2F8
  8
DATA
  6
CONTINUOUS
 62
     7
 10
681.79999999999995
 20
351.0
 30
0.0
 11
681.79999999999995
 21
350.0
 31
0.0
  0
LINE
  5
2F9
  8
DATA
  6
CONTINUOUS
 62
     7
 10
681.79999999999995
 20
351.0
 30
0.0
 11
676.79999999999995
 21
351.0
 31
0.0
  0
ARC
  5
2FA
  8
DATA
  6
CONTINUOUS
 62
     7
 10
675.79999999999995
 20
393.2000000000001
 30
0.0
 40
0.7999999999999546
 50
90.0
 51
180.00000000000401
  0
ARC
  5
2FB
  8
DATA
  6
CONTINUOUS
 62
     7
 10
676.79999999999995
 20
392.2000000000001
 30
0.0
 40
0.7999999999999546
 50
90.0
 51
180.00000000000401
  0
ARC
  5
2FC
  8
DATA
  6
CONTINUOUS
 62
     7
 10
676.79999999999995
 20
351.80000000000001
 30
0.0
 40
0.8000000000000113
 50
180.0
 51
270.0
  0
ARC
  5
2FD
  8
DATA
  6
CONTINUOUS
 62
     7
 10
675.79999999999995
 20
350.80000000000001
 30
0.0
 40
0.8000000000000113
 50
180.0
 51
270.0
  0
CIRCLE
  5
2FE
  8
DATA
  6
CONTINUOUS
 62
     7
 10
689.0
 20
387.0
 30
0.0
 40
2.5
  0
CIRCLE
  5
2FF
  8
DATA
  6
CONTINUOUS
 62
     7
 10
689.0
 20
357.0
 30
0.0
 40
2.5
  0
LINE
  5
300
  8
DATA
  6
CONTINUOUS
 62
     7
 10
687.5
 20
387.0
 30
0.0
 11
690.5
 21
387.0
 31
0.0
  0
LINE
  5
301
  8
DATA
  6
CONTINUOUS
 62
     7
 10
689.0
 20
385.5
 30
0.0
 11
689.0
 21
388.5
 31
0.0
  0
LINE
  5
302
  8
DATA
  6
CONTINUOUS
 62
     7
 10
687.5
 20
357.0
 30
0.0
 11
690.5
 21
357.0
 31
0.0
  0
LINE
  5
303
  8
DATA
  6
CONTINUOUS
 62
     7
 10
689.0
 20
355.5
 30
0.0
 11
689.0
 21
358.5
 31
0.0
  0
CIRCLE
  5
304
  8
DATA
  6
CONTINUOUS
 62
     7
 10
759.0
 20
357.0
 30
0.0
 40
2.5
  0
LINE
  5
305
  8
DATA
  6
CONTINUOUS
 62
     7
 10
757.5
 20
357.0
 30
0.0
 11
760.5
 21
357.0
 31
0.0
  0
LINE
  5
306
  8
DATA
  6
CONTINUOUS
 62
     7
 10
759.0
 20
355.5
 30
0.0
 11
759.0
 21
358.5
 31
0.0
  0
CIRCLE
  5
307
  8
DATA
  6
CONTINUOUS
 62
     7
 10
829.0
 20
357.0
 30
0.0
 40
2.5
  0
LINE
  5
308
  8
DATA
  6
CONTINUOUS
 62
     7
 10
827.5
 20
357.0
 30
0.0
 11
830.49999999999989
 21
357.0
 31
0.0
  0
LINE
  5
309
  8
DATA
  6
CONTINUOUS
 62
     7
 10
829.0
 20
355.5
 30
0.0
 11
829.0
 21
358.5
 31
0.0
  0
LINE
  5
30A
  8
DATA
  6
CONTINUOUS
 62
     7
 10
847.0
 20
351.80000000000001
 30
0.0
 11
847.0
 21
393.0
 31
0.0
  0
LINE
  5
30B
  8
DATA
  6
CONTINUOUS
 62
     7
 10
836.0
 20
350.0
 30
0.0
 11
836.0
 21
351.0
 31
0.0
  0
LINE
  5
30C
  8
DATA
  6
CONTINUOUS
 62
     7
 10
836.0
 20
351.0
 30
0.0
 11
846.19999999999993
 21
351.0
 31
0.0
  0
ARC
  5
30D
  8
DATA
  6
CONTINUOUS
 62
     7
 10
846.19999999999993
 20
351.7999999999999
 30
0.0
 40
0.7999999999999546
 50
270.0
 51
0.0000000000040927
  0
ARC
  5
30E
  8
DATA
  6
CONTINUOUS
 62
     7
 10
847.20000000000005
 20
350.7999999999999
 30
0.0
 40
0.7999999999999546
 50
270.0
 51
0.0000000000040927
  0
ENDSEC
  0
EOF
