  0
SECTION
  2
HEADER
  9
$ACADVER
  1
AC1009
  9
$INSBASE
 10
0.0
 20
0.0
 30
0.0
  9
$EXTMIN
 10
49.981691723202402
 20
11.90643626254314
 30
-0.0015258207003583
  9
$EXTMAX
 10
950.02899391114363
 20
1350.04120187373
 30
0.0000000349246037
  9
$LIMMIN
 10
0.0
 20
0.0
  9
$LIMMAX
 10
0.0
 20
0.0
  9
$ORTHOMODE
 70
     0
  9
$REGENMODE
 70
     1
  9
$FILLMODE
 70
     1
  9
$QTEXTMODE
 70
     0
  9
$MIRRTEXT
 70
     1
  9
$DRAGMODE
 70
     2
  9
$LTSCALE
 40
25.399999999999999
  9
$OSMODE
 70
   231
  9
$ATTMODE
 70
     1
  9
$TEXTSIZE
 40
0.0
  9
$TRACEWID
 40
1.0
  9
$TEXTSTYLE
  7
STANDARD
  9
$CLAYER
  8
DATA
  9
$CELTYPE
  6
BYLAYER
  9
$CECOLOR
 62
   256
  9
$DIMSCALE
 40
1.0
  9
$DIMASZ
 40
0.18
  9
$DIMEXO
 40
0.0625
  9
$DIMDLI
 40
0.38
  9
$DIMRND
 40
0.0
  9
$DIMDLE
 40
0.0
  9
$DIMEXE
 40
0.18
  9
$DIMTP
 40
0.0
  9
$DIMTM
 40
0.0
  9
$DIMTXT
 40
0.18
  9
$DIMCEN
 40
0.09
  9
$DIMTSZ
 40
0.0
  9
$DIMTOL
 70
     0
  9
$DIMLIM
 70
     0
  9
$DIMTIH
 70
     1
  9
$DIMTOH
 70
     1
  9
$DIMSE1
 70
     0
  9
$DIMSE2
 70
     0
  9
$DIMTAD
 70
     0
  9
$DIMZIN
 70
     0
  9
$DIMBLK
  1

  9
$DIMASO
 70
     1
  9
$DIMSHO
 70
     1
  9
$DIMPOST
  1

  9
$DIMAPOST
  1

  9
$DIMALT
 70
     0
  9
$DIMALTD
 70
     2
  9
$DIMALTF
 40
25.399999999999999
  9
$DIMLFAC
 40
1.0
  9
$DIMTOFL
 70
     0
  9
$DIMTVP
 40
0.0
  9
$DIMTIX
 70
     0
  9
$DIMSOXD
 70
     0
  9
$DIMSAH
 70
     0
  9
$DIMBLK1
  1

  9
$DIMBLK2
  1

  9
$DIMSTYLE
  2
STANDARD
  9
$DIMCLRD
 70
     0
  9
$DIMCLRE
 70
     0
  9
$DIMCLRT
 70
     0
  9
$DIMTFAC
 40
1.0
  9
$DIMGAP
 40
0.09
  9
$LUNITS
 70
     2
  9
$LUPREC
 70
     4
  9
$SKETCHINC
 40
0.1
  9
$FILLETRAD
 40
0.0
  9
$AUNITS
 70
     0
  9
$AUPREC
 70
     0
  9
$MENU
  1
acad
  9
$ELEVATION
 40
0.0
  9
$PELEVATION
 40
0.0
  9
$THICKNESS
 40
0.0
  9
$LIMCHECK
 70
     0
  9
$BLIPMODE
 70
     0
  9
$CHAMFERA
 40
0.0
  9
$CHAMFERB
 40
0.0
  9
$SKPOLY
 70
     0
  9
$TDCREATE
 40
2455408.6714236112
  9
$TDUPDATE
 40
2455408.6740853009
  9
$TDINDWG
 40
0.0002369792
  9
$TDUSRTIMER
 40
0.0002369792
  9
$USRTIMER
 70
     1
  9
$ANGBASE
 50
0.0
  9
$ANGDIR
 70
     0
  9
$PDMODE
 70
     1
  9
$PDSIZE
 40
-2.0
  9
$PLINEWID
 40
0.0
  9
$COORDS
 70
     0
  9
$SPLFRAME
 70
     0
  9
$SPLINETYPE
 70
     6
  9
$SPLINESEGS
 70
     8
  9
$ATTDIA
 70
     0
  9
$ATTREQ
 70
     1
  9
$HANDLING
 70
     1
  9
$HANDSEED
  5
3FE
  9
$SURFTAB1
 70
     6
  9
$SURFTAB2
 70
     6
  9
$SURFTYPE
 70
     6
  9
$SURFU
 70
     6
  9
$SURFV
 70
     6
  9
$UCSNAME
  2

  9
$UCSORG
 10
0.0
 20
0.0
 30
0.0
  9
$UCSXDIR
 10
1.0
 20
0.0
 30
0.0
  9
$UCSYDIR
 10
0.0
 20
1.0
 30
0.0
  9
$PUCSNAME
  2

  9
$PUCSORG
 10
0.0
 20
0.0
 30
0.0
  9
$PUCSXDIR
 10
1.0
 20
0.0
 30
0.0
  9
$PUCSYDIR
 10
0.0
 20
1.0
 30
0.0
  9
$USERI1
 70
     0
  9
$USERI2
 70
     0
  9
$USERI3
 70
     0
  9
$USERI4
 70
     0
  9
$USERI5
 70
     0
  9
$USERR1
 40
0.0
  9
$USERR2
 40
0.0
  9
$USERR3
 40
0.0
  9
$USERR4
 40
0.0
  9
$USERR5
 40
0.0
  9
$WORLDVIEW
 70
     1
  9
$SHADEDGE
 70
     3
  9
$SHADEDIF
 70
    70
  9
$TILEMODE
 70
     1
  9
$MAXACTVP
 70
    64
  9
$PLIMCHECK
 70
     0
  9
$PEXTMIN
 10
1.0000000000000000E+020
 20
1.0000000000000000E+020
 30
1.0000000000000000E+020
  9
$PEXTMAX
 10
-1.0000000000000000E+020
 20
-1.0000000000000000E+020
 30
-1.0000000000000000E+020
  9
$PLIMMIN
 10
0.0
 20
0.0
  9
$PLIMMAX
 10
12.0
 20
9.0
  9
$UNITMODE
 70
     0
  9
$VISRETAIN
 70
     0
  9
$PLINEGEN
 70
     1
  9
$PSLTSCALE
 70
     0
  0
ENDSEC
  0
SECTION
  2
TABLES
  0
TABLE
  2
VPORT
 70
     1
  0
VPORT
  2
*ACTIVE
 70
     0
 10
0.0
 20
0.0
 11
1.0
 21
1.0
 12
500.00534281717307
 22
680.97381906813655
 13
0.0
 23
0.0
 14
1.0
 24
1.0
 15
0.0
 25
0.0
 16
0.0
 26
0.0
 36
1.0
 17
0.0
 27
0.0
 37
0.0
 40
1347.986064499122
 41
1.961916461916462
 42
50.0
 43
0.0
 44
0.0
 50
0.0
 51
0.0
 71
     0
 72
  2000
 73
     1
 74
     1
 75
     0
 76
     0
 77
     0
 78
     0
  0
ENDTAB
  0
TABLE
  2
LTYPE
 70
    11
  0
LTYPE
  2
CONTINUOUS
 70
     0
  3
Solid line
 72
    65
 73
     0
 40
0.0
  0
ENDTAB
  0
TABLE
  2
LAYER
 70
     5
  0
LAYER
  2
0
 70
     0
 62
     7
  6
CONTINUOUS
  0
LAYER
  2
DATA
 70
     0
 62
     7
  6
CONTINUOUS
  0
LAYER
  2
HIBINO-BASE
 70
     0
 62
     7
  6
CONTINUOUS
  0
LAYER
  2
SPEC
 70
     0
 62
     7
  6
CONTINUOUS
  0
LAYER
  2
DIMNSIONS
 70
     0
 62
     7
  6
CONTINUOUS
  0
ENDTAB
  0
TABLE
  2
STYLE
 70
     3
  0
STYLE
  2
STANDARD
 70
     0
 40
0.0
 41
1.0
 50
0.0
 71
     0
 42
0.0
  3
txt
  4
BIGFONT.SHX
  0
ENDTAB
  0
TABLE
  2
VIEW
 70
     0
  0
ENDTAB
  0
TABLE
  2
UCS
 70
     0
  0
ENDTAB
  0
TABLE
  2
APPID
 70
     3
  0
APPID
  2
ACAD
 70
     0
  0
APPID
  2
ACADANNOTATIVE
 70
     0
  0
APPID
  2
ACAD_MLEADERVER
 70
     0
  0
ENDTAB
  0
TABLE
  2
DIMSTYLE
 70
     2
  0
DIMSTYLE
  2
STANDARD
 70
     0
  3

  4

  5

  6

  7

 40
1.0
 41
0.18
 42
0.0625
 43
0.38
 44
0.18
 45
0.0
 46
0.0
 47
0.0
 48
0.0
140
0.18
141
0.09
142
0.0
143
25.399999999999999
144
1.0
145
0.0
146
1.0
147
0.09
 71
     0
 72
     0
 73
     1
 74
     1
 75
     0
 76
     0
 77
     0
 78
     0
170
     0
171
     2
172
     0
173
     0
174
     0
175
     0
176
     0
177
     0
178
     0
  0
ENDTAB
  0
ENDSEC
  0
SECTION
  2
BLOCKS
  0
BLOCK
  8
0
  2
$MODEL_SPACE
 70
     0
 10
0.0
 20
0.0
 30
0.0
  3
$MODEL_SPACE
  1

  0
ENDBLK
  5
33A
  8
0
  0
BLOCK
 67
     1
  8
0
  2
$PAPER_SPACE
 70
     0
 10
0.0
 20
0.0
 30
0.0
  3
$PAPER_SPACE
  1

  0
ENDBLK
  5
336
 67
     1
  8
0
  0
ENDSEC
  0
SECTION
  2
ENTITIES
  0
LINE
  5
2C
  8
HIBINO-BASE
  6
CONTINUOUS
 62
     7
 10
50.0
 20
1350.0
 30
0.0
 11
950.0
 21
1350.0
 31
0.0
  0
LINE
  5
2D
  8
HIBINO-BASE
  6
CONTINUOUS
 62
     7
 10
950.0
 20
50.0
 30
0.0
 11
50.0
 21
50.0
 31
0.0
  0
LINE
  5
2E
  8
HIBINO-BASE
  6
CONTINUOUS
 62
     7
 10
50.0
 20
50.0
 30
0.0
 11
50.0
 21
1350.0
 31
0.0
  0
TEXT
  5
2F
  8
HIBINO-BASE
 62
     7
 10
62.82012861104743
 20
17.956611000000098
 30
0.0
 40
18.00022089843749
  1
Hibino-Intersound Corporation
 41
0.7
 11
62.82012861104743
 21
35.956831898437599
 31
0.0
 73
     3
  0
LINE
  5
30
  8
HIBINO-BASE
  6
CONTINUOUS
 62
     7
 10
950.0
 20
1350.0
 30
0.0
 11
950.0
 21
50.0
 31
0.0
  0
LINE
  5
31
  8
HIBINO-BASE
  6
CONTINUOUS
 62
     7
 10
500.0
 20
162.50000000000011
 30
0.0
 11
950.0
 21
162.50000000000011
 31
0.0
  0
LINE
  5
32
  8
HIBINO-BASE
  6
CONTINUOUS
 62
     7
 10
500.0
 20
50.0
 30
0.0
 11
500.0
 21
162.50000000000011
 31
0.0
  0
TEXT
  5
33
  8
HIBINO-BASE
 62
     7
 10
504.49999999999989
 20
149.9565333333334
 30
0.0
 40
8.1442057291666661
  1
NOTE
 41
0.7
 11
504.49999999999989
 21
158.10073906250011
 31
0.0
 73
     3
  0
LINE
  5
34
  8
HIBINO-BASE
  6
CONTINUOUS
 62
     7
 10
675.0
 20
50.0
 30
0.0
 11
675.0
 21
162.50000000000011
 31
0.0
  0
TEXT
  5
35
  8
HIBINO-BASE
 62
     7
 10
679.49999999999989
 20
149.9565333333334
 30
0.0
 40
8.1442057291666661
  1
TITLE
 41
0.7
 11
679.49999999999989
 21
158.10073906250011
 31
0.0
 73
     3
  0
TEXT
  5
36
  8
HIBINO-BASE
 62
     7
 10
595.06609521503515
 20
16.861363937191111
 30
0.0
 40
18.00022089843749
  1
ヒビノインターサウンド株式会社
 41
0.7
 11
595.06609521503515
 21
34.861584835628598
 31
0.0
 73
     3
  0
LINE
  5
37
  8
HIBINO-BASE
  6
CONTINUOUS
 62
     7
 10
500.0
 20
100.0000000000001
 30
0.0
 11
950.0
 21
100.0000000000001
 31
0.0
  0
TEXT
  5
38
  8
HIBINO-BASE
 62
     7
 10
742.0
 20
87.738133333333465
 30
0.0
 40
8.1442057291666661
  1
DRAWN
 41
0.7
 11
742.0
 21
95.882339062500137
 31
0.0
 73
     3
  0
TEXT
  5
39
  8
HIBINO-BASE
 62
     7
 10
617.0
 20
87.738133333333465
 30
0.0
 40
8.1442057291666661
  1
DATE
 41
0.7
 11
617.0
 21
95.882339062500137
 31
0.0
 73
     3
  0
TEXT
  5
3A
  8
HIBINO-BASE
 62
     7
 10
567.0
 20
87.738133333333465
 30
0.0
 40
8.1442057291666661
  1
SCALE
 41
0.7
 11
567.0
 21
95.882339062500137
 31
0.0
 73
     3
  0
TEXT
  5
3B
  8
HIBINO-BASE
 62
     7
 10
679.49999999999989
 20
87.738133333333465
 30
0.0
 40
8.1442057291666661
  1
DESIGN
 41
0.7
 11
679.49999999999989
 21
95.882339062500137
 31
0.0
 73
     3
  0
TEXT
  5
3C
  8
HIBINO-BASE
 62
     7
 10
867.0
 20
87.738133333333465
 30
0.0
 40
8.1442057291666661
  1
DRAWING NO.
 41
0.7
 11
867.0
 21
95.882339062500137
 31
0.0
 73
     3
  0
TEXT
  5
3D
  8
HIBINO-BASE
 62
     7
 10
804.49999999999989
 20
87.738133333333465
 30
0.0
 40
8.1442057291666661
  1
CHECK
 41
0.7
 11
804.49999999999989
 21
95.882339062500137
 31
0.0
 73
     3
  0
LINE
  5
3E
  8
HIBINO-BASE
  6
CONTINUOUS
 62
     7
 10
571.87499999999989
 20
56.25
 30
0.0
 11
590.625
 21
75.000000000000099
 31
0.0
  0
TEXT
  5
3F
  8
HIBINO-BASE
 62
     7
 10
568.74999999999989
 20
69.455283333333384
 30
0.0
 40
8.1442057291666661
  1
1
 41
0.7
 11
568.74999999999989
 21
77.599489062500069
 31
0.0
 73
     3
  0
LINE
  5
40
  8
HIBINO-BASE
  6
CONTINUOUS
 62
     7
 10
562.49999999999989
 20
50.0
 30
0.0
 11
562.49999999999989
 21
100.0000000000001
 31
0.0
  0
LINE
  5
41
  8
HIBINO-BASE
  6
CONTINUOUS
 62
     7
 10
612.49999999999989
 20
50.0
 30
0.0
 11
612.49999999999989
 21
100.0000000000001
 31
0.0
  0
LINE
  5
42
  8
HIBINO-BASE
  6
CONTINUOUS
 62
     7
 10
737.5
 20
100.0000000000001
 30
0.0
 11
737.5
 21
50.0
 31
0.0
  0
LINE
  5
43
  8
HIBINO-BASE
  6
CONTINUOUS
 62
     7
 10
862.5
 20
100.0000000000001
 30
0.0
 11
862.5
 21
50.0
 31
0.0
  0
LINE
  5
44
  8
HIBINO-BASE
  6
CONTINUOUS
 62
     7
 10
800.0
 20
50.0
 30
0.0
 11
800.0
 21
100.0000000000001
 31
0.0
  0
TEXT
  5
45
  8
HIBINO-BASE
 62
     7
 10
616.78269999999986
 20
64.318233333333382
 30
0.0
 40
8.1442057291666661
  1
'10.08.
 41
0.7
 11
616.78269999999986
 21
72.462439062500053
 31
0.0
 73
     3
  0
TEXT
  5
46
  8
HIBINO-BASE
 62
     7
 10
587.5
 20
60.080283333333398
 30
0.0
 40
8.1442057291666661
  1
5
 41
0.7
 11
587.5
 21
68.224489062500069
 31
0.0
 73
     3
  0
TEXT
  5
47
  8
HIBINO-BASE
 62
     7
 10
746.98306333084508
 20
64.53534591951923
 30
0.0
 40
8.1442057291666661
  1
T.Ootake
 41
0.7
 11
746.98306333084508
 21
72.679551648685901
 31
0.0
 73
     3
  0
TEXT
  5
48
  8
HIBINO-BASE
 62
     7
 10
519.41666666666674
 20
59.880000000000031
 30
0.0
 40
16.288411458333329
  1
A4
 41
0.7
 11
519.41666666666674
 21
76.168411458333352
 31
0.0
 73
     3
  0
TEXT
  5
49
  8
HIBINO-BASE
 62
     7
 10
504.79166666666652
 20
86.902725000000103
 30
0.0
 40
8.1442057291666661
  1
PAPER SIZE
 41
0.7
 11
504.79166666666652
 21
95.046930729166775
 31
0.0
 73
     3
  0
LINE
  5
4A
  8
SPEC
  6
CONTINUOUS
 62
     7
 10
87.5
 20
1300.0
 30
0.0
 11
825.0
 21
1300.0
 31
0.0
  0
LINE
  5
4B
  8
SPEC
  6
CONTINUOUS
 62
     7
 10
87.5
 20
1281.25
 30
0.0
 11
825.0
 21
1281.25
 31
0.0
  0
LINE
  5
4C
  8
SPEC
  6
CONTINUOUS
 62
     7
 10
87.5
 20
1206.25
 30
0.0
 11
825.0
 21
1206.25
 31
0.0
  0
LINE
  5
4D
  8
SPEC
  6
CONTINUOUS
 62
     7
 10
87.5
 20
1225.0
 30
0.0
 11
825.0
 21
1225.0
 31
0.0
  0
LINE
  5
4E
  8
SPEC
  6
CONTINUOUS
 62
     7
 10
87.5
 20
1243.75
 30
0.0
 11
825.0
 21
1243.75
 31
0.0
  0
LINE
  5
4F
  8
SPEC
  6
CONTINUOUS
 62
     7
 10
87.5
 20
1187.5
 30
0.0
 11
825.0
 21
1187.5
 31
0.0
  0
LINE
  5
50
  8
SPEC
  6
CONTINUOUS
 62
     7
 10
87.5
 20
1150.0
 30
0.0
 11
825.0
 21
1150.0
 31
0.0
  0
LINE
  5
51
  8
SPEC
  6
CONTINUOUS
 62
     7
 10
87.5
 20
1168.75
 30
0.0
 11
825.0
 21
1168.75
 31
0.0
  0
LINE
  5
52
  8
SPEC
  6
CONTINUOUS
 62
     7
 10
87.5
 20
1131.25
 30
0.0
 11
825.0
 21
1131.25
 31
0.0
  0
LINE
  5
53
  8
SPEC
  6
CONTINUOUS
 62
     7
 10
87.5
 20
1112.5
 30
0.0
 11
825.0
 21
1112.5
 31
0.0
  0
LINE
  5
54
  8
SPEC
  6
CONTINUOUS
 62
     7
 10
87.5
 20
1262.5
 30
0.0
 11
825.0
 21
1262.5
 31
0.0
  0
TEXT
  5
55
  8
SPEC
 62
     7
 10
93.75
 20
1306.9663499999999
 30
0.0
 40
12.21630859375
  1
仕様
 41
0.7
 11
93.75
 21
1319.1826585937499
 31
0.0
 73
     3
  0
TEXT
  5
56
  8
SPEC
 62
     7
 10
91.474732926959646
 20
1285.978524361359
 30
0.0
 40
9.5015562499999984
  1
デジタル最大ピクセルクロック
 41
0.7
 11
91.474732926959646
 21
1295.480080611359
 31
0.0
 73
     3
  0
LINE
  5
57
  8
SPEC
  6
CONTINUOUS
 62
     7
 10
325.0
 20
1300.0
 30
0.0
 11
325.0
 21
981.25
 31
0.0
  0
LINE
  5
58
  8
SPEC
  6
CONTINUOUS
 62
     7
 10
87.5
 20
1093.75
 30
0.0
 11
825.0
 21
1093.75
 31
0.0
  0
TEXT
  5
59
  8
SPEC
 62
     7
 10
91.473529153280893
 20
1005.636298888916
 30
0.0
 40
9.5015562499999984
  1
寸法
 41
0.7
 11
91.473529153280893
 21
1015.1378551389161
 31
0.0
 73
     3
  0
LINE
  5
5A
  8
SPEC
  6
CONTINUOUS
 62
     7
 10
825.0
 20
1300.0
 30
0.0
 11
825.0
 21
981.25
 31
0.0
  0
TEXT
  5
5B
  8
SPEC
 62
     7
 10
91.648571274077241
 20
986.5661103326695
 30
0.0
 40
9.5015562499999984
  1
重量
 41
0.7
 11
91.648571274077241
 21
996.06766658266963
 31
0.0
 73
     3
  0
TEXT
  5
5C
  8
SPEC
 62
     7
 10
329.67552073105247
 20
1042.2691645057721
 30
0.0
 40
9.5015562499999984
  1
5V DC/2.6A
 41
0.7
 11
329.67552073105247
 21
1051.7707207557719
 31
0.0
 73
     3
  0
LINE
  5
5D
  8
SPEC
  6
CONTINUOUS
 62
     7
 10
87.5
 20
1300.0
 30
0.0
 11
87.5
 21
981.25
 31
0.0
  0
TEXT
  5
5E
  8
SPEC
 62
     7
 10
91.556154373249527
 20
1042.589040336941
 30
0.0
 40
9.5015562499999984
  1
電源
 41
0.7
 11
91.556154373249527
 21
1052.090596586942
 31
0.0
 73
     3
  0
TEXT
  5
5F
  8
SPEC
 62
     7
 10
91.454211918989927
 20
1267.5362370814969
 30
0.0
 40
9.5015562499999984
  1
アナログビデオアンプ帯域
 41
0.7
 11
91.454211918989927
 21
1277.0377933314969
 31
0.0
 73
     3
  0
TEXT
  5
60
  8
SPEC
 62
     7
 10
329.3842703470844
 20
1285.8190903455061
 30
0.0
 40
9.5015562499999984
  1
225MHz
 41
0.7
 11
329.3842703470844
 21
1295.3206465955061
 31
0.0
 73
     3
  0
TEXT
  5
61
  8
SPEC
 62
     7
 10
92.048951285205632
 20
1192.6038009499009
 30
0.0
 40
9.5015733506944464
  1
HDMI入出力端子
 41
0.7
 11
92.048951285205632
 21
1202.105374300595
 31
0.0
 73
     3
  0
TEXT
  5
62
  8
SPEC
 62
     7
 10
90.628117911539107
 20
1174.082878047082
 30
0.0
 40
9.5015733506944464
  1
コンポーネント入力端子
 41
0.7
 11
90.628117911539107
 21
1183.5844513977761
 31
0.0
 73
     3
  0
TEXT
  5
63
  8
SPEC
 62
     7
 10
92.283049732630104
 20
1248.703661974338
 30
0.0
 40
9.5015733506944464
  1
最大対応解像度
 41
0.7
 11
92.283049732630104
 21
1258.2052353250319
 31
0.0
 73
     3
  0
TEXT
  5
64
  8
SPEC
 62
     7
 10
329.74226428451078
 20
1173.6786878084879
 30
0.0
 40
9.5015733506944464
  1
YPbPr(3 RCA)\U+00D72
 41
0.7
 11
329.74226428451078
 21
1183.180261159182
 31
0.0
 73
     3
  0
TEXT
  5
65
  8
SPEC
 62
     7
 10
328.84081780077378
 20
1248.743817867736
 30
0.0
 40
9.5015733506944464
  1
1080p/1920\U+00D71200\U+00D760Hz
 41
0.7
 11
328.84081780077378
 21
1258.2453912184301
 31
0.0
 73
     3
  0
TEXT
  5
66
  8
SPEC
 62
     7
 10
329.49730163855321
 20
1192.471259197323
 30
0.0
 40
9.5015733506944464
  1
Type A 19pin female
 41
0.7
 11
329.49730163855321
 21
1201.972832548018
 31
0.0
 73
     3
  0
TEXT
  5
67
  8
SPEC
 62
     7
 10
91.814280611512075
 20
1229.915193162984
 30
0.0
 40
9.5015733506944464
  1
入力DDC信号
 41
0.7
 11
91.814280611512075
 21
1239.4167665136781
 31
0.0
 73
     3
  0
TEXT
  5
68
  8
SPEC
 62
     7
 10
329.62294818025168
 20
1229.5851841864001
 30
0.0
 40
9.5015733506944464
  1
5Vp-p(TTL)
 41
0.7
 11
329.62294818025168
 21
1239.0867575370939
 31
0.0
 73
     3
  0
TEXT
  5
69
  8
SPEC
 62
     7
 10
91.733169292584421
 20
1023.853609035816
 30
0.0
 40
9.5015562499999984
  1
消費電力
 41
0.7
 11
91.733169292584421
 21
1033.3551652858159
 31
0.0
 73
     3
  0
TEXT
  5
6A
  8
SPEC
 62
     7
 10
329.67532178862967
 20
1023.3984898504031
 30
0.0
 40
9.5015562499999984
  1
13W(最大)
 41
0.7
 11
329.67532178862967
 21
1032.900046100403
 31
0.0
 73
     3
  0
TEXT
  5
6B
  8
SPEC
 62
     7
 10
329.78520409408492
 20
1004.523618921931
 30
0.0
 40
9.5015733506944464
  1
432(W)\U+00D744(H)\U+00D7160(D)mm(突起部含まず)
 41
0.7
 11
329.78520409408492
 21
1014.025192272625
 31
0.0
 73
     3
  0
TEXT
  5
6C
  8
SPEC
 62
     7
 10
329.30678153183072
 20
986.62490248225913
 30
0.0
 40
9.5015733506944464
  1
約2kg
 41
0.7
 11
329.30678153183072
 21
996.12647583295347
 31
0.0
 73
     3
  0
TEXT
  5
6D
  8
SPEC
 62
     7
 10
92.011165367716259
 20
1211.165193162984
 30
0.0
 40
9.5015733506944464
  1
入力Video信号
 41
0.7
 11
92.011165367716259
 21
1220.6667665136781
 31
0.0
 73
     3
  0
TEXT
  5
6E
  8
SPEC
 62
     7
 10
328.87853382945639
 20
1210.9497448794709
 30
0.0
 40
9.5015733506944464
  1
1.2Vp-p
 41
0.7
 11
328.87853382945639
 21
1220.451318230165
 31
0.0
 73
     3
  0
LINE
  5
6F
  8
SPEC
  6
CONTINUOUS
 62
     7
 10
87.5
 20
1075.0
 30
0.0
 11
825.0
 21
1075.0
 31
0.0
  0
LINE
  5
70
  8
SPEC
  6
CONTINUOUS
 62
     7
 10
87.5
 20
1056.25
 30
0.0
 11
825.0
 21
1056.25
 31
0.0
  0
LINE
  5
71
  8
SPEC
  6
CONTINUOUS
 62
     7
 10
87.5
 20
1037.5
 30
0.0
 11
825.0
 21
1037.5
 31
0.0
  0
LINE
  5
72
  8
SPEC
  6
CONTINUOUS
 62
     7
 10
87.5
 20
1018.75
 30
0.0
 11
825.0
 21
1018.75
 31
0.0
  0
LINE
  5
73
  8
SPEC
  6
CONTINUOUS
 62
     7
 10
87.5
 20
1000.0
 30
0.0
 11
825.0
 21
1000.0
 31
0.0
  0
LINE
  5
74
  8
SPEC
  6
CONTINUOUS
 62
     7
 10
87.5
 20
981.25
 30
0.0
 11
825.0
 21
981.25
 31
0.0
  0
TEXT
  5
75
  8
SPEC
 62
     7
 10
329.60143730736831
 20
1267.037198519052
 30
0.0
 40
9.5015562499999984
  1
350MHz
 41
0.7
 11
329.60143730736831
 21
1276.538754769052
 31
0.0
 73
     3
  0
TEXT
  5
76
  8
SPEC
 62
     7
 10
90.628117911539107
 20
1154.866310608475
 30
0.0
 40
9.5015733506944464
  1
コンポジット入力端子
 41
0.7
 11
90.628117911539107
 21
1164.3678839591701
 31
0.0
 73
     3
  0
TEXT
  5
77
  8
SPEC
 62
     7
 10
329.74189623480879
 20
1154.618053859997
 30
0.0
 40
9.5015733506944464
  1
CVBS(1 RCA)\U+00D72
 41
0.7
 11
329.74189623480879
 21
1164.1196272106911
 31
0.0
 73
     3
  0
TEXT
  5
78
  8
SPEC
 62
     7
 10
92.298586885867522
 20
1136.284019785161
 30
0.0
 40
9.5015733506944464
  1
VGA入力端子
 41
0.7
 11
92.298586885867522
 21
1145.7855931358561
 31
0.0
 73
     3
  0
TEXT
  5
79
  8
SPEC
 62
     7
 10
329.5350119412829
 20
1136.3822644554
 30
0.0
 40
9.5015733506944464
  1
HD-15 female VGA
 41
0.7
 11
329.5350119412829
 21
1145.883837806095
 31
0.0
 73
     3
  0
TEXT
  5
7A
  8
SPEC
 62
     7
 10
92.179836826527193
 20
1117.3123456544481
 30
0.0
 40
9.5015733506944464
  1
S-Video入力端子
 41
0.7
 11
92.179836826527193
 21
1126.8139190051429
 31
0.0
 73
     3
  0
TEXT
  5
7B
  8
SPEC
 62
     7
 10
329.63721190104781
 20
1117.423796556888
 30
0.0
 40
9.5015733506944464
  1
4 pin mini-DIN
 41
0.7
 11
329.63721190104781
 21
1126.9253699075821
 31
0.0
 73
     3
  0
TEXT
  5
7C
  8
SPEC
 62
     7
 10
92.048792585224504
 20
1099.0289636944169
 30
0.0
 40
9.5015733506944464
  1
RS-232リモコンポート
 41
0.7
 11
92.048792585224504
 21
1108.530537045111
 31
0.0
 73
     3
  0
TEXT
  5
7D
  8
SPEC
 62
     7
 10
329.53419995192093
 20
1098.5691638419059
 30
0.0
 40
9.5015733506944464
  1
DB9 9pin Serial
 41
0.7
 11
329.53419995192093
 21
1108.070737192601
 31
0.0
 73
     3
  0
TEXT
  5
7E
  8
SPEC
 62
     7
 10
91.284772988378705
 20
1080.3258664859779
 30
0.0
 40
9.5015733506944464
  1
アナログオーディオ入力
 41
0.7
 11
91.284772988378705
 21
1089.827439836673
 31
0.0
 73
     3
  0
TEXT
  5
7F
  8
SPEC
 62
     7
 10
329.58451421277448
 20
1079.4606718379621
 30
0.0
 40
9.5015733506944464
  1
L+R RCA(ペア)\U+00D72、3.5mmステレオmini-jack 
 41
0.7
 11
329.58451421277448
 21
1088.9622451886571
 31
0.0
 73
     3
  0
TEXT
  5
80
  8
SPEC
 62
     7
 10
90.773465014366366
 20
1062.1561024021239
 30
0.0
 40
9.5015733506944464
  1
ラックマウントサイズ
 41
0.7
 11
90.773465014366366
 21
1071.6576757528189
 31
0.0
 73
     3
  0
TEXT
  5
81
  8
SPEC
 62
     7
 10
328.92401449973039
 20
1061.0661398969009
 30
0.0
 40
9.5015733506944464
  1
1U
 41
0.7
 11
328.92401449973039
 21
1070.5677132475951
 31
0.0
 73
     3
  0
TEXT
  5
82
  8
DIMNSIONS
 62
     7
 10
400.0
 20
111.34744999999999
 30
0.0
 40
12.21630859375
  1
(単位：mm)
 41
0.7
 11
400.0
 21
123.5637585937499
 31
0.0
 73
     3
  0
LINE
  5
83
  8
DIMNSIONS
  6
CONTINUOUS
 62
     7
 10
165.0
 20
362.5
 30
0.0
 11
127.5
 21
362.5
 31
0.0
  0
LINE
  5
84
  8
DIMNSIONS
  6
CONTINUOUS
 62
     7
 10
165.0
 20
406.5
 30
0.0
 11
127.5
 21
406.5
 31
0.0
  0
LINE
  5
85
  8
DIMNSIONS
  6
CONTINUOUS
 62
     7
 10
137.5
 20
362.5
 30
0.0
 11
137.5
 21
406.5
 31
0.0
  0
LINE
  5
86
  8
DIMNSIONS
  6
CONTINUOUS
 62
     7
 10
137.5
 20
362.5
 30
0.0
 11
134.1498010242488
 21
375.00311279296881
 31
0.0
  0
LINE
  5
87
  8
DIMNSIONS
  6
CONTINUOUS
 62
     7
 10
137.5
 20
362.5
 30
0.0
 11
140.8501989757512
 21
375.00311279296881
 31
0.0
  0
LINE
  5
88
  8
DIMNSIONS
  6
CONTINUOUS
 62
     7
 10
137.5
 20
406.5
 30
0.0
 11
140.8501989757512
 21
393.99688720703131
 31
0.0
  0
LINE
  5
89
  8
DIMNSIONS
  6
CONTINUOUS
 62
     7
 10
137.5
 20
406.5
 30
0.0
 11
134.1498010242488
 21
393.99688720703131
 31
0.0
  0
TEXT
  5
8A
  8
DIMNSIONS
 62
     7
 10
132.53055555555551
 20
375.68055555555549
 30
0.0
 40
13.57367621527778
  1
44
 50
90.0
 41
0.7
 11
118.95687934027769
 21
375.68055555555549
 31
0.0
 73
     3
  0
LINE
  5
8B
  8
DIMNSIONS
  6
CONTINUOUS
 62
     7
 10
175.0
 20
352.5
 30
0.0
 11
175.0
 21
315.0
 31
0.0
  0
LINE
  5
8C
  8
DIMNSIONS
  6
CONTINUOUS
 62
     7
 10
607.0
 20
352.5
 30
0.0
 11
607.0
 21
315.0
 31
0.0
  0
LINE
  5
8D
  8
DIMNSIONS
  6
CONTINUOUS
 62
     7
 10
175.0
 20
325.0
 30
0.0
 11
607.0
 21
325.0
 31
0.0
  0
LINE
  5
8E
  8
DIMNSIONS
  6
CONTINUOUS
 62
     7
 10
175.0
 20
325.0
 30
0.0
 11
187.50311279296869
 21
328.3501989757512
 31
0.0
  0
LINE
  5
8F
  8
DIMNSIONS
  6
CONTINUOUS
 62
     7
 10
175.0
 20
325.0
 30
0.0
 11
187.50311279296869
 21
321.6498010242488
 31
0.0
  0
LINE
  5
90
  8
DIMNSIONS
  6
CONTINUOUS
 62
     7
 10
607.0
 20
325.0
 30
0.0
 11
594.49688720703125
 21
321.6498010242488
 31
0.0
  0
LINE
  5
91
  8
DIMNSIONS
  6
CONTINUOUS
 62
     7
 10
607.0
 20
325.0
 30
0.0
 11
594.49688720703125
 21
328.3501989757512
 31
0.0
  0
TEXT
  5
92
  8
DIMNSIONS
 62
     7
 10
377.77083333333331
 20
329.96944444444449
 30
0.0
 40
13.57367621527778
  1
432
 41
0.7
 11
377.77083333333331
 21
343.54312065972232
 31
0.0
 73
     3
  0
LINE
  5
93
  8
DIMNSIONS
  6
CONTINUOUS
 62
     7
 10
165.0
 20
475.0
 30
0.0
 11
127.5
 21
475.0
 31
0.0
  0
LINE
  5
94
  8
DIMNSIONS
  6
CONTINUOUS
 62
     7
 10
165.0
 20
635.0
 30
0.0
 11
127.5
 21
635.0
 31
0.0
  0
LINE
  5
95
  8
DIMNSIONS
  6
CONTINUOUS
 62
     7
 10
137.5
 20
475.0
 30
0.0
 11
137.5
 21
635.0
 31
0.0
  0
LINE
  5
96
  8
DIMNSIONS
  6
CONTINUOUS
 62
     7
 10
137.5
 20
475.0
 30
0.0
 11
134.1498010242488
 21
487.50311279296881
 31
0.0
  0
LINE
  5
97
  8
DIMNSIONS
  6
CONTINUOUS
 62
     7
 10
137.5
 20
475.0
 30
0.0
 11
140.8501989757512
 21
487.50311279296881
 31
0.0
  0
LINE
  5
98
  8
DIMNSIONS
  6
CONTINUOUS
 62
     7
 10
137.5
 20
635.0
 30
0.0
 11
140.8501989757512
 21
622.49688720703125
 31
0.0
  0
LINE
  5
99
  8
DIMNSIONS
  6
CONTINUOUS
 62
     7
 10
137.5
 20
635.0
 30
0.0
 11
134.1498010242488
 21
622.49688720703125
 31
0.0
  0
TEXT
  5
9A
  8
DIMNSIONS
 62
     7
 10
132.53055555555551
 20
541.77083333333314
 30
0.0
 40
13.57367621527778
  1
160
 50
90.0
 41
0.7
 11
118.95687934027769
 21
541.77083333333314
 31
0.0
 73
     3
  0
LINE
  5
9B
  8
DIMNSIONS
  6
CONTINUOUS
 62
     7
 10
209.30000000000001
 20
467.0
 30
0.0
 11
127.5
 21
467.0
 31
0.0
  0
LINE
  5
9C
  8
DIMNSIONS
  6
CONTINUOUS
 62
     7
 10
165.0
 20
475.0
 30
0.0
 11
127.5
 21
475.0
 31
0.0
  0
LINE
  5
9D
  8
DIMNSIONS
  6
CONTINUOUS
 62
     7
 10
137.5
 20
475.0
 30
0.0
 11
137.5
 21
467.0
 31
0.0
  0
LINE
  5
9E
  8
DIMNSIONS
  6
CONTINUOUS
 62
     7
 10
137.5
 20
467.0
 30
0.0
 11
137.5
 21
441.18055555555537
 31
0.0
  0
LINE
  5
9F
  8
DIMNSIONS
  6
CONTINUOUS
 62
     7
 10
137.5
 20
467.0
 30
0.0
 11
140.8501989757512
 21
454.49688720703119
 31
0.0
  0
LINE
  5
A0
  8
DIMNSIONS
  6
CONTINUOUS
 62
     7
 10
137.5
 20
467.0
 30
0.0
 11
134.1498010242488
 21
454.49688720703119
 31
0.0
  0
LINE
  5
A1
  8
DIMNSIONS
  6
CONTINUOUS
 62
     7
 10
137.5
 20
475.0
 30
0.0
 11
137.5
 21
500.0
 31
0.0
  0
LINE
  5
A2
  8
DIMNSIONS
  6
CONTINUOUS
 62
     7
 10
137.5
 20
475.0
 30
0.0
 11
134.1498010242488
 21
487.50311279296881
 31
0.0
  0
LINE
  5
A3
  8
DIMNSIONS
  6
CONTINUOUS
 62
     7
 10
137.5
 20
475.0
 30
0.0
 11
140.8501989757512
 21
487.50311279296881
 31
0.0
  0
TEXT
  5
A4
  8
DIMNSIONS
 62
     7
 10
132.53055555555551
 20
441.18055555555537
 30
0.0
 40
13.57367621527778
  1
8
 50
90.0
 41
0.7
 11
118.95687934027769
 21
441.18055555555537
 31
0.0
 73
     3
  0
LINE
  5
A5
  8
DIMNSIONS
  6
CONTINUOUS
 62
     7
 10
165.0
 20
635.0
 30
0.0
 11
127.5
 21
635.0
 31
0.0
  0
LINE
  5
A6
  8
DIMNSIONS
  6
CONTINUOUS
 62
     7
 10
345.80000000000001
 20
643.0
 30
0.0
 11
127.5
 21
643.0
 31
0.0
  0
LINE
  5
A7
  8
DIMNSIONS
  6
CONTINUOUS
 62
     7
 10
137.5
 20
643.0
 30
0.0
 11
137.5
 21
635.0
 31
0.0
  0
LINE
  5
A8
  8
DIMNSIONS
  6
CONTINUOUS
 62
     7
 10
137.5
 20
635.0
 30
0.0
 11
137.5
 21
610.0
 31
0.0
  0
LINE
  5
A9
  8
DIMNSIONS
  6
CONTINUOUS
 62
     7
 10
137.5
 20
635.0
 30
0.0
 11
140.8501989757512
 21
622.49688720703125
 31
0.0
  0
LINE
  5
AA
  8
DIMNSIONS
  6
CONTINUOUS
 62
     7
 10
137.5
 20
635.0
 30
0.0
 11
134.1498010242488
 21
622.49688720703125
 31
0.0
  0
LINE
  5
AB
  8
DIMNSIONS
  6
CONTINUOUS
 62
     7
 10
137.5
 20
643.0
 30
0.0
 11
137.5
 21
671.31944444444434
 31
0.0
  0
LINE
  5
AC
  8
DIMNSIONS
  6
CONTINUOUS
 62
     7
 10
137.5
 20
643.0
 30
0.0
 11
134.1498010242488
 21
655.50311279296875
 31
0.0
  0
LINE
  5
AD
  8
DIMNSIONS
  6
CONTINUOUS
 62
     7
 10
137.5
 20
643.0
 30
0.0
 11
140.8501989757512
 21
655.50311279296875
 31
0.0
  0
TEXT
  5
AE
  8
DIMNSIONS
 62
     7
 10
132.53055555555551
 20
662.5
 30
0.0
 40
13.57367621527778
  1
8
 50
90.0
 41
0.7
 11
118.95687934027769
 21
662.5
 31
0.0
 73
     3
  0
TEXT
  5
AF
  8
DATA
 62
     7
 10
750.0
 20
106.0627619472923
 30
0.0
 40
12.21630859375
  1
EXT-TV-MFS
 41
0.7
 11
750.0
 21
118.2790705410423
 31
0.0
 73
     3
  0
TEXT
  5
B0
  8
DATA
 62
     7
 10
737.5
 20
126.7321898582256
 30
0.0
 40
8.1442185546874981
  1
マルチフォーマットスイッチャー
 41
0.7
 11
737.5
 21
134.87640841291309
 31
0.0
 73
     3
  0
TEXT
  5
B1
  8
DATA
 62
     7
 10
100.0
 20
71.190000000000111
 30
0.0
 40
8.1442057291666661
  1
仕様および外観は予告なく変更されることがありますので、ご了承ください。
 41
0.7
 11
100.0
 21
79.334205729166783
 31
0.0
 73
     3
  0
TEXT
  5
B2
  8
DATA
 62
     7
 10
748.0
 20
144.68030417747681
 30
0.0
 40
12.21630859375
  1
Gefen
 41
0.7
 11
748.0
 21
156.89661277122681
 31
0.0
 73
     3
  0
LINE
  5
B3
  8
DATA
  6
CONTINUOUS
 62
     7
 10
175.0
 20
362.5
 30
0.0
 11
175.0
 21
406.5
 31
0.0
  0
LINE
  5
B4
  8
DATA
  6
CONTINUOUS
 62
     7
 10
175.0
 20
362.5
 30
0.0
 11
607.0
 21
362.5
 31
0.0
  0
LINE
  5
B5
  8
DATA
  6
CONTINUOUS
 62
     7
 10
607.0
 20
362.5
 30
0.0
 11
607.0
 21
406.5
 31
0.0
  0
LINE
  5
B6
  8
DATA
  6
CONTINUOUS
 62
     7
 10
175.0
 20
406.5
 30
0.0
 11
607.0
 21
406.5
 31
0.0
  0
LINE
  5
B7
  8
DATA
  6
CONTINUOUS
 62
     7
 10
175.0
 20
475.0
 30
0.0
 11
607.0
 21
475.0
 31
0.0
  0
LINE
  5
B8
  8
DATA
  6
CONTINUOUS
 62
     7
 10
607.0
 20
475.0
 30
0.0
 11
607.0
 21
635.0
 31
0.0
  0
LINE
  5
B9
  8
DATA
  6
CONTINUOUS
 62
     7
 10
175.0
 20
475.0
 30
0.0
 11
175.0
 21
635.0
 31
0.0
  0
LINE
  5
BA
  8
DATA
  6
CONTINUOUS
 62
     7
 10
175.0
 20
635.0
 30
0.0
 11
607.0
 21
635.0
 31
0.0
  0
LINE
  5
BB
  8
DATA
  6
CONTINUOUS
 62
     7
 10
175.0
 20
712.5
 30
0.0
 11
607.0
 21
712.5
 31
0.0
  0
LINE
  5
BC
  8
DATA
  6
CONTINUOUS
 62
     7
 10
175.0
 20
756.5
 30
0.0
 11
607.0
 21
756.5
 31
0.0
  0
LINE
  5
BD
  8
DATA
  6
CONTINUOUS
 62
     7
 10
175.0
 20
712.5
 30
0.0
 11
175.0
 21
756.5
 31
0.0
  0
LINE
  5
BE
  8
DATA
  6
CONTINUOUS
 62
     7
 10
607.0
 20
712.5
 30
0.0
 11
607.0
 21
756.5
 31
0.0
  0
CIRCLE
  5
BF
  8
DATA
  6
CONTINUOUS
 62
     7
 10
586.0
 20
379.5
 30
0.0
 40
4.0
  0
CIRCLE
  5
C0
  8
DATA
  6
CONTINUOUS
 62
     7
 10
586.0
 20
393.5
 30
0.0
 40
1.4749999999999941
  0
CIRCLE
  5
C1
  8
DATA
  6
CONTINUOUS
 62
     7
 10
571.0
 20
379.5
 30
0.0
 40
4.0
  0
CIRCLE
  5
C2
  8
DATA
  6
CONTINUOUS
 62
     7
 10
571.0
 20
393.5
 30
0.0
 40
1.4749999999999941
  0
CIRCLE
  5
C3
  8
DATA
  6
CONTINUOUS
 62
     7
 10
556.0
 20
379.5
 30
0.0
 40
4.0
  0
CIRCLE
  5
C4
  8
DATA
  6
CONTINUOUS
 62
     7
 10
556.0
 20
393.5
 30
0.0
 40
1.4749999999999941
  0
CIRCLE
  5
C5
  8
DATA
  6
CONTINUOUS
 62
     7
 10
541.0
 20
379.5
 30
0.0
 40
4.0
  0
CIRCLE
  5
C6
  8
DATA
  6
CONTINUOUS
 62
     7
 10
541.0
 20
393.5
 30
0.0
 40
1.4749999999999941
  0
CIRCLE
  5
C7
  8
DATA
  6
CONTINUOUS
 62
     7
 10
526.0
 20
379.5
 30
0.0
 40
4.0
  0
CIRCLE
  5
C8
  8
DATA
  6
CONTINUOUS
 62
     7
 10
526.0
 20
393.5
 30
0.0
 40
1.4749999999999941
  0
CIRCLE
  5
C9
  8
DATA
  6
CONTINUOUS
 62
     7
 10
511.0
 20
379.5
 30
0.0
 40
4.0
  0
CIRCLE
  5
CA
  8
DATA
  6
CONTINUOUS
 62
     7
 10
511.0
 20
393.5
 30
0.0
 40
1.4749999999999941
  0
CIRCLE
  5
CB
  8
DATA
  6
CONTINUOUS
 62
     7
 10
496.0
 20
379.5
 30
0.0
 40
4.0
  0
CIRCLE
  5
CC
  8
DATA
  6
CONTINUOUS
 62
     7
 10
496.0
 20
393.5
 30
0.0
 40
1.4749999999999941
  0
CIRCLE
  5
CD
  8
DATA
  6
CONTINUOUS
 62
     7
 10
481.0
 20
379.5
 30
0.0
 40
4.0
  0
CIRCLE
  5
CE
  8
DATA
  6
CONTINUOUS
 62
     7
 10
481.0
 20
393.5
 30
0.0
 40
1.4749999999999941
  0
CIRCLE
  5
CF
  8
DATA
  6
CONTINUOUS
 62
     7
 10
466.0
 20
379.5
 30
0.0
 40
4.0
  0
CIRCLE
  5
D0
  8
DATA
  6
CONTINUOUS
 62
     7
 10
466.0
 20
393.5
 30
0.0
 40
1.4749999999999941
  0
CIRCLE
  5
D1
  8
DATA
  6
CONTINUOUS
 62
     7
 10
451.0
 20
379.5
 30
0.0
 40
4.0
  0
CIRCLE
  5
D2
  8
DATA
  6
CONTINUOUS
 62
     7
 10
451.0
 20
393.5
 30
0.0
 40
1.4749999999999941
  0
CIRCLE
  5
D3
  8
DATA
  6
CONTINUOUS
 62
     7
 10
223.5
 20
376.5
 30
0.0
 40
1.5
  0
CIRCLE
  5
D4
  8
DATA
  6
CONTINUOUS
 62
     7
 10
223.5
 20
376.5
 30
0.0
 40
4.1999999999999877
  0
CIRCLE
  5
D5
  8
DATA
  6
CONTINUOUS
 62
     7
 10
238.5
 20
376.5
 30
0.0
 40
1.5
  0
CIRCLE
  5
D6
  8
DATA
  6
CONTINUOUS
 62
     7
 10
238.5
 20
376.5
 30
0.0
 40
4.1999999999999877
  0
CIRCLE
  5
D7
  8
DATA
  6
CONTINUOUS
 62
     7
 10
253.5
 20
376.5
 30
0.0
 40
1.5
  0
CIRCLE
  5
D8
  8
DATA
  6
CONTINUOUS
 62
     7
 10
253.5
 20
376.5
 30
0.0
 40
4.1999999999999877
  0
CIRCLE
  5
D9
  8
DATA
  6
CONTINUOUS
 62
     7
 10
290.0
 20
376.5
 30
0.0
 40
1.5
  0
CIRCLE
  5
DA
  8
DATA
  6
CONTINUOUS
 62
     7
 10
290.0
 20
376.5
 30
0.0
 40
4.1999999999999877
  0
CIRCLE
  5
DB
  8
DATA
  6
CONTINUOUS
 62
     7
 10
305.0
 20
376.5
 30
0.0
 40
1.5
  0
CIRCLE
  5
DC
  8
DATA
  6
CONTINUOUS
 62
     7
 10
305.0
 20
376.5
 30
0.0
 40
4.1999999999999877
  0
CIRCLE
  5
DD
  8
DATA
  6
CONTINUOUS
 62
     7
 10
320.0
 20
376.5
 30
0.0
 40
1.5
  0
CIRCLE
  5
DE
  8
DATA
  6
CONTINUOUS
 62
     7
 10
320.0
 20
376.5
 30
0.0
 40
4.1999999999999877
  0
CIRCLE
  5
DF
  8
DATA
  6
CONTINUOUS
 62
     7
 10
335.0
 20
376.5
 30
0.0
 40
1.5
  0
CIRCLE
  5
E0
  8
DATA
  6
CONTINUOUS
 62
     7
 10
335.0
 20
376.5
 30
0.0
 40
4.1999999999999877
  0
CIRCLE
  5
E1
  8
DATA
  6
CONTINUOUS
 62
     7
 10
350.0
 20
376.5
 30
0.0
 40
1.5
  0
CIRCLE
  5
E2
  8
DATA
  6
CONTINUOUS
 62
     7
 10
350.0
 20
376.5
 30
0.0
 40
4.1999999999999877
  0
CIRCLE
  5
E3
  8
DATA
  6
CONTINUOUS
 62
     7
 10
365.0
 20
376.5
 30
0.0
 40
1.5
  0
CIRCLE
  5
E4
  8
DATA
  6
CONTINUOUS
 62
     7
 10
365.0
 20
376.5
 30
0.0
 40
4.1999999999999877
  0
CIRCLE
  5
E5
  8
DATA
  6
CONTINUOUS
 62
     7
 10
380.0
 20
376.5
 30
0.0
 40
1.5
  0
CIRCLE
  5
E6
  8
DATA
  6
CONTINUOUS
 62
     7
 10
380.0
 20
376.5
 30
0.0
 40
4.1999999999999877
  0
CIRCLE
  5
E7
  8
DATA
  6
CONTINUOUS
 62
     7
 10
273.5
 20
376.5
 30
0.0
 40
5.5
  0
POLYLINE
  5
E8
  8
DATA
  6
CONTINUOUS
 62
     7
 66
     1
 10
0.0
 20
0.0
 30
0.0
 70
     1
  0
VERTEX
  5
366
  8
DATA
  6
CONTINUOUS
 62
     7
 10
202.29165340519461
 20
382.43905668041077
 30
0.0
  0
VERTEX
  5
367
  8
DATA
  6
CONTINUOUS
 62
     7
 10
205.08004108432061
 20
383.18620290721748
 30
0.0
  0
VERTEX
  5
368
  8
DATA
  6
CONTINUOUS
 62
     7
 10
205.82718731112729
 20
385.97459058634348
 30
0.0
  0
VERTEX
  5
369
  8
DATA
  6
CONTINUOUS
 62
     7
 10
203.78594585880799
 20
388.01583203866289
 30
0.0
  0
VERTEX
  5
36A
  8
DATA
  6
CONTINUOUS
 62
     7
 10
200.99755817968199
 20
387.26868581185607
 30
0.0
  0
VERTEX
  5
36B
  8
DATA
  6
CONTINUOUS
 62
     7
 10
200.25041195287531
 20
384.48029813273001
 30
0.0
  0
SEQEND
  5
36C
  8
DATA
  6
CONTINUOUS
 62
     7
  0
CIRCLE
  5
F1
  8
DATA
  6
CONTINUOUS
 62
     7
 10
203.0387996320014
 20
385.22744435953678
 30
0.0
 40
1.274999999999977
  0
LINE
  5
F2
  8
DATA
  6
CONTINUOUS
 62
     7
 10
210.88879963200131
 20
378.16459369077262
 30
0.0
 11
195.18879963200129
 21
378.16459369077262
 31
0.0
  0
LINE
  5
F3
  8
DATA
  6
CONTINUOUS
 62
     7
 10
210.88879963200131
 20
378.16459369077262
 30
0.0
 11
210.88879963200131
 21
373.86459369077249
 31
0.0
  0
LINE
  5
F4
  8
DATA
  6
CONTINUOUS
 62
     7
 10
195.18879963200129
 20
378.16459369077262
 30
0.0
 11
195.18879963200129
 21
373.86459369077249
 31
0.0
  0
LINE
  5
F5
  8
DATA
  6
CONTINUOUS
 62
     7
 10
210.88879963200131
 20
373.86459369077249
 30
0.0
 11
208.28879963200129
 21
372.16459369077239
 31
0.0
  0
LINE
  5
F6
  8
DATA
  6
CONTINUOUS
 62
     7
 10
195.18879963200129
 20
373.86459369077249
 30
0.0
 11
197.78879963200129
 21
372.16459369077239
 31
0.0
  0
LINE
  5
F7
  8
DATA
  6
CONTINUOUS
 62
     7
 10
208.28879963200129
 20
372.16459369077239
 30
0.0
 11
197.78879963200129
 21
372.16459369077239
 31
0.0
  0
POLYLINE
  5
F8
  8
DATA
  6
CONTINUOUS
 62
     7
 66
     1
 10
0.0
 20
0.0
 30
0.0
 70
     1
  0
VERTEX
  5
36D
  8
DATA
  6
CONTINUOUS
 62
     7
 10
198.03879963200129
 20
375.87843051627971
 30
0.0
  0
VERTEX
  5
36E
  8
DATA
  6
CONTINUOUS
 62
     7
 10
208.0387996320014
 20
375.87843051627971
 30
0.0
  0
VERTEX
  5
36F
  8
DATA
  6
CONTINUOUS
 62
     7
 10
208.0387996320014
 20
375.37843051627959
 30
0.0
  0
VERTEX
  5
370
  8
DATA
  6
CONTINUOUS
 62
     7
 10
198.03879963200129
 20
375.37843051627959
 30
0.0
  0
SEQEND
  5
371
  8
DATA
  6
CONTINUOUS
 62
     7
  0
TEXT
  5
FF
  8
DATA
 62
     7
 10
196.1496718424296
 20
365.54610386309912
 30
0.0
 40
2.4432617187500001
  1
HDMI In 1
 41
0.7
 11
196.1496718424296
 21
367.98936558184909
 31
0.0
 73
     3
  0
TEXT
  5
100
  8
DATA
 62
     7
 10
222.5686741013904
 20
364.02585442783919
 30
0.0
 40
2.4432617187500001
  1
Composite/Audio In 1
 41
0.7
 11
222.5686741013904
 21
366.46911614658927
 31
0.0
 73
     3
  0
LINE
  5
101
  8
DATA
  6
CONTINUOUS
 62
     7
 10
221.40000000000001
 20
365.16885442783928
 30
0.0
 11
219.09999999999999
 21
365.16885442783928
 31
0.0
  0
LINE
  5
102
  8
DATA
  6
CONTINUOUS
 62
     7
 10
255.59999999999999
 20
365.16885442783928
 30
0.0
 11
257.89999999999998
 21
365.16885442783928
 31
0.0
  0
TEXT
  5
103
  8
DATA
 62
     7
 10
237.81224849065319
 20
368.52752183797958
 30
0.0
 40
2.4432617187500001
  1
R
 41
0.7
 11
237.81224849065319
 21
370.9707835567296
 31
0.0
 73
     3
  0
TEXT
  5
104
  8
DATA
 62
     7
 10
252.81224849065319
 20
368.52752183797958
 30
0.0
 40
2.4432617187500001
  1
L
 41
0.7
 11
252.81224849065319
 21
370.9707835567296
 31
0.0
 73
     3
  0
TEXT
  5
105
  8
DATA
 62
     7
 10
274.56948664102327
 20
364.02585442783919
 30
0.0
 40
2.4432617187500001
  1
S・Video/Audio In 1
 41
0.7
 11
274.56948664102327
 21
366.46911614658927
 31
0.0
 73
     3
  0
LINE
  5
106
  8
DATA
  6
CONTINUOUS
 62
     7
 10
272.77682821417369
 20
365.16885442783928
 30
0.0
 11
270.47682821417368
 21
365.16885442783928
 31
0.0
  0
LINE
  5
107
  8
DATA
  6
CONTINUOUS
 62
     7
 10
306.97682821417368
 20
365.16885442783928
 30
0.0
 11
309.27682821417369
 21
365.16885442783928
 31
0.0
  0
TEXT
  5
108
  8
DATA
 62
     7
 10
289.1890767048269
 20
368.52752183797958
 30
0.0
 40
2.4432617187500001
  1
R
 41
0.7
 11
289.1890767048269
 21
370.9707835567296
 31
0.0
 73
     3
  0
TEXT
  5
109
  8
DATA
 62
     7
 10
304.1890767048269
 20
368.52752183797958
 30
0.0
 40
2.4432617187500001
  1
L
 41
0.7
 11
304.1890767048269
 21
370.9707835567296
 31
0.0
 73
     3
  0
TEXT
  5
10A
  8
DATA
 62
     7
 10
334.25168749908289
 20
364.02585442783919
 30
0.0
 40
2.4432617187500001
  1
Component/Audio In 1
 41
0.7
 11
334.25168749908289
 21
366.46911614658927
 31
0.0
 73
     3
  0
LINE
  5
10B
  8
DATA
  6
CONTINUOUS
 62
     7
 10
331.39999999999998
 20
365.16885442783928
 30
0.0
 11
316.17509175196528
 21
365.16885442783928
 31
0.0
  0
TEXT
  5
10C
  8
DATA
 62
     7
 10
364.01118085939362
 20
368.52752183797958
 30
0.0
 40
2.4432617187500001
  1
R
 41
0.7
 11
364.01118085939362
 21
370.9707835567296
 31
0.0
 73
     3
  0
TEXT
  5
10D
  8
DATA
 62
     7
 10
379.01118085939362
 20
368.52752183797958
 30
0.0
 40
2.4432617187500001
  1
L
 41
0.7
 11
379.01118085939362
 21
370.9707835567296
 31
0.0
 73
     3
  0
TEXT
  5
10E
  8
DATA
 62
     7
 10
349.01118085939362
 20
368.52752183797958
 30
0.0
 40
2.4432617187500001
  1
Y
 41
0.7
 11
349.01118085939362
 21
370.9707835567296
 31
0.0
 73
     3
  0
TEXT
  5
10F
  8
DATA
 62
     7
 10
331.20696923998662
 20
368.52752183797958
 30
0.0
 40
2.4432617187500001
  1
Pb/Cb
 41
0.7
 11
331.20696923998662
 21
370.9707835567296
 31
0.0
 73
     3
  0
TEXT
  5
110
  8
DATA
 62
     7
 10
316.12449242765098
 20
368.52752183797958
 30
0.0
 40
2.4432617187500001
  1
Pr/Cr
 41
0.7
 11
316.12449242765098
 21
370.9707835567296
 31
0.0
 73
     3
  0
LINE
  5
111
  8
DATA
  6
CONTINUOUS
 62
     7
 10
368.60000000000002
 20
365.16885442783928
 30
0.0
 11
383.8249082480346
 21
365.16885442783928
 31
0.0
  0
TEXT
  5
112
  8
DATA
 62
     7
 10
582.30948384265332
 20
364.02585442783919
 30
0.0
 40
2.4432617187500001
  1
HDMI3 
 41
0.7
 11
582.30948384265332
 21
366.46911614658927
 31
0.0
 73
     3
  0
TEXT
  5
113
  8
DATA
 62
     7
 10
567.30948384265332
 20
364.02585442783919
 30
0.0
 40
2.4432617187500001
  1
HDMI2 
 41
0.7
 11
567.30948384265332
 21
366.46911614658927
 31
0.0
 73
     3
  0
TEXT
  5
114
  8
DATA
 62
     7
 10
552.30948384265321
 20
364.02585442783919
 30
0.0
 40
2.4432617187500001
  1
HDMI1 
 41
0.7
 11
552.30948384265321
 21
366.46911614658927
 31
0.0
 73
     3
  0
TEXT
  5
115
  8
DATA
 62
     7
 10
539.24784884934968
 20
364.02585442783919
 30
0.0
 40
2.4432617187500001
  1
PC 
 41
0.7
 11
539.24784884934968
 21
366.46911614658927
 31
0.0
 73
     3
  0
TEXT
  5
116
  8
DATA
 62
     7
 10
522.30948384265321
 20
364.02585442783919
 30
0.0
 40
2.4432617187500001
  1
Comp2 
 41
0.7
 11
522.30948384265321
 21
366.46911614658927
 31
0.0
 73
     3
  0
TEXT
  5
117
  8
DATA
 62
     7
 10
507.30948384265309
 20
364.02585442783919
 30
0.0
 40
2.4432617187500001
  1
Comp1 
 41
0.7
 11
507.30948384265309
 21
366.46911614658927
 31
0.0
 73
     3
  0
TEXT
  5
118
  8
DATA
 62
     7
 10
493.39981415891992
 20
364.02585442783919
 30
0.0
 40
2.4432617187500001
  1
SV2 
 41
0.7
 11
493.39981415891992
 21
366.46911614658927
 31
0.0
 73
     3
  0
TEXT
  5
119
  8
DATA
 62
     7
 10
478.52096197183852
 20
364.02585442783919
 30
0.0
 40
2.4432617187500001
  1
SV1 
 41
0.7
 11
478.52096197183852
 21
366.46911614658927
 31
0.0
 73
     3
  0
TEXT
  5
11A
  8
DATA
 62
     7
 10
463.38040425357212
 20
364.02585442783919
 30
0.0
 40
2.4432617187500001
  1
CV2 
 41
0.7
 11
463.38040425357212
 21
366.46911614658927
 31
0.0
 73
     3
  0
TEXT
  5
11B
  8
DATA
 62
     7
 10
448.38040425357201
 20
364.02585442783919
 30
0.0
 40
2.4432617187500001
  1
CV1 
 41
0.7
 11
448.38040425357201
 21
366.46911614658927
 31
0.0
 73
     3
  0
CIRCLE
  5
11C
  8
DATA
  6
CONTINUOUS
 62
     7
 10
436.0
 20
393.5
 30
0.0
 40
1.4749999999999941
  0
TEXT
  5
11D
  8
DATA
 62
     7
 10
433.38040425357201
 20
364.02585442783919
 30
0.0
 40
2.4432617187500001
  1
Power 
 41
0.7
 11
433.38040425357201
 21
366.46911614658927
 31
0.0
 73
     3
  0
CIRCLE
  5
11E
  8
DATA
  6
CONTINUOUS
 62
     7
 10
421.0
 20
384.29821315377649
 30
0.0
 40
4.0
  0
TEXT
  5
11F
  8
DATA
 62
     7
 10
418.38040425357212
 20
364.02585442783919
 30
0.0
 40
2.4432617187500001
  1
IR 
 41
0.7
 11
418.38040425357212
 21
366.46911614658927
 31
0.0
 73
     3
  0
TEXT
  5
120
  8
DATA
 62
     7
 10
219.75409443812299
 20
391.52235139388313
 30
0.0
 40
7.3297851562499989
  1
TV Multi Format Switcher
 41
0.7
 11
219.75409443812299
 21
398.85213655013308
 31
0.0
 73
     3
  0
LINE
  5
121
  8
DATA
  6
CONTINUOUS
 62
     7
 10
175.0
 20
485.0
 30
0.0
 11
607.0
 21
485.0
 31
0.0
  0
LINE
  5
122
  8
DATA
  6
CONTINUOUS
 62
     7
 10
675.0
 20
363.30000000000001
 30
0.0
 11
675.0
 21
405.69999999999999
 31
0.0
  0
LINE
  5
123
  8
DATA
  6
CONTINUOUS
 62
     7
 10
835.0
 20
362.5
 30
0.0
 11
835.0
 21
406.5
 31
0.0
  0
LINE
  5
124
  8
DATA
  6
CONTINUOUS
 62
     7
 10
675.79999999999995
 20
406.5
 30
0.0
 11
835.0
 21
406.5
 31
0.0
  0
LINE
  5
125
  8
DATA
  6
CONTINUOUS
 62
     7
 10
675.79999999999995
 20
362.5
 30
0.0
 11
835.0
 21
362.5
 31
0.0
  0
LINE
  5
126
  8
DATA
  6
CONTINUOUS
 62
     7
 10
219.30000000000001
 20
467.0
 30
0.0
 11
219.30000000000001
 21
475.0
 31
0.0
  0
LINE
  5
127
  8
DATA
  6
CONTINUOUS
 62
     7
 10
227.69999999999999
 20
467.0
 30
0.0
 11
227.69999999999999
 21
475.0
 31
0.0
  0
LINE
  5
128
  8
DATA
  6
CONTINUOUS
 62
     7
 10
219.30000000000001
 20
467.0
 30
0.0
 11
227.69999999999999
 21
467.0
 31
0.0
  0
LINE
  5
129
  8
DATA
  6
CONTINUOUS
 62
     7
 10
234.30000000000001
 20
467.0
 30
0.0
 11
234.30000000000001
 21
475.0
 31
0.0
  0
LINE
  5
12A
  8
DATA
  6
CONTINUOUS
 62
     7
 10
242.69999999999999
 20
467.0
 30
0.0
 11
242.69999999999999
 21
475.0
 31
0.0
  0
LINE
  5
12B
  8
DATA
  6
CONTINUOUS
 62
     7
 10
234.30000000000001
 20
467.0
 30
0.0
 11
242.69999999999999
 21
467.0
 31
0.0
  0
LINE
  5
12C
  8
DATA
  6
CONTINUOUS
 62
     7
 10
249.30000000000001
 20
467.0
 30
0.0
 11
249.30000000000001
 21
475.0
 31
0.0
  0
LINE
  5
12D
  8
DATA
  6
CONTINUOUS
 62
     7
 10
257.69999999999999
 20
467.0
 30
0.0
 11
257.69999999999999
 21
475.0
 31
0.0
  0
LINE
  5
12E
  8
DATA
  6
CONTINUOUS
 62
     7
 10
249.30000000000001
 20
467.0
 30
0.0
 11
257.69999999999999
 21
467.0
 31
0.0
  0
LINE
  5
12F
  8
DATA
  6
CONTINUOUS
 62
     7
 10
285.80000000000001
 20
467.0
 30
0.0
 11
285.80000000000001
 21
475.0
 31
0.0
  0
LINE
  5
130
  8
DATA
  6
CONTINUOUS
 62
     7
 10
294.19999999999999
 20
467.0
 30
0.0
 11
294.19999999999999
 21
475.0
 31
0.0
  0
LINE
  5
131
  8
DATA
  6
CONTINUOUS
 62
     7
 10
285.80000000000001
 20
467.0
 30
0.0
 11
294.19999999999999
 21
467.0
 31
0.0
  0
LINE
  5
132
  8
DATA
  6
CONTINUOUS
 62
     7
 10
300.80000000000001
 20
467.0
 30
0.0
 11
300.80000000000001
 21
475.0
 31
0.0
  0
LINE
  5
133
  8
DATA
  6
CONTINUOUS
 62
     7
 10
309.19999999999999
 20
467.0
 30
0.0
 11
309.19999999999999
 21
475.0
 31
0.0
  0
LINE
  5
134
  8
DATA
  6
CONTINUOUS
 62
     7
 10
300.80000000000001
 20
467.0
 30
0.0
 11
309.19999999999999
 21
467.0
 31
0.0
  0
LINE
  5
135
  8
DATA
  6
CONTINUOUS
 62
     7
 10
315.80000000000001
 20
467.0
 30
0.0
 11
315.80000000000001
 21
475.0
 31
0.0
  0
LINE
  5
136
  8
DATA
  6
CONTINUOUS
 62
     7
 10
324.19999999999999
 20
467.0
 30
0.0
 11
324.19999999999999
 21
475.0
 31
0.0
  0
LINE
  5
137
  8
DATA
  6
CONTINUOUS
 62
     7
 10
315.80000000000001
 20
467.0
 30
0.0
 11
324.19999999999999
 21
467.0
 31
0.0
  0
LINE
  5
138
  8
DATA
  6
CONTINUOUS
 62
     7
 10
330.80000000000001
 20
467.0
 30
0.0
 11
330.80000000000001
 21
475.0
 31
0.0
  0
LINE
  5
139
  8
DATA
  6
CONTINUOUS
 62
     7
 10
339.19999999999999
 20
467.0
 30
0.0
 11
339.19999999999999
 21
475.0
 31
0.0
  0
LINE
  5
13A
  8
DATA
  6
CONTINUOUS
 62
     7
 10
330.80000000000001
 20
467.0
 30
0.0
 11
339.19999999999999
 21
467.0
 31
0.0
  0
LINE
  5
13B
  8
DATA
  6
CONTINUOUS
 62
     7
 10
345.80000000000001
 20
467.0
 30
0.0
 11
345.80000000000001
 21
475.0
 31
0.0
  0
LINE
  5
13C
  8
DATA
  6
CONTINUOUS
 62
     7
 10
354.19999999999999
 20
467.0
 30
0.0
 11
354.19999999999999
 21
475.0
 31
0.0
  0
LINE
  5
13D
  8
DATA
  6
CONTINUOUS
 62
     7
 10
345.80000000000001
 20
467.0
 30
0.0
 11
354.19999999999999
 21
467.0
 31
0.0
  0
LINE
  5
13E
  8
DATA
  6
CONTINUOUS
 62
     7
 10
360.80000000000001
 20
467.0
 30
0.0
 11
360.80000000000001
 21
475.0
 31
0.0
  0
LINE
  5
13F
  8
DATA
  6
CONTINUOUS
 62
     7
 10
369.19999999999999
 20
467.0
 30
0.0
 11
369.19999999999999
 21
475.0
 31
0.0
  0
LINE
  5
140
  8
DATA
  6
CONTINUOUS
 62
     7
 10
360.80000000000001
 20
467.0
 30
0.0
 11
369.19999999999999
 21
467.0
 31
0.0
  0
LINE
  5
141
  8
DATA
  6
CONTINUOUS
 62
     7
 10
375.80000000000001
 20
467.0
 30
0.0
 11
375.80000000000001
 21
475.0
 31
0.0
  0
LINE
  5
142
  8
DATA
  6
CONTINUOUS
 62
     7
 10
384.19999999999999
 20
467.0
 30
0.0
 11
384.19999999999999
 21
475.0
 31
0.0
  0
LINE
  5
143
  8
DATA
  6
CONTINUOUS
 62
     7
 10
375.80000000000001
 20
467.0
 30
0.0
 11
384.19999999999999
 21
467.0
 31
0.0
  0
LINE
  5
144
  8
DATA
  6
CONTINUOUS
 62
     7
 10
200.25041195287531
 20
470.0
 30
0.0
 11
200.25041195287531
 21
475.0
 31
0.0
  0
LINE
  5
145
  8
DATA
  6
CONTINUOUS
 62
     7
 10
205.82718731112729
 20
470.0
 30
0.0
 11
205.82718731112729
 21
475.0
 31
0.0
  0
LINE
  5
146
  8
DATA
  6
CONTINUOUS
 62
     7
 10
205.82718731112729
 20
470.0
 30
0.0
 11
200.25041195287531
 21
470.0
 31
0.0
  0
LINE
  5
147
  8
DATA
  6
CONTINUOUS
 62
     7
 10
582.0
 20
472.0
 30
0.0
 11
582.0
 21
475.0
 31
0.0
  0
LINE
  5
148
  8
DATA
  6
CONTINUOUS
 62
     7
 10
590.0
 20
472.0
 30
0.0
 11
590.0
 21
475.0
 31
0.0
  0
LINE
  5
149
  8
DATA
  6
CONTINUOUS
 62
     7
 10
582.0
 20
472.0
 30
0.0
 11
590.0
 21
472.0
 31
0.0
  0
LINE
  5
14A
  8
DATA
  6
CONTINUOUS
 62
     7
 10
584.52499999999998
 20
474.10166726096082
 30
0.0
 11
584.52499999999998
 21
475.0
 31
0.0
  0
LINE
  5
14B
  8
DATA
  6
CONTINUOUS
 62
     7
 10
587.47499999999968
 20
474.10166726096082
 30
0.0
 11
587.47499999999968
 21
475.0
 31
0.0
  0
ARC
  5
14C
  8
DATA
  6
CONTINUOUS
 62
     7
 10
586.0
 20
474.10166726096082
 30
0.0
 40
1.4750000000000221
 50
180.0
 51
0.0
  0
LINE
  5
14D
  8
DATA
  6
CONTINUOUS
 62
     7
 10
567.0
 20
472.0
 30
0.0
 11
567.0
 21
475.0
 31
0.0
  0
LINE
  5
14E
  8
DATA
  6
CONTINUOUS
 62
     7
 10
575.0
 20
472.0
 30
0.0
 11
575.0
 21
475.0
 31
0.0
  0
LINE
  5
14F
  8
DATA
  6
CONTINUOUS
 62
     7
 10
567.0
 20
472.0
 30
0.0
 11
575.0
 21
472.0
 31
0.0
  0
LINE
  5
150
  8
DATA
  6
CONTINUOUS
 62
     7
 10
569.52499999999986
 20
474.10166726096082
 30
0.0
 11
569.52499999999986
 21
475.0
 31
0.0
  0
LINE
  5
151
  8
DATA
  6
CONTINUOUS
 62
     7
 10
572.4749999999998
 20
474.10166726096082
 30
0.0
 11
572.4749999999998
 21
475.0
 31
0.0
  0
ARC
  5
152
  8
DATA
  6
CONTINUOUS
 62
     7
 10
571.0
 20
474.10166726096082
 30
0.0
 40
1.4750000000000221
 50
180.0
 51
0.0
  0
LINE
  5
153
  8
DATA
  6
CONTINUOUS
 62
     7
 10
552.0
 20
472.0
 30
0.0
 11
552.0
 21
475.0
 31
0.0
  0
LINE
  5
154
  8
DATA
  6
CONTINUOUS
 62
     7
 10
560.0
 20
472.0
 30
0.0
 11
560.0
 21
475.0
 31
0.0
  0
LINE
  5
155
  8
DATA
  6
CONTINUOUS
 62
     7
 10
552.0
 20
472.0
 30
0.0
 11
560.0
 21
472.0
 31
0.0
  0
LINE
  5
156
  8
DATA
  6
CONTINUOUS
 62
     7
 10
554.52499999999998
 20
474.10166726096082
 30
0.0
 11
554.52499999999998
 21
475.0
 31
0.0
  0
LINE
  5
157
  8
DATA
  6
CONTINUOUS
 62
     7
 10
557.4749999999998
 20
474.10166726096082
 30
0.0
 11
557.4749999999998
 21
475.0
 31
0.0
  0
ARC
  5
158
  8
DATA
  6
CONTINUOUS
 62
     7
 10
556.0
 20
474.10166726096082
 30
0.0
 40
1.4750000000000221
 50
180.0
 51
0.0
  0
LINE
  5
159
  8
DATA
  6
CONTINUOUS
 62
     7
 10
537.0
 20
472.0
 30
0.0
 11
537.0
 21
475.0
 31
0.0
  0
LINE
  5
15A
  8
DATA
  6
CONTINUOUS
 62
     7
 10
545.0
 20
472.0
 30
0.0
 11
545.0
 21
475.0
 31
0.0
  0
LINE
  5
15B
  8
DATA
  6
CONTINUOUS
 62
     7
 10
537.0
 20
472.0
 30
0.0
 11
545.0
 21
472.0
 31
0.0
  0
LINE
  5
15C
  8
DATA
  6
CONTINUOUS
 62
     7
 10
539.52499999999986
 20
474.10166726096082
 30
0.0
 11
539.52499999999986
 21
475.0
 31
0.0
  0
LINE
  5
15D
  8
DATA
  6
CONTINUOUS
 62
     7
 10
542.47499999999991
 20
474.10166726096082
 30
0.0
 11
542.47499999999991
 21
475.0
 31
0.0
  0
ARC
  5
15E
  8
DATA
  6
CONTINUOUS
 62
     7
 10
541.0
 20
474.10166726096082
 30
0.0
 40
1.4750000000000221
 50
180.0
 51
0.0
  0
LINE
  5
15F
  8
DATA
  6
CONTINUOUS
 62
     7
 10
522.0
 20
472.0
 30
0.0
 11
522.0
 21
475.0
 31
0.0
  0
LINE
  5
160
  8
DATA
  6
CONTINUOUS
 62
     7
 10
530.0
 20
472.0
 30
0.0
 11
530.0
 21
475.0
 31
0.0
  0
LINE
  5
161
  8
DATA
  6
CONTINUOUS
 62
     7
 10
522.0
 20
472.0
 30
0.0
 11
530.0
 21
472.0
 31
0.0
  0
LINE
  5
162
  8
DATA
  6
CONTINUOUS
 62
     7
 10
524.52499999999986
 20
474.10166726096082
 30
0.0
 11
524.52499999999986
 21
475.0
 31
0.0
  0
LINE
  5
163
  8
DATA
  6
CONTINUOUS
 62
     7
 10
527.47499999999991
 20
474.10166726096082
 30
0.0
 11
527.47499999999991
 21
475.0
 31
0.0
  0
ARC
  5
164
  8
DATA
  6
CONTINUOUS
 62
     7
 10
526.0
 20
474.10166726096082
 30
0.0
 40
1.4750000000000221
 50
180.0
 51
0.0
  0
LINE
  5
165
  8
DATA
  6
CONTINUOUS
 62
     7
 10
507.0
 20
472.0
 30
0.0
 11
507.0
 21
475.0
 31
0.0
  0
LINE
  5
166
  8
DATA
  6
CONTINUOUS
 62
     7
 10
515.0
 20
472.0
 30
0.0
 11
515.0
 21
475.0
 31
0.0
  0
LINE
  5
167
  8
DATA
  6
CONTINUOUS
 62
     7
 10
507.0
 20
472.0
 30
0.0
 11
515.0
 21
472.0
 31
0.0
  0
LINE
  5
168
  8
DATA
  6
CONTINUOUS
 62
     7
 10
509.52499999999998
 20
474.10166726096082
 30
0.0
 11
509.52499999999998
 21
475.0
 31
0.0
  0
LINE
  5
169
  8
DATA
  6
CONTINUOUS
 62
     7
 10
512.4749999999998
 20
474.10166726096082
 30
0.0
 11
512.4749999999998
 21
475.0
 31
0.0
  0
ARC
  5
16A
  8
DATA
  6
CONTINUOUS
 62
     7
 10
511.0
 20
474.10166726096082
 30
0.0
 40
1.4750000000000221
 50
180.0
 51
0.0
  0
LINE
  5
16B
  8
DATA
  6
CONTINUOUS
 62
     7
 10
492.0
 20
472.0
 30
0.0
 11
492.0
 21
475.0
 31
0.0
  0
LINE
  5
16C
  8
DATA
  6
CONTINUOUS
 62
     7
 10
500.0
 20
472.0
 30
0.0
 11
500.0
 21
475.0
 31
0.0
  0
LINE
  5
16D
  8
DATA
  6
CONTINUOUS
 62
     7
 10
492.0
 20
472.0
 30
0.0
 11
500.0
 21
472.0
 31
0.0
  0
LINE
  5
16E
  8
DATA
  6
CONTINUOUS
 62
     7
 10
494.52499999999992
 20
474.10166726096082
 30
0.0
 11
494.52499999999992
 21
475.0
 31
0.0
  0
LINE
  5
16F
  8
DATA
  6
CONTINUOUS
 62
     7
 10
497.47499999999991
 20
474.10166726096082
 30
0.0
 11
497.47499999999991
 21
475.0
 31
0.0
  0
ARC
  5
170
  8
DATA
  6
CONTINUOUS
 62
     7
 10
496.0
 20
474.10166726096082
 30
0.0
 40
1.4750000000000221
 50
180.0
 51
0.0
  0
LINE
  5
171
  8
DATA
  6
CONTINUOUS
 62
     7
 10
477.0
 20
472.0
 30
0.0
 11
477.0
 21
475.0
 31
0.0
  0
LINE
  5
172
  8
DATA
  6
CONTINUOUS
 62
     7
 10
485.0
 20
472.0
 30
0.0
 11
485.0
 21
475.0
 31
0.0
  0
LINE
  5
173
  8
DATA
  6
CONTINUOUS
 62
     7
 10
477.0
 20
472.0
 30
0.0
 11
485.0
 21
472.0
 31
0.0
  0
LINE
  5
174
  8
DATA
  6
CONTINUOUS
 62
     7
 10
479.52499999999998
 20
474.10166726096082
 30
0.0
 11
479.52499999999998
 21
475.0
 31
0.0
  0
LINE
  5
175
  8
DATA
  6
CONTINUOUS
 62
     7
 10
482.4749999999998
 20
474.10166726096082
 30
0.0
 11
482.4749999999998
 21
475.0
 31
0.0
  0
ARC
  5
176
  8
DATA
  6
CONTINUOUS
 62
     7
 10
481.0
 20
474.10166726096082
 30
0.0
 40
1.4750000000000221
 50
180.0
 51
0.0
  0
LINE
  5
177
  8
DATA
  6
CONTINUOUS
 62
     7
 10
462.0
 20
472.0
 30
0.0
 11
462.0
 21
475.0
 31
0.0
  0
LINE
  5
178
  8
DATA
  6
CONTINUOUS
 62
     7
 10
470.0
 20
472.0
 30
0.0
 11
470.0
 21
475.0
 31
0.0
  0
LINE
  5
179
  8
DATA
  6
CONTINUOUS
 62
     7
 10
462.0
 20
472.0
 30
0.0
 11
470.0
 21
472.0
 31
0.0
  0
LINE
  5
17A
  8
DATA
  6
CONTINUOUS
 62
     7
 10
464.52499999999992
 20
474.10166726096082
 30
0.0
 11
464.52499999999992
 21
475.0
 31
0.0
  0
LINE
  5
17B
  8
DATA
  6
CONTINUOUS
 62
     7
 10
467.47499999999991
 20
474.10166726096082
 30
0.0
 11
467.47499999999991
 21
475.0
 31
0.0
  0
ARC
  5
17C
  8
DATA
  6
CONTINUOUS
 62
     7
 10
466.0
 20
474.10166726096082
 30
0.0
 40
1.4750000000000221
 50
180.0
 51
0.0
  0
LINE
  5
17D
  8
DATA
  6
CONTINUOUS
 62
     7
 10
447.0
 20
472.0
 30
0.0
 11
447.0
 21
475.0
 31
0.0
  0
LINE
  5
17E
  8
DATA
  6
CONTINUOUS
 62
     7
 10
455.0
 20
472.0
 30
0.0
 11
455.0
 21
475.0
 31
0.0
  0
LINE
  5
17F
  8
DATA
  6
CONTINUOUS
 62
     7
 10
447.0
 20
472.0
 30
0.0
 11
455.0
 21
472.0
 31
0.0
  0
LINE
  5
180
  8
DATA
  6
CONTINUOUS
 62
     7
 10
449.52499999999992
 20
474.10166726096082
 30
0.0
 11
449.52499999999992
 21
475.0
 31
0.0
  0
LINE
  5
181
  8
DATA
  6
CONTINUOUS
 62
     7
 10
452.47499999999991
 20
474.10166726096082
 30
0.0
 11
452.47499999999991
 21
475.0
 31
0.0
  0
ARC
  5
182
  8
DATA
  6
CONTINUOUS
 62
     7
 10
451.0
 20
474.10166726096082
 30
0.0
 40
1.4750000000000221
 50
180.0
 51
0.0
  0
LINE
  5
183
  8
DATA
  6
CONTINUOUS
 62
     7
 10
434.52499999999998
 20
474.10166726096082
 30
0.0
 11
434.52499999999998
 21
475.0
 31
0.0
  0
LINE
  5
184
  8
DATA
  6
CONTINUOUS
 62
     7
 10
437.4749999999998
 20
474.10166726096082
 30
0.0
 11
437.4749999999998
 21
475.0
 31
0.0
  0
ARC
  5
185
  8
DATA
  6
CONTINUOUS
 62
     7
 10
436.0
 20
474.10166726096082
 30
0.0
 40
1.4750000000000221
 50
180.0
 51
0.0
  0
CIRCLE
  5
186
  8
DATA
  6
CONTINUOUS
 62
     7
 10
593.0
 20
744.23389325813298
 30
0.0
 40
4.0
  0
CIRCLE
  5
187
  8
DATA
  6
CONTINUOUS
 62
     7
 10
573.0
 20
744.23389325813298
 30
0.0
 40
4.0
  0
CIRCLE
  5
188
  8
DATA
  6
CONTINUOUS
 62
     7
 10
530.4908551164483
 20
742.54595596279023
 30
0.0
 40
1.1750000000000109
  0
POLYLINE
  5
189
  8
DATA
  6
CONTINUOUS
 62
     7
 66
     1
 10
0.0
 20
0.0
 30
0.0
 70
     1
  0
VERTEX
  5
372
  8
DATA
  6
CONTINUOUS
 62
     7
 10
530.4908551164483
 20
739.8459559627903
 30
0.0
  0
VERTEX
  5
373
  8
DATA
  6
CONTINUOUS
 62
     7
 10
532.82912370666588
 20
741.19595596279032
 30
0.0
  0
VERTEX
  5
374
  8
DATA
  6
CONTINUOUS
 62
     7
 10
532.82912370666588
 20
743.89595596279003
 30
0.0
  0
VERTEX
  5
375
  8
DATA
  6
CONTINUOUS
 62
     7
 10
530.4908551164483
 20
745.24595596279005
 30
0.0
  0
VERTEX
  5
376
  8
DATA
  6
CONTINUOUS
 62
     7
 10
528.15258652623027
 20
743.89595596279003
 30
0.0
  0
VERTEX
  5
377
  8
DATA
  6
CONTINUOUS
 62
     7
 10
528.15258652623027
 20
741.19595596279032
 30
0.0
  0
SEQEND
  5
378
  8
DATA
  6
CONTINUOUS
 62
     7
  0
CIRCLE
  5
192
  8
DATA
  6
CONTINUOUS
 62
     7
 10
555.49085511644842
 20
742.54595596279023
 30
0.0
 40
1.1750000000000611
  0
POLYLINE
  5
193
  8
DATA
  6
CONTINUOUS
 62
     7
 66
     1
 10
0.0
 20
0.0
 30
0.0
 70
     1
  0
VERTEX
  5
379
  8
DATA
  6
CONTINUOUS
 62
     7
 10
555.49085511644842
 20
739.8459559627903
 30
0.0
  0
VERTEX
  5
37A
  8
DATA
  6
CONTINUOUS
 62
     7
 10
557.82912370666645
 20
741.19595596279032
 30
0.0
  0
VERTEX
  5
37B
  8
DATA
  6
CONTINUOUS
 62
     7
 10
557.82912370666645
 20
743.89595596279003
 30
0.0
  0
VERTEX
  5
37C
  8
DATA
  6
CONTINUOUS
 62
     7
 10
555.49085511644842
 20
745.24595596279005
 30
0.0
  0
VERTEX
  5
37D
  8
DATA
  6
CONTINUOUS
 62
     7
 10
553.15258652623027
 20
743.89595596279003
 30
0.0
  0
VERTEX
  5
37E
  8
DATA
  6
CONTINUOUS
 62
     7
 10
553.15258652623027
 20
741.19595596279032
 30
0.0
  0
SEQEND
  5
37F
  8
DATA
  6
CONTINUOUS
 62
     7
  0
LINE
  5
19C
  8
DATA
  6
CONTINUOUS
 62
     7
 10
537.38909190625964
 20
746.54595596279012
 30
0.0
 11
548.59261832663685
 21
746.54595596279012
 31
0.0
  0
LINE
  5
19D
  8
DATA
  6
CONTINUOUS
 62
     7
 10
549.40511832663685
 20
738.54595596279034
 30
0.0
 11
536.57659190625964
 21
738.54595596279034
 31
0.0
  0
LINE
  5
19E
  8
DATA
  6
CONTINUOUS
 62
     7
 10
549.97583517388841
 20
745.36208359517309
 30
0.0
 11
550.78833517388819
 21
740.16208359517339
 31
0.0
  0
LINE
  5
19F
  8
DATA
  6
CONTINUOUS
 62
     7
 10
535.19337505900796
 20
740.16208359517339
 30
0.0
 11
536.00587505900808
 21
745.36208359517309
 31
0.0
  0
CIRCLE
  5
1A0
  8
DATA
  6
CONTINUOUS
 62
     7
 10
543.01748488692306
 20
740.90964779163664
 30
0.0
 40
0.5
  0
ARC
  5
1A1
  8
DATA
  6
CONTINUOUS
 62
     7
 10
549.40511832663685
 20
739.94595596279032
 30
0.0
 40
1.399999999999977
 50
270.0
 51
8.8806591505205574
  0
ARC
  5
1A2
  8
DATA
  6
CONTINUOUS
 62
     7
 10
536.57659190625964
 20
739.94595596279032
 30
0.0
 40
1.400000000000019
 50
171.1193408494795
 51
270.0
  0
ARC
  5
1A3
  8
DATA
  6
CONTINUOUS
 62
     7
 10
548.59261832663685
 20
745.14595596279003
 30
0.0
 40
1.4000000000000281
 50
8.8806591505228312
 51
90.0
  0
ARC
  5
1A4
  8
DATA
  6
CONTINUOUS
 62
     7
 10
537.38909190625964
 20
745.14595596279003
 30
0.0
 40
1.4000000000001469
 50
90.0
 51
171.11934084947711
  0
CIRCLE
  5
1A5
  8
DATA
  6
CONTINUOUS
 62
     7
 10
545.51748488692317
 20
740.90964779163664
 30
0.0
 40
0.5
  0
CIRCLE
  5
1A6
  8
DATA
  6
CONTINUOUS
 62
     7
 10
548.01748488692306
 20
740.90964779163664
 30
0.0
 40
0.5
  0
CIRCLE
  5
1A7
  8
DATA
  6
CONTINUOUS
 62
     7
 10
540.51748488692306
 20
740.90964779163664
 30
0.0
 40
0.5
  0
CIRCLE
  5
1A8
  8
DATA
  6
CONTINUOUS
 62
     7
 10
538.01748488692317
 20
740.90964779163664
 30
0.0
 40
0.5
  0
CIRCLE
  5
1A9
  8
DATA
  6
CONTINUOUS
 62
     7
 10
544.21299606299442
 20
744.52816821039903
 30
0.0
 40
0.5
  0
CIRCLE
  5
1AA
  8
DATA
  6
CONTINUOUS
 62
     7
 10
546.71299606299442
 20
744.52816821039903
 30
0.0
 40
0.5
  0
CIRCLE
  5
1AB
  8
DATA
  6
CONTINUOUS
 62
     7
 10
541.71299606299442
 20
744.52816821039903
 30
0.0
 40
0.5
  0
CIRCLE
  5
1AC
  8
DATA
  6
CONTINUOUS
 62
     7
 10
539.21299606299442
 20
744.52816821039903
 30
0.0
 40
0.5
  0
CIRCLE
  5
1AD
  8
DATA
  6
CONTINUOUS
 62
     7
 10
517.0
 20
742.49999999999989
 30
0.0
 40
1.5
  0
CIRCLE
  5
1AE
  8
DATA
  6
CONTINUOUS
 62
     7
 10
517.0
 20
742.49999999999989
 30
0.0
 40
4.1999999999999877
  0
CIRCLE
  5
1AF
  8
DATA
  6
CONTINUOUS
 62
     7
 10
502.0
 20
742.49999999999989
 30
0.0
 40
1.5
  0
CIRCLE
  5
1B0
  8
DATA
  6
CONTINUOUS
 62
     7
 10
502.0
 20
742.49999999999989
 30
0.0
 40
4.1999999999999877
  0
CIRCLE
  5
1B1
  8
DATA
  6
CONTINUOUS
 62
     7
 10
487.0
 20
742.49999999999989
 30
0.0
 40
1.5
  0
CIRCLE
  5
1B2
  8
DATA
  6
CONTINUOUS
 62
     7
 10
487.0
 20
742.49999999999989
 30
0.0
 40
4.1999999999999877
  0
CIRCLE
  5
1B3
  8
DATA
  6
CONTINUOUS
 62
     7
 10
451.0
 20
742.49999999999989
 30
0.0
 40
1.5
  0
CIRCLE
  5
1B4
  8
DATA
  6
CONTINUOUS
 62
     7
 10
451.0
 20
742.49999999999989
 30
0.0
 40
4.1999999999999877
  0
CIRCLE
  5
1B5
  8
DATA
  6
CONTINUOUS
 62
     7
 10
436.0
 20
742.49999999999989
 30
0.0
 40
1.5
  0
CIRCLE
  5
1B6
  8
DATA
  6
CONTINUOUS
 62
     7
 10
436.0
 20
742.49999999999989
 30
0.0
 40
4.1999999999999877
  0
CIRCLE
  5
1B7
  8
DATA
  6
CONTINUOUS
 62
     7
 10
420.0
 20
742.49999999999989
 30
0.0
 40
1.5
  0
CIRCLE
  5
1B8
  8
DATA
  6
CONTINUOUS
 62
     7
 10
420.0
 20
742.49999999999989
 30
0.0
 40
4.1999999999999877
  0
CIRCLE
  5
1B9
  8
DATA
  6
CONTINUOUS
 62
     7
 10
405.0
 20
742.49999999999989
 30
0.0
 40
1.5
  0
CIRCLE
  5
1BA
  8
DATA
  6
CONTINUOUS
 62
     7
 10
405.0
 20
742.49999999999989
 30
0.0
 40
4.1999999999999877
  0
CIRCLE
  5
1BB
  8
DATA
  6
CONTINUOUS
 62
     7
 10
390.0
 20
742.49999999999989
 30
0.0
 40
1.5
  0
CIRCLE
  5
1BC
  8
DATA
  6
CONTINUOUS
 62
     7
 10
390.0
 20
742.49999999999989
 30
0.0
 40
4.1999999999999877
  0
CIRCLE
  5
1BD
  8
DATA
  6
CONTINUOUS
 62
     7
 10
375.0
 20
742.49999999999989
 30
0.0
 40
1.5
  0
CIRCLE
  5
1BE
  8
DATA
  6
CONTINUOUS
 62
     7
 10
375.0
 20
742.49999999999989
 30
0.0
 40
4.1999999999999877
  0
CIRCLE
  5
1BF
  8
DATA
  6
CONTINUOUS
 62
     7
 10
360.0
 20
742.49999999999989
 30
0.0
 40
1.5
  0
CIRCLE
  5
1C0
  8
DATA
  6
CONTINUOUS
 62
     7
 10
360.0
 20
742.49999999999989
 30
0.0
 40
4.1999999999999877
  0
CIRCLE
  5
1C1
  8
DATA
  6
CONTINUOUS
 62
     7
 10
318.48379358285439
 20
742.48053833711367
 30
0.0
 40
1.1750000000000109
  0
POLYLINE
  5
1C2
  8
DATA
  6
CONTINUOUS
 62
     7
 66
     1
 10
0.0
 20
0.0
 30
0.0
 70
     1
  0
VERTEX
  5
380
  8
DATA
  6
CONTINUOUS
 62
     7
 10
318.48379358285439
 20
739.78053833711385
 30
0.0
  0
VERTEX
  5
381
  8
DATA
  6
CONTINUOUS
 62
     7
 10
320.82206217307242
 20
741.13053833711365
 30
0.0
  0
VERTEX
  5
382
  8
DATA
  6
CONTINUOUS
 62
     7
 10
320.82206217307242
 20
743.83053833711381
 30
0.0
  0
VERTEX
  5
383
  8
DATA
  6
CONTINUOUS
 62
     7
 10
318.48379358285439
 20
745.18053833711383
 30
0.0
  0
VERTEX
  5
384
  8
DATA
  6
CONTINUOUS
 62
     7
 10
316.14552499263641
 20
743.83053833711381
 30
0.0
  0
VERTEX
  5
385
  8
DATA
  6
CONTINUOUS
 62
     7
 10
316.14552499263641
 20
741.13053833711365
 30
0.0
  0
SEQEND
  5
386
  8
DATA
  6
CONTINUOUS
 62
     7
  0
CIRCLE
  5
1CB
  8
DATA
  6
CONTINUOUS
 62
     7
 10
343.48379358285439
 20
742.48053833711367
 30
0.0
 40
1.1750000000000109
  0
POLYLINE
  5
1CC
  8
DATA
  6
CONTINUOUS
 62
     7
 66
     1
 10
0.0
 20
0.0
 30
0.0
 70
     1
  0
VERTEX
  5
387
  8
DATA
  6
CONTINUOUS
 62
     7
 10
343.48379358285439
 20
739.78053833711385
 30
0.0
  0
VERTEX
  5
388
  8
DATA
  6
CONTINUOUS
 62
     7
 10
345.82206217307242
 20
741.13053833711365
 30
0.0
  0
VERTEX
  5
389
  8
DATA
  6
CONTINUOUS
 62
     7
 10
345.82206217307242
 20
743.83053833711381
 30
0.0
  0
VERTEX
  5
38A
  8
DATA
  6
CONTINUOUS
 62
     7
 10
343.48379358285439
 20
745.18053833711383
 30
0.0
  0
VERTEX
  5
38B
  8
DATA
  6
CONTINUOUS
 62
     7
 10
341.14552499263641
 20
743.83053833711381
 30
0.0
  0
VERTEX
  5
38C
  8
DATA
  6
CONTINUOUS
 62
     7
 10
341.14552499263641
 20
741.13053833711365
 30
0.0
  0
SEQEND
  5
38D
  8
DATA
  6
CONTINUOUS
 62
     7
  0
LINE
  5
1D5
  8
DATA
  6
CONTINUOUS
 62
     7
 10
325.38203037266589
 20
746.48053833711367
 30
0.0
 11
336.585556793043
 21
746.48053833711367
 31
0.0
  0
LINE
  5
1D6
  8
DATA
  6
CONTINUOUS
 62
     7
 10
337.398056793043
 20
738.48053833711367
 30
0.0
 11
324.56953037266578
 21
738.48053833711367
 31
0.0
  0
LINE
  5
1D7
  8
DATA
  6
CONTINUOUS
 62
     7
 10
337.96877364029461
 20
745.2966659694971
 30
0.0
 11
338.78127364029461
 21
740.09666596949705
 31
0.0
  0
LINE
  5
1D8
  8
DATA
  6
CONTINUOUS
 62
     7
 10
323.18631352541422
 20
740.09666596949705
 30
0.0
 11
323.99881352541439
 21
745.2966659694971
 31
0.0
  0
CIRCLE
  5
1D9
  8
DATA
  6
CONTINUOUS
 62
     7
 10
330.98379358285439
 20
740.01921012484615
 30
0.0
 40
0.5
  0
CIRCLE
  5
1DA
  8
DATA
  6
CONTINUOUS
 62
     7
 10
328.98379358285439
 20
740.01921012484615
 30
0.0
 40
0.5
  0
CIRCLE
  5
1DB
  8
DATA
  6
CONTINUOUS
 62
     7
 10
326.98379358285439
 20
740.01921012484615
 30
0.0
 40
0.5
  0
CIRCLE
  5
1DC
  8
DATA
  6
CONTINUOUS
 62
     7
 10
332.98379358285439
 20
740.01921012484615
 30
0.0
 40
0.5
  0
CIRCLE
  5
1DD
  8
DATA
  6
CONTINUOUS
 62
     7
 10
334.98379358285439
 20
740.01921012484615
 30
0.0
 40
0.5
  0
CIRCLE
  5
1DE
  8
DATA
  6
CONTINUOUS
 62
     7
 10
329.86645000739009
 20
742.49340138345099
 30
0.0
 40
0.5
  0
CIRCLE
  5
1DF
  8
DATA
  6
CONTINUOUS
 62
     7
 10
327.86645000739009
 20
742.49340138345099
 30
0.0
 40
0.5
  0
CIRCLE
  5
1E0
  8
DATA
  6
CONTINUOUS
 62
     7
 10
325.86645000739009
 20
742.49340138345099
 30
0.0
 40
0.5
  0
CIRCLE
  5
1E1
  8
DATA
  6
CONTINUOUS
 62
     7
 10
331.86645000739009
 20
742.49340138345099
 30
0.0
 40
0.5
  0
CIRCLE
  5
1E2
  8
DATA
  6
CONTINUOUS
 62
     7
 10
333.86645000739009
 20
742.49340138345099
 30
0.0
 40
0.5
  0
CIRCLE
  5
1E3
  8
DATA
  6
CONTINUOUS
 62
     7
 10
330.98379358285439
 20
744.94186654938164
 30
0.0
 40
0.5
  0
CIRCLE
  5
1E4
  8
DATA
  6
CONTINUOUS
 62
     7
 10
328.98379358285439
 20
744.94186654938164
 30
0.0
 40
0.5
  0
CIRCLE
  5
1E5
  8
DATA
  6
CONTINUOUS
 62
     7
 10
326.98379358285439
 20
744.94186654938164
 30
0.0
 40
0.5
  0
CIRCLE
  5
1E6
  8
DATA
  6
CONTINUOUS
 62
     7
 10
332.98379358285439
 20
744.94186654938164
 30
0.0
 40
0.5
  0
CIRCLE
  5
1E7
  8
DATA
  6
CONTINUOUS
 62
     7
 10
334.98379358285439
 20
744.94186654938164
 30
0.0
 40
0.5
  0
ARC
  5
1E8
  8
DATA
  6
CONTINUOUS
 62
     7
 10
337.398056793043
 20
739.88053833711365
 30
0.0
 40
1.400000000000005
 50
270.0
 51
8.8806591505205574
  0
ARC
  5
1E9
  8
DATA
  6
CONTINUOUS
 62
     7
 10
324.56953037266578
 20
739.88053833711365
 30
0.0
 40
1.400000000000019
 50
171.1193408494795
 51
270.0
  0
ARC
  5
1EA
  8
DATA
  6
CONTINUOUS
 62
     7
 10
336.585556793043
 20
745.08053833711381
 30
0.0
 40
1.400000000000015
 50
8.8806591505193833
 51
89.999999999999986
  0
ARC
  5
1EB
  8
DATA
  6
CONTINUOUS
 62
     7
 10
325.38203037266589
 20
745.08053833711381
 30
0.0
 40
1.400000000000005
 50
90.0
 51
171.1193408494795
  0
POLYLINE
  5
1EC
  8
DATA
  6
CONTINUOUS
 62
     7
 66
     1
 10
0.0
 20
0.0
 30
0.0
 70
     1
  0
VERTEX
  5
38E
  8
DATA
  6
CONTINUOUS
 62
     7
 10
219.74631790510011
 20
738.23780376447007
 30
0.0
  0
VERTEX
  5
38F
  8
DATA
  6
CONTINUOUS
 62
     7
 10
216.957930225974
 20
737.49065753766354
 30
0.0
  0
VERTEX
  5
390
  8
DATA
  6
CONTINUOUS
 62
     7
 10
216.21078399916729
 20
734.70226985853742
 30
0.0
  0
VERTEX
  5
391
  8
DATA
  6
CONTINUOUS
 62
     7
 10
218.25202545148659
 20
732.66102840621829
 30
0.0
  0
VERTEX
  5
392
  8
DATA
  6
CONTINUOUS
 62
     7
 10
221.04041313061259
 20
733.40817463302506
 30
0.0
  0
VERTEX
  5
393
  8
DATA
  6
CONTINUOUS
 62
     7
 10
221.78755935741941
 20
736.19656231215083
 30
0.0
  0
SEQEND
  5
394
  8
DATA
  6
CONTINUOUS
 62
     7
  0
CIRCLE
  5
1F5
  8
DATA
  6
CONTINUOUS
 62
     7
 10
218.99917167829329
 20
735.44941608534441
 30
0.0
 40
1.2750000000000341
  0
LINE
  5
1F6
  8
DATA
  6
CONTINUOUS
 62
     7
 10
211.14917167829341
 20
742.51226675410828
 30
0.0
 11
226.84917167829329
 21
742.51226675410828
 31
0.0
  0
LINE
  5
1F7
  8
DATA
  6
CONTINUOUS
 62
     7
 10
211.14917167829341
 20
742.51226675410828
 30
0.0
 11
211.14917167829341
 21
746.81226675410835
 31
0.0
  0
LINE
  5
1F8
  8
DATA
  6
CONTINUOUS
 62
     7
 10
226.84917167829329
 20
742.51226675410828
 30
0.0
 11
226.84917167829329
 21
746.81226675410835
 31
0.0
  0
LINE
  5
1F9
  8
DATA
  6
CONTINUOUS
 62
     7
 10
211.14917167829341
 20
746.81226675410835
 30
0.0
 11
213.74917167829329
 21
748.51226675410862
 31
0.0
  0
LINE
  5
1FA
  8
DATA
  6
CONTINUOUS
 62
     7
 10
226.84917167829329
 20
746.81226675410835
 30
0.0
 11
224.24917167829329
 21
748.51226675410862
 31
0.0
  0
LINE
  5
1FB
  8
DATA
  6
CONTINUOUS
 62
     7
 10
213.74917167829329
 20
748.51226675410862
 30
0.0
 11
224.24917167829329
 21
748.51226675410862
 31
0.0
  0
POLYLINE
  5
1FC
  8
DATA
  6
CONTINUOUS
 62
     7
 66
     1
 10
0.0
 20
0.0
 30
0.0
 70
     1
  0
VERTEX
  5
395
  8
DATA
  6
CONTINUOUS
 62
     7
 10
213.99917167829329
 20
745.29842992860108
 30
0.0
  0
VERTEX
  5
396
  8
DATA
  6
CONTINUOUS
 62
     7
 10
223.99917167829329
 20
745.29842992860108
 30
0.0
  0
VERTEX
  5
397
  8
DATA
  6
CONTINUOUS
 62
     7
 10
223.99917167829329
 20
744.79842992860108
 30
0.0
  0
VERTEX
  5
398
  8
DATA
  6
CONTINUOUS
 62
     7
 10
213.99917167829329
 20
744.79842992860108
 30
0.0
  0
SEQEND
  5
399
  8
DATA
  6
CONTINUOUS
 62
     7
  0
POLYLINE
  5
203
  8
DATA
  6
CONTINUOUS
 62
     7
 66
     1
 10
0.0
 20
0.0
 30
0.0
 70
     1
  0
VERTEX
  5
39A
  8
DATA
  6
CONTINUOUS
 62
     7
 10
259.74631790510011
 20
738.23780376447007
 30
0.0
  0
VERTEX
  5
39B
  8
DATA
  6
CONTINUOUS
 62
     7
 10
256.957930225974
 20
737.49065753766354
 30
0.0
  0
VERTEX
  5
39C
  8
DATA
  6
CONTINUOUS
 62
     7
 10
256.2107839991674
 20
734.70226985853742
 30
0.0
  0
VERTEX
  5
39D
  8
DATA
  6
CONTINUOUS
 62
     7
 10
258.2520254514867
 20
732.66102840621829
 30
0.0
  0
VERTEX
  5
39E
  8
DATA
  6
CONTINUOUS
 62
     7
 10
261.04041313061259
 20
733.40817463302506
 30
0.0
  0
VERTEX
  5
39F
  8
DATA
  6
CONTINUOUS
 62
     7
 10
261.78755935741941
 20
736.19656231215083
 30
0.0
  0
SEQEND
  5
3A0
  8
DATA
  6
CONTINUOUS
 62
     7
  0
CIRCLE
  5
20C
  8
DATA
  6
CONTINUOUS
 62
     7
 10
258.99917167829329
 20
735.44941608534441
 30
0.0
 40
1.2750000000000341
  0
LINE
  5
20D
  8
DATA
  6
CONTINUOUS
 62
     7
 10
251.14917167829341
 20
742.51226675410828
 30
0.0
 11
266.8491716782932
 21
742.51226675410828
 31
0.0
  0
LINE
  5
20E
  8
DATA
  6
CONTINUOUS
 62
     7
 10
251.14917167829341
 20
742.51226675410828
 30
0.0
 11
251.14917167829341
 21
746.81226675410835
 31
0.0
  0
LINE
  5
20F
  8
DATA
  6
CONTINUOUS
 62
     7
 10
266.8491716782932
 20
742.51226675410828
 30
0.0
 11
266.8491716782932
 21
746.81226675410835
 31
0.0
  0
LINE
  5
210
  8
DATA
  6
CONTINUOUS
 62
     7
 10
251.14917167829341
 20
746.81226675410835
 30
0.0
 11
253.74917167829329
 21
748.51226675410862
 31
0.0
  0
LINE
  5
211
  8
DATA
  6
CONTINUOUS
 62
     7
 10
266.8491716782932
 20
746.81226675410835
 30
0.0
 11
264.24917167829329
 21
748.51226675410862
 31
0.0
  0
LINE
  5
212
  8
DATA
  6
CONTINUOUS
 62
     7
 10
253.74917167829329
 20
748.51226675410862
 30
0.0
 11
264.24917167829329
 21
748.51226675410862
 31
0.0
  0
POLYLINE
  5
213
  8
DATA
  6
CONTINUOUS
 62
     7
 66
     1
 10
0.0
 20
0.0
 30
0.0
 70
     1
  0
VERTEX
  5
3A1
  8
DATA
  6
CONTINUOUS
 62
     7
 10
253.99917167829329
 20
745.29842992860108
 30
0.0
  0
VERTEX
  5
3A2
  8
DATA
  6
CONTINUOUS
 62
     7
 10
263.99917167829329
 20
745.29842992860108
 30
0.0
  0
VERTEX
  5
3A3
  8
DATA
  6
CONTINUOUS
 62
     7
 10
263.99917167829329
 20
744.79842992860108
 30
0.0
  0
VERTEX
  5
3A4
  8
DATA
  6
CONTINUOUS
 62
     7
 10
253.99917167829329
 20
744.79842992860108
 30
0.0
  0
SEQEND
  5
3A5
  8
DATA
  6
CONTINUOUS
 62
     7
  0
POLYLINE
  5
21A
  8
DATA
  6
CONTINUOUS
 62
     7
 66
     1
 10
0.0
 20
0.0
 30
0.0
 70
     1
  0
VERTEX
  5
3A6
  8
DATA
  6
CONTINUOUS
 62
     7
 10
283.74631790510011
 20
738.23780376447007
 30
0.0
  0
VERTEX
  5
3A7
  8
DATA
  6
CONTINUOUS
 62
     7
 10
280.95793022597411
 20
737.49065753766354
 30
0.0
  0
VERTEX
  5
3A8
  8
DATA
  6
CONTINUOUS
 62
     7
 10
280.21078399916729
 20
734.70226985853742
 30
0.0
  0
VERTEX
  5
3A9
  8
DATA
  6
CONTINUOUS
 62
     7
 10
282.25202545148659
 20
732.66102840621829
 30
0.0
  0
VERTEX
  5
3AA
  8
DATA
  6
CONTINUOUS
 62
     7
 10
285.04041313061271
 20
733.40817463302506
 30
0.0
  0
VERTEX
  5
3AB
  8
DATA
  6
CONTINUOUS
 62
     7
 10
285.78755935741941
 20
736.19656231215083
 30
0.0
  0
SEQEND
  5
3AC
  8
DATA
  6
CONTINUOUS
 62
     7
  0
CIRCLE
  5
223
  8
DATA
  6
CONTINUOUS
 62
     7
 10
282.99917167829329
 20
735.44941608534441
 30
0.0
 40
1.2750000000000341
  0
LINE
  5
224
  8
DATA
  6
CONTINUOUS
 62
     7
 10
275.14917167829338
 20
742.51226675410828
 30
0.0
 11
290.84917167829332
 21
742.51226675410828
 31
0.0
  0
LINE
  5
225
  8
DATA
  6
CONTINUOUS
 62
     7
 10
275.14917167829338
 20
742.51226675410828
 30
0.0
 11
275.14917167829338
 21
746.81226675410835
 31
0.0
  0
LINE
  5
226
  8
DATA
  6
CONTINUOUS
 62
     7
 10
290.84917167829332
 20
742.51226675410828
 30
0.0
 11
290.84917167829332
 21
746.81226675410835
 31
0.0
  0
LINE
  5
227
  8
DATA
  6
CONTINUOUS
 62
     7
 10
275.14917167829338
 20
746.81226675410835
 30
0.0
 11
277.74917167829329
 21
748.51226675410862
 31
0.0
  0
LINE
  5
228
  8
DATA
  6
CONTINUOUS
 62
     7
 10
290.84917167829332
 20
746.81226675410835
 30
0.0
 11
288.24917167829329
 21
748.51226675410862
 31
0.0
  0
LINE
  5
229
  8
DATA
  6
CONTINUOUS
 62
     7
 10
277.74917167829329
 20
748.51226675410862
 30
0.0
 11
288.24917167829329
 21
748.51226675410862
 31
0.0
  0
POLYLINE
  5
22A
  8
DATA
  6
CONTINUOUS
 62
     7
 66
     1
 10
0.0
 20
0.0
 30
0.0
 70
     1
  0
VERTEX
  5
3AD
  8
DATA
  6
CONTINUOUS
 62
     7
 10
277.99917167829329
 20
745.29842992860108
 30
0.0
  0
VERTEX
  5
3AE
  8
DATA
  6
CONTINUOUS
 62
     7
 10
287.99917167829329
 20
745.29842992860108
 30
0.0
  0
VERTEX
  5
3AF
  8
DATA
  6
CONTINUOUS
 62
     7
 10
287.99917167829329
 20
744.79842992860108
 30
0.0
  0
VERTEX
  5
3B0
  8
DATA
  6
CONTINUOUS
 62
     7
 10
277.99917167829329
 20
744.79842992860108
 30
0.0
  0
SEQEND
  5
3B1
  8
DATA
  6
CONTINUOUS
 62
     7
  0
CIRCLE
  5
231
  8
DATA
  6
CONTINUOUS
 62
     7
 10
305.0
 20
742.49999999999989
 30
0.0
 40
3.0
  0
CIRCLE
  5
232
  8
DATA
  6
CONTINUOUS
 62
     7
 10
305.0
 20
742.49999999999989
 30
0.0
 40
1.5
  0
POLYLINE
  5
233
  8
DATA
  6
CONTINUOUS
 62
     7
 66
     1
 10
0.0
 20
0.0
 30
0.0
 70
     1
  0
VERTEX
  5
3B2
  8
DATA
  6
CONTINUOUS
 62
     7
 10
190.5
 20
748.0
 30
0.0
  0
VERTEX
  5
3B3
  8
DATA
  6
CONTINUOUS
 62
     7
 10
199.5
 20
748.0
 30
0.0
  0
VERTEX
  5
3B4
  8
DATA
  6
CONTINUOUS
 62
     7
 10
199.5
 20
737.0
 30
0.0
  0
VERTEX
  5
3B5
  8
DATA
  6
CONTINUOUS
 62
     7
 10
190.5
 20
737.0
 30
0.0
  0
SEQEND
  5
3B6
  8
DATA
  6
CONTINUOUS
 62
     7
  0
CIRCLE
  5
23A
  8
DATA
  6
CONTINUOUS
 62
     7
 10
195.0
 20
740.73495224661303
 30
0.0
 40
3.0
  0
CIRCLE
  5
23B
  8
DATA
  6
CONTINUOUS
 62
     7
 10
195.0
 20
740.73495224661303
 30
0.0
 40
0.75
  0
CIRCLE
  5
23C
  8
DATA
  6
CONTINUOUS
 62
     7
 10
465.0
 20
742.49999999999989
 30
0.0
 40
5.5
  0
LINE
  5
23D
  8
DATA
  6
CONTINUOUS
 62
     7
 10
607.0
 20
756.5
 30
0.0
 11
562.5
 21
756.5
 31
0.0
  0
CIRCLE
  5
23E
  8
DATA
  6
CONTINUOUS
 62
     7
 10
566.0
 20
736.5
 30
0.0
 40
1.5
  0
CIRCLE
  5
23F
  8
DATA
  6
CONTINUOUS
 62
     7
 10
584.75
 20
736.5
 30
0.0
 40
1.5
  0
TEXT
  5
240
  8
DATA
 62
     7
 10
199.10153409111609
 20
754.8133257655694
 30
0.0
 40
2.4432617187500001
  1
5V DC 
 50
180.0
 41
0.7
 11
199.10153409111609
 21
752.37006404681938
 31
0.0
 73
     3
  0
TEXT
  5
241
  8
DATA
 62
     7
 10
226.35491622091729
 20
754.8133257655694
 30
0.0
 40
2.4432617187500001
  1
HDMI Out 
 50
180.0
 41
0.7
 11
226.35491622091729
 21
752.37006404681938
 31
0.0
 73
     3
  0
TEXT
  5
242
  8
DATA
 62
     7
 10
266.3693836088533
 20
754.8133257655694
 30
0.0
 40
2.4432617187500001
  1
HDMI In 3
 50
180.0
 41
0.7
 11
266.3693836088533
 21
752.37006404681938
 31
0.0
 73
     3
  0
TEXT
  5
243
  8
DATA
 62
     7
 10
289.38443804268798
 20
754.8133257655694
 30
0.0
 40
2.4432617187500001
  1
HDMI In 2
 50
180.0
 41
0.7
 11
289.38443804268798
 21
752.37006404681938
 31
0.0
 73
     3
  0
TEXT
  5
244
  8
DATA
 62
     7
 10
331.40833448049932
 20
754.8133257655694
 30
0.0
 40
2.4432617187500001
  1
PC/Audio In
 50
180.0
 41
0.7
 11
331.40833448049932
 21
752.37006404681938
 31
0.0
 73
     3
  0
LINE
  5
245
  8
DATA
  6
CONTINUOUS
 62
     7
 10
311.83578879986447
 20
753.79999999999995
 30
0.0
 11
303.23578879986462
 21
753.79999999999995
 31
0.0
  0
LINE
  5
246
  8
DATA
  6
CONTINUOUS
 62
     7
 10
334.23578879986462
 20
753.79999999999995
 30
0.0
 11
342.83578879986459
 21
753.79999999999995
 31
0.0
  0
TEXT
  5
247
  8
DATA
 62
     7
 10
517.52145473092071
 20
754.97047549063575
 30
0.0
 40
2.4432617187500001
  1
Composite/Audio In 2
 50
180.0
 41
0.7
 11
517.52145473092071
 21
752.52721377188584
 31
0.0
 73
     3
  0
LINE
  5
248
  8
DATA
  6
CONTINUOUS
 62
     7
 10
518.69012883231119
 20
753.82747549063595
 30
0.0
 11
520.99012883231126
 21
753.82747549063595
 31
0.0
  0
LINE
  5
249
  8
DATA
  6
CONTINUOUS
 62
     7
 10
484.4901288323112
 20
753.82747549063595
 30
0.0
 11
482.19012883231107
 21
753.82747549063595
 31
0.0
  0
TEXT
  5
24A
  8
DATA
 62
     7
 10
502.27788034165798
 20
750.46880808049559
 30
0.0
 40
2.4432617187500001
  1
R
 50
180.0
 41
0.7
 11
502.27788034165798
 21
748.02554636174557
 31
0.0
 73
     3
  0
TEXT
  5
24B
  8
DATA
 62
     7
 10
487.27788034165798
 20
750.46880808049559
 30
0.0
 40
2.4432617187500001
  1
L
 50
180.0
 41
0.7
 11
487.27788034165798
 21
748.02554636174557
 31
0.0
 73
     3
  0
TEXT
  5
24C
  8
DATA
 62
     7
 10
465.520642191288
 20
754.97047549063575
 30
0.0
 40
2.4432617187500001
  1
S・Video/Audio In 2
 50
180.0
 41
0.7
 11
465.520642191288
 21
752.52721377188584
 31
0.0
 73
     3
  0
LINE
  5
24D
  8
DATA
  6
CONTINUOUS
 62
     7
 10
467.31330061813748
 20
753.82747549063595
 30
0.0
 11
469.61330061813749
 21
753.82747549063595
 31
0.0
  0
LINE
  5
24E
  8
DATA
  6
CONTINUOUS
 62
     7
 10
433.11330061813811
 20
753.82747549063595
 30
0.0
 11
430.8133006181381
 21
753.82747549063595
 31
0.0
  0
TEXT
  5
24F
  8
DATA
 62
     7
 10
450.9010521274846
 20
750.46880808049559
 30
0.0
 40
2.4432617187500001
  1
R
 50
180.0
 41
0.7
 11
450.9010521274846
 21
748.02554636174557
 31
0.0
 73
     3
  0
TEXT
  5
250
  8
DATA
 62
     7
 10
435.90105212748489
 20
750.46880808049559
 30
0.0
 40
2.4432617187500001
  1
L
 50
180.0
 41
0.7
 11
435.90105212748489
 21
748.02554636174557
 31
0.0
 73
     3
  0
TEXT
  5
251
  8
DATA
 62
     7
 10
405.8384413332289
 20
754.97047549063575
 30
0.0
 40
2.4432617187500001
  1
Component/Audio In 2
 50
180.0
 41
0.7
 11
405.8384413332289
 21
752.52721377188584
 31
0.0
 73
     3
  0
LINE
  5
252
  8
DATA
  6
CONTINUOUS
 62
     7
 10
408.6901288323117
 20
753.82747549063595
 30
0.0
 11
423.91503708034639
 21
753.82747549063595
 31
0.0
  0
TEXT
  5
253
  8
DATA
 62
     7
 10
376.07894797291829
 20
750.46880808049559
 30
0.0
 40
2.4432617187500001
  1
R
 50
180.0
 41
0.7
 11
376.07894797291829
 21
748.02554636174557
 31
0.0
 73
     3
  0
TEXT
  5
254
  8
DATA
 62
     7
 10
361.07894797291829
 20
750.46880808049559
 30
0.0
 40
2.4432617187500001
  1
L
 50
180.0
 41
0.7
 11
361.07894797291829
 21
748.02554636174557
 31
0.0
 73
     3
  0
TEXT
  5
255
  8
DATA
 62
     7
 10
391.07894797291829
 20
750.46880808049559
 30
0.0
 40
2.4432617187500001
  1
Y
 50
180.0
 41
0.7
 11
391.07894797291829
 21
748.02554636174557
 31
0.0
 73
     3
  0
TEXT
  5
256
  8
DATA
 62
     7
 10
408.88315959232523
 20
750.46880808049559
 30
0.0
 40
2.4432617187500001
  1
Pb/Cb
 50
180.0
 41
0.7
 11
408.88315959232523
 21
748.02554636174557
 31
0.0
 73
     3
  0
TEXT
  5
257
  8
DATA
 62
     7
 10
423.96563640466081
 20
750.46880808049559
 30
0.0
 40
2.4432617187500001
  1
Pr/Cr
 50
180.0
 41
0.7
 11
423.96563640466081
 21
748.02554636174557
 31
0.0
 73
     3
  0
LINE
  5
258
  8
DATA
  6
CONTINUOUS
 62
     7
 10
371.49012883231183
 20
753.82747549063595
 30
0.0
 11
356.26522058427719
 21
753.82747549063595
 31
0.0
  0
TEXT
  5
259
  8
DATA
 62
     7
 10
547.19003693442721
 20
752.81422083715995
 30
0.0
 40
2.4432617187500001
  1
RS-232
 50
180.0
 41
0.7
 11
547.19003693442721
 21
750.37095911840993
 31
0.0
 73
     3
  0
TEXT
  5
25A
  8
DATA
 62
     7
 10
576.32499932712972
 20
751.79098651858021
 30
0.0
 40
2.4432617187500001
  1
Audio
 50
180.0
 41
0.7
 11
576.32499932712972
 21
749.34772479983019
 31
0.0
 73
     3
  0
TEXT
  5
25B
  8
DATA
 62
     7
 10
576.32499932712972
 20
755.33488426893337
 30
0.0
 40
2.4432617187500001
  1
Delay
 50
180.0
 41
0.7
 11
576.32499932712972
 21
752.89162255018346
 31
0.0
 73
     3
  0
TEXT
  5
25C
  8
DATA
 62
     7
 10
599.58838582924955
 20
751.79098651858021
 30
0.0
 40
2.4432617187500001
  1
480i/576i
 50
180.0
 41
0.7
 11
599.58838582924955
 21
749.34772479983019
 31
0.0
 73
     3
  0
TEXT
  5
25D
  8
DATA
 62
     7
 10
602.77413685444958
 20
755.33488426893337
 30
0.0
 40
2.4432617187500001
  1
De-interlace
 50
180.0
 41
0.7
 11
602.77413685444958
 21
752.89162255018346
 31
0.0
 73
     3
  0
LINE
  5
25E
  8
DATA
  6
CONTINUOUS
 62
     7
 10
355.80000000000001
 20
643.0
 30
0.0
 11
364.19999999999999
 21
643.0
 31
0.0
  0
LINE
  5
25F
  8
DATA
  6
CONTINUOUS
 62
     7
 10
370.80000000000001
 20
643.0
 30
0.0
 11
379.19999999999999
 21
643.0
 31
0.0
  0
LINE
  5
260
  8
DATA
  6
CONTINUOUS
 62
     7
 10
385.80000000000001
 20
643.0
 30
0.0
 11
394.19999999999999
 21
643.0
 31
0.0
  0
LINE
  5
261
  8
DATA
  6
CONTINUOUS
 62
     7
 10
400.80000000000001
 20
643.0
 30
0.0
 11
409.19999999999987
 21
643.0
 31
0.0
  0
LINE
  5
262
  8
DATA
  6
CONTINUOUS
 62
     7
 10
415.80000000000001
 20
643.0
 30
0.0
 11
424.19999999999987
 21
643.0
 31
0.0
  0
LINE
  5
263
  8
DATA
  6
CONTINUOUS
 62
     7
 10
431.80000000000001
 20
643.0
 30
0.0
 11
440.19999999999999
 21
643.0
 31
0.0
  0
LINE
  5
264
  8
DATA
  6
CONTINUOUS
 62
     7
 10
446.7999999999999
 20
643.0
 30
0.0
 11
455.19999999999987
 21
643.0
 31
0.0
  0
LINE
  5
265
  8
DATA
  6
CONTINUOUS
 62
     7
 10
482.80000000000001
 20
643.0
 30
0.0
 11
491.19999999999987
 21
643.0
 31
0.0
  0
LINE
  5
266
  8
DATA
  6
CONTINUOUS
 62
     7
 10
497.80000000000001
 20
643.0
 30
0.0
 11
506.19999999999999
 21
643.0
 31
0.0
  0
LINE
  5
267
  8
DATA
  6
CONTINUOUS
 62
     7
 10
512.79999999999995
 20
643.0
 30
0.0
 11
521.20000000000005
 21
643.0
 31
0.0
  0
LINE
  5
268
  8
DATA
  6
CONTINUOUS
 62
     7
 10
216.21078399916729
 20
640.0
 30
0.0
 11
216.21078399916729
 21
635.0
 31
0.0
  0
LINE
  5
269
  8
DATA
  6
CONTINUOUS
 62
     7
 10
221.78755935741941
 20
640.0
 30
0.0
 11
221.78755935741941
 21
635.0
 31
0.0
  0
LINE
  5
26A
  8
DATA
  6
CONTINUOUS
 62
     7
 10
256.73863777236068
 20
640.0
 30
0.0
 11
256.73863777236068
 21
635.0
 31
0.0
  0
LINE
  5
26B
  8
DATA
  6
CONTINUOUS
 62
     7
 10
261.78755935741941
 20
640.0
 30
0.0
 11
261.78755935741941
 21
635.0
 31
0.0
  0
LINE
  5
26C
  8
DATA
  6
CONTINUOUS
 62
     7
 10
280.21078399916729
 20
640.0
 30
0.0
 11
280.21078399916729
 21
635.0
 31
0.0
  0
LINE
  5
26D
  8
DATA
  6
CONTINUOUS
 62
     7
 10
285.78755935741941
 20
640.0
 30
0.0
 11
285.78755935741941
 21
635.0
 31
0.0
  0
LINE
  5
26E
  8
DATA
  6
CONTINUOUS
 62
     7
 10
597.0
 20
637.0
 30
0.0
 11
597.0
 21
635.0
 31
0.0
  0
LINE
  5
26F
  8
DATA
  6
CONTINUOUS
 62
     7
 10
589.0
 20
637.0
 30
0.0
 11
589.0
 21
635.0
 31
0.0
  0
LINE
  5
270
  8
DATA
  6
CONTINUOUS
 62
     7
 10
577.0
 20
637.0
 30
0.0
 11
577.0
 21
635.0
 31
0.0
  0
LINE
  5
271
  8
DATA
  6
CONTINUOUS
 62
     7
 10
569.0
 20
637.0
 30
0.0
 11
569.0
 21
635.0
 31
0.0
  0
LINE
  5
272
  8
DATA
  6
CONTINUOUS
 62
     7
 10
521.20000000000005
 20
643.0
 30
0.0
 11
521.20000000000005
 21
635.0
 31
0.0
  0
LINE
  5
273
  8
DATA
  6
CONTINUOUS
 62
     7
 10
512.79999999999995
 20
643.0
 30
0.0
 11
512.79999999999995
 21
635.0
 31
0.0
  0
LINE
  5
274
  8
DATA
  6
CONTINUOUS
 62
     7
 10
506.19999999999999
 20
643.0
 30
0.0
 11
506.19999999999999
 21
635.0
 31
0.0
  0
LINE
  5
275
  8
DATA
  6
CONTINUOUS
 62
     7
 10
497.80000000000001
 20
643.0
 30
0.0
 11
497.80000000000001
 21
635.0
 31
0.0
  0
LINE
  5
276
  8
DATA
  6
CONTINUOUS
 62
     7
 10
491.19999999999987
 20
643.0
 30
0.0
 11
491.19999999999987
 21
635.0
 31
0.0
  0
LINE
  5
277
  8
DATA
  6
CONTINUOUS
 62
     7
 10
482.80000000000001
 20
643.0
 30
0.0
 11
482.80000000000001
 21
635.0
 31
0.0
  0
LINE
  5
278
  8
DATA
  6
CONTINUOUS
 62
     7
 10
455.19999999999987
 20
643.0
 30
0.0
 11
455.19999999999987
 21
635.0
 31
0.0
  0
LINE
  5
279
  8
DATA
  6
CONTINUOUS
 62
     7
 10
446.7999999999999
 20
643.0
 30
0.0
 11
446.7999999999999
 21
635.0
 31
0.0
  0
LINE
  5
27A
  8
DATA
  6
CONTINUOUS
 62
     7
 10
440.19999999999999
 20
643.0
 30
0.0
 11
440.19999999999999
 21
635.0
 31
0.0
  0
LINE
  5
27B
  8
DATA
  6
CONTINUOUS
 62
     7
 10
431.80000000000001
 20
643.0
 30
0.0
 11
431.80000000000001
 21
635.0
 31
0.0
  0
LINE
  5
27C
  8
DATA
  6
CONTINUOUS
 62
     7
 10
424.19999999999987
 20
643.0
 30
0.0
 11
424.19999999999987
 21
635.0
 31
0.0
  0
LINE
  5
27D
  8
DATA
  6
CONTINUOUS
 62
     7
 10
415.80000000000001
 20
643.0
 30
0.0
 11
415.80000000000001
 21
635.0
 31
0.0
  0
LINE
  5
27E
  8
DATA
  6
CONTINUOUS
 62
     7
 10
409.19999999999987
 20
643.0
 30
0.0
 11
409.19999999999987
 21
635.0
 31
0.0
  0
LINE
  5
27F
  8
DATA
  6
CONTINUOUS
 62
     7
 10
400.80000000000001
 20
643.0
 30
0.0
 11
400.80000000000001
 21
635.0
 31
0.0
  0
LINE
  5
280
  8
DATA
  6
CONTINUOUS
 62
     7
 10
394.19999999999999
 20
643.0
 30
0.0
 11
394.19999999999999
 21
635.0
 31
0.0
  0
LINE
  5
281
  8
DATA
  6
CONTINUOUS
 62
     7
 10
385.80000000000001
 20
643.0
 30
0.0
 11
385.80000000000001
 21
635.0
 31
0.0
  0
LINE
  5
282
  8
DATA
  6
CONTINUOUS
 62
     7
 10
379.19999999999999
 20
643.0
 30
0.0
 11
379.19999999999999
 21
635.0
 31
0.0
  0
LINE
  5
283
  8
DATA
  6
CONTINUOUS
 62
     7
 10
370.80000000000001
 20
643.0
 30
0.0
 11
370.80000000000001
 21
635.0
 31
0.0
  0
LINE
  5
284
  8
DATA
  6
CONTINUOUS
 62
     7
 10
364.19999999999999
 20
643.0
 30
0.0
 11
364.19999999999999
 21
635.0
 31
0.0
  0
LINE
  5
285
  8
DATA
  6
CONTINUOUS
 62
     7
 10
355.80000000000001
 20
643.0
 30
0.0
 11
355.80000000000001
 21
635.0
 31
0.0
  0
LINE
  5
286
  8
DATA
  6
CONTINUOUS
 62
     7
 10
190.5
 20
635.26923721474293
 30
0.0
 11
190.5
 21
635.0
 31
0.0
  0
LINE
  5
287
  8
DATA
  6
CONTINUOUS
 62
     7
 10
199.5
 20
635.26923721474293
 30
0.0
 11
199.5
 21
635.0
 31
0.0
  0
LINE
  5
288
  8
DATA
  6
CONTINUOUS
 62
     7
 10
199.5
 20
635.26923721474293
 30
0.0
 11
190.5
 21
635.26923721474293
 31
0.0
  0
LINE
  5
289
  8
DATA
  6
CONTINUOUS
 62
     7
 10
316.14552499263641
 20
640.0
 30
0.0
 11
316.14552499263641
 21
635.0
 31
0.0
  0
LINE
  5
28A
  8
DATA
  6
CONTINUOUS
 62
     7
 10
320.82206217307242
 20
640.0
 30
0.0
 11
320.82206217307242
 21
635.0
 31
0.0
  0
LINE
  5
28B
  8
DATA
  6
CONTINUOUS
 62
     7
 10
345.82206217307242
 20
640.0
 30
0.0
 11
345.82206217307242
 21
635.0
 31
0.0
  0
LINE
  5
28C
  8
DATA
  6
CONTINUOUS
 62
     7
 10
341.14552499263641
 20
640.0
 30
0.0
 11
341.14552499263641
 21
635.0
 31
0.0
  0
LINE
  5
28D
  8
DATA
  6
CONTINUOUS
 62
     7
 10
323.21732005573477
 20
640.0
 30
0.0
 11
323.21732005573477
 21
635.0
 31
0.0
  0
LINE
  5
28E
  8
DATA
  6
CONTINUOUS
 62
     7
 10
338.78127364029461
 20
640.0
 30
0.0
 11
338.78127364029461
 21
635.0
 31
0.0
  0
LINE
  5
28F
  8
DATA
  6
CONTINUOUS
 62
     7
 10
345.82206217307242
 20
640.0
 30
0.0
 11
341.14552499263641
 21
640.0
 31
0.0
  0
LINE
  5
290
  8
DATA
  6
CONTINUOUS
 62
     7
 10
338.78127364029461
 20
640.0
 30
0.0
 11
323.21732005573477
 21
640.0
 31
0.0
  0
LINE
  5
291
  8
DATA
  6
CONTINUOUS
 62
     7
 10
320.82206217307242
 20
640.0
 30
0.0
 11
316.14552499263641
 21
640.0
 31
0.0
  0
LINE
  5
292
  8
DATA
  6
CONTINUOUS
 62
     7
 10
528.15258652623027
 20
640.0
 30
0.0
 11
528.15258652623027
 21
635.0
 31
0.0
  0
LINE
  5
293
  8
DATA
  6
CONTINUOUS
 62
     7
 10
532.82912370666588
 20
640.0
 30
0.0
 11
532.82912370666588
 21
635.0
 31
0.0
  0
LINE
  5
294
  8
DATA
  6
CONTINUOUS
 62
     7
 10
553.15258652623027
 20
640.0
 30
0.0
 11
553.15258652623027
 21
635.0
 31
0.0
  0
LINE
  5
295
  8
DATA
  6
CONTINUOUS
 62
     7
 10
557.82912370666645
 20
640.0
 30
0.0
 11
557.82912370666645
 21
635.0
 31
0.0
  0
LINE
  5
296
  8
DATA
  6
CONTINUOUS
 62
     7
 10
535.19529633227467
 20
640.0
 30
0.0
 11
535.19529633227467
 21
635.0
 31
0.0
  0
LINE
  5
297
  8
DATA
  6
CONTINUOUS
 62
     7
 10
550.79924685797755
 20
640.0
 30
0.0
 11
550.79924685797755
 21
635.0
 31
0.0
  0
LINE
  5
298
  8
DATA
  6
CONTINUOUS
 62
     7
 10
528.15258652623027
 20
640.0
 30
0.0
 11
532.82912370666588
 21
640.0
 31
0.0
  0
LINE
  5
299
  8
DATA
  6
CONTINUOUS
 62
     7
 10
535.19529633227467
 20
640.0
 30
0.0
 11
550.79924685797755
 21
640.0
 31
0.0
  0
LINE
  5
29A
  8
DATA
  6
CONTINUOUS
 62
     7
 10
553.15258652623027
 20
640.0
 30
0.0
 11
557.82912370666645
 21
640.0
 31
0.0
  0
LINE
  5
29B
  8
DATA
  6
CONTINUOUS
 62
     7
 10
216.21078399916729
 20
640.0
 30
0.0
 11
221.78755935741941
 21
640.0
 31
0.0
  0
LINE
  5
29C
  8
DATA
  6
CONTINUOUS
 62
     7
 10
256.73863777236068
 20
640.0
 30
0.0
 11
261.78755935741941
 21
640.0
 31
0.0
  0
LINE
  5
29D
  8
DATA
  6
CONTINUOUS
 62
     7
 10
280.21078399916729
 20
640.0
 30
0.0
 11
285.78755935741941
 21
640.0
 31
0.0
  0
ARC
  5
29E
  8
DATA
  6
CONTINUOUS
 62
     7
 10
566.0
 20
635.61235742074734
 30
0.0
 40
1.4999999999999849
 50
0.0
 51
180.0
  0
ARC
  5
29F
  8
DATA
  6
CONTINUOUS
 62
     7
 10
584.75
 20
635.61235742074734
 30
0.0
 40
1.4999999999999849
 50
0.0
 51
180.0
  0
LINE
  5
2A0
  8
DATA
  6
CONTINUOUS
 62
     7
 10
597.0
 20
637.0
 30
0.0
 11
589.0
 21
637.0
 31
0.0
  0
LINE
  5
2A1
  8
DATA
  6
CONTINUOUS
 62
     7
 10
577.0
 20
637.0
 30
0.0
 11
569.0
 21
637.0
 31
0.0
  0
LINE
  5
2A2
  8
DATA
  6
CONTINUOUS
 62
     7
 10
564.5
 20
635.61235742074734
 30
0.0
 11
564.5
 21
635.0
 31
0.0
  0
LINE
  5
2A3
  8
DATA
  6
CONTINUOUS
 62
     7
 10
567.49999999999989
 20
635.61235742074734
 30
0.0
 11
567.49999999999989
 21
635.0
 31
0.0
  0
LINE
  5
2A4
  8
DATA
  6
CONTINUOUS
 62
     7
 10
583.25
 20
635.61235742074734
 30
0.0
 11
583.25
 21
635.0
 31
0.0
  0
LINE
  5
2A5
  8
DATA
  6
CONTINUOUS
 62
     7
 10
586.24999999999989
 20
635.61235742074734
 30
0.0
 11
586.24999999999989
 21
635.0
 31
0.0
  0
LINE
  5
2A6
  8
DATA
  6
CONTINUOUS
 62
     7
 10
667.0
 20
372.30000000000001
 30
0.0
 11
667.0
 21
380.69999999999999
 31
0.0
  0
LINE
  5
2A7
  8
DATA
  6
CONTINUOUS
 62
     7
 10
667.0
 20
380.69999999999999
 30
0.0
 11
672.0
 21
380.69999999999999
 31
0.0
  0
LINE
  5
2A8
  8
DATA
  6
CONTINUOUS
 62
     7
 10
667.0
 20
372.30000000000001
 30
0.0
 11
675.0
 21
372.30000000000001
 31
0.0
  0
LINE
  5
2A9
  8
DATA
  6
CONTINUOUS
 62
     7
 10
672.0
 20
383.5
 30
0.0
 11
675.0
 21
383.5
 31
0.0
  0
LINE
  5
2AA
  8
DATA
  6
CONTINUOUS
 62
     7
 10
672.0
 20
375.5
 30
0.0
 11
675.0
 21
375.5
 31
0.0
  0
LINE
  5
2AB
  8
DATA
  6
CONTINUOUS
 62
     7
 10
672.0
 20
375.5
 30
0.0
 11
672.0
 21
383.5
 31
0.0
  0
ARC
  5
2AC
  8
DATA
  6
CONTINUOUS
 62
     7
 10
673.2132197598612
 20
393.5
 30
0.0
 40
1.4750000000000221
 50
90.0
 51
270.0
  0
LINE
  5
2AD
  8
DATA
  6
CONTINUOUS
 62
     7
 10
673.2132197598612
 20
394.97500000000002
 30
0.0
 11
675.0
 21
394.97500000000002
 31
0.0
  0
LINE
  5
2AE
  8
DATA
  6
CONTINUOUS
 62
     7
 10
673.2132197598612
 20
392.02499999999998
 30
0.0
 11
675.0
 21
392.02499999999998
 31
0.0
  0
POLYLINE
  5
2AF
  8
DATA
  6
CONTINUOUS
 62
     7
 66
     1
 10
0.0
 20
0.0
 30
0.0
  0
VERTEX
  5
3B7
  8
DATA
  6
CONTINUOUS
 62
     7
 10
835.0
 20
380.7000000000001
 30
0.0
  0
VERTEX
  5
3B8
  8
DATA
  6
CONTINUOUS
 62
     7
 10
843.0
 20
380.7000000000001
 30
0.0
  0
VERTEX
  5
3B9
  8
DATA
  6
CONTINUOUS
 62
     7
 10
843.0
 20
372.30000000000001
 30
0.0
  0
VERTEX
  5
3BA
  8
DATA
  6
CONTINUOUS
 62
     7
 10
837.0
 20
372.30000000000001
 30
0.0
  0
SEQEND
  5
3BB
  8
DATA
  6
CONTINUOUS
 62
     7
  0
LINE
  5
2B6
  8
DATA
  6
CONTINUOUS
 62
     7
 10
837.0
 20
370.76999999999998
 30
0.0
 11
837.0
 21
378.76999999999998
 31
0.0
  0
POLYLINE
  5
2B7
  8
DATA
  6
CONTINUOUS
 62
     7
 66
     1
 10
0.0
 20
0.0
 30
0.0
  0
VERTEX
  5
3BC
  8
DATA
  6
CONTINUOUS
 62
     7
 10
835.0
 20
378.76999999999998
 30
0.0
  0
VERTEX
  5
3BD
  8
DATA
  6
CONTINUOUS
 62
     7
 10
837.0
 20
378.76999999999998
 30
0.0
  0
VERTEX
  5
3BE
  8
DATA
  6
CONTINUOUS
 62
     7
 10
837.0
 20
370.76999999999998
 30
0.0
  0
VERTEX
  5
3BF
  8
DATA
  6
CONTINUOUS
 62
     7
 10
835.0
 20
370.76999999999998
 30
0.0
  0
SEQEND
  5
3C0
  8
DATA
  6
CONTINUOUS
 62
     7
  0
ARC
  5
2BE
  8
DATA
  6
CONTINUOUS
 62
     7
 10
835.27419266869924
 20
382.45724836465132
 30
0.0
 40
1.5
 50
270.0
 51
90.0
  0
LINE
  5
2BF
  8
DATA
  6
CONTINUOUS
 62
     7
 10
835.27419266869924
 20
383.95724836465132
 30
0.0
 11
835.0
 21
383.95724836465132
 31
0.0
  0
LINE
  5
2C0
  8
DATA
  6
CONTINUOUS
 62
     7
 10
835.27419266869924
 20
380.95724836465132
 30
0.0
 11
835.0
 21
380.95724836465132
 31
0.0
  0
CIRCLE
  5
2C1
  8
DATA
  6
CONTINUOUS
 62
     7
 10
683.49999999999989
 20
396.80000000000013
 30
0.0
 40
2.7499999999999818
  0
LINE
  5
2C2
  8
DATA
  6
CONTINUOUS
 62
     7
 10
682.19360547051565
 20
395.49360547051572
 30
0.0
 11
684.80639452948435
 21
398.10639452948442
 31
0.0
  0
LINE
  5
2C3
  8
DATA
  6
CONTINUOUS
 62
     7
 10
684.80639452948435
 20
395.49360547051577
 30
0.0
 11
682.19360547051565
 21
398.10639452948442
 31
0.0
  0
CIRCLE
  5
2C4
  8
DATA
  6
CONTINUOUS
 62
     7
 10
683.49999999999989
 20
369.5
 30
0.0
 40
2.7499999999999818
  0
LINE
  5
2C5
  8
DATA
  6
CONTINUOUS
 62
     7
 10
682.19360547051565
 20
368.19360547051571
 30
0.0
 11
684.80639452948435
 21
370.80639452948441
 31
0.0
  0
LINE
  5
2C6
  8
DATA
  6
CONTINUOUS
 62
     7
 10
684.80639452948435
 20
368.19360547051571
 30
0.0
 11
682.19360547051565
 21
370.80639452948441
 31
0.0
  0
CIRCLE
  5
2C7
  8
DATA
  6
CONTINUOUS
 62
     7
 10
808.5
 20
369.5
 30
0.0
 40
2.7499999999999818
  0
LINE
  5
2C8
  8
DATA
  6
CONTINUOUS
 62
     7
 10
807.19360547051554
 20
368.19360547051571
 30
0.0
 11
809.80639452948435
 21
370.80639452948441
 31
0.0
  0
LINE
  5
2C9
  8
DATA
  6
CONTINUOUS
 62
     7
 10
809.80639452948435
 20
368.19360547051571
 30
0.0
 11
807.19360547051554
 21
370.80639452948441
 31
0.0
  0
ARC
  5
2CA
  8
DATA
  6
CONTINUOUS
 62
     7
 10
675.79999999999995
 20
405.7000000000001
 30
0.0
 40
0.7999999999999546
 50
90.0
 51
180.00000000000401
  0
ARC
  5
2CB
  8
DATA
  6
CONTINUOUS
 62
     7
 10
675.79999999999995
 20
363.30000000000001
 30
0.0
 40
0.8000000000000113
 50
180.0
 51
270.0
  0
ENDSEC
  0
EOF
