  0
SECTION
  2
HEADER
  9
$ACADVER
  1
AC1009
  9
$INSBASE
 10
0.0
 20
0.0
 30
0.0
  9
$EXTMIN
 10
-80.010985489947416
 20
-131.71201227911089
 30
-0.0015258207003583
  9
$EXTMAX
 10
280.01098716632811
 20
403.5481165140169
 30
0.0000000349246037
  9
$LIMMIN
 10
0.0
 20
0.0
  9
$LIMMAX
 10
0.0
 20
0.0
  9
$ORTHOMODE
 70
     0
  9
$REGENMODE
 70
     1
  9
$FILLMODE
 70
     1
  9
$QTEXTMODE
 70
     0
  9
$MIRRTEXT
 70
     1
  9
$DRAGMODE
 70
     2
  9
$LTSCALE
 40
10.16
  9
$OSMODE
 70
   231
  9
$ATTMODE
 70
     1
  9
$TEXTSIZE
 40
0.0
  9
$TRACEWID
 40
1.0
  9
$TEXTSTYLE
  7
STANDARD
  9
$CLAYER
  8
DATA
  9
$CELTYPE
  6
BYLAYER
  9
$CECOLOR
 62
   256
  9
$DIMSCALE
 40
1.0
  9
$DIMASZ
 40
0.18
  9
$DIMEXO
 40
0.0625
  9
$DIMDLI
 40
0.38
  9
$DIMRND
 40
0.0
  9
$DIMDLE
 40
0.0
  9
$DIMEXE
 40
0.18
  9
$DIMTP
 40
0.0
  9
$DIMTM
 40
0.0
  9
$DIMTXT
 40
0.18
  9
$DIMCEN
 40
0.09
  9
$DIMTSZ
 40
0.0
  9
$DIMTOL
 70
     0
  9
$DIMLIM
 70
     0
  9
$DIMTIH
 70
     1
  9
$DIMTOH
 70
     1
  9
$DIMSE1
 70
     0
  9
$DIMSE2
 70
     0
  9
$DIMTAD
 70
     0
  9
$DIMZIN
 70
     0
  9
$DIMBLK
  1

  9
$DIMASO
 70
     1
  9
$DIMSHO
 70
     1
  9
$DIMPOST
  1

  9
$DIMAPOST
  1

  9
$DIMALT
 70
     0
  9
$DIMALTD
 70
     2
  9
$DIMALTF
 40
25.399999999999999
  9
$DIMLFAC
 40
1.0
  9
$DIMTOFL
 70
     0
  9
$DIMTVP
 40
0.0
  9
$DIMTIX
 70
     0
  9
$DIMSOXD
 70
     0
  9
$DIMSAH
 70
     0
  9
$DIMBLK1
  1

  9
$DIMBLK2
  1

  9
$DIMSTYLE
  2
STANDARD
  9
$DIMCLRD
 70
     0
  9
$DIMCLRE
 70
     0
  9
$DIMCLRT
 70
     0
  9
$DIMTFAC
 40
1.0
  9
$DIMGAP
 40
0.09
  9
$LUNITS
 70
     2
  9
$LUPREC
 70
     4
  9
$SKETCHINC
 40
0.1
  9
$FILLETRAD
 40
0.0
  9
$AUNITS
 70
     0
  9
$AUPREC
 70
     0
  9
$MENU
  1
acad
  9
$ELEVATION
 40
0.0
  9
$PELEVATION
 40
0.0
  9
$THICKNESS
 40
0.0
  9
$LIMCHECK
 70
     0
  9
$BLIPMODE
 70
     0
  9
$CHAMFERA
 40
0.0
  9
$CHAMFERB
 40
0.0
  9
$SKPOLY
 70
     0
  9
$TDCREATE
 40
2455202.6853009262
  9
$TDUPDATE
 40
2455202.6880727201
  9
$TDINDWG
 40
0.0002403009
  9
$TDUSRTIMER
 40
0.0002403009
  9
$USRTIMER
 70
     1
  9
$ANGBASE
 50
0.0
  9
$ANGDIR
 70
     0
  9
$PDMODE
 70
     1
  9
$PDSIZE
 40
-2.0
  9
$PLINEWID
 40
0.0
  9
$COORDS
 70
     0
  9
$SPLFRAME
 70
     0
  9
$SPLINETYPE
 70
     6
  9
$SPLINESEGS
 70
     8
  9
$ATTDIA
 70
     0
  9
$ATTREQ
 70
     1
  9
$HANDLING
 70
     1
  9
$HANDSEED
  5
362
  9
$SURFTAB1
 70
     6
  9
$SURFTAB2
 70
     6
  9
$SURFTYPE
 70
     6
  9
$SURFU
 70
     6
  9
$SURFV
 70
     6
  9
$UCSNAME
  2

  9
$UCSORG
 10
0.0
 20
0.0
 30
0.0
  9
$UCSXDIR
 10
1.0
 20
0.0
 30
0.0
  9
$UCSYDIR
 10
0.0
 20
1.0
 30
0.0
  9
$PUCSNAME
  2

  9
$PUCSORG
 10
0.0
 20
0.0
 30
0.0
  9
$PUCSXDIR
 10
1.0
 20
0.0
 30
0.0
  9
$PUCSYDIR
 10
0.0
 20
1.0
 30
0.0
  9
$USERI1
 70
     0
  9
$USERI2
 70
     0
  9
$USERI3
 70
     0
  9
$USERI4
 70
     0
  9
$USERI5
 70
     0
  9
$USERR1
 40
0.0
  9
$USERR2
 40
0.0
  9
$USERR3
 40
0.0
  9
$USERR4
 40
0.0
  9
$USERR5
 40
0.0
  9
$WORLDVIEW
 70
     1
  9
$SHADEDGE
 70
     3
  9
$SHADEDIF
 70
    70
  9
$TILEMODE
 70
     1
  9
$MAXACTVP
 70
    64
  9
$PLIMCHECK
 70
     0
  9
$PEXTMIN
 10
1.0000000000000000E+020
 20
1.0000000000000000E+020
 30
1.0000000000000000E+020
  9
$PEXTMAX
 10
-1.0000000000000000E+020
 20
-1.0000000000000000E+020
 30
-1.0000000000000000E+020
  9
$PLIMMIN
 10
0.0
 20
0.0
  9
$PLIMMAX
 10
12.0
 20
9.0
  9
$UNITMODE
 70
     0
  9
$VISRETAIN
 70
     0
  9
$PLINEGEN
 70
     1
  9
$PSLTSCALE
 70
     0
  0
ENDSEC
  0
SECTION
  2
TABLES
  0
TABLE
  2
VPORT
 70
     1
  0
VPORT
  2
*ACTIVE
 70
     0
 10
0.0
 20
0.0
 11
1.0
 21
1.0
 12
100.0000008381904
 22
135.91805211745299
 13
0.0
 23
0.0
 14
1.0
 24
1.0
 15
0.0
 25
0.0
 16
0.0
 26
0.0
 36
1.0
 17
0.0
 27
0.0
 37
0.0
 40
539.20553514786843
 41
1.964329643296433
 42
50.0
 43
0.0
 44
0.0
 50
0.0
 51
0.0
 71
     0
 72
  2000
 73
     1
 74
     1
 75
     0
 76
     0
 77
     0
 78
     0
  0
ENDTAB
  0
TABLE
  2
LTYPE
 70
    11
  0
LTYPE
  2
CONTINUOUS
 70
     0
  3
Solid line
 72
    65
 73
     0
 40
0.0
  0
ENDTAB
  0
TABLE
  2
LAYER
 70
     5
  0
LAYER
  2
0
 70
     0
 62
     7
  6
CONTINUOUS
  0
LAYER
  2
DATA
 70
     0
 62
     7
  6
CONTINUOUS
  0
LAYER
  2
HIBINO-BASE
 70
     0
 62
     7
  6
CONTINUOUS
  0
LAYER
  2
SPEC
 70
     0
 62
     7
  6
CONTINUOUS
  0
LAYER
  2
DIMNSIONS
 70
     0
 62
     7
  6
CONTINUOUS
  0
ENDTAB
  0
TABLE
  2
STYLE
 70
     3
  0
STYLE
  2
STANDARD
 70
     0
 40
0.0
 41
1.0
 50
0.0
 71
     0
 42
0.0
  3
txt
  4
BIGFONT.SHX
  0
ENDTAB
  0
TABLE
  2
VIEW
 70
     0
  0
ENDTAB
  0
TABLE
  2
UCS
 70
     0
  0
ENDTAB
  0
TABLE
  2
APPID
 70
     3
  0
APPID
  2
ACAD
 70
     0
  0
APPID
  2
ACADANNOTATIVE
 70
     0
  0
APPID
  2
ACAD_MLEADERVER
 70
     0
  0
ENDTAB
  0
TABLE
  2
DIMSTYLE
 70
     2
  0
DIMSTYLE
  2
STANDARD
 70
     0
  3

  4

  5

  6

  7

 40
1.0
 41
0.18
 42
0.0625
 43
0.38
 44
0.18
 45
0.0
 46
0.0
 47
0.0
 48
0.0
140
0.18
141
0.09
142
0.0
143
25.399999999999999
144
1.0
145
0.0
146
1.0
147
0.09
 71
     0
 72
     0
 73
     1
 74
     1
 75
     0
 76
     0
 77
     0
 78
     0
170
     0
171
     2
172
     0
173
     0
174
     0
175
     0
176
     0
177
     0
178
     0
  0
ENDTAB
  0
ENDSEC
  0
SECTION
  2
BLOCKS
  0
BLOCK
  8
0
  2
$MODEL_SPACE
 70
     0
 10
0.0
 20
0.0
 30
0.0
  3
$MODEL_SPACE
  1

  0
ENDBLK
  5
2CF
  8
0
  0
BLOCK
 67
     1
  8
0
  2
$PAPER_SPACE
 70
     0
 10
0.0
 20
0.0
 30
0.0
  3
$PAPER_SPACE
  1

  0
ENDBLK
  5
2CB
 67
     1
  8
0
  0
ENDSEC
  0
SECTION
  2
ENTITIES
  0
LINE
  5
2C
  8
HIBINO-BASE
  6
CONTINUOUS
 62
     7
 10
-79.999999999999986
 20
403.53181499999999
 30
0.0
 11
279.99999999999989
 21
403.53181499999999
 31
0.0
  0
LINE
  5
2D
  8
HIBINO-BASE
  6
CONTINUOUS
 62
     7
 10
279.99999999999989
 20
-116.46818500000001
 30
0.0
 11
-79.999999999999986
 21
-116.46818500000001
 31
0.0
  0
LINE
  5
2E
  8
HIBINO-BASE
  6
CONTINUOUS
 62
     7
 10
-79.999999999999986
 20
-116.46818500000001
 30
0.0
 11
-79.999999999999986
 21
403.53181499999999
 31
0.0
  0
TEXT
  5
2F
  8
HIBINO-BASE
 62
     7
 10
-65.631999999999991
 20
-129.2855405999999
 30
0.0
 40
7.2000883593749991
  1
Hibino Corporation
 41
0.7
 11
-65.631999999999991
 21
-122.0854522406249
 31
0.0
 73
     3
  0
LINE
  5
30
  8
HIBINO-BASE
  6
CONTINUOUS
 62
     7
 10
279.99999999999989
 20
403.53181499999999
 30
0.0
 11
279.99999999999989
 21
-116.46818500000001
 31
0.0
  0
LINE
  5
31
  8
HIBINO-BASE
  6
CONTINUOUS
 62
     7
 10
100.0
 20
-71.468184999999977
 30
0.0
 11
279.99999999999989
 21
-71.468184999999977
 31
0.0
  0
LINE
  5
32
  8
HIBINO-BASE
  6
CONTINUOUS
 62
     7
 10
100.0
 20
-116.46818500000001
 30
0.0
 11
100.0
 21
-71.468184999999977
 31
0.0
  0
TEXT
  5
33
  8
HIBINO-BASE
 62
     7
 10
101.8
 20
-76.485571666666644
 30
0.0
 40
3.2576822916666659
  1
NOTE
 41
0.7
 11
101.8
 21
-73.227889374999975
 31
0.0
 73
     3
  0
LINE
  5
34
  8
HIBINO-BASE
  6
CONTINUOUS
 62
     7
 10
170.0
 20
-116.46818500000001
 30
0.0
 11
170.0
 21
-71.468184999999977
 31
0.0
  0
TEXT
  5
35
  8
HIBINO-BASE
 62
     7
 10
171.7999999999999
 20
-76.485571666666644
 30
0.0
 40
3.2576822916666659
  1
TITLE
 41
0.7
 11
171.7999999999999
 21
-73.227889374999975
 31
0.0
 73
     3
  0
TEXT
  5
36
  8
HIBINO-BASE
 62
     7
 10
200.13677999999999
 20
-129.2855405999999
 30
0.0
 40
7.2000883593749991
  1
ヒビノ株式会社
 41
0.7
 11
200.13677999999999
 21
-122.0854522406249
 31
0.0
 73
     3
  0
LINE
  5
37
  8
HIBINO-BASE
  6
CONTINUOUS
 62
     7
 10
100.0
 20
-96.468184999999963
 30
0.0
 11
279.99999999999989
 21
-96.468184999999963
 31
0.0
  0
TEXT
  5
38
  8
HIBINO-BASE
 62
     7
 10
196.80000000000001
 20
-101.3729316666666
 30
0.0
 40
3.2576822916666659
  1
DRAWN
 41
0.7
 11
196.80000000000001
 21
-98.115249375000005
 31
0.0
 73
     3
  0
TEXT
  5
39
  8
HIBINO-BASE
 62
     7
 10
146.7999999999999
 20
-101.3729316666666
 30
0.0
 40
3.2576822916666659
  1
DATE
 41
0.7
 11
146.7999999999999
 21
-98.115249375000005
 31
0.0
 73
     3
  0
TEXT
  5
3A
  8
HIBINO-BASE
 62
     7
 10
126.8
 20
-101.3729316666666
 30
0.0
 40
3.2576822916666659
  1
SCALE
 41
0.7
 11
126.8
 21
-98.115249375000005
 31
0.0
 73
     3
  0
TEXT
  5
3B
  8
HIBINO-BASE
 62
     7
 10
171.7999999999999
 20
-101.3729316666666
 30
0.0
 40
3.2576822916666659
  1
DESIGN
 41
0.7
 11
171.7999999999999
 21
-98.115249375000005
 31
0.0
 73
     3
  0
TEXT
  5
3C
  8
HIBINO-BASE
 62
     7
 10
246.7999999999999
 20
-101.3729316666666
 30
0.0
 40
3.2576822916666659
  1
DRAWING NO.
 41
0.7
 11
246.7999999999999
 21
-98.115249375000005
 31
0.0
 73
     3
  0
TEXT
  5
3D
  8
HIBINO-BASE
 62
     7
 10
221.7999999999999
 20
-101.3729316666666
 30
0.0
 40
3.2576822916666659
  1
CHECK
 41
0.7
 11
221.7999999999999
 21
-98.115249375000005
 31
0.0
 73
     3
  0
LINE
  5
3E
  8
HIBINO-BASE
  6
CONTINUOUS
 62
     7
 10
128.74999999999989
 20
-113.96818500000001
 30
0.0
 11
136.25
 21
-106.46818499999991
 31
0.0
  0
TEXT
  5
3F
  8
HIBINO-BASE
 62
     7
 10
127.5
 20
-108.68607166666661
 30
0.0
 40
3.2576822916666659
  1
1
 41
0.7
 11
127.5
 21
-105.42838937499999
 31
0.0
 73
     3
  0
LINE
  5
40
  8
HIBINO-BASE
  6
CONTINUOUS
 62
     7
 10
125.0
 20
-116.46818500000001
 30
0.0
 11
125.0
 21
-96.468184999999963
 31
0.0
  0
LINE
  5
41
  8
HIBINO-BASE
  6
CONTINUOUS
 62
     7
 10
145.0
 20
-116.46818500000001
 30
0.0
 11
145.0
 21
-96.468184999999963
 31
0.0
  0
LINE
  5
42
  8
HIBINO-BASE
  6
CONTINUOUS
 62
     7
 10
195.0
 20
-96.468184999999963
 30
0.0
 11
195.0
 21
-116.46818500000001
 31
0.0
  0
LINE
  5
43
  8
HIBINO-BASE
  6
CONTINUOUS
 62
     7
 10
245.0
 20
-96.468184999999963
 30
0.0
 11
245.0
 21
-116.46818500000001
 31
0.0
  0
LINE
  5
44
  8
HIBINO-BASE
  6
CONTINUOUS
 62
     7
 10
220.0
 20
-116.46818500000001
 30
0.0
 11
220.0
 21
-96.468184999999963
 31
0.0
  0
TEXT
  5
45
  8
HIBINO-BASE
 62
     7
 10
146.71307999999999
 20
-110.7408916666666
 30
0.0
 40
3.2576822916666659
  1
'09.08.
 41
0.7
 11
146.71307999999999
 21
-107.483209375
 31
0.0
 73
     3
  0
TEXT
  5
46
  8
HIBINO-BASE
 62
     7
 10
135.0
 20
-112.43607166666661
 30
0.0
 40
3.2576822916666659
  1
2
 41
0.7
 11
135.0
 21
-109.17838937499999
 31
0.0
 73
     3
  0
TEXT
  5
47
  8
HIBINO-BASE
 62
     7
 10
198.0116200220692
 20
-110.7408916666666
 30
0.0
 40
3.2576822916666659
  1
N.Sasaki
 41
0.7
 11
198.0116200220692
 21
-107.483209375
 31
0.0
 73
     3
  0
TEXT
  5
48
  8
HIBINO-BASE
 62
     7
 10
107.76666666666659
 20
-112.51618499999999
 30
0.0
 40
6.5153645833333318
  1
A4
 41
0.7
 11
107.76666666666659
 21
-106.0008204166666
 31
0.0
 73
     3
  0
TEXT
  5
49
  8
HIBINO-BASE
 62
     7
 10
101.9166666666666
 20
-101.707095
 30
0.0
 40
3.2576822916666659
  1
PAPER SIZE
 41
0.7
 11
101.9166666666666
 21
-98.449412708333327
 31
0.0
 73
     3
  0
LINE
  5
4A
  8
SPEC
  6
CONTINUOUS
 62
     7
 10
-64.999999999999986
 20
383.53181499999999
 30
0.0
 11
230.0
 21
383.53181499999999
 31
0.0
  0
LINE
  5
4B
  8
SPEC
  6
CONTINUOUS
 62
     7
 10
-64.999999999999986
 20
376.03181499999999
 30
0.0
 11
230.0
 21
376.03181499999999
 31
0.0
  0
LINE
  5
4C
  8
SPEC
  6
CONTINUOUS
 62
     7
 10
-64.999999999999986
 20
346.03181499999988
 30
0.0
 11
230.0
 21
346.03181499999988
 31
0.0
  0
LINE
  5
4D
  8
SPEC
  6
CONTINUOUS
 62
     7
 10
-64.999999999999986
 20
353.53181499999988
 30
0.0
 11
230.0
 21
353.53181499999988
 31
0.0
  0
LINE
  5
4E
  8
SPEC
  6
CONTINUOUS
 62
     7
 10
-64.999999999999986
 20
361.03181499999999
 30
0.0
 11
230.0
 21
361.03181499999999
 31
0.0
  0
LINE
  5
4F
  8
SPEC
  6
CONTINUOUS
 62
     7
 10
-64.999999999999986
 20
338.53181499999988
 30
0.0
 11
230.0
 21
338.53181499999988
 31
0.0
  0
LINE
  5
50
  8
SPEC
  6
CONTINUOUS
 62
     7
 10
-64.999999999999986
 20
323.53181499999988
 30
0.0
 11
230.0
 21
323.53181499999988
 31
0.0
  0
LINE
  5
51
  8
SPEC
  6
CONTINUOUS
 62
     7
 10
-64.999999999999986
 20
331.03181499999999
 30
0.0
 11
230.0
 21
331.03181499999999
 31
0.0
  0
LINE
  5
52
  8
SPEC
  6
CONTINUOUS
 62
     7
 10
-64.999999999999986
 20
316.03181499999988
 30
0.0
 11
230.0
 21
316.03181499999988
 31
0.0
  0
LINE
  5
53
  8
SPEC
  6
CONTINUOUS
 62
     7
 10
-64.999999999999986
 20
368.53181499999999
 30
0.0
 11
230.0
 21
368.53181499999999
 31
0.0
  0
LINE
  5
54
  8
SPEC
  6
CONTINUOUS
 62
     7
 10
-64.999999999999986
 20
383.53181499999999
 30
0.0
 11
-64.999999999999986
 21
293.53181499999999
 31
0.0
  0
TEXT
  5
55
  8
SPEC
 62
     7
 10
-62.5
 20
386.318355
 30
0.0
 40
4.8865234375000002
  1
仕様
 41
0.7
 11
-62.5
 21
391.20487843749999
 31
0.0
 73
     3
  0
LINE
  5
56
  8
SPEC
  6
CONTINUOUS
 62
     7
 10
0.0
 20
383.53181499999999
 30
0.0
 11
0.0
 21
293.53181499999999
 31
0.0
  0
LINE
  5
57
  8
SPEC
  6
CONTINUOUS
 62
     7
 10
230.0
 20
383.53181499999999
 30
0.0
 11
230.0
 21
293.53181499999999
 31
0.0
  0
TEXT
  5
58
  8
SPEC
 62
     7
 10
1.799999999999996
 20
310.10765055555538
 30
0.0
 40
3.8006293402777769
  1
85(W)\U+00D728(H)\U+00D738(D)mm(突起部含まず)
 41
0.7
 11
1.7999999999999969
 21
313.90827989583318
 31
0.0
 73
     3
  0
TEXT
  5
59
  8
SPEC
 62
     7
 10
1.799999999999996
 20
317.60765055555538
 30
0.0
 40
3.8006293402777769
  1
0℃～70℃
 41
0.7
 11
1.7999999999999969
 21
321.40827989583318
 31
0.0
 73
     3
  0
TEXT
  5
5A
  8
SPEC
 62
     7
 10
-63.199999999999967
 20
302.67248476649422
 30
0.0
 40
3.8006293402777769
  1
重量
 41
0.7
 11
-63.199999999999967
 21
306.47311410677202
 31
0.0
 73
     3
  0
TEXT
  5
5B
  8
SPEC
 62
     7
 10
-63.200000000000003
 20
347.60765055555549
 30
0.0
 40
3.8006293402777769
  1
USB2.0出力端子
 41
0.7
 11
-63.200000000000003
 21
351.40827989583329
 31
0.0
 73
     3
  0
TEXT
  5
5C
  8
SPEC
 62
     7
 10
-63.200000000000003
 20
377.60765055555549
 30
0.0
 40
3.8006293402777769
  1
形式
 41
0.7
 11
-63.200000000000003
 21
381.40827989583329
 31
0.0
 73
     3
  0
TEXT
  5
5D
  8
SPEC
 62
     7
 10
-63.200000000000003
 20
332.60765055555538
 30
0.0
 40
3.8006293402777769
  1
電源
 41
0.7
 11
-63.200000000000003
 21
336.40827989583318
 31
0.0
 73
     3
  0
TEXT
  5
5E
  8
SPEC
 62
     7
 10
-63.200000000000003
 20
325.10765055555549
 30
0.0
 40
3.8006293402777769
  1
消費電力
 41
0.7
 11
-63.200000000000003
 21
328.90827989583318
 31
0.0
 73
     3
  0
TEXT
  5
5F
  8
SPEC
 62
     7
 10
-63.200000000000003
 20
355.10765055555549
 30
0.0
 40
3.8006293402777769
  1
USB2.0入力端子
 41
0.7
 11
-63.200000000000003
 21
358.90827989583329
 31
0.0
 73
     3
  0
TEXT
  5
60
  8
SPEC
 62
     7
 10
-63.200000000000003
 20
340.10765055555549
 30
0.0
 40
3.8006293402777769
  1
USB 受信機
 41
0.7
 11
-63.200000000000003
 21
343.90827989583329
 31
0.0
 73
     3
  0
TEXT
  5
61
  8
SPEC
 62
     7
 10
-63.200000000000003
 20
362.60765055555549
 30
0.0
 40
3.8006293402777769
  1
リンクコネクター
 41
0.7
 11
-63.200000000000003
 21
366.40827989583329
 31
0.0
 73
     3
  0
TEXT
  5
62
  8
SPEC
 62
     7
 10
-63.200000000000003
 20
317.60765055555538
 30
0.0
 40
3.8006293402777769
  1
動作温度
 41
0.7
 11
-63.200000000000003
 21
321.40827989583318
 31
0.0
 73
     3
  0
TEXT
  5
63
  8
SPEC
 62
     7
 10
1.8000000000000249
 20
302.67248476649422
 30
0.0
 40
3.8006293402777769
  1
送信機:約82g
 41
0.7
 11
1.8000000000000249
 21
306.47311410677202
 31
0.0
 73
     3
  0
TEXT
  5
64
  8
SPEC
 62
     7
 10
1.799999999999996
 20
347.60765055555549
 30
0.0
 40
3.8006293402777769
  1
Type A
 41
0.7
 11
1.7999999999999969
 21
351.40827989583329
 31
0.0
 73
     3
  0
TEXT
  5
65
  8
SPEC
 62
     7
 10
1.799999999999996
 20
332.60765055555538
 30
0.0
 40
3.8006293402777769
  1
5V DC
 41
0.7
 11
1.7999999999999969
 21
336.40827989583318
 31
0.0
 73
     3
  0
TEXT
  5
66
  8
SPEC
 62
     7
 10
1.799999999999996
 20
325.10765055555549
 30
0.0
 40
3.8006293402777769
  1
10 W (最大)
 41
0.7
 11
1.7999999999999969
 21
328.90827989583318
 31
0.0
 73
     3
  0
TEXT
  5
67
  8
SPEC
 62
     7
 10
1.799999999999996
 20
355.10765055555549
 30
0.0
 40
3.8006293402777769
  1
Type B
 41
0.7
 11
1.7999999999999969
 21
358.90827989583329
 31
0.0
 73
     3
  0
TEXT
  5
68
  8
SPEC
 62
     7
 10
1.799999999999996
 20
340.10765055555549
 30
0.0
 40
3.8006293402777769
  1
500 mA DCの電力供給が可能 （2つ）
 41
0.7
 11
1.7999999999999969
 21
343.90827989583329
 31
0.0
 73
     3
  0
TEXT
  5
69
  8
SPEC
 62
     7
 10
1.799999999999996
 20
362.60765055555549
 30
0.0
 40
3.8006293402777769
  1
RJ-45
 41
0.7
 11
1.7999999999999969
 21
366.40827989583329
 31
0.0
 73
     3
  0
TEXT
  5
6A
  8
SPEC
 62
     7
 10
1.799999999999996
 20
377.60765499999991
 30
0.0
 40
3.8006293402777769
  1
USB延長機
 41
0.7
 11
1.7999999999999969
 21
381.40828434027782
 31
0.0
 73
     3
  0
TEXT
  5
6B
  8
SPEC
 62
     7
 10
1.799999999999996
 20
370.10765500000002
 30
0.0
 40
3.8006293402777769
  1
480 Mbps
 41
0.7
 11
1.7999999999999969
 21
373.90828434027782
 31
0.0
 73
     3
  0
TEXT
  5
6C
  8
SPEC
 62
     7
 10
-63.200000000000003
 20
370.10765500000002
 30
0.0
 40
3.8006293402777769
  1
USB2.0スピード
 41
0.7
 11
-63.200000000000003
 21
373.90828434027782
 31
0.0
 73
     3
  0
LINE
  5
6D
  8
SPEC
  6
CONTINUOUS
 62
     7
 10
-64.999999999999957
 20
308.53181499999988
 30
0.0
 11
230.0
 21
308.53181499999988
 31
0.0
  0
LINE
  5
6E
  8
SPEC
  6
CONTINUOUS
 62
     7
 10
-64.999999999999957
 20
308.53181499999988
 30
0.0
 11
230.0
 21
308.53181499999988
 31
0.0
  0
TEXT
  5
6F
  8
SPEC
 62
     7
 10
-63.200000000000003
 20
310.17248921093858
 30
0.0
 40
3.8006293402777769
  1
寸法
 41
0.7
 11
-63.200000000000003
 21
313.97311855121637
 31
0.0
 73
     3
  0
LINE
  5
70
  8
SPEC
  6
CONTINUOUS
 62
     7
 10
-64.999999999999957
 20
293.53181499999999
 30
0.0
 11
230.0
 21
293.53181499999999
 31
0.0
  0
TEXT
  5
71
  8
SPEC
 62
     7
 10
1.8000000000000249
 20
296.67341489028757
 30
0.0
 40
3.8006293402777769
  1
受信機:約88g
 41
0.7
 11
1.8000000000000249
 21
300.47404423056543
 31
0.0
 73
     3
  0
TEXT
  5
72
  8
DIMNSIONS
 62
     7
 10
60.0
 20
-91.929204999999968
 30
0.0
 40
4.8865234375000002
  1
(単位：mm)
 41
0.7
 11
60.0
 21
-87.042681562499979
 31
0.0
 73
     3
  0
LINE
  5
73
  8
DIMNSIONS
  6
CONTINUOUS
 62
     7
 10
40.0
 20
146.0
 30
0.0
 11
40.0
 21
126.0
 31
0.0
  0
LINE
  5
74
  8
DIMNSIONS
  6
CONTINUOUS
 62
     7
 10
125.2
 20
146.0
 30
0.0
 11
125.2
 21
126.0
 31
0.0
  0
LINE
  5
75
  8
DIMNSIONS
  6
CONTINUOUS
 62
     7
 10
40.0
 20
130.0
 30
0.0
 11
125.2
 21
130.0
 31
0.0
  0
LINE
  5
76
  8
DIMNSIONS
  6
CONTINUOUS
 62
     7
 10
40.0
 20
130.0
 30
0.0
 11
45.001245117187509
 21
131.34007959030049
 31
0.0
  0
LINE
  5
77
  8
DIMNSIONS
  6
CONTINUOUS
 62
     7
 10
40.0
 20
130.0
 30
0.0
 11
45.001245117187509
 21
128.65992040969951
 31
0.0
  0
LINE
  5
78
  8
DIMNSIONS
  6
CONTINUOUS
 62
     7
 10
125.2
 20
130.0
 30
0.0
 11
120.19875488281249
 21
128.65992040969951
 31
0.0
  0
LINE
  5
79
  8
DIMNSIONS
  6
CONTINUOUS
 62
     7
 10
125.2
 20
130.0
 30
0.0
 11
120.19875488281249
 21
131.34007959030049
 31
0.0
  0
TEXT
  5
7A
  8
DIMNSIONS
 62
     7
 10
79.072222222222223
 20
131.98777777777769
 30
0.0
 40
5.4294704861111107
  1
85
 41
0.7
 11
79.072222222222223
 21
137.41724826388881
 31
0.0
 73
     3
  0
LINE
  5
7B
  8
DIMNSIONS
  6
CONTINUOUS
 62
     7
 10
36.0
 20
200.0
 30
0.0
 11
16.0
 21
200.0
 31
0.0
  0
LINE
  5
7C
  8
DIMNSIONS
  6
CONTINUOUS
 62
     7
 10
36.0
 20
238.19999999999999
 30
0.0
 11
16.0
 21
238.19999999999999
 31
0.0
  0
LINE
  5
7D
  8
DIMNSIONS
  6
CONTINUOUS
 62
     7
 10
20.0
 20
200.0
 30
0.0
 11
20.0
 21
238.19999999999999
 31
0.0
  0
LINE
  5
7E
  8
DIMNSIONS
  6
CONTINUOUS
 62
     7
 10
20.0
 20
200.0
 30
0.0
 11
18.659920409699499
 21
205.00124511718749
 31
0.0
  0
LINE
  5
7F
  8
DIMNSIONS
  6
CONTINUOUS
 62
     7
 10
20.0
 20
200.0
 30
0.0
 11
21.340079590300491
 21
205.00124511718749
 31
0.0
  0
LINE
  5
80
  8
DIMNSIONS
  6
CONTINUOUS
 62
     7
 10
20.0
 20
238.19999999999999
 30
0.0
 11
21.340079590300491
 21
233.19875488281241
 31
0.0
  0
LINE
  5
81
  8
DIMNSIONS
  6
CONTINUOUS
 62
     7
 10
20.0
 20
238.19999999999999
 30
0.0
 11
18.659920409699499
 21
233.19875488281241
 31
0.0
  0
TEXT
  5
82
  8
DIMNSIONS
 62
     7
 10
18.012222222222231
 20
215.57222222222231
 30
0.0
 40
5.4294704861111107
  1
38
 50
90.0
 41
0.7
 11
12.582751736111121
 21
215.57222222222231
 31
0.0
 73
     3
  0
LINE
  5
83
  8
DIMNSIONS
  6
CONTINUOUS
 62
     7
 10
36.0
 20
150.0
 30
0.0
 11
11.0
 21
150.0
 31
0.0
  0
LINE
  5
84
  8
DIMNSIONS
  6
CONTINUOUS
 62
     7
 10
36.0
 20
178.19999999999999
 30
0.0
 11
11.0
 21
178.19999999999999
 31
0.0
  0
LINE
  5
85
  8
DIMNSIONS
  6
CONTINUOUS
 62
     7
 10
15.0
 20
150.0
 30
0.0
 11
15.0
 21
178.19999999999999
 31
0.0
  0
LINE
  5
86
  8
DIMNSIONS
  6
CONTINUOUS
 62
     7
 10
15.0
 20
150.0
 30
0.0
 11
13.659920409699501
 21
155.00124511718741
 31
0.0
  0
LINE
  5
87
  8
DIMNSIONS
  6
CONTINUOUS
 62
     7
 10
15.0
 20
150.0
 30
0.0
 11
16.340079590300491
 21
155.00124511718741
 31
0.0
  0
LINE
  5
88
  8
DIMNSIONS
  6
CONTINUOUS
 62
     7
 10
15.0
 20
178.19999999999999
 30
0.0
 11
16.340079590300491
 21
173.19875488281241
 31
0.0
  0
LINE
  5
89
  8
DIMNSIONS
  6
CONTINUOUS
 62
     7
 10
15.0
 20
178.19999999999999
 30
0.0
 11
13.659920409699501
 21
173.19875488281241
 31
0.0
  0
TEXT
  5
8A
  8
DIMNSIONS
 62
     7
 10
13.012222222222229
 20
160.57222222222219
 30
0.0
 40
5.4294704861111107
  1
28
 50
90.0
 41
0.7
 11
7.5827517361111187
 21
160.57222222222219
 31
0.0
 73
     3
  0
LINE
  5
8B
  8
DIMNSIONS
  6
CONTINUOUS
 62
     7
 10
40.0
 20
-14.0
 30
0.0
 11
40.0
 21
-34.0
 31
0.0
  0
LINE
  5
8C
  8
DIMNSIONS
  6
CONTINUOUS
 62
     7
 10
125.2
 20
-14.0
 30
0.0
 11
125.2
 21
-34.0
 31
0.0
  0
LINE
  5
8D
  8
DIMNSIONS
  6
CONTINUOUS
 62
     7
 10
40.0
 20
-30.0
 30
0.0
 11
125.2
 21
-30.0
 31
0.0
  0
LINE
  5
8E
  8
DIMNSIONS
  6
CONTINUOUS
 62
     7
 10
40.0
 20
-30.0
 30
0.0
 11
45.001245117187509
 21
-28.659920409699509
 31
0.0
  0
LINE
  5
8F
  8
DIMNSIONS
  6
CONTINUOUS
 62
     7
 10
40.0
 20
-30.0
 30
0.0
 11
45.001245117187509
 21
-31.340079590300491
 31
0.0
  0
LINE
  5
90
  8
DIMNSIONS
  6
CONTINUOUS
 62
     7
 10
125.2
 20
-30.0
 30
0.0
 11
120.19875488281249
 21
-31.340079590300491
 31
0.0
  0
LINE
  5
91
  8
DIMNSIONS
  6
CONTINUOUS
 62
     7
 10
125.2
 20
-30.0
 30
0.0
 11
120.19875488281249
 21
-28.659920409699509
 31
0.0
  0
TEXT
  5
92
  8
DIMNSIONS
 62
     7
 10
79.072222222222223
 20
-28.012222222222238
 30
0.0
 40
5.4294704861111107
  1
85
 41
0.7
 11
79.072222222222223
 21
-22.582751736111131
 31
0.0
 73
     3
  0
LINE
  5
93
  8
DIMNSIONS
  6
CONTINUOUS
 62
     7
 10
36.0
 20
40.0
 30
0.0
 11
11.0
 21
40.0
 31
0.0
  0
LINE
  5
94
  8
DIMNSIONS
  6
CONTINUOUS
 62
     7
 10
36.0
 20
78.200000000000003
 30
0.0
 11
11.0
 21
78.200000000000003
 31
0.0
  0
LINE
  5
95
  8
DIMNSIONS
  6
CONTINUOUS
 62
     7
 10
15.0
 20
40.0
 30
0.0
 11
15.0
 21
78.200000000000003
 31
0.0
  0
LINE
  5
96
  8
DIMNSIONS
  6
CONTINUOUS
 62
     7
 10
15.0
 20
40.0
 30
0.0
 11
13.659920409699501
 21
45.00124511718748
 31
0.0
  0
LINE
  5
97
  8
DIMNSIONS
  6
CONTINUOUS
 62
     7
 10
15.0
 20
40.0
 30
0.0
 11
16.340079590300491
 21
45.00124511718748
 31
0.0
  0
LINE
  5
98
  8
DIMNSIONS
  6
CONTINUOUS
 62
     7
 10
15.0
 20
78.200000000000003
 30
0.0
 11
16.340079590300491
 21
73.198754882812523
 31
0.0
  0
LINE
  5
99
  8
DIMNSIONS
  6
CONTINUOUS
 62
     7
 10
15.0
 20
78.200000000000003
 30
0.0
 11
13.659920409699501
 21
73.198754882812523
 31
0.0
  0
TEXT
  5
9A
  8
DIMNSIONS
 62
     7
 10
13.012222222222229
 20
55.572222222222223
 30
0.0
 40
5.4294704861111107
  1
38
 50
90.0
 41
0.7
 11
7.5827517361111187
 21
55.572222222222223
 31
0.0
 73
     3
  0
LINE
  5
9B
  8
DIMNSIONS
  6
CONTINUOUS
 62
     7
 10
36.0
 20
-10.0
 30
0.0
 11
11.0
 21
-10.0
 31
0.0
  0
LINE
  5
9C
  8
DIMNSIONS
  6
CONTINUOUS
 62
     7
 10
36.0
 20
18.199999999999999
 30
0.0
 11
11.0
 21
18.199999999999999
 31
0.0
  0
LINE
  5
9D
  8
DIMNSIONS
  6
CONTINUOUS
 62
     7
 10
15.0
 20
-10.0
 30
0.0
 11
15.0
 21
18.199999999999999
 31
0.0
  0
LINE
  5
9E
  8
DIMNSIONS
  6
CONTINUOUS
 62
     7
 10
15.0
 20
-10.0
 30
0.0
 11
13.659920409699501
 21
-4.9987548828125048
 31
0.0
  0
LINE
  5
9F
  8
DIMNSIONS
  6
CONTINUOUS
 62
     7
 10
15.0
 20
-10.0
 30
0.0
 11
16.340079590300491
 21
-4.9987548828125048
 31
0.0
  0
LINE
  5
A0
  8
DIMNSIONS
  6
CONTINUOUS
 62
     7
 10
15.0
 20
18.199999999999999
 30
0.0
 11
16.340079590300491
 21
13.1987548828125
 31
0.0
  0
LINE
  5
A1
  8
DIMNSIONS
  6
CONTINUOUS
 62
     7
 10
15.0
 20
18.199999999999999
 30
0.0
 11
13.659920409699501
 21
13.1987548828125
 31
0.0
  0
TEXT
  5
A2
  8
DIMNSIONS
 62
     7
 10
13.012222222222229
 20
0.5722222222222222
 30
0.0
 40
5.4294704861111107
  1
28
 50
90.0
 41
0.7
 11
7.5827517361111187
 21
0.5722222222222229
 31
0.0
 73
     3
  0
LINE
  5
A3
  8
DIMNSIONS
  6
CONTINUOUS
 62
     7
 10
33.5
 20
158.7999999999999
 30
0.0
 11
33.5
 21
126.0
 31
0.0
  0
LINE
  5
A4
  8
DIMNSIONS
  6
CONTINUOUS
 62
     7
 10
40.0
 20
146.0
 30
0.0
 11
40.0
 21
126.0
 31
0.0
  0
LINE
  5
A5
  8
DIMNSIONS
  6
CONTINUOUS
 62
     7
 10
40.0
 20
130.0
 30
0.0
 11
33.5
 21
130.0
 31
0.0
  0
LINE
  5
A6
  8
DIMNSIONS
  6
CONTINUOUS
 62
     7
 10
33.5
 20
130.0
 30
0.0
 11
26.472222222222229
 21
130.0
 31
0.0
  0
LINE
  5
A7
  8
DIMNSIONS
  6
CONTINUOUS
 62
     7
 10
33.5
 20
130.0
 30
0.0
 11
28.498754882812509
 21
128.65992040969951
 31
0.0
  0
LINE
  5
A8
  8
DIMNSIONS
  6
CONTINUOUS
 62
     7
 10
33.5
 20
130.0
 30
0.0
 11
28.498754882812509
 21
131.34007959030049
 31
0.0
  0
LINE
  5
A9
  8
DIMNSIONS
  6
CONTINUOUS
 62
     7
 10
40.0
 20
130.0
 30
0.0
 11
50.0
 21
130.0
 31
0.0
  0
LINE
  5
AA
  8
DIMNSIONS
  6
CONTINUOUS
 62
     7
 10
40.0
 20
130.0
 30
0.0
 11
45.001245117187509
 21
131.34007959030049
 31
0.0
  0
LINE
  5
AB
  8
DIMNSIONS
  6
CONTINUOUS
 62
     7
 10
40.0
 20
130.0
 30
0.0
 11
45.001245117187509
 21
128.65992040969951
 31
0.0
  0
TEXT
  5
AC
  8
DIMNSIONS
 62
     7
 10
26.472222222222229
 20
131.98777777777769
 30
0.0
 40
5.4294704861111107
  1
7
 41
0.7
 11
26.472222222222229
 21
137.41724826388881
 31
0.0
 73
     3
  0
LINE
  5
AD
  8
DIMNSIONS
  6
CONTINUOUS
 62
     7
 10
37.600000000000001
 20
147.0
 30
0.0
 11
11.0
 21
147.0
 31
0.0
  0
LINE
  5
AE
  8
DIMNSIONS
  6
CONTINUOUS
 62
     7
 10
36.0
 20
150.0
 30
0.0
 11
11.0
 21
150.0
 31
0.0
  0
LINE
  5
AF
  8
DIMNSIONS
  6
CONTINUOUS
 62
     7
 10
15.0
 20
150.0
 30
0.0
 11
15.0
 21
147.0
 31
0.0
  0
LINE
  5
B0
  8
DIMNSIONS
  6
CONTINUOUS
 62
     7
 10
15.0
 20
147.0
 30
0.0
 11
15.0
 21
136.4722222222222
 31
0.0
  0
LINE
  5
B1
  8
DIMNSIONS
  6
CONTINUOUS
 62
     7
 10
15.0
 20
147.0
 30
0.0
 11
16.340079590300491
 21
141.99875488281251
 31
0.0
  0
LINE
  5
B2
  8
DIMNSIONS
  6
CONTINUOUS
 62
     7
 10
15.0
 20
147.0
 30
0.0
 11
13.659920409699501
 21
141.99875488281251
 31
0.0
  0
LINE
  5
B3
  8
DIMNSIONS
  6
CONTINUOUS
 62
     7
 10
15.0
 20
150.0
 30
0.0
 11
15.0
 21
160.0
 31
0.0
  0
LINE
  5
B4
  8
DIMNSIONS
  6
CONTINUOUS
 62
     7
 10
15.0
 20
150.0
 30
0.0
 11
13.659920409699501
 21
155.00124511718741
 31
0.0
  0
LINE
  5
B5
  8
DIMNSIONS
  6
CONTINUOUS
 62
     7
 10
15.0
 20
150.0
 30
0.0
 11
16.340079590300491
 21
155.00124511718741
 31
0.0
  0
TEXT
  5
B6
  8
DIMNSIONS
 62
     7
 10
13.012222222222229
 20
136.4722222222222
 30
0.0
 40
5.4294704861111107
  1
3
 50
90.0
 41
0.7
 11
7.5827517361111187
 21
136.4722222222222
 31
0.0
 73
     3
  0
LINE
  5
B7
  8
DIMNSIONS
  6
CONTINUOUS
 62
     7
 10
36.0
 20
-10.0
 30
0.0
 11
11.0
 21
-10.0
 31
0.0
  0
LINE
  5
B8
  8
DIMNSIONS
  6
CONTINUOUS
 62
     7
 10
37.600000000000001
 20
-13.0
 30
0.0
 11
11.0
 21
-13.0
 31
0.0
  0
LINE
  5
B9
  8
DIMNSIONS
  6
CONTINUOUS
 62
     7
 10
15.0
 20
-13.0
 30
0.0
 11
15.0
 21
-10.0
 31
0.0
  0
LINE
  5
BA
  8
DIMNSIONS
  6
CONTINUOUS
 62
     7
 10
15.0
 20
-10.0
 30
0.0
 11
15.0
 21
0.0
 31
0.0
  0
LINE
  5
BB
  8
DIMNSIONS
  6
CONTINUOUS
 62
     7
 10
15.0
 20
-10.0
 30
0.0
 11
13.659920409699501
 21
-4.9987548828125048
 31
0.0
  0
LINE
  5
BC
  8
DIMNSIONS
  6
CONTINUOUS
 62
     7
 10
15.0
 20
-10.0
 30
0.0
 11
16.340079590300491
 21
-4.9987548828125048
 31
0.0
  0
LINE
  5
BD
  8
DIMNSIONS
  6
CONTINUOUS
 62
     7
 10
15.0
 20
-13.0
 30
0.0
 11
15.0
 21
-23.527777777777771
 31
0.0
  0
LINE
  5
BE
  8
DIMNSIONS
  6
CONTINUOUS
 62
     7
 10
15.0
 20
-13.0
 30
0.0
 11
16.340079590300491
 21
-18.001245117187491
 31
0.0
  0
LINE
  5
BF
  8
DIMNSIONS
  6
CONTINUOUS
 62
     7
 10
15.0
 20
-13.0
 30
0.0
 11
13.659920409699501
 21
-18.001245117187491
 31
0.0
  0
TEXT
  5
C0
  8
DIMNSIONS
 62
     7
 10
13.012222222222229
 20
-23.527777777777771
 30
0.0
 40
5.4294704861111107
  1
3
 50
90.0
 41
0.7
 11
7.5827517361111187
 21
-23.527777777777771
 31
0.0
 73
     3
  0
LINE
  5
C1
  8
DIMNSIONS
  6
CONTINUOUS
 62
     7
 10
40.0
 20
-14.0
 30
0.0
 11
40.0
 21
-34.0
 31
0.0
  0
LINE
  5
C2
  8
DIMNSIONS
  6
CONTINUOUS
 62
     7
 10
39.799999999999997
 20
-5.8000000000000114
 30
0.0
 11
39.799999999999997
 21
-34.0
 31
0.0
  0
LINE
  5
C3
  8
DIMNSIONS
  6
CONTINUOUS
 62
     7
 10
39.799999999999997
 20
-30.0
 30
0.0
 11
40.0
 21
-30.0
 31
0.0
  0
LINE
  5
C4
  8
DIMNSIONS
  6
CONTINUOUS
 62
     7
 10
40.0
 20
-30.0
 30
0.0
 11
50.0
 21
-30.0
 31
0.0
  0
LINE
  5
C5
  8
DIMNSIONS
  6
CONTINUOUS
 62
     7
 10
40.0
 20
-30.0
 30
0.0
 11
45.001245117187509
 21
-28.659920409699509
 31
0.0
  0
LINE
  5
C6
  8
DIMNSIONS
  6
CONTINUOUS
 62
     7
 10
40.0
 20
-30.0
 30
0.0
 11
45.001245117187509
 21
-31.340079590300491
 31
0.0
  0
LINE
  5
C7
  8
DIMNSIONS
  6
CONTINUOUS
 62
     7
 10
39.799999999999997
 20
-30.0
 30
0.0
 11
24.416666666666671
 21
-30.0
 31
0.0
  0
LINE
  5
C8
  8
DIMNSIONS
  6
CONTINUOUS
 62
     7
 10
39.799999999999997
 20
-30.0
 30
0.0
 11
34.798754882812503
 21
-31.340079590300491
 31
0.0
  0
LINE
  5
C9
  8
DIMNSIONS
  6
CONTINUOUS
 62
     7
 10
39.799999999999997
 20
-30.0
 30
0.0
 11
34.798754882812503
 21
-28.659920409699509
 31
0.0
  0
TEXT
  5
CA
  8
DIMNSIONS
 62
     7
 10
24.416666666666661
 20
-28.012222222222238
 30
0.0
 40
5.4294704861111107
  1
0.2
 41
0.7
 11
24.416666666666661
 21
-22.582751736111131
 31
0.0
 73
     3
  0
LINE
  5
CB
  8
DIMNSIONS
  6
CONTINUOUS
 62
     7
 10
125.2
 20
-14.0
 30
0.0
 11
125.2
 21
-34.0
 31
0.0
  0
LINE
  5
CC
  8
DIMNSIONS
  6
CONTINUOUS
 62
     7
 10
131.69999999999999
 20
-1.2000000000000171
 30
0.0
 11
131.69999999999999
 21
-34.0
 31
0.0
  0
LINE
  5
CD
  8
DIMNSIONS
  6
CONTINUOUS
 62
     7
 10
131.69999999999999
 20
-30.0
 30
0.0
 11
125.2
 21
-30.0
 31
0.0
  0
LINE
  5
CE
  8
DIMNSIONS
  6
CONTINUOUS
 62
     7
 10
125.2
 20
-30.0
 30
0.0
 11
115.2
 21
-30.0
 31
0.0
  0
LINE
  5
CF
  8
DIMNSIONS
  6
CONTINUOUS
 62
     7
 10
125.2
 20
-30.0
 30
0.0
 11
120.19875488281249
 21
-31.340079590300491
 31
0.0
  0
LINE
  5
D0
  8
DIMNSIONS
  6
CONTINUOUS
 62
     7
 10
125.2
 20
-30.0
 30
0.0
 11
120.19875488281249
 21
-28.659920409699509
 31
0.0
  0
LINE
  5
D1
  8
DIMNSIONS
  6
CONTINUOUS
 62
     7
 10
131.69999999999999
 20
-30.0
 30
0.0
 11
138.5277777777778
 21
-30.0
 31
0.0
  0
LINE
  5
D2
  8
DIMNSIONS
  6
CONTINUOUS
 62
     7
 10
131.69999999999999
 20
-30.0
 30
0.0
 11
136.70124511718751
 21
-28.659920409699509
 31
0.0
  0
LINE
  5
D3
  8
DIMNSIONS
  6
CONTINUOUS
 62
     7
 10
131.69999999999999
 20
-30.0
 30
0.0
 11
136.70124511718751
 21
-31.340079590300491
 31
0.0
  0
TEXT
  5
D4
  8
DIMNSIONS
 62
     7
 10
135.0
 20
-28.012222222222238
 30
0.0
 40
5.4294704861111107
  1
7
 41
0.7
 11
135.0
 21
-22.582751736111131
 31
0.0
 73
     3
  0
LINE
  5
D5
  8
DIMNSIONS
  6
CONTINUOUS
 62
     7
 10
125.2
 20
146.0
 30
0.0
 11
125.2
 21
126.0
 31
0.0
  0
LINE
  5
D6
  8
DIMNSIONS
  6
CONTINUOUS
 62
     7
 10
125.59999999999999
 20
153.69999999999999
 30
0.0
 11
125.59999999999999
 21
126.0
 31
0.0
  0
LINE
  5
D7
  8
DIMNSIONS
  6
CONTINUOUS
 62
     7
 10
125.59999999999999
 20
130.0
 30
0.0
 11
125.2
 21
130.0
 31
0.0
  0
LINE
  5
D8
  8
DIMNSIONS
  6
CONTINUOUS
 62
     7
 10
125.2
 20
130.0
 30
0.0
 11
115.2
 21
130.0
 31
0.0
  0
LINE
  5
D9
  8
DIMNSIONS
  6
CONTINUOUS
 62
     7
 10
125.2
 20
130.0
 30
0.0
 11
120.19875488281249
 21
128.65992040969951
 31
0.0
  0
LINE
  5
DA
  8
DIMNSIONS
  6
CONTINUOUS
 62
     7
 10
125.2
 20
130.0
 30
0.0
 11
120.19875488281249
 21
131.34007959030049
 31
0.0
  0
LINE
  5
DB
  8
DIMNSIONS
  6
CONTINUOUS
 62
     7
 10
125.59999999999999
 20
130.0
 30
0.0
 11
140.58333333333329
 21
130.0
 31
0.0
  0
LINE
  5
DC
  8
DIMNSIONS
  6
CONTINUOUS
 62
     7
 10
125.59999999999999
 20
130.0
 30
0.0
 11
130.60124511718749
 21
131.34007959030049
 31
0.0
  0
LINE
  5
DD
  8
DIMNSIONS
  6
CONTINUOUS
 62
     7
 10
125.59999999999999
 20
130.0
 30
0.0
 11
130.60124511718749
 21
128.65992040969951
 31
0.0
  0
TEXT
  5
DE
  8
DIMNSIONS
 62
     7
 10
130.0
 20
131.98777777777769
 30
0.0
 40
5.4294704861111107
  1
0.4
 41
0.7
 11
130.0
 21
137.41724826388881
 31
0.0
 73
     3
  0
TEXT
  5
DF
  8
DATA
 62
     7
 10
-60.0
 20
-107.99218500000001
 30
0.0
 40
3.2576822916666659
  1
仕様および外観は予告なく変更されることがありますので、ご了承ください。
 41
0.7
 11
-60.0
 21
-104.7345027083333
 31
0.0
 73
     3
  0
POLYLINE
  5
E0
  8
DATA
  6
CONTINUOUS
 62
     7
 66
     1
 10
0.0
 20
0.0
 30
0.0
 70
     1
  0
VERTEX
  5
2FB
  8
DATA
  6
CONTINUOUS
 62
     7
 10
40.0
 20
238.19999999999999
 30
0.0
  0
VERTEX
  5
2FC
  8
DATA
  6
CONTINUOUS
 62
     7
 10
125.2
 20
238.19999999999999
 30
0.0
  0
VERTEX
  5
2FD
  8
DATA
  6
CONTINUOUS
 62
     7
 10
125.2
 20
200.0
 30
0.0
  0
VERTEX
  5
2FE
  8
DATA
  6
CONTINUOUS
 62
     7
 10
40.0
 20
200.0
 30
0.0
  0
SEQEND
  5
2FF
  8
DATA
  6
CONTINUOUS
 62
     7
  0
LINE
  5
E7
  8
DATA
  6
CONTINUOUS
 62
     7
 10
161.5
 20
178.19999999999999
 30
0.0
 11
196.69999999999999
 21
178.19999999999999
 31
0.0
  0
LINE
  5
E8
  8
DATA
  6
CONTINUOUS
 62
     7
 10
160.0
 20
151.5
 30
0.0
 11
160.0
 21
176.69999999999999
 31
0.0
  0
LINE
  5
E9
  8
DATA
  6
CONTINUOUS
 62
     7
 10
196.69999999999999
 20
150.0
 30
0.0
 11
186.0
 21
150.0
 31
0.0
  0
LINE
  5
EA
  8
DATA
  6
CONTINUOUS
 62
     7
 10
172.19999999999999
 20
150.0
 30
0.0
 11
161.5
 21
150.0
 31
0.0
  0
LINE
  5
EB
  8
DATA
  6
CONTINUOUS
 62
     7
 10
198.19999999999999
 20
176.69999999999999
 30
0.0
 11
198.19999999999999
 21
151.5
 31
0.0
  0
TEXT
  5
EC
  8
DATA
 62
     7
 10
200.0
 20
-94.206404999999947
 30
0.0
 40
4.8865234375000002
  1
EXT-USB2.0-LR
 41
0.7
 11
200.0
 21
-89.319881562499958
 31
0.0
 73
     3
  0
TEXT
  5
ED
  8
DATA
 62
     7
 10
200.0
 20
-79.706404999999975
 30
0.0
 40
4.8865234375000002
  1
Gefen
 41
0.7
 11
200.0
 21
-74.819881562499972
 31
0.0
 73
     3
  0
TEXT
  5
EE
  8
DATA
 62
     7
 10
200.0
 20
-86.660314999999997
 30
0.0
 40
3.2576822916666659
  1
USB延長機
 41
0.7
 11
200.0
 21
-83.402632708333343
 31
0.0
 73
     3
  0
TEXT
  5
EF
  8
DATA
 62
     7
 10
41.339745962155611
 20
117.45999999999999
 30
0.0
 40
5.4294704861111107
  1
EXT-USB2.0-L,R(センダー)
 41
0.7
 11
41.339745962155611
 21
122.88947048611109
 31
0.0
 73
     3
  0
TEXT
  5
F0
  8
DATA
 62
     7
 10
37.883272240757357
 20
-42.54000000000002
 30
0.0
 40
5.4294704861111107
  1
EXT-USB2.0-L,R(レシーバー)
 41
0.7
 11
37.883272240757357
 21
-37.110529513888913
 31
0.0
 73
     3
  0
LINE
  5
F1
  8
DATA
  6
CONTINUOUS
 62
     7
 10
161.90000000000001
 20
151.40000000000001
 30
0.0
 11
196.30000000000001
 21
151.40000000000001
 31
0.0
  0
LINE
  5
F2
  8
DATA
  6
CONTINUOUS
 62
     7
 10
186.0
 20
151.40000000000001
 30
0.0
 11
186.0
 21
150.0
 31
0.0
  0
LINE
  5
F3
  8
DATA
  6
CONTINUOUS
 62
     7
 10
172.19999999999999
 20
151.40000000000001
 30
0.0
 11
172.19999999999999
 21
150.0
 31
0.0
  0
LINE
  5
F4
  8
DATA
  6
CONTINUOUS
 62
     7
 10
196.80000000000001
 20
176.69999999999999
 30
0.0
 11
196.80000000000001
 21
151.90000000000001
 31
0.0
  0
LINE
  5
F5
  8
DATA
  6
CONTINUOUS
 62
     7
 10
161.40000000000001
 20
151.90000000000001
 30
0.0
 11
161.40000000000001
 21
176.69999999999999
 31
0.0
  0
LINE
  5
F6
  8
DATA
  6
CONTINUOUS
 62
     7
 10
174.94999999999999
 20
157.69999999999999
 30
0.0
 11
174.94999999999999
 21
168.69999999999999
 31
0.0
  0
LINE
  5
F7
  8
DATA
  6
CONTINUOUS
 62
     7
 10
187.44999999999999
 20
168.69999999999999
 30
0.0
 11
187.44999999999999
 21
157.69999999999999
 31
0.0
  0
LINE
  5
F8
  8
DATA
  6
CONTINUOUS
 62
     7
 10
174.94999999999999
 20
168.69999999999999
 30
0.0
 11
187.44999999999999
 21
168.69999999999999
 31
0.0
  0
LINE
  5
F9
  8
DATA
  6
CONTINUOUS
 62
     7
 10
176.94999999999999
 20
160.19999999999999
 30
0.0
 11
176.94999999999999
 21
165.69999999999999
 31
0.0
  0
LINE
  5
FA
  8
DATA
  6
CONTINUOUS
 62
     7
 10
185.4499999999999
 20
165.69999999999999
 30
0.0
 11
185.4499999999999
 21
160.19999999999999
 31
0.0
  0
CIRCLE
  5
FB
  8
DATA
  6
CONTINUOUS
 62
     7
 10
172.0
 20
163.19999999999999
 30
0.0
 40
1.5
  0
CIRCLE
  5
FC
  8
DATA
  6
CONTINUOUS
 62
     7
 10
166.5
 20
163.19999999999999
 30
0.0
 40
1.5
  0
LINE
  5
FD
  8
DATA
  6
CONTINUOUS
 62
     7
 10
176.94999999999999
 20
160.19999999999999
 30
0.0
 11
185.4499999999999
 21
160.19999999999999
 31
0.0
  0
LINE
  5
FE
  8
DATA
  6
CONTINUOUS
 62
     7
 10
178.44999999999999
 20
162.19999999999999
 30
0.0
 11
183.94999999999999
 21
162.19999999999999
 31
0.0
  0
LINE
  5
FF
  8
DATA
  6
CONTINUOUS
 62
     7
 10
178.44999999999999
 20
165.69999999999999
 30
0.0
 11
183.94999999999999
 21
165.69999999999999
 31
0.0
  0
LINE
  5
100
  8
DATA
  6
CONTINUOUS
 62
     7
 10
178.44999999999999
 20
167.19999999999999
 30
0.0
 11
183.94999999999999
 21
167.19999999999999
 31
0.0
  0
LINE
  5
101
  8
DATA
  6
CONTINUOUS
 62
     7
 10
178.44999999999999
 20
167.19999999999999
 30
0.0
 11
176.94999999999999
 21
165.69999999999999
 31
0.0
  0
LINE
  5
102
  8
DATA
  6
CONTINUOUS
 62
     7
 10
183.94999999999999
 20
167.19999999999999
 30
0.0
 11
185.4499999999999
 21
165.69999999999999
 31
0.0
  0
LINE
  5
103
  8
DATA
  6
CONTINUOUS
 62
     7
 10
183.94999999999999
 20
162.19999999999999
 30
0.0
 11
183.94999999999999
 21
165.69999999999999
 31
0.0
  0
LINE
  5
104
  8
DATA
  6
CONTINUOUS
 62
     7
 10
178.44999999999999
 20
162.19999999999999
 30
0.0
 11
178.44999999999999
 21
165.69999999999999
 31
0.0
  0
LINE
  5
105
  8
DATA
  6
CONTINUOUS
 62
     7
 10
174.94999999999999
 20
157.69999999999999
 30
0.0
 11
187.44999999999999
 21
157.69999999999999
 31
0.0
  0
TEXT
  5
106
  8
DATA
 62
     7
 10
123.616
 20
216.9666666666667
 30
0.0
 40
2.1717881944444439
  1
USB in
 50
90.0
 41
0.7
 11
121.4442118055555
 21
216.9666666666667
 31
0.0
 73
     3
  0
TEXT
  5
107
  8
DATA
 62
     7
 10
123.616
 20
205.79444444444439
 30
0.0
 40
2.1717881944444439
  1
P
 50
90.0
 41
0.7
 11
121.4442118055555
 21
205.79444444444439
 31
0.0
 73
     3
  0
TEXT
  5
108
  8
DATA
 62
     7
 10
123.616
 20
211.29444444444439
 30
0.0
 40
2.1717881944444439
  1
H
 50
90.0
 41
0.7
 11
121.4442118055555
 21
211.29444444444439
 31
0.0
 73
     3
  0
TEXT
  5
109
  8
DATA
 62
     7
 10
70.0
 20
207.714
 30
0.0
 40
4.8865234375000002
  1
USB 2.0 LR
 41
0.7
 11
70.0
 21
212.60052343749999
 31
0.0
 73
     3
  0
TEXT
  5
10A
  8
DATA
 62
     7
 10
85.0
 20
203.476
 30
0.0
 40
3.2576822916666659
  1
Extender S
 41
0.7
 11
85.0
 21
206.7336822916667
 31
0.0
 73
     3
  0
LINE
  5
10B
  8
DATA
  6
CONTINUOUS
 62
     7
 10
163.09999999999999
 20
147.0
 30
0.0
 11
169.09999999999999
 21
147.0
 31
0.0
  0
LINE
  5
10C
  8
DATA
  6
CONTINUOUS
 62
     7
 10
170.34999999999999
 20
150.0
 30
0.0
 11
169.09999999999999
 21
147.0
 31
0.0
  0
LINE
  5
10D
  8
DATA
  6
CONTINUOUS
 62
     7
 10
163.09999999999999
 20
147.0
 30
0.0
 11
161.84999999999999
 21
150.0
 31
0.0
  0
LINE
  5
10E
  8
DATA
  6
CONTINUOUS
 62
     7
 10
189.09999999999999
 20
147.0
 30
0.0
 11
195.09999999999999
 21
147.0
 31
0.0
  0
LINE
  5
10F
  8
DATA
  6
CONTINUOUS
 62
     7
 10
196.34999999999999
 20
150.0
 30
0.0
 11
195.09999999999999
 21
147.0
 31
0.0
  0
LINE
  5
110
  8
DATA
  6
CONTINUOUS
 62
     7
 10
189.09999999999999
 20
147.0
 30
0.0
 11
187.84999999999999
 21
150.0
 31
0.0
  0
POLYLINE
  5
111
  8
DATA
  6
CONTINUOUS
 62
     7
 66
     1
 10
0.0
 20
0.0
 30
0.0
 70
   129
  0
VERTEX
  5
300
  8
DATA
  6
CONTINUOUS
 62
     7
 10
40.0
 20
178.19999999999999
 30
0.0
  0
VERTEX
  5
301
  8
DATA
  6
CONTINUOUS
 62
     7
 10
123.7
 20
178.19999999999999
 30
0.0
 42
-0.4142135623730951
  0
VERTEX
  5
302
  8
DATA
  6
CONTINUOUS
 62
     7
 10
125.2
 20
176.69999999999999
 30
0.0
  0
VERTEX
  5
303
  8
DATA
  6
CONTINUOUS
 62
     7
 10
125.2
 20
150.0
 30
0.0
  0
VERTEX
  5
304
  8
DATA
  6
CONTINUOUS
 62
     7
 10
40.0
 20
150.0
 30
0.0
  0
SEQEND
  5
305
  8
DATA
  6
CONTINUOUS
 62
     7
  0
LINE
  5
118
  8
DATA
  6
CONTINUOUS
 62
     7
 10
41.600000000000001
 20
147.0
 30
0.0
 11
47.600000000000001
 21
147.0
 31
0.0
  0
LINE
  5
119
  8
DATA
  6
CONTINUOUS
 62
     7
 10
48.850000000000001
 20
150.0
 30
0.0
 11
47.600000000000001
 21
147.0
 31
0.0
  0
LINE
  5
11A
  8
DATA
  6
CONTINUOUS
 62
     7
 10
41.600000000000001
 20
147.0
 30
0.0
 11
40.350000000000001
 21
150.0
 31
0.0
  0
LINE
  5
11B
  8
DATA
  6
CONTINUOUS
 62
     7
 10
117.59999999999999
 20
147.0
 30
0.0
 11
123.59999999999999
 21
147.0
 31
0.0
  0
LINE
  5
11C
  8
DATA
  6
CONTINUOUS
 62
     7
 10
124.84999999999999
 20
150.0
 30
0.0
 11
123.59999999999999
 21
147.0
 31
0.0
  0
LINE
  5
11D
  8
DATA
  6
CONTINUOUS
 62
     7
 10
117.59999999999999
 20
147.0
 30
0.0
 11
116.34999999999999
 21
150.0
 31
0.0
  0
LINE
  5
11E
  8
DATA
  6
CONTINUOUS
 62
     7
 10
-38.500000000000007
 20
178.19999999999999
 30
0.0
 11
-3.2999999999999958
 21
178.19999999999999
 31
0.0
  0
LINE
  5
11F
  8
DATA
  6
CONTINUOUS
 62
     7
 10
-40.000000000000007
 20
151.5
 30
0.0
 11
-40.000000000000007
 21
176.69999999999999
 31
0.0
  0
LINE
  5
120
  8
DATA
  6
CONTINUOUS
 62
     7
 10
-3.2999999999999958
 20
150.0
 30
0.0
 11
-14.000000000000011
 21
150.0
 31
0.0
  0
LINE
  5
121
  8
DATA
  6
CONTINUOUS
 62
     7
 10
-27.800000000000001
 20
150.0
 30
0.0
 11
-38.500000000000007
 21
150.0
 31
0.0
  0
LINE
  5
122
  8
DATA
  6
CONTINUOUS
 62
     7
 10
-38.100000000000009
 20
151.40000000000001
 30
0.0
 11
-3.700000000000002
 21
151.40000000000001
 31
0.0
  0
LINE
  5
123
  8
DATA
  6
CONTINUOUS
 62
     7
 10
-14.000000000000011
 20
151.40000000000001
 30
0.0
 11
-14.000000000000011
 21
150.0
 31
0.0
  0
LINE
  5
124
  8
DATA
  6
CONTINUOUS
 62
     7
 10
-27.800000000000001
 20
151.40000000000001
 30
0.0
 11
-27.800000000000001
 21
150.0
 31
0.0
  0
LINE
  5
125
  8
DATA
  6
CONTINUOUS
 62
     7
 10
-3.200000000000002
 20
176.2999999999999
 30
0.0
 11
-3.200000000000002
 21
151.90000000000001
 31
0.0
  0
LINE
  5
126
  8
DATA
  6
CONTINUOUS
 62
     7
 10
-38.600000000000009
 20
151.90000000000001
 30
0.0
 11
-38.600000000000009
 21
176.2999999999999
 31
0.0
  0
LINE
  5
127
  8
DATA
  6
CONTINUOUS
 62
     7
 10
-1.7999999999999969
 20
176.69999999999999
 30
0.0
 11
-1.7999999999999969
 21
151.5
 31
0.0
  0
LINE
  5
128
  8
DATA
  6
CONTINUOUS
 62
     7
 10
-36.899999999999991
 20
147.0
 30
0.0
 11
-30.899999999999991
 21
147.0
 31
0.0
  0
LINE
  5
129
  8
DATA
  6
CONTINUOUS
 62
     7
 10
-29.649999999999991
 20
150.0
 30
0.0
 11
-30.899999999999991
 21
147.0
 31
0.0
  0
LINE
  5
12A
  8
DATA
  6
CONTINUOUS
 62
     7
 10
-36.899999999999991
 20
147.0
 30
0.0
 11
-38.149999999999991
 21
150.0
 31
0.0
  0
LINE
  5
12B
  8
DATA
  6
CONTINUOUS
 62
     7
 10
-10.89999999999999
 20
147.0
 30
0.0
 11
-4.8999999999999924
 21
147.0
 31
0.0
  0
LINE
  5
12C
  8
DATA
  6
CONTINUOUS
 62
     7
 10
-3.649999999999991
 20
150.0
 30
0.0
 11
-4.8999999999999924
 21
147.0
 31
0.0
  0
LINE
  5
12D
  8
DATA
  6
CONTINUOUS
 62
     7
 10
-10.89999999999999
 20
147.0
 30
0.0
 11
-12.14999999999999
 21
150.0
 31
0.0
  0
LINE
  5
12E
  8
DATA
  6
CONTINUOUS
 62
     7
 10
-38.100000000000009
 20
176.7999999999999
 30
0.0
 11
-3.700000000000002
 21
176.7999999999999
 31
0.0
  0
ARC
  5
12F
  8
DATA
  6
CONTINUOUS
 62
     7
 10
-38.500000000000007
 20
176.69999999999999
 30
0.0
 40
1.5
 50
90.0
 51
180.0
  0
ARC
  5
130
  8
DATA
  6
CONTINUOUS
 62
     7
 10
-3.2999999999999958
 20
176.69999999999999
 30
0.0
 40
1.5
 50
0.0
 51
90.0
  0
ARC
  5
131
  8
DATA
  6
CONTINUOUS
 62
     7
 10
-3.2999999999999958
 20
151.5
 30
0.0
 40
1.5
 50
270.0
 51
0.0
  0
ARC
  5
132
  8
DATA
  6
CONTINUOUS
 62
     7
 10
-38.500000000000007
 20
151.5
 30
0.0
 40
1.5
 50
180.0
 51
270.0
  0
ARC
  5
133
  8
DATA
  6
CONTINUOUS
 62
     7
 10
161.5
 20
176.69999999999999
 30
0.0
 40
1.5
 50
90.0
 51
180.0
  0
ARC
  5
134
  8
DATA
  6
CONTINUOUS
 62
     7
 10
196.69999999999999
 20
176.69999999999999
 30
0.0
 40
1.5
 50
0.0
 51
90.0
  0
ARC
  5
135
  8
DATA
  6
CONTINUOUS
 62
     7
 10
196.69999999999999
 20
151.5
 30
0.0
 40
1.5
 50
270.0
 51
0.0
  0
ARC
  5
136
  8
DATA
  6
CONTINUOUS
 62
     7
 10
161.5
 20
151.5
 30
0.0
 40
1.5
 50
180.0
 51
270.0
  0
ARC
  5
137
  8
DATA
  6
CONTINUOUS
 62
     7
 10
161.90000000000001
 20
151.90000000000001
 30
0.0
 40
0.5
 50
180.0
 51
270.0
  0
ARC
  5
138
  8
DATA
  6
CONTINUOUS
 62
     7
 10
196.30000000000001
 20
151.90000000000001
 30
0.0
 40
0.5
 50
270.0
 51
0.0
  0
ARC
  5
139
  8
DATA
  6
CONTINUOUS
 62
     7
 10
-38.100000000000009
 20
151.90000000000001
 30
0.0
 40
0.5
 50
180.0
 51
270.0
  0
ARC
  5
13A
  8
DATA
  6
CONTINUOUS
 62
     7
 10
-38.100000000000009
 20
176.2999999999999
 30
0.0
 40
0.5
 50
90.0
 51
180.0
  0
ARC
  5
13B
  8
DATA
  6
CONTINUOUS
 62
     7
 10
-3.700000000000002
 20
176.2999999999999
 30
0.0
 40
0.5
 50
0.0
 51
90.0
  0
ARC
  5
13C
  8
DATA
  6
CONTINUOUS
 62
     7
 10
-3.700000000000002
 20
151.90000000000001
 30
0.0
 40
0.5
 50
270.0
 51
0.0
  0
LINE
  5
13D
  8
DATA
  6
CONTINUOUS
 62
     7
 10
-36.000000000000007
 20
172.19999999999999
 30
0.0
 11
-20.000000000000011
 21
172.19999999999999
 31
0.0
  0
LINE
  5
13E
  8
DATA
  6
CONTINUOUS
 62
     7
 10
-36.000000000000007
 20
158.19999999999999
 30
0.0
 11
-20.000000000000011
 21
158.19999999999999
 31
0.0
  0
LINE
  5
13F
  8
DATA
  6
CONTINUOUS
 62
     7
 10
-22.250000000000011
 20
169.69999999999999
 30
0.0
 11
-33.750000000000007
 21
169.69999999999999
 31
0.0
  0
LINE
  5
140
  8
DATA
  6
CONTINUOUS
 62
     7
 10
-33.750000000000007
 20
162.19999999999999
 30
0.0
 11
-30.750000000000011
 21
162.19999999999999
 31
0.0
  0
LINE
  5
141
  8
DATA
  6
CONTINUOUS
 62
     7
 10
-25.250000000000011
 20
162.19999999999999
 30
0.0
 11
-22.250000000000011
 21
162.19999999999999
 31
0.0
  0
LINE
  5
142
  8
DATA
  6
CONTINUOUS
 62
     7
 10
-36.000000000000007
 20
158.19999999999999
 30
0.0
 11
-36.000000000000007
 21
172.19999999999999
 31
0.0
  0
LINE
  5
143
  8
DATA
  6
CONTINUOUS
 62
     7
 10
-20.000000000000011
 20
158.19999999999999
 30
0.0
 11
-20.000000000000011
 21
172.19999999999999
 31
0.0
  0
LINE
  5
144
  8
DATA
  6
CONTINUOUS
 62
     7
 10
-30.750000000000011
 20
162.19999999999999
 30
0.0
 11
-30.750000000000011
 21
159.19999999999999
 31
0.0
  0
LINE
  5
145
  8
DATA
  6
CONTINUOUS
 62
     7
 10
-25.250000000000011
 20
162.19999999999999
 30
0.0
 11
-25.250000000000011
 21
159.19999999999999
 31
0.0
  0
LINE
  5
146
  8
DATA
  6
CONTINUOUS
 62
     7
 10
-33.750000000000007
 20
169.69999999999999
 30
0.0
 11
-33.750000000000007
 21
162.19999999999999
 31
0.0
  0
LINE
  5
147
  8
DATA
  6
CONTINUOUS
 62
     7
 10
-22.250000000000011
 20
169.69999999999999
 30
0.0
 11
-22.250000000000011
 21
162.19999999999999
 31
0.0
  0
LINE
  5
148
  8
DATA
  6
CONTINUOUS
 62
     7
 10
-30.750000000000011
 20
159.19999999999999
 30
0.0
 11
-25.250000000000011
 21
159.19999999999999
 31
0.0
  0
CIRCLE
  5
149
  8
DATA
  6
CONTINUOUS
 62
     7
 10
-13.500000000000011
 20
166.6999999999999
 30
0.0
 40
3.9000000000000048
  0
LINE
  5
14A
  8
DATA
  6
CONTINUOUS
 62
     7
 10
-18.046633369868321
 20
169.32499999999999
 30
0.0
 11
-18.046633369868321
 21
164.07499999999999
 31
0.0
  0
LINE
  5
14B
  8
DATA
  6
CONTINUOUS
 62
     7
 10
-18.046633369868321
 20
164.07499999999999
 30
0.0
 11
-13.500000000000011
 21
161.44999999999999
 31
0.0
  0
LINE
  5
14C
  8
DATA
  6
CONTINUOUS
 62
     7
 10
-13.500000000000011
 20
161.44999999999999
 30
0.0
 11
-8.9533666301317254
 21
164.07499999999999
 31
0.0
  0
LINE
  5
14D
  8
DATA
  6
CONTINUOUS
 62
     7
 10
-8.9533666301317254
 20
164.07499999999999
 30
0.0
 11
-8.9533666301317254
 21
169.32499999999999
 31
0.0
  0
LINE
  5
14E
  8
DATA
  6
CONTINUOUS
 62
     7
 10
-8.9533666301317254
 20
169.32499999999999
 30
0.0
 11
-13.500000000000011
 21
171.94999999999999
 31
0.0
  0
LINE
  5
14F
  8
DATA
  6
CONTINUOUS
 62
     7
 10
-13.500000000000011
 20
171.94999999999999
 30
0.0
 11
-18.046633369868321
 21
169.32499999999999
 31
0.0
  0
CIRCLE
  5
150
  8
DATA
  6
CONTINUOUS
 62
     7
 10
-13.500000000000011
 20
166.6999999999999
 30
0.0
 40
2.75
  0
CIRCLE
  5
151
  8
DATA
  6
CONTINUOUS
 62
     7
 10
-13.500000000000011
 20
166.6999999999999
 30
0.0
 40
1.25
  0
TEXT
  5
152
  8
DATA
 62
     7
 10
41.484000000000009
 20
215.2277777777779
 30
0.0
 40
2.1717881944444439
  1
5V DC
 50
270.0
 41
0.7
 11
43.655788194444447
 21
215.2277777777779
 31
0.0
 73
     3
  0
TEXT
  5
153
  8
DATA
 62
     7
 10
41.484000000000009
 20
219.6111111111112
 30
0.0
 40
2.1717881944444439
  1
L
 50
270.0
 41
0.7
 11
43.655788194444447
 21
219.6111111111112
 31
0.0
 73
     3
  0
TEXT
  5
154
  8
DATA
 62
     7
 10
41.484000000000009
 20
234.19999999999999
 30
0.0
 40
2.1717881944444439
  1
A
 50
270.0
 41
0.7
 11
43.655788194444447
 21
234.19999999999999
 31
0.0
 73
     3
  0
POLYLINE
  5
155
  8
DATA
  6
CONTINUOUS
 62
     7
 66
     1
 10
0.0
 20
0.0
 30
0.0
 70
   129
  0
VERTEX
  5
306
  8
DATA
  6
CONTINUOUS
 62
     7
 10
40.0
 20
18.199999999999999
 30
0.0
  0
VERTEX
  5
307
  8
DATA
  6
CONTINUOUS
 62
     7
 10
123.7
 20
18.199999999999999
 30
0.0
 42
-0.4142135623730924
  0
VERTEX
  5
308
  8
DATA
  6
CONTINUOUS
 62
     7
 10
125.2
 20
16.699999999999999
 30
0.0
  0
VERTEX
  5
309
  8
DATA
  6
CONTINUOUS
 62
     7
 10
125.2
 20
-10.0
 30
0.0
  0
VERTEX
  5
30A
  8
DATA
  6
CONTINUOUS
 62
     7
 10
40.0
 20
-10.0
 30
0.0
  0
SEQEND
  5
30B
  8
DATA
  6
CONTINUOUS
 62
     7
  0
LINE
  5
15C
  8
DATA
  6
CONTINUOUS
 62
     7
 10
41.600000000000001
 20
-13.0
 30
0.0
 11
47.600000000000001
 21
-13.0
 31
0.0
  0
LINE
  5
15D
  8
DATA
  6
CONTINUOUS
 62
     7
 10
48.850000000000001
 20
-10.0
 30
0.0
 11
47.600000000000001
 21
-13.0
 31
0.0
  0
LINE
  5
15E
  8
DATA
  6
CONTINUOUS
 62
     7
 10
41.600000000000001
 20
-13.0
 30
0.0
 11
40.350000000000001
 21
-10.0
 31
0.0
  0
LINE
  5
15F
  8
DATA
  6
CONTINUOUS
 62
     7
 10
117.59999999999999
 20
-13.0
 30
0.0
 11
123.59999999999999
 21
-13.0
 31
0.0
  0
LINE
  5
160
  8
DATA
  6
CONTINUOUS
 62
     7
 10
124.84999999999999
 20
-10.0
 30
0.0
 11
123.59999999999999
 21
-13.0
 31
0.0
  0
LINE
  5
161
  8
DATA
  6
CONTINUOUS
 62
     7
 10
117.59999999999999
 20
-13.0
 30
0.0
 11
116.34999999999999
 21
-10.0
 31
0.0
  0
LINE
  5
162
  8
DATA
  6
CONTINUOUS
 62
     7
 10
161.5
 20
18.199999999999989
 30
0.0
 11
196.69999999999999
 21
18.199999999999989
 31
0.0
  0
LINE
  5
163
  8
DATA
  6
CONTINUOUS
 62
     7
 10
160.0
 20
-8.5
 30
0.0
 11
160.0
 21
16.699999999999989
 31
0.0
  0
LINE
  5
164
  8
DATA
  6
CONTINUOUS
 62
     7
 10
196.69999999999999
 20
-10.0
 30
0.0
 11
186.0
 21
-10.0
 31
0.0
  0
LINE
  5
165
  8
DATA
  6
CONTINUOUS
 62
     7
 10
172.19999999999999
 20
-10.0
 30
0.0
 11
161.5
 21
-10.0
 31
0.0
  0
LINE
  5
166
  8
DATA
  6
CONTINUOUS
 62
     7
 10
161.89999999999989
 20
-8.5999999999999943
 30
0.0
 11
196.30000000000001
 21
-8.5999999999999943
 31
0.0
  0
LINE
  5
167
  8
DATA
  6
CONTINUOUS
 62
     7
 10
186.0
 20
-8.5999999999999943
 30
0.0
 11
186.0
 21
-10.0
 31
0.0
  0
LINE
  5
168
  8
DATA
  6
CONTINUOUS
 62
     7
 10
172.19999999999999
 20
-8.5999999999999943
 30
0.0
 11
172.19999999999999
 21
-10.0
 31
0.0
  0
LINE
  5
169
  8
DATA
  6
CONTINUOUS
 62
     7
 10
196.80000000000001
 20
16.299999999999979
 30
0.0
 11
196.80000000000001
 21
-8.0999999999999943
 31
0.0
  0
LINE
  5
16A
  8
DATA
  6
CONTINUOUS
 62
     7
 10
161.39999999999989
 20
-8.0999999999999943
 30
0.0
 11
161.39999999999989
 21
16.299999999999979
 31
0.0
  0
LINE
  5
16B
  8
DATA
  6
CONTINUOUS
 62
     7
 10
198.19999999999999
 20
16.699999999999989
 30
0.0
 11
198.19999999999999
 21
-8.5
 31
0.0
  0
LINE
  5
16C
  8
DATA
  6
CONTINUOUS
 62
     7
 10
163.09999999999999
 20
-13.0
 30
0.0
 11
169.09999999999999
 21
-13.0
 31
0.0
  0
LINE
  5
16D
  8
DATA
  6
CONTINUOUS
 62
     7
 10
170.34999999999999
 20
-10.0
 30
0.0
 11
169.09999999999999
 21
-13.0
 31
0.0
  0
LINE
  5
16E
  8
DATA
  6
CONTINUOUS
 62
     7
 10
163.09999999999999
 20
-13.0
 30
0.0
 11
161.84999999999999
 21
-10.0
 31
0.0
  0
LINE
  5
16F
  8
DATA
  6
CONTINUOUS
 62
     7
 10
189.09999999999999
 20
-13.0
 30
0.0
 11
195.09999999999999
 21
-13.0
 31
0.0
  0
LINE
  5
170
  8
DATA
  6
CONTINUOUS
 62
     7
 10
196.34999999999999
 20
-10.0
 30
0.0
 11
195.09999999999999
 21
-13.0
 31
0.0
  0
LINE
  5
171
  8
DATA
  6
CONTINUOUS
 62
     7
 10
189.09999999999999
 20
-13.0
 30
0.0
 11
187.84999999999999
 21
-10.0
 31
0.0
  0
LINE
  5
172
  8
DATA
  6
CONTINUOUS
 62
     7
 10
161.89999999999989
 20
16.799999999999979
 30
0.0
 11
196.30000000000001
 21
16.799999999999979
 31
0.0
  0
ARC
  5
173
  8
DATA
  6
CONTINUOUS
 62
     7
 10
161.5
 20
16.699999999999989
 30
0.0
 40
1.5
 50
90.0
 51
180.0
  0
ARC
  5
174
  8
DATA
  6
CONTINUOUS
 62
     7
 10
196.69999999999999
 20
16.699999999999989
 30
0.0
 40
1.5
 50
0.0
 51
90.0
  0
ARC
  5
175
  8
DATA
  6
CONTINUOUS
 62
     7
 10
196.69999999999999
 20
-8.5
 30
0.0
 40
1.5
 50
270.0
 51
0.0
  0
ARC
  5
176
  8
DATA
  6
CONTINUOUS
 62
     7
 10
161.5
 20
-8.5
 30
0.0
 40
1.5
 50
180.0
 51
270.0
  0
ARC
  5
177
  8
DATA
  6
CONTINUOUS
 62
     7
 10
161.89999999999989
 20
-8.0999999999999943
 30
0.0
 40
0.5
 50
180.0
 51
270.0
  0
ARC
  5
178
  8
DATA
  6
CONTINUOUS
 62
     7
 10
161.89999999999989
 20
16.299999999999979
 30
0.0
 40
0.5
 50
90.0
 51
180.0
  0
ARC
  5
179
  8
DATA
  6
CONTINUOUS
 62
     7
 10
196.30000000000001
 20
16.299999999999979
 30
0.0
 40
0.5
 50
0.0
 51
90.0
  0
ARC
  5
17A
  8
DATA
  6
CONTINUOUS
 62
     7
 10
196.30000000000001
 20
-8.0999999999999943
 30
0.0
 40
0.5
 50
270.0
 51
0.0
  0
LINE
  5
17B
  8
DATA
  6
CONTINUOUS
 62
     7
 10
164.0
 20
12.19999999999999
 30
0.0
 11
180.0
 21
12.19999999999999
 31
0.0
  0
LINE
  5
17C
  8
DATA
  6
CONTINUOUS
 62
     7
 10
164.0
 20
-1.8000000000000109
 30
0.0
 11
180.0
 21
-1.8000000000000109
 31
0.0
  0
LINE
  5
17D
  8
DATA
  6
CONTINUOUS
 62
     7
 10
177.75
 20
9.6999999999999869
 30
0.0
 11
166.25
 21
9.6999999999999869
 31
0.0
  0
LINE
  5
17E
  8
DATA
  6
CONTINUOUS
 62
     7
 10
166.25
 20
2.1999999999999882
 30
0.0
 11
169.25
 21
2.1999999999999882
 31
0.0
  0
LINE
  5
17F
  8
DATA
  6
CONTINUOUS
 62
     7
 10
174.75
 20
2.1999999999999882
 30
0.0
 11
177.75
 21
2.1999999999999882
 31
0.0
  0
LINE
  5
180
  8
DATA
  6
CONTINUOUS
 62
     7
 10
164.0
 20
-1.8000000000000109
 30
0.0
 11
164.0
 21
12.19999999999999
 31
0.0
  0
LINE
  5
181
  8
DATA
  6
CONTINUOUS
 62
     7
 10
180.0
 20
-1.8000000000000109
 30
0.0
 11
180.0
 21
12.19999999999999
 31
0.0
  0
LINE
  5
182
  8
DATA
  6
CONTINUOUS
 62
     7
 10
169.25
 20
2.1999999999999882
 30
0.0
 11
169.25
 21
-0.8000000000000113
 31
0.0
  0
LINE
  5
183
  8
DATA
  6
CONTINUOUS
 62
     7
 10
174.75
 20
2.1999999999999882
 30
0.0
 11
174.75
 21
-0.8000000000000113
 31
0.0
  0
LINE
  5
184
  8
DATA
  6
CONTINUOUS
 62
     7
 10
166.25
 20
9.6999999999999869
 30
0.0
 11
166.25
 21
2.1999999999999882
 31
0.0
  0
LINE
  5
185
  8
DATA
  6
CONTINUOUS
 62
     7
 10
177.75
 20
9.6999999999999869
 30
0.0
 11
177.75
 21
2.1999999999999882
 31
0.0
  0
LINE
  5
186
  8
DATA
  6
CONTINUOUS
 62
     7
 10
169.25
 20
-0.8000000000000113
 30
0.0
 11
174.75
 21
-0.8000000000000113
 31
0.0
  0
CIRCLE
  5
187
  8
DATA
  6
CONTINUOUS
 62
     7
 10
186.5
 20
6.6999999999999877
 30
0.0
 40
3.9000000000000048
  0
LINE
  5
188
  8
DATA
  6
CONTINUOUS
 62
     7
 10
181.9533666301316
 20
9.3249999999999869
 30
0.0
 11
181.9533666301316
 21
4.0749999999999877
 31
0.0
  0
LINE
  5
189
  8
DATA
  6
CONTINUOUS
 62
     7
 10
181.9533666301316
 20
4.0749999999999877
 30
0.0
 11
186.5
 21
1.449999999999988
 31
0.0
  0
LINE
  5
18A
  8
DATA
  6
CONTINUOUS
 62
     7
 10
186.5
 20
1.449999999999988
 30
0.0
 11
191.04663336986829
 21
4.0749999999999877
 31
0.0
  0
LINE
  5
18B
  8
DATA
  6
CONTINUOUS
 62
     7
 10
191.04663336986829
 20
4.0749999999999877
 30
0.0
 11
191.04663336986829
 21
9.3249999999999869
 31
0.0
  0
LINE
  5
18C
  8
DATA
  6
CONTINUOUS
 62
     7
 10
191.04663336986829
 20
9.3249999999999869
 30
0.0
 11
186.5
 21
11.94999999999999
 31
0.0
  0
LINE
  5
18D
  8
DATA
  6
CONTINUOUS
 62
     7
 10
186.5
 20
11.94999999999999
 30
0.0
 11
181.9533666301316
 21
9.3249999999999869
 31
0.0
  0
CIRCLE
  5
18E
  8
DATA
  6
CONTINUOUS
 62
     7
 10
186.5
 20
6.6999999999999877
 30
0.0
 40
2.75
  0
CIRCLE
  5
18F
  8
DATA
  6
CONTINUOUS
 62
     7
 10
186.5
 20
6.6999999999999877
 30
0.0
 40
1.25
  0
LINE
  5
190
  8
DATA
  6
CONTINUOUS
 62
     7
 10
-38.500000000000007
 20
18.199999999999989
 30
0.0
 11
-3.2999999999999958
 21
18.199999999999989
 31
0.0
  0
LINE
  5
191
  8
DATA
  6
CONTINUOUS
 62
     7
 10
-40.000000000000007
 20
-8.5
 30
0.0
 11
-40.000000000000007
 21
16.699999999999989
 31
0.0
  0
LINE
  5
192
  8
DATA
  6
CONTINUOUS
 62
     7
 10
-3.2999999999999958
 20
-10.0
 30
0.0
 11
-14.0
 21
-10.0
 31
0.0
  0
LINE
  5
193
  8
DATA
  6
CONTINUOUS
 62
     7
 10
-27.800000000000001
 20
-10.0
 30
0.0
 11
-38.500000000000007
 21
-10.0
 31
0.0
  0
LINE
  5
194
  8
DATA
  6
CONTINUOUS
 62
     7
 10
-1.7999999999999969
 20
16.699999999999989
 30
0.0
 11
-1.7999999999999969
 21
-8.5
 31
0.0
  0
LINE
  5
195
  8
DATA
  6
CONTINUOUS
 62
     7
 10
-38.100000000000009
 20
-8.5999999999999943
 30
0.0
 11
-3.700000000000002
 21
-8.5999999999999943
 31
0.0
  0
LINE
  5
196
  8
DATA
  6
CONTINUOUS
 62
     7
 10
-14.0
 20
-8.5999999999999943
 30
0.0
 11
-14.0
 21
-10.0
 31
0.0
  0
LINE
  5
197
  8
DATA
  6
CONTINUOUS
 62
     7
 10
-27.800000000000001
 20
-8.5999999999999943
 30
0.0
 11
-27.800000000000001
 21
-10.0
 31
0.0
  0
LINE
  5
198
  8
DATA
  6
CONTINUOUS
 62
     7
 10
-3.200000000000002
 20
16.699999999999999
 30
0.0
 11
-3.200000000000002
 21
-8.0999999999999943
 31
0.0
  0
LINE
  5
199
  8
DATA
  6
CONTINUOUS
 62
     7
 10
-38.600000000000009
 20
-8.0999999999999943
 30
0.0
 11
-38.600000000000009
 21
16.699999999999999
 31
0.0
  0
CIRCLE
  5
19A
  8
DATA
  6
CONTINUOUS
 62
     7
 10
-28.000000000000011
 20
3.1999999999999882
 30
0.0
 40
1.5
  0
CIRCLE
  5
19B
  8
DATA
  6
CONTINUOUS
 62
     7
 10
-33.500000000000007
 20
3.1999999999999882
 30
0.0
 40
1.5
  0
LINE
  5
19C
  8
DATA
  6
CONTINUOUS
 62
     7
 10
-36.899999999999991
 20
-13.0
 30
0.0
 11
-30.899999999999991
 21
-13.0
 31
0.0
  0
LINE
  5
19D
  8
DATA
  6
CONTINUOUS
 62
     7
 10
-29.649999999999991
 20
-10.0
 30
0.0
 11
-30.899999999999991
 21
-13.0
 31
0.0
  0
LINE
  5
19E
  8
DATA
  6
CONTINUOUS
 62
     7
 10
-36.899999999999991
 20
-13.0
 30
0.0
 11
-38.149999999999991
 21
-10.0
 31
0.0
  0
LINE
  5
19F
  8
DATA
  6
CONTINUOUS
 62
     7
 10
-10.89999999999999
 20
-13.0
 30
0.0
 11
-4.8999999999999924
 21
-13.0
 31
0.0
  0
LINE
  5
1A0
  8
DATA
  6
CONTINUOUS
 62
     7
 10
-3.649999999999991
 20
-10.0
 30
0.0
 11
-4.8999999999999924
 21
-13.0
 31
0.0
  0
LINE
  5
1A1
  8
DATA
  6
CONTINUOUS
 62
     7
 10
-10.89999999999999
 20
-13.0
 30
0.0
 11
-12.14999999999999
 21
-10.0
 31
0.0
  0
ARC
  5
1A2
  8
DATA
  6
CONTINUOUS
 62
     7
 10
-38.500000000000007
 20
16.699999999999989
 30
0.0
 40
1.5
 50
90.0
 51
180.0
  0
ARC
  5
1A3
  8
DATA
  6
CONTINUOUS
 62
     7
 10
-3.2999999999999958
 20
16.699999999999989
 30
0.0
 40
1.5
 50
0.0
 51
90.0
  0
ARC
  5
1A4
  8
DATA
  6
CONTINUOUS
 62
     7
 10
-3.2999999999999958
 20
-8.5
 30
0.0
 40
1.5
 50
270.0
 51
0.0
  0
ARC
  5
1A5
  8
DATA
  6
CONTINUOUS
 62
     7
 10
-38.500000000000007
 20
-8.5
 30
0.0
 40
1.5
 50
180.0
 51
270.0
  0
ARC
  5
1A6
  8
DATA
  6
CONTINUOUS
 62
     7
 10
-38.100000000000009
 20
-8.0999999999999943
 30
0.0
 40
0.5
 50
180.0
 51
270.0
  0
ARC
  5
1A7
  8
DATA
  6
CONTINUOUS
 62
     7
 10
-3.700000000000002
 20
-8.0999999999999943
 30
0.0
 40
0.5
 50
270.0
 51
0.0
  0
POLYLINE
  5
1A8
  8
DATA
  6
CONTINUOUS
 62
     7
 66
     1
 10
0.0
 20
0.0
 30
0.0
 70
     1
  0
VERTEX
  5
30C
  8
DATA
  6
CONTINUOUS
 62
     7
 10
40.0
 20
78.200000000000003
 30
0.0
  0
VERTEX
  5
30D
  8
DATA
  6
CONTINUOUS
 62
     7
 10
125.2
 20
78.200000000000003
 30
0.0
  0
VERTEX
  5
30E
  8
DATA
  6
CONTINUOUS
 62
     7
 10
125.2
 20
40.0
 30
0.0
  0
VERTEX
  5
30F
  8
DATA
  6
CONTINUOUS
 62
     7
 10
40.0
 20
40.0
 30
0.0
  0
SEQEND
  5
310
  8
DATA
  6
CONTINUOUS
 62
     7
  0
TEXT
  5
1AF
  8
DATA
 62
     7
 10
41.584000000000017
 20
59.388888888888857
 30
0.0
 40
2.1717881944444439
  1
USB out
 50
270.0
 41
0.7
 11
43.755788194444463
 21
59.388888888888857
 31
0.0
 73
     3
  0
TEXT
  5
1B0
  8
DATA
 62
     7
 10
41.484000000000009
 20
72.405555555555537
 30
0.0
 40
2.1717881944444439
  1
P
 50
270.0
 41
0.7
 11
43.655788194444447
 21
72.405555555555537
 31
0.0
 73
     3
  0
TEXT
  5
1B1
  8
DATA
 62
     7
 10
41.484000000000009
 20
66.905555555555537
 30
0.0
 40
2.1717881944444439
  1
H
 50
270.0
 41
0.7
 11
43.655788194444447
 21
66.905555555555537
 31
0.0
 73
     3
  0
TEXT
  5
1B2
  8
DATA
 62
     7
 10
123.71599999999999
 20
62.972222222222179
 30
0.0
 40
2.1717881944444439
  1
5V DC
 50
90.0
 41
0.7
 11
121.54421180555551
 21
62.972222222222179
 31
0.0
 73
     3
  0
TEXT
  5
1B3
  8
DATA
 62
     7
 10
123.71599999999999
 20
58.588888888888853
 30
0.0
 40
2.1717881944444439
  1
L
 50
90.0
 41
0.7
 11
121.54421180555551
 21
58.588888888888853
 31
0.0
 73
     3
  0
TEXT
  5
1B4
  8
DATA
 62
     7
 10
123.71599999999999
 20
43.999999999999972
 30
0.0
 40
2.1717881944444439
  1
A
 50
90.0
 41
0.7
 11
121.54421180555551
 21
43.999999999999972
 31
0.0
 73
     3
  0
TEXT
  5
1B5
  8
DATA
 62
     7
 10
70.0
 20
47.713999999999992
 30
0.0
 40
4.8865234375000002
  1
USB 2.0 LR
 41
0.7
 11
70.0
 21
52.600523437500001
 31
0.0
 73
     3
  0
TEXT
  5
1B6
  8
DATA
 62
     7
 10
85.0
 20
43.476000000000013
 30
0.0
 40
3.2576822916666659
  1
Extender R
 41
0.7
 11
85.0
 21
46.733682291666682
 31
0.0
 73
     3
  0
POLYLINE
  5
1B7
  8
DATA
  6
CONTINUOUS
 62
     7
 66
     1
 10
0.0
 20
0.0
 30
0.0
 70
     1
  0
VERTEX
  5
311
  8
DATA
  6
CONTINUOUS
 62
     7
 10
-23.70000000000001
 20
11.9
 30
0.0
  0
VERTEX
  5
312
  8
DATA
  6
CONTINUOUS
 62
     7
 10
-17.800000000000011
 20
11.9
 30
0.0
  0
VERTEX
  5
313
  8
DATA
  6
CONTINUOUS
 62
     7
 10
-17.800000000000011
 20
-1.5
 30
0.0
  0
VERTEX
  5
314
  8
DATA
  6
CONTINUOUS
 62
     7
 10
-23.70000000000001
 20
-1.5
 30
0.0
  0
SEQEND
  5
315
  8
DATA
  6
CONTINUOUS
 62
     7
  0
POLYLINE
  5
1BE
  8
DATA
  6
CONTINUOUS
 62
     7
 66
     1
 10
0.0
 20
0.0
 30
0.0
 70
     1
  0
VERTEX
  5
316
  8
DATA
  6
CONTINUOUS
 62
     7
 10
-24.000000000000011
 20
12.19999999999999
 30
0.0
  0
VERTEX
  5
317
  8
DATA
  6
CONTINUOUS
 62
     7
 10
-17.500000000000011
 20
12.19999999999999
 30
0.0
  0
VERTEX
  5
318
  8
DATA
  6
CONTINUOUS
 62
     7
 10
-17.500000000000011
 20
-1.8000000000000109
 30
0.0
  0
VERTEX
  5
319
  8
DATA
  6
CONTINUOUS
 62
     7
 10
-24.000000000000011
 20
-1.8000000000000109
 30
0.0
  0
SEQEND
  5
31A
  8
DATA
  6
CONTINUOUS
 62
     7
  0
POLYLINE
  5
1C5
  8
DATA
  6
CONTINUOUS
 62
     7
 66
     1
 10
0.0
 20
0.0
 30
0.0
 70
     1
  0
VERTEX
  5
31B
  8
DATA
  6
CONTINUOUS
 62
     7
 10
-22.500000000000011
 20
10.19999999999999
 30
0.0
  0
VERTEX
  5
31C
  8
DATA
  6
CONTINUOUS
 62
     7
 10
-21.000000000000011
 20
10.19999999999999
 30
0.0
  0
VERTEX
  5
31D
  8
DATA
  6
CONTINUOUS
 62
     7
 10
-21.000000000000011
 20
0.1999999999999886
 30
0.0
  0
VERTEX
  5
31E
  8
DATA
  6
CONTINUOUS
 62
     7
 10
-22.500000000000011
 20
0.1999999999999886
 30
0.0
  0
SEQEND
  5
31F
  8
DATA
  6
CONTINUOUS
 62
     7
  0
POLYLINE
  5
1CC
  8
DATA
  6
CONTINUOUS
 62
     7
 66
     1
 10
0.0
 20
0.0
 30
0.0
 70
     1
  0
VERTEX
  5
320
  8
DATA
  6
CONTINUOUS
 62
     7
 10
-14.70000000000001
 20
11.9
 30
0.0
  0
VERTEX
  5
321
  8
DATA
  6
CONTINUOUS
 62
     7
 10
-8.8000000000000114
 20
11.9
 30
0.0
  0
VERTEX
  5
322
  8
DATA
  6
CONTINUOUS
 62
     7
 10
-8.8000000000000114
 20
-1.5
 30
0.0
  0
VERTEX
  5
323
  8
DATA
  6
CONTINUOUS
 62
     7
 10
-14.70000000000001
 20
-1.5
 30
0.0
  0
SEQEND
  5
324
  8
DATA
  6
CONTINUOUS
 62
     7
  0
POLYLINE
  5
1D3
  8
DATA
  6
CONTINUOUS
 62
     7
 66
     1
 10
0.0
 20
0.0
 30
0.0
 70
     1
  0
VERTEX
  5
325
  8
DATA
  6
CONTINUOUS
 62
     7
 10
-15.000000000000011
 20
12.19999999999999
 30
0.0
  0
VERTEX
  5
326
  8
DATA
  6
CONTINUOUS
 62
     7
 10
-8.5000000000000142
 20
12.19999999999999
 30
0.0
  0
VERTEX
  5
327
  8
DATA
  6
CONTINUOUS
 62
     7
 10
-8.5000000000000142
 20
-1.8000000000000109
 30
0.0
  0
VERTEX
  5
328
  8
DATA
  6
CONTINUOUS
 62
     7
 10
-15.000000000000011
 20
-1.8000000000000109
 30
0.0
  0
SEQEND
  5
329
  8
DATA
  6
CONTINUOUS
 62
     7
  0
POLYLINE
  5
1DA
  8
DATA
  6
CONTINUOUS
 62
     7
 66
     1
 10
0.0
 20
0.0
 30
0.0
 70
     1
  0
VERTEX
  5
32A
  8
DATA
  6
CONTINUOUS
 62
     7
 10
-13.500000000000011
 20
10.19999999999999
 30
0.0
  0
VERTEX
  5
32B
  8
DATA
  6
CONTINUOUS
 62
     7
 10
-12.000000000000011
 20
10.19999999999999
 30
0.0
  0
VERTEX
  5
32C
  8
DATA
  6
CONTINUOUS
 62
     7
 10
-12.000000000000011
 20
0.1999999999999886
 30
0.0
  0
VERTEX
  5
32D
  8
DATA
  6
CONTINUOUS
 62
     7
 10
-13.500000000000011
 20
0.1999999999999886
 30
0.0
  0
SEQEND
  5
32E
  8
DATA
  6
CONTINUOUS
 62
     7
  0
LINE
  5
1E1
  8
DATA
  6
CONTINUOUS
 62
     7
 10
38.5
 20
171.44999999999999
 30
0.0
 11
38.5
 21
161.94999999999999
 31
0.0
  0
LINE
  5
1E2
  8
DATA
  6
CONTINUOUS
 62
     7
 10
39.0
 20
171.94999999999999
 30
0.0
 11
39.5
 21
171.94999999999999
 31
0.0
  0
LINE
  5
1E3
  8
DATA
  6
CONTINUOUS
 62
     7
 10
39.0
 20
161.44999999999999
 30
0.0
 11
39.5
 21
161.44999999999999
 31
0.0
  0
LINE
  5
1E4
  8
DATA
  6
CONTINUOUS
 62
     7
 10
39.0
 20
169.32499999999999
 30
0.0
 11
39.5
 21
169.32499999999999
 31
0.0
  0
LINE
  5
1E5
  8
DATA
  6
CONTINUOUS
 62
     7
 10
39.0
 20
164.07499999999999
 30
0.0
 11
39.5
 21
164.07499999999999
 31
0.0
  0
ARC
  5
1E6
  8
DATA
  6
CONTINUOUS
 62
     7
 10
39.0
 20
169.8249999999999
 30
0.0
 40
0.5
 50
180.0
 51
270.0
  0
ARC
  5
1E7
  8
DATA
  6
CONTINUOUS
 62
     7
 10
39.0
 20
168.82499999999999
 30
0.0
 40
0.5
 50
90.0
 51
180.0
  0
ARC
  5
1E8
  8
DATA
  6
CONTINUOUS
 62
     7
 10
39.0
 20
164.57499999999999
 30
0.0
 40
0.5
 50
180.0
 51
270.0
  0
ARC
  5
1E9
  8
DATA
  6
CONTINUOUS
 62
     7
 10
39.0
 20
163.5749999999999
 30
0.0
 40
0.5
 50
90.0
 51
180.0
  0
ARC
  5
1EA
  8
DATA
  6
CONTINUOUS
 62
     7
 10
39.5
 20
164.57499999999999
 30
0.0
 40
0.5
 50
270.0
 51
0.0
  0
ARC
  5
1EB
  8
DATA
  6
CONTINUOUS
 62
     7
 10
39.5
 20
163.5749999999999
 30
0.0
 40
0.5
 50
0.0
 51
90.0
  0
ARC
  5
1EC
  8
DATA
  6
CONTINUOUS
 62
     7
 10
39.5
 20
169.8249999999999
 30
0.0
 40
0.5
 50
270.0
 51
0.0
  0
ARC
  5
1ED
  8
DATA
  6
CONTINUOUS
 62
     7
 10
39.5
 20
168.82499999999999
 30
0.0
 40
0.5
 50
0.0
 51
90.0
  0
ARC
  5
1EE
  8
DATA
  6
CONTINUOUS
 62
     7
 10
39.0
 20
171.44999999999999
 30
0.0
 40
0.5
 50
90.0
 51
180.0
  0
ARC
  5
1EF
  8
DATA
  6
CONTINUOUS
 62
     7
 10
39.5
 20
171.44999999999999
 30
0.0
 40
0.5
 50
0.0
 51
90.0
  0
ARC
  5
1F0
  8
DATA
  6
CONTINUOUS
 62
     7
 10
39.0
 20
161.94999999999999
 30
0.0
 40
0.5
 50
180.0
 51
270.0
  0
ARC
  5
1F1
  8
DATA
  6
CONTINUOUS
 62
     7
 10
39.5
 20
161.94999999999999
 30
0.0
 40
0.5
 50
270.0
 51
0.0
  0
LINE
  5
1F2
  8
DATA
  6
CONTINUOUS
 62
     7
 10
33.5
 20
170.59999999999999
 30
0.0
 11
33.5
 21
162.7999999999999
 31
0.0
  0
LINE
  5
1F3
  8
DATA
  6
CONTINUOUS
 62
     7
 10
33.5
 20
170.59999999999999
 30
0.0
 11
38.5
 21
170.59999999999999
 31
0.0
  0
LINE
  5
1F4
  8
DATA
  6
CONTINUOUS
 62
     7
 10
33.5
 20
162.7999999999999
 30
0.0
 11
38.5
 21
162.7999999999999
 31
0.0
  0
LINE
  5
1F5
  8
DATA
  6
CONTINUOUS
 62
     7
 10
33.5
 20
170.59999999999999
 30
0.0
 11
34.182411575502201
 21
162.7999999999999
 31
0.0
  0
LINE
  5
1F6
  8
DATA
  6
CONTINUOUS
 62
     7
 10
34.180000000000007
 20
170.59999999999999
 30
0.0
 11
34.862411575502207
 21
162.7999999999999
 31
0.0
  0
LINE
  5
1F7
  8
DATA
  6
CONTINUOUS
 62
     7
 10
34.860000000000007
 20
170.59999999999999
 30
0.0
 11
35.542411575502207
 21
162.7999999999999
 31
0.0
  0
LINE
  5
1F8
  8
DATA
  6
CONTINUOUS
 62
     7
 10
35.54000000000002
 20
170.59999999999999
 30
0.0
 11
36.222411575502207
 21
162.7999999999999
 31
0.0
  0
LINE
  5
1F9
  8
DATA
  6
CONTINUOUS
 62
     7
 10
36.220000000000027
 20
170.59999999999999
 30
0.0
 11
36.902411575502207
 21
162.7999999999999
 31
0.0
  0
LINE
  5
1FA
  8
DATA
  6
CONTINUOUS
 62
     7
 10
36.900000000000027
 20
170.59999999999999
 30
0.0
 11
37.582411575502213
 21
162.7999999999999
 31
0.0
  0
LINE
  5
1FB
  8
DATA
  6
CONTINUOUS
 62
     7
 10
37.580000000000027
 20
170.59999999999999
 30
0.0
 11
38.262411575502213
 21
162.7999999999999
 31
0.0
  0
LINE
  5
1FC
  8
DATA
  6
CONTINUOUS
 62
     7
 10
38.260000000000012
 20
170.59999999999999
 30
0.0
 11
38.5
 21
167.85678744733741
 31
0.0
  0
LINE
  5
1FD
  8
DATA
  6
CONTINUOUS
 62
     7
 10
125.2
 20
168.69999999999999
 30
0.0
 11
125.59999999999999
 21
168.69999999999999
 31
0.0
  0
LINE
  5
1FE
  8
DATA
  6
CONTINUOUS
 62
     7
 10
125.2
 20
157.69999999999999
 30
0.0
 11
125.59999999999999
 21
157.69999999999999
 31
0.0
  0
LINE
  5
1FF
  8
DATA
  6
CONTINUOUS
 62
     7
 10
125.59999999999999
 20
157.69999999999999
 30
0.0
 11
125.59999999999999
 21
168.69999999999999
 31
0.0
  0
LINE
  5
200
  8
DATA
  6
CONTINUOUS
 62
     7
 10
126.7
 20
11.44999999999999
 30
0.0
 11
126.7
 21
1.949999999999988
 31
0.0
  0
LINE
  5
201
  8
DATA
  6
CONTINUOUS
 62
     7
 10
126.2
 20
11.94999999999999
 30
0.0
 11
125.7
 21
11.94999999999999
 31
0.0
  0
LINE
  5
202
  8
DATA
  6
CONTINUOUS
 62
     7
 10
126.2
 20
1.449999999999988
 30
0.0
 11
125.7
 21
1.449999999999988
 31
0.0
  0
LINE
  5
203
  8
DATA
  6
CONTINUOUS
 62
     7
 10
126.2
 20
9.3249999999999869
 30
0.0
 11
125.7
 21
9.3249999999999869
 31
0.0
  0
LINE
  5
204
  8
DATA
  6
CONTINUOUS
 62
     7
 10
126.2
 20
4.0749999999999877
 30
0.0
 11
125.7
 21
4.0749999999999877
 31
0.0
  0
ARC
  5
205
  8
DATA
  6
CONTINUOUS
 62
     7
 10
126.2
 20
9.8249999999999869
 30
0.0
 40
0.5
 50
270.0
 51
0.0
  0
ARC
  5
206
  8
DATA
  6
CONTINUOUS
 62
     7
 10
126.2
 20
8.8249999999999869
 30
0.0
 40
0.5
 50
0.0
 51
90.0
  0
ARC
  5
207
  8
DATA
  6
CONTINUOUS
 62
     7
 10
126.2
 20
4.5749999999999877
 30
0.0
 40
0.5
 50
270.0
 51
0.0
  0
ARC
  5
208
  8
DATA
  6
CONTINUOUS
 62
     7
 10
126.2
 20
3.5749999999999882
 30
0.0
 40
0.5
 50
0.0
 51
90.0
  0
ARC
  5
209
  8
DATA
  6
CONTINUOUS
 62
     7
 10
125.7
 20
4.5749999999999877
 30
0.0
 40
0.5
 50
180.0
 51
270.0
  0
ARC
  5
20A
  8
DATA
  6
CONTINUOUS
 62
     7
 10
125.7
 20
3.5749999999999882
 30
0.0
 40
0.5
 50
90.0
 51
180.0
  0
ARC
  5
20B
  8
DATA
  6
CONTINUOUS
 62
     7
 10
125.7
 20
9.8249999999999869
 30
0.0
 40
0.5
 50
180.0
 51
270.0
  0
ARC
  5
20C
  8
DATA
  6
CONTINUOUS
 62
     7
 10
125.7
 20
8.8249999999999869
 30
0.0
 40
0.5
 50
90.0
 51
180.0
  0
ARC
  5
20D
  8
DATA
  6
CONTINUOUS
 62
     7
 10
126.2
 20
11.44999999999999
 30
0.0
 40
0.5
 50
0.0
 51
90.0
  0
ARC
  5
20E
  8
DATA
  6
CONTINUOUS
 62
     7
 10
125.7
 20
11.44999999999999
 30
0.0
 40
0.5
 50
90.0
 51
180.0
  0
ARC
  5
20F
  8
DATA
  6
CONTINUOUS
 62
     7
 10
126.2
 20
1.949999999999988
 30
0.0
 40
0.5
 50
270.0
 51
0.0
  0
ARC
  5
210
  8
DATA
  6
CONTINUOUS
 62
     7
 10
125.7
 20
1.949999999999988
 30
0.0
 40
0.5
 50
180.0
 51
270.0
  0
LINE
  5
211
  8
DATA
  6
CONTINUOUS
 62
     7
 10
131.69999999999999
 20
10.599999999999991
 30
0.0
 11
131.69999999999999
 21
2.7999999999999821
 31
0.0
  0
LINE
  5
212
  8
DATA
  6
CONTINUOUS
 62
     7
 10
131.69999999999999
 20
10.599999999999991
 30
0.0
 11
126.7
 21
10.599999999999991
 31
0.0
  0
LINE
  5
213
  8
DATA
  6
CONTINUOUS
 62
     7
 10
131.69999999999999
 20
2.7999999999999821
 30
0.0
 11
126.7
 21
2.7999999999999821
 31
0.0
  0
LINE
  5
214
  8
DATA
  6
CONTINUOUS
 62
     7
 10
131.69999999999999
 20
10.599999999999991
 30
0.0
 11
131.01758842449769
 21
2.7999999999999821
 31
0.0
  0
LINE
  5
215
  8
DATA
  6
CONTINUOUS
 62
     7
 10
131.02000000000001
 20
10.599999999999991
 30
0.0
 11
130.33758842449771
 21
2.7999999999999821
 31
0.0
  0
LINE
  5
216
  8
DATA
  6
CONTINUOUS
 62
     7
 10
130.33999999999989
 20
10.599999999999991
 30
0.0
 11
129.6575884244977
 21
2.7999999999999821
 31
0.0
  0
LINE
  5
217
  8
DATA
  6
CONTINUOUS
 62
     7
 10
129.65999999999991
 20
10.599999999999991
 30
0.0
 11
128.9775884244977
 21
2.7999999999999821
 31
0.0
  0
LINE
  5
218
  8
DATA
  6
CONTINUOUS
 62
     7
 10
128.9799999999999
 20
10.599999999999991
 30
0.0
 11
128.29758842449769
 21
2.7999999999999821
 31
0.0
  0
LINE
  5
219
  8
DATA
  6
CONTINUOUS
 62
     7
 10
128.2999999999999
 20
10.599999999999991
 30
0.0
 11
127.6175884244977
 21
2.7999999999999821
 31
0.0
  0
LINE
  5
21A
  8
DATA
  6
CONTINUOUS
 62
     7
 10
127.61999999999991
 20
10.599999999999991
 30
0.0
 11
126.9375884244978
 21
2.7999999999999821
 31
0.0
  0
LINE
  5
21B
  8
DATA
  6
CONTINUOUS
 62
     7
 10
126.9399999999999
 20
10.599999999999991
 30
0.0
 11
126.7
 21
7.8567874473374086
 31
0.0
  0
LINE
  5
21C
  8
DATA
  6
CONTINUOUS
 62
     7
 10
40.0
 20
11.9
 30
0.0
 11
39.799999999999997
 21
11.9
 31
0.0
  0
LINE
  5
21D
  8
DATA
  6
CONTINUOUS
 62
     7
 10
40.0
 20
-1.8000000000000109
 30
0.0
 11
39.799999999999997
 21
-1.8000000000000109
 31
0.0
  0
LINE
  5
21E
  8
DATA
  6
CONTINUOUS
 62
     7
 10
39.799999999999997
 20
-1.8000000000000109
 30
0.0
 11
39.799999999999997
 21
11.9
 31
0.0
  0
LINE
  5
21F
  8
DATA
  6
CONTINUOUS
 62
     7
 10
125.59999999999999
 20
214.94999999999999
 30
0.0
 11
125.2
 21
214.94999999999999
 31
0.0
  0
LINE
  5
220
  8
DATA
  6
CONTINUOUS
 62
     7
 10
125.59999999999999
 20
227.44999999999999
 30
0.0
 11
125.2
 21
227.44999999999999
 31
0.0
  0
LINE
  5
221
  8
DATA
  6
CONTINUOUS
 62
     7
 10
38.5
 20
216.44999999999999
 30
0.0
 11
38.5
 21
206.94999999999999
 31
0.0
  0
LINE
  5
222
  8
DATA
  6
CONTINUOUS
 62
     7
 10
39.0
 20
216.94999999999999
 30
0.0
 11
39.5
 21
216.94999999999999
 31
0.0
  0
LINE
  5
223
  8
DATA
  6
CONTINUOUS
 62
     7
 10
39.0
 20
206.44999999999999
 30
0.0
 11
39.5
 21
206.44999999999999
 31
0.0
  0
LINE
  5
224
  8
DATA
  6
CONTINUOUS
 62
     7
 10
39.0
 20
211.69999999999999
 30
0.0
 11
39.5
 21
211.69999999999999
 31
0.0
  0
ARC
  5
225
  8
DATA
  6
CONTINUOUS
 62
     7
 10
39.0
 20
212.19999999999999
 30
0.0
 40
0.5
 50
180.0
 51
270.0
  0
ARC
  5
226
  8
DATA
  6
CONTINUOUS
 62
     7
 10
39.0
 20
211.19999999999999
 30
0.0
 40
0.5
 50
90.0
 51
180.0
  0
ARC
  5
227
  8
DATA
  6
CONTINUOUS
 62
     7
 10
39.5
 20
212.19999999999999
 30
0.0
 40
0.5
 50
270.0
 51
0.0
  0
ARC
  5
228
  8
DATA
  6
CONTINUOUS
 62
     7
 10
39.5
 20
211.19999999999999
 30
0.0
 40
0.5
 50
0.0
 51
90.0
  0
ARC
  5
229
  8
DATA
  6
CONTINUOUS
 62
     7
 10
39.0
 20
216.44999999999999
 30
0.0
 40
0.5
 50
90.0
 51
180.0
  0
ARC
  5
22A
  8
DATA
  6
CONTINUOUS
 62
     7
 10
39.5
 20
216.44999999999999
 30
0.0
 40
0.5
 50
0.0
 51
90.0
  0
ARC
  5
22B
  8
DATA
  6
CONTINUOUS
 62
     7
 10
39.0
 20
206.94999999999999
 30
0.0
 40
0.5
 50
180.0
 51
270.0
  0
ARC
  5
22C
  8
DATA
  6
CONTINUOUS
 62
     7
 10
39.5
 20
206.94999999999999
 30
0.0
 40
0.5
 50
270.0
 51
0.0
  0
LINE
  5
22D
  8
DATA
  6
CONTINUOUS
 62
     7
 10
33.5
 20
215.59999999999999
 30
0.0
 11
33.5
 21
207.80000000000001
 31
0.0
  0
LINE
  5
22E
  8
DATA
  6
CONTINUOUS
 62
     7
 10
33.5
 20
215.59999999999999
 30
0.0
 11
38.5
 21
215.59999999999999
 31
0.0
  0
LINE
  5
22F
  8
DATA
  6
CONTINUOUS
 62
     7
 10
33.5
 20
207.80000000000001
 30
0.0
 11
38.5
 21
207.80000000000001
 31
0.0
  0
LINE
  5
230
  8
DATA
  6
CONTINUOUS
 62
     7
 10
33.5
 20
215.59999999999999
 30
0.0
 11
34.182411575502201
 21
207.80000000000001
 31
0.0
  0
LINE
  5
231
  8
DATA
  6
CONTINUOUS
 62
     7
 10
34.180000000000007
 20
215.59999999999999
 30
0.0
 11
34.862411575502207
 21
207.80000000000001
 31
0.0
  0
LINE
  5
232
  8
DATA
  6
CONTINUOUS
 62
     7
 10
34.860000000000007
 20
215.59999999999999
 30
0.0
 11
35.542411575502207
 21
207.80000000000001
 31
0.0
  0
LINE
  5
233
  8
DATA
  6
CONTINUOUS
 62
     7
 10
35.54000000000002
 20
215.59999999999999
 30
0.0
 11
36.222411575502207
 21
207.80000000000001
 31
0.0
  0
LINE
  5
234
  8
DATA
  6
CONTINUOUS
 62
     7
 10
36.220000000000027
 20
215.59999999999999
 30
0.0
 11
36.902411575502207
 21
207.80000000000001
 31
0.0
  0
LINE
  5
235
  8
DATA
  6
CONTINUOUS
 62
     7
 10
36.900000000000027
 20
215.59999999999999
 30
0.0
 11
37.582411575502213
 21
207.80000000000001
 31
0.0
  0
LINE
  5
236
  8
DATA
  6
CONTINUOUS
 62
     7
 10
37.580000000000027
 20
215.59999999999999
 30
0.0
 11
38.262411575502213
 21
207.80000000000001
 31
0.0
  0
LINE
  5
237
  8
DATA
  6
CONTINUOUS
 62
     7
 10
38.260000000000012
 20
215.59999999999999
 30
0.0
 11
38.5
 21
212.8567874473375
 31
0.0
  0
LINE
  5
238
  8
DATA
  6
CONTINUOUS
 62
     7
 10
125.59999999999999
 20
214.94999999999999
 30
0.0
 11
125.59999999999999
 21
227.44999999999999
 31
0.0
  0
LINE
  5
239
  8
DATA
  6
CONTINUOUS
 62
     7
 10
126.7
 20
71.25
 30
0.0
 11
126.7
 21
61.75
 31
0.0
  0
LINE
  5
23A
  8
DATA
  6
CONTINUOUS
 62
     7
 10
126.2
 20
71.75
 30
0.0
 11
125.7
 21
71.75
 31
0.0
  0
LINE
  5
23B
  8
DATA
  6
CONTINUOUS
 62
     7
 10
126.2
 20
61.25
 30
0.0
 11
125.7
 21
61.25
 31
0.0
  0
LINE
  5
23C
  8
DATA
  6
CONTINUOUS
 62
     7
 10
126.2
 20
66.5
 30
0.0
 11
125.7
 21
66.5
 31
0.0
  0
ARC
  5
23D
  8
DATA
  6
CONTINUOUS
 62
     7
 10
126.2
 20
67.0
 30
0.0
 40
0.5
 50
270.0
 51
0.0
  0
ARC
  5
23E
  8
DATA
  6
CONTINUOUS
 62
     7
 10
126.2
 20
66.0
 30
0.0
 40
0.5
 50
0.0
 51
90.0
  0
ARC
  5
23F
  8
DATA
  6
CONTINUOUS
 62
     7
 10
125.7
 20
67.0
 30
0.0
 40
0.5
 50
180.0
 51
270.0
  0
ARC
  5
240
  8
DATA
  6
CONTINUOUS
 62
     7
 10
125.7
 20
66.0
 30
0.0
 40
0.5
 50
90.0
 51
180.0
  0
ARC
  5
241
  8
DATA
  6
CONTINUOUS
 62
     7
 10
126.2
 20
71.25
 30
0.0
 40
0.5
 50
0.0
 51
90.0
  0
ARC
  5
242
  8
DATA
  6
CONTINUOUS
 62
     7
 10
125.7
 20
71.25
 30
0.0
 40
0.5
 50
90.0
 51
180.0
  0
ARC
  5
243
  8
DATA
  6
CONTINUOUS
 62
     7
 10
126.2
 20
61.75
 30
0.0
 40
0.5
 50
270.0
 51
0.0
  0
ARC
  5
244
  8
DATA
  6
CONTINUOUS
 62
     7
 10
125.7
 20
61.75
 30
0.0
 40
0.5
 50
180.0
 51
270.0
  0
LINE
  5
245
  8
DATA
  6
CONTINUOUS
 62
     7
 10
131.69999999999999
 20
70.40000000000002
 30
0.0
 11
131.69999999999999
 21
62.600000000000001
 31
0.0
  0
LINE
  5
246
  8
DATA
  6
CONTINUOUS
 62
     7
 10
131.69999999999999
 20
70.40000000000002
 30
0.0
 11
126.7
 21
70.40000000000002
 31
0.0
  0
LINE
  5
247
  8
DATA
  6
CONTINUOUS
 62
     7
 10
131.69999999999999
 20
62.600000000000001
 30
0.0
 11
126.7
 21
62.600000000000001
 31
0.0
  0
LINE
  5
248
  8
DATA
  6
CONTINUOUS
 62
     7
 10
131.69999999999999
 20
70.40000000000002
 30
0.0
 11
131.01758842449769
 21
62.600000000000001
 31
0.0
  0
LINE
  5
249
  8
DATA
  6
CONTINUOUS
 62
     7
 10
131.02000000000001
 20
70.40000000000002
 30
0.0
 11
130.33758842449771
 21
62.600000000000001
 31
0.0
  0
LINE
  5
24A
  8
DATA
  6
CONTINUOUS
 62
     7
 10
130.33999999999989
 20
70.40000000000002
 30
0.0
 11
129.6575884244977
 21
62.600000000000001
 31
0.0
  0
LINE
  5
24B
  8
DATA
  6
CONTINUOUS
 62
     7
 10
129.65999999999991
 20
70.40000000000002
 30
0.0
 11
128.9775884244977
 21
62.600000000000001
 31
0.0
  0
LINE
  5
24C
  8
DATA
  6
CONTINUOUS
 62
     7
 10
128.9799999999999
 20
70.40000000000002
 30
0.0
 11
128.29758842449769
 21
62.600000000000001
 31
0.0
  0
LINE
  5
24D
  8
DATA
  6
CONTINUOUS
 62
     7
 10
128.2999999999999
 20
70.40000000000002
 30
0.0
 11
127.6175884244977
 21
62.600000000000001
 31
0.0
  0
LINE
  5
24E
  8
DATA
  6
CONTINUOUS
 62
     7
 10
127.61999999999991
 20
70.40000000000002
 30
0.0
 11
126.9375884244978
 21
62.600000000000001
 31
0.0
  0
LINE
  5
24F
  8
DATA
  6
CONTINUOUS
 62
     7
 10
126.9399999999999
 20
70.40000000000002
 30
0.0
 11
126.7
 21
67.656787447337422
 31
0.0
  0
LINE
  5
250
  8
DATA
  6
CONTINUOUS
 62
     7
 10
39.799999999999997
 20
62.199999999999982
 30
0.0
 11
40.0
 21
62.199999999999982
 31
0.0
  0
LINE
  5
251
  8
DATA
  6
CONTINUOUS
 62
     7
 10
39.799999999999997
 20
55.699999999999989
 30
0.0
 11
40.0
 21
55.699999999999989
 31
0.0
  0
LINE
  5
252
  8
DATA
  6
CONTINUOUS
 62
     7
 10
39.799999999999997
 20
53.199999999999989
 30
0.0
 11
40.0
 21
53.199999999999989
 31
0.0
  0
LINE
  5
253
  8
DATA
  6
CONTINUOUS
 62
     7
 10
39.799999999999997
 20
46.699999999999989
 30
0.0
 11
40.0
 21
46.699999999999989
 31
0.0
  0
LINE
  5
254
  8
DATA
  6
CONTINUOUS
 62
     7
 10
39.799999999999997
 20
62.199999999999982
 30
0.0
 11
39.799999999999997
 21
55.699999999999989
 31
0.0
  0
LINE
  5
255
  8
DATA
  6
CONTINUOUS
 62
     7
 10
39.799999999999997
 20
53.199999999999989
 30
0.0
 11
39.799999999999997
 21
46.699999999999989
 31
0.0
  0
ENDSEC
  0
EOF
