  0
SECTION
  2
HEADER
  9
$ACADVER
  1
AC1009
  9
$INSBASE
 10
0.0
 20
0.0
 30
0.0
  9
$EXTMIN
 10
-80.010985489947416
 20
-131.63053115337669
 30
-0.0015258207003583
  9
$EXTMAX
 10
280.01098716632811
 20
403.53457440790811
 30
0.0000000349246037
  9
$LIMMIN
 10
0.0
 20
0.0
  9
$LIMMAX
 10
0.0
 20
0.0
  9
$ORTHOMODE
 70
     0
  9
$REGENMODE
 70
     1
  9
$FILLMODE
 70
     1
  9
$QTEXTMODE
 70
     0
  9
$MIRRTEXT
 70
     1
  9
$DRAGMODE
 70
     2
  9
$LTSCALE
 40
10.16
  9
$OSMODE
 70
   231
  9
$ATTMODE
 70
     1
  9
$TEXTSIZE
 40
0.0
  9
$TRACEWID
 40
1.0
  9
$TEXTSTYLE
  7
STANDARD
  9
$CLAYER
  8
DATA
  9
$CELTYPE
  6
BYLAYER
  9
$CECOLOR
 62
   256
  9
$DIMSCALE
 40
1.0
  9
$DIMASZ
 40
0.18
  9
$DIMEXO
 40
0.0625
  9
$DIMDLI
 40
0.38
  9
$DIMRND
 40
0.0
  9
$DIMDLE
 40
0.0
  9
$DIMEXE
 40
0.18
  9
$DIMTP
 40
0.0
  9
$DIMTM
 40
0.0
  9
$DIMTXT
 40
0.18
  9
$DIMCEN
 40
0.09
  9
$DIMTSZ
 40
0.0
  9
$DIMTOL
 70
     0
  9
$DIMLIM
 70
     0
  9
$DIMTIH
 70
     1
  9
$DIMTOH
 70
     1
  9
$DIMSE1
 70
     0
  9
$DIMSE2
 70
     0
  9
$DIMTAD
 70
     0
  9
$DIMZIN
 70
     0
  9
$DIMBLK
  1

  9
$DIMASO
 70
     1
  9
$DIMSHO
 70
     1
  9
$DIMPOST
  1

  9
$DIMAPOST
  1

  9
$DIMALT
 70
     0
  9
$DIMALTD
 70
     2
  9
$DIMALTF
 40
25.399999999999999
  9
$DIMLFAC
 40
1.0
  9
$DIMTOFL
 70
     0
  9
$DIMTVP
 40
0.0
  9
$DIMTIX
 70
     0
  9
$DIMSOXD
 70
     0
  9
$DIMSAH
 70
     0
  9
$DIMBLK1
  1

  9
$DIMBLK2
  1

  9
$DIMSTYLE
  2
STANDARD
  9
$DIMCLRD
 70
     0
  9
$DIMCLRE
 70
     0
  9
$DIMCLRT
 70
     0
  9
$DIMTFAC
 40
1.0
  9
$DIMGAP
 40
0.09
  9
$LUNITS
 70
     2
  9
$LUPREC
 70
     4
  9
$SKETCHINC
 40
0.1
  9
$FILLETRAD
 40
0.0
  9
$AUNITS
 70
     0
  9
$AUPREC
 70
     0
  9
$MENU
  1
acad
  9
$ELEVATION
 40
0.0
  9
$PELEVATION
 40
0.0
  9
$THICKNESS
 40
0.0
  9
$LIMCHECK
 70
     0
  9
$BLIPMODE
 70
     0
  9
$CHAMFERA
 40
0.0
  9
$CHAMFERB
 40
0.0
  9
$SKPOLY
 70
     0
  9
$TDCREATE
 40
2455202.6998379631
  9
$TDUPDATE
 40
2455202.7008625809
  9
$TDINDWG
 40
0.0002309375
  9
$TDUSRTIMER
 40
0.0002309375
  9
$USRTIMER
 70
     1
  9
$ANGBASE
 50
0.0
  9
$ANGDIR
 70
     0
  9
$PDMODE
 70
     1
  9
$PDSIZE
 40
-2.0
  9
$PLINEWID
 40
0.0
  9
$COORDS
 70
     0
  9
$SPLFRAME
 70
     0
  9
$SPLINETYPE
 70
     6
  9
$SPLINESEGS
 70
     8
  9
$ATTDIA
 70
     0
  9
$ATTREQ
 70
     1
  9
$HANDLING
 70
     1
  9
$HANDSEED
  5
48F
  9
$SURFTAB1
 70
     6
  9
$SURFTAB2
 70
     6
  9
$SURFTYPE
 70
     6
  9
$SURFU
 70
     6
  9
$SURFV
 70
     6
  9
$UCSNAME
  2

  9
$UCSORG
 10
0.0
 20
0.0
 30
0.0
  9
$UCSXDIR
 10
1.0
 20
0.0
 30
0.0
  9
$UCSYDIR
 10
0.0
 20
1.0
 30
0.0
  9
$PUCSNAME
  2

  9
$PUCSORG
 10
0.0
 20
0.0
 30
0.0
  9
$PUCSXDIR
 10
1.0
 20
0.0
 30
0.0
  9
$PUCSYDIR
 10
0.0
 20
1.0
 30
0.0
  9
$USERI1
 70
     0
  9
$USERI2
 70
     0
  9
$USERI3
 70
     0
  9
$USERI4
 70
     0
  9
$USERI5
 70
     0
  9
$USERR1
 40
0.0
  9
$USERR2
 40
0.0
  9
$USERR3
 40
0.0
  9
$USERR4
 40
0.0
  9
$USERR5
 40
0.0
  9
$WORLDVIEW
 70
     1
  9
$SHADEDGE
 70
     3
  9
$SHADEDIF
 70
    70
  9
$TILEMODE
 70
     1
  9
$MAXACTVP
 70
    64
  9
$PLIMCHECK
 70
     0
  9
$PEXTMIN
 10
1.0000000000000000E+020
 20
1.0000000000000000E+020
 30
1.0000000000000000E+020
  9
$PEXTMAX
 10
-1.0000000000000000E+020
 20
-1.0000000000000000E+020
 30
-1.0000000000000000E+020
  9
$PLIMMIN
 10
0.0
 20
0.0
  9
$PLIMMAX
 10
12.0
 20
9.0
  9
$UNITMODE
 70
     0
  9
$VISRETAIN
 70
     0
  9
$PLINEGEN
 70
     1
  9
$PSLTSCALE
 70
     0
  0
ENDSEC
  0
SECTION
  2
TABLES
  0
TABLE
  2
VPORT
 70
     1
  0
VPORT
  2
*ACTIVE
 70
     0
 10
0.0
 20
0.0
 11
1.0
 21
1.0
 12
100.0000008381904
 22
135.95202162726571
 13
0.0
 23
0.0
 14
1.0
 24
1.0
 15
0.0
 25
0.0
 16
0.0
 26
0.0
 36
1.0
 17
0.0
 27
0.0
 37
0.0
 40
539.10981149908309
 41
1.964329643296433
 42
50.0
 43
0.0
 44
0.0
 50
0.0
 51
0.0
 71
     0
 72
  2000
 73
     1
 74
     1
 75
     0
 76
     0
 77
     0
 78
     0
  0
ENDTAB
  0
TABLE
  2
LTYPE
 70
    11
  0
LTYPE
  2
CONTINUOUS
 70
     0
  3
Solid line
 72
    65
 73
     0
 40
0.0
  0
ENDTAB
  0
TABLE
  2
LAYER
 70
     5
  0
LAYER
  2
0
 70
     0
 62
     7
  6
CONTINUOUS
  0
LAYER
  2
DATA
 70
     0
 62
     7
  6
CONTINUOUS
  0
LAYER
  2
HIBINO-BASE
 70
     0
 62
     7
  6
CONTINUOUS
  0
LAYER
  2
SPEC
 70
     0
 62
     7
  6
CONTINUOUS
  0
LAYER
  2
DIMNSIONS
 70
     0
 62
     7
  6
CONTINUOUS
  0
ENDTAB
  0
TABLE
  2
STYLE
 70
     3
  0
STYLE
  2
STANDARD
 70
     0
 40
0.0
 41
1.0
 50
0.0
 71
     0
 42
0.0
  3
txt
  4
BIGFONT.SHX
  0
ENDTAB
  0
TABLE
  2
VIEW
 70
     0
  0
ENDTAB
  0
TABLE
  2
UCS
 70
     0
  0
ENDTAB
  0
TABLE
  2
APPID
 70
     3
  0
APPID
  2
ACAD
 70
     0
  0
APPID
  2
ACADANNOTATIVE
 70
     0
  0
APPID
  2
ACAD_MLEADERVER
 70
     0
  0
ENDTAB
  0
TABLE
  2
DIMSTYLE
 70
     2
  0
DIMSTYLE
  2
STANDARD
 70
     0
  3

  4

  5

  6

  7

 40
1.0
 41
0.18
 42
0.0625
 43
0.38
 44
0.18
 45
0.0
 46
0.0
 47
0.0
 48
0.0
140
0.18
141
0.09
142
0.0
143
25.399999999999999
144
1.0
145
0.0
146
1.0
147
0.09
 71
     0
 72
     0
 73
     1
 74
     1
 75
     0
 76
     0
 77
     0
 78
     0
170
     0
171
     2
172
     0
173
     0
174
     0
175
     0
176
     0
177
     0
178
     0
  0
ENDTAB
  0
ENDSEC
  0
SECTION
  2
BLOCKS
  0
BLOCK
  8
0
  2
$MODEL_SPACE
 70
     0
 10
0.0
 20
0.0
 30
0.0
  3
$MODEL_SPACE
  1

  0
ENDBLK
  5
315
  8
0
  0
BLOCK
 67
     1
  8
0
  2
$PAPER_SPACE
 70
     0
 10
0.0
 20
0.0
 30
0.0
  3
$PAPER_SPACE
  1

  0
ENDBLK
  5
311
 67
     1
  8
0
  0
ENDSEC
  0
SECTION
  2
ENTITIES
  0
LINE
  5
2C
  8
HIBINO-BASE
  6
CONTINUOUS
 62
     7
 10
-79.999999999999986
 20
403.51827454690522
 30
0.0
 11
279.99999999999989
 21
403.51827454690522
 31
0.0
  0
LINE
  5
2D
  8
HIBINO-BASE
  6
CONTINUOUS
 62
     7
 10
279.99999999999989
 20
-116.4817254530948
 30
0.0
 11
-79.999999999999986
 21
-116.4817254530948
 31
0.0
  0
LINE
  5
2E
  8
HIBINO-BASE
  6
CONTINUOUS
 62
     7
 10
-79.999999999999986
 20
-116.4817254530948
 30
0.0
 11
-79.999999999999986
 21
403.51827454690522
 31
0.0
  0
LINE
  5
2F
  8
HIBINO-BASE
  6
CONTINUOUS
 62
     7
 10
279.99999999999989
 20
403.51827454690522
 30
0.0
 11
279.99999999999989
 21
-116.4817254530948
 31
0.0
  0
LINE
  5
30
  8
HIBINO-BASE
  6
CONTINUOUS
 62
     7
 10
100.0
 20
-71.481725453094782
 30
0.0
 11
279.99999999999989
 21
-71.481725453094782
 31
0.0
  0
LINE
  5
31
  8
HIBINO-BASE
  6
CONTINUOUS
 62
     7
 10
100.0
 20
-116.4817254530948
 30
0.0
 11
100.0
 21
-71.481725453094782
 31
0.0
  0
TEXT
  5
32
  8
HIBINO-BASE
 62
     7
 10
101.8
 20
-76.499112119761492
 30
0.0
 40
3.2576822916666659
  1
NOTE
 41
0.7
 11
101.8
 21
-73.241429828094823
 31
0.0
 73
     3
  0
LINE
  5
33
  8
HIBINO-BASE
  6
CONTINUOUS
 62
     7
 10
170.0
 20
-116.4817254530948
 30
0.0
 11
170.0
 21
-71.481725453094782
 31
0.0
  0
TEXT
  5
34
  8
HIBINO-BASE
 62
     7
 10
171.7999999999999
 20
-76.499112119761492
 30
0.0
 40
3.2576822916666659
  1
TITLE
 41
0.7
 11
171.7999999999999
 21
-73.241429828094823
 31
0.0
 73
     3
  0
LINE
  5
35
  8
HIBINO-BASE
  6
CONTINUOUS
 62
     7
 10
100.0
 20
-96.481725453094782
 30
0.0
 11
279.99999999999989
 21
-96.481725453094782
 31
0.0
  0
TEXT
  5
36
  8
HIBINO-BASE
 62
     7
 10
196.80000000000001
 20
-101.38647211976151
 30
0.0
 40
3.2576822916666659
  1
DRAWN
 41
0.7
 11
196.80000000000001
 21
-98.12878982809481
 31
0.0
 73
     3
  0
TEXT
  5
37
  8
HIBINO-BASE
 62
     7
 10
146.7999999999999
 20
-101.38647211976151
 30
0.0
 40
3.2576822916666659
  1
DATE
 41
0.7
 11
146.7999999999999
 21
-98.12878982809481
 31
0.0
 73
     3
  0
TEXT
  5
38
  8
HIBINO-BASE
 62
     7
 10
126.8
 20
-101.38647211976151
 30
0.0
 40
3.2576822916666659
  1
SCALE
 41
0.7
 11
126.8
 21
-98.12878982809481
 31
0.0
 73
     3
  0
TEXT
  5
39
  8
HIBINO-BASE
 62
     7
 10
171.7999999999999
 20
-101.38647211976151
 30
0.0
 40
3.2576822916666659
  1
DESIGN
 41
0.7
 11
171.7999999999999
 21
-98.12878982809481
 31
0.0
 73
     3
  0
TEXT
  5
3A
  8
HIBINO-BASE
 62
     7
 10
246.7999999999999
 20
-101.38647211976151
 30
0.0
 40
3.2576822916666659
  1
DRAWING NO.
 41
0.7
 11
246.7999999999999
 21
-98.12878982809481
 31
0.0
 73
     3
  0
TEXT
  5
3B
  8
HIBINO-BASE
 62
     7
 10
221.7999999999999
 20
-101.38647211976151
 30
0.0
 40
3.2576822916666659
  1
CHECK
 41
0.7
 11
221.7999999999999
 21
-98.12878982809481
 31
0.0
 73
     3
  0
LINE
  5
3C
  8
HIBINO-BASE
  6
CONTINUOUS
 62
     7
 10
128.74999999999989
 20
-113.9817254530948
 30
0.0
 11
136.25
 21
-106.4817254530947
 31
0.0
  0
TEXT
  5
3D
  8
HIBINO-BASE
 62
     7
 10
127.5
 20
-108.6996121197614
 30
0.0
 40
3.2576822916666659
  1
1
 41
0.7
 11
127.5
 21
-105.4419298280948
 31
0.0
 73
     3
  0
LINE
  5
3E
  8
HIBINO-BASE
  6
CONTINUOUS
 62
     7
 10
125.0
 20
-116.4817254530948
 30
0.0
 11
125.0
 21
-96.481725453094782
 31
0.0
  0
LINE
  5
3F
  8
HIBINO-BASE
  6
CONTINUOUS
 62
     7
 10
145.0
 20
-116.4817254530948
 30
0.0
 11
145.0
 21
-96.481725453094782
 31
0.0
  0
LINE
  5
40
  8
HIBINO-BASE
  6
CONTINUOUS
 62
     7
 10
195.0
 20
-96.481725453094782
 30
0.0
 11
195.0
 21
-116.4817254530948
 31
0.0
  0
LINE
  5
41
  8
HIBINO-BASE
  6
CONTINUOUS
 62
     7
 10
245.0
 20
-96.481725453094782
 30
0.0
 11
245.0
 21
-116.4817254530948
 31
0.0
  0
LINE
  5
42
  8
HIBINO-BASE
  6
CONTINUOUS
 62
     7
 10
220.0
 20
-116.4817254530948
 30
0.0
 11
220.0
 21
-96.481725453094782
 31
0.0
  0
TEXT
  5
43
  8
HIBINO-BASE
 62
     7
 10
146.71307999999999
 20
-110.7544321197614
 30
0.0
 40
3.2576822916666659
  1
'09.06.
 41
0.7
 11
146.71307999999999
 21
-107.49674982809481
 31
0.0
 73
     3
  0
TEXT
  5
44
  8
HIBINO-BASE
 62
     7
 10
135.0
 20
-112.4496121197614
 30
0.0
 40
3.2576822916666659
  1
2
 41
0.7
 11
135.0
 21
-109.1919298280948
 31
0.0
 73
     3
  0
TEXT
  5
45
  8
HIBINO-BASE
 62
     7
 10
107.76666666666659
 20
-112.5297254530948
 30
0.0
 40
6.5153645833333318
  1
A4
 41
0.7
 11
107.76666666666659
 21
-106.0143608697615
 31
0.0
 73
     3
  0
TEXT
  5
46
  8
HIBINO-BASE
 62
     7
 10
101.9166666666666
 20
-101.7206354530948
 30
0.0
 40
3.2576822916666659
  1
PAPER SIZE
 41
0.7
 11
101.9166666666666
 21
-98.462953161428146
 31
0.0
 73
     3
  0
TEXT
  5
47
  8
HIBINO-BASE
 62
     7
 10
-74.171578506403733
 20
-129.27071252960431
 30
0.0
 40
7.0583116319444441
  1
Hibino-Intersound Corporation
 41
0.7
 11
-74.171578506403733
 21
-122.2124008976599
 31
0.0
 73
     3
  0
TEXT
  5
48
  8
HIBINO-BASE
 62
     7
 10
141.2919332079756
 20
-128.65003452868569
 30
0.0
 40
7.0583116319444441
  1
ヒビノインターサウンド株式会社
 41
0.7
 11
141.2919332079756
 21
-121.5917228967413
 31
0.0
 73
     3
  0
TEXT
  5
49
  8
HIBINO-BASE
 62
     7
 10
199.4181532353777
 20
-110.6880550130288
 30
0.0
 40
3.2576822916666659
  1
T.Ootake
 41
0.7
 11
199.4181532353777
 21
-107.4303727213622
 31
0.0
 73
     3
  0
LINE
  5
4A
  8
SPEC
  6
CONTINUOUS
 62
     7
 10
-64.999999999999986
 20
383.51827454690522
 30
0.0
 11
230.0
 21
383.51827454690522
 31
0.0
  0
LINE
  5
4B
  8
SPEC
  6
CONTINUOUS
 62
     7
 10
-64.999999999999986
 20
376.01827454690522
 30
0.0
 11
230.0
 21
376.01827454690522
 31
0.0
  0
LINE
  5
4C
  8
SPEC
  6
CONTINUOUS
 62
     7
 10
-64.999999999999986
 20
361.01827454690522
 30
0.0
 11
230.0
 21
361.01827454690522
 31
0.0
  0
LINE
  5
4D
  8
SPEC
  6
CONTINUOUS
 62
     7
 10
-64.999999999999986
 20
323.51827454690522
 30
0.0
 11
230.0
 21
323.51827454690522
 31
0.0
  0
LINE
  5
4E
  8
SPEC
  6
CONTINUOUS
 62
     7
 10
-64.999999999999986
 20
331.01827454690522
 30
0.0
 11
230.0
 21
331.01827454690522
 31
0.0
  0
LINE
  5
4F
  8
SPEC
  6
CONTINUOUS
 62
     7
 10
-64.999999999999986
 20
316.01827454690522
 30
0.0
 11
230.0
 21
316.01827454690522
 31
0.0
  0
LINE
  5
50
  8
SPEC
  6
CONTINUOUS
 62
     7
 10
-64.999999999999986
 20
308.5182745469051
 30
0.0
 11
230.0
 21
308.5182745469051
 31
0.0
  0
LINE
  5
51
  8
SPEC
  6
CONTINUOUS
 62
     7
 10
-64.999999999999986
 20
368.51827454690522
 30
0.0
 11
230.0
 21
368.51827454690522
 31
0.0
  0
LINE
  5
52
  8
SPEC
  6
CONTINUOUS
 62
     7
 10
-64.999999999999986
 20
293.51827454690522
 30
0.0
 11
230.0
 21
293.51827454690522
 31
0.0
  0
LINE
  5
53
  8
SPEC
  6
CONTINUOUS
 62
     7
 10
-64.999999999999986
 20
383.51827454690522
 30
0.0
 11
-64.999999999999986
 21
271.0182745469051
 31
0.0
  0
TEXT
  5
54
  8
SPEC
 62
     7
 10
-62.5
 20
386.30481454690522
 30
0.0
 40
4.8865234375000002
  1
仕様
 41
0.7
 11
-62.5
 21
391.19133798440521
 31
0.0
 73
     3
  0
LINE
  5
55
  8
SPEC
  6
CONTINUOUS
 62
     7
 10
0.0
 20
383.51827454690522
 30
0.0
 11
-0.0000000000000142
 21
271.0182745469051
 31
0.0
  0
LINE
  5
56
  8
SPEC
  6
CONTINUOUS
 62
     7
 10
230.0
 20
383.51827454690522
 30
0.0
 11
230.0
 21
271.0182745469051
 31
0.0
  0
TEXT
  5
57
  8
SPEC
 62
     7
 10
-63.200000000000003
 20
377.59411774690523
 30
0.0
 40
3.8006224999999989
  1
形式
 41
0.7
 11
-63.200000000000003
 21
381.3947402469052
 31
0.0
 73
     3
  0
LINE
  5
58
  8
SPEC
  6
CONTINUOUS
 62
     7
 10
-64.999999999999986
 20
301.01827454690522
 30
0.0
 11
230.0
 21
301.01827454690522
 31
0.0
  0
TEXT
  5
59
  8
SPEC
 62
     7
 10
1.799999999999996
 20
370.09411774690523
 30
0.0
 40
3.8006224999999989
  1
165MHz
 41
0.7
 11
1.7999999999999969
 21
373.89474024690509
 31
0.0
 73
     3
  0
TEXT
  5
5A
  8
SPEC
 62
     7
 10
-63.200000000000003
 20
370.09411774690523
 30
0.0
 40
3.8006224999999989
  1
DVIビデオアンプ帯域
 41
0.7
 11
-63.200000000000003
 21
373.89474024690509
 31
0.0
 73
     3
  0
TEXT
  5
5B
  8
SPEC
 62
     7
 10
1.799999999999996
 20
362.59411774690523
 30
0.0
 40
3.8006224999999989
  1
350MHz
 41
0.7
 11
1.7999999999999969
 21
366.3947402469052
 31
0.0
 73
     3
  0
TEXT
  5
5C
  8
SPEC
 62
     7
 10
-63.200000000000003
 20
362.59411774690523
 30
0.0
 40
3.8006224999999989
  1
VGAビデオ帯域
 41
0.7
 11
-63.200000000000003
 21
366.3947402469052
 31
0.0
 73
     3
  0
TEXT
  5
5D
  8
SPEC
 62
     7
 10
1.799999999999996
 20
355.09411774690523
 30
0.0
 40
3.8006224999999989
  1
0.7V p-p,75\U+03A9 
 41
0.7
 11
1.7999999999999969
 21
358.8947402469052
 31
0.0
 73
     3
  0
TEXT
  5
5E
  8
SPEC
 62
     7
 10
-63.200000000000003
 20
355.09411774690523
 30
0.0
 40
3.8006224999999989
  1
入力ビデオ信号
 41
0.7
 11
-63.200000000000003
 21
358.8947402469052
 31
0.0
 73
     3
  0
TEXT
  5
5F
  8
SPEC
 62
     7
 10
1.799999999999996
 20
325.60708962005288
 30
0.0
 40
3.8006224999999989
  1
5V p-p(TTL)
 41
0.7
 11
1.7999999999999969
 21
329.40771212005279
 31
0.0
 73
     3
  0
TEXT
  5
60
  8
SPEC
 62
     7
 10
-63.200000000000003
 20
325.60708962005288
 30
0.0
 40
3.8006224999999989
  1
入力DDC信号
 41
0.7
 11
-63.200000000000003
 21
329.40771212005279
 31
0.0
 73
     3
  0
TEXT
  5
61
  8
SPEC
 62
     7
 10
1.799999999999996
 20
318.10708962005288
 30
0.0
 40
3.8006224999999989
  1
1080p/1920\U+00D71200
 41
0.7
 11
1.7999999999999969
 21
321.90771212005291
 31
0.0
 73
     3
  0
TEXT
  5
62
  8
SPEC
 62
     7
 10
-63.200000000000003
 20
318.10708962005288
 30
0.0
 40
3.8006224999999989
  1
最大対応解像度
 41
0.7
 11
-63.200000000000003
 21
321.90771212005291
 31
0.0
 73
     3
  0
TEXT
  5
63
  8
SPEC
 62
     7
 10
1.799999999999996
 20
310.60708962005288
 30
0.0
 40
3.8006224999999989
  1
DVI-I(29pin)メス
 41
0.7
 11
1.7999999999999969
 21
314.40771212005279
 31
0.0
 73
     3
  0
TEXT
  5
64
  8
SPEC
 62
     7
 10
-63.200000000000003
 20
310.60708962005288
 30
0.0
 40
3.8006224999999989
  1
DVI端子
 41
0.7
 11
-63.200000000000003
 21
314.40771212005279
 31
0.0
 73
     3
  0
TEXT
  5
65
  8
SPEC
 62
     7
 10
-63.200000000000003
 20
303.10708962005288
 30
0.0
 40
3.8006224999999989
  1
VGA入力端子
 41
0.7
 11
-63.200000000000003
 21
306.90771212005291
 31
0.0
 73
     3
  0
TEXT
  5
66
  8
SPEC
 62
     7
 10
1.799999999999996
 20
347.59411774690523
 30
0.0
 40
3.8006224999999989
  1
H/V:3-5Vp-pTTL
 41
0.7
 11
1.7999999999999969
 21
351.3947402469052
 31
0.0
 73
     3
  0
TEXT
  5
67
  8
SPEC
 62
     7
 10
1.799999999999996
 20
340.09411774690523
 30
0.0
 40
3.8006224999999989
  1
Y:1V p-p,75\U+03A9
 41
0.7
 11
1.7999999999999969
 21
343.8947402469052
 31
0.0
 73
     3
  0
TEXT
  5
68
  8
SPEC
 62
     7
 10
1.799999999999996
 20
332.59411774690523
 30
0.0
 40
3.8006224999999989
  1
Pb/Cb,Pr/Cr:0.7Vp-p,75\U+03A9
 41
0.7
 11
1.7999999999999969
 21
336.3947402469052
 31
0.0
 73
     3
  0
TEXT
  5
69
  8
SPEC
 62
     7
 10
1.799999999999996
 20
303.10708962005288
 30
0.0
 40
3.8006224999999989
  1
HD-15メス
 41
0.7
 11
1.7999999999999969
 21
306.90771212005291
 31
0.0
 73
     3
  0
LINE
  5
6A
  8
SPEC
  6
CONTINUOUS
 62
     7
 10
-64.999999999999986
 20
286.01827454690522
 30
0.0
 11
230.0
 21
286.01827454690522
 31
0.0
  0
LINE
  5
6B
  8
SPEC
  6
CONTINUOUS
 62
     7
 10
-64.999999999999986
 20
278.51827454690522
 30
0.0
 11
230.0
 21
278.51827454690522
 31
0.0
  0
LINE
  5
6C
  8
SPEC
  6
CONTINUOUS
 62
     7
 10
-64.999999999999986
 20
271.0182745469051
 30
0.0
 11
230.0
 21
271.0182745469051
 31
0.0
  0
TEXT
  5
6D
  8
SPEC
 62
     7
 10
-63.503247462254102
 20
280.56047382752701
 30
0.0
 40
3.8006293402777769
  1
寸法
 41
0.7
 11
-63.503247462254102
 21
284.36110316780469
 31
0.0
 73
     3
  0
TEXT
  5
6E
  8
SPEC
 62
     7
 10
-63.388715401208181
 20
273.00816622129997
 30
0.0
 40
3.8006293402777769
  1
重量
 41
0.7
 11
-63.388715401208181
 21
276.80879556157782
 31
0.0
 73
     3
  0
TEXT
  5
6F
  8
SPEC
 62
     7
 10
-63.46152769016129
 20
295.65072371002992
 30
0.0
 40
3.8006293402777769
  1
電源
 41
0.7
 11
-63.46152769016129
 21
299.45135305030772
 31
0.0
 73
     3
  0
TEXT
  5
70
  8
SPEC
 62
     7
 10
1.808745835408984
 20
295.30766940673908
 30
0.0
 40
3.8006293402777769
  1
5V DC
 41
0.7
 11
1.808745835408984
 21
299.10829874701682
 31
0.0
 73
     3
  0
TEXT
  5
71
  8
SPEC
 62
     7
 10
1.4836081078012451
 20
280.48917917337963
 30
0.0
 40
3.8006293402777769
  1
104(W)\U+00D726(H)\U+00D7150(D)mm(突起部含まず)
 41
0.7
 11
1.4836081078012451
 21
284.28980851365742
 31
0.0
 73
     3
  0
TEXT
  5
72
  8
SPEC
 62
     7
 10
1.640641999526351
 20
273.01214620270667
 30
0.0
 40
3.8006293402777769
  1
約300g
 41
0.7
 11
1.640641999526351
 21
276.81277554298453
 31
0.0
 73
     3
  0
TEXT
  5
73
  8
SPEC
 62
     7
 10
-63.377447069216402
 20
288.0065563225246
 30
0.0
 40
3.8006293402777769
  1
消費電力
 41
0.7
 11
-63.377447069216402
 21
291.8071856628024
 31
0.0
 73
     3
  0
TEXT
  5
74
  8
SPEC
 62
     7
 10
1.56374825312659
 20
288.05794000501299
 30
0.0
 40
3.8006293402777769
  1
10W(最大)
 41
0.7
 11
1.56374825312659
 21
291.85856934529079
 31
0.0
 73
     3
  0
TEXT
  5
75
  8
SPEC
 62
     7
 10
1.9710158410227041
 20
377.73181982824309
 30
0.0
 40
3.8006293402777769
  1
VGA to DVIスケーラープラス
 41
0.7
 11
1.9710158410227041
 21
381.53244916852088
 31
0.0
 73
     3
  0
TEXT
  5
76
  8
DIMNSIONS
 62
     7
 10
60.0
 20
-91.942745453094787
 30
0.0
 40
4.8865234375000002
  1
(単位：mm)
 41
0.7
 11
60.0
 21
-87.056222015594784
 31
0.0
 73
     3
  0
LINE
  5
77
  8
DIMNSIONS
  6
CONTINUOUS
 62
     7
 10
-28.999999999999979
 20
25.0
 30
0.0
 11
-54.000000000000021
 21
25.0
 31
0.0
  0
LINE
  5
78
  8
DIMNSIONS
  6
CONTINUOUS
 62
     7
 10
-28.999999999999979
 20
175.0
 30
0.0
 11
-54.000000000000021
 21
175.0
 31
0.0
  0
LINE
  5
79
  8
DIMNSIONS
  6
CONTINUOUS
 62
     7
 10
-50.000000000000021
 20
25.0
 30
0.0
 11
-50.000000000000021
 21
175.0
 31
0.0
  0
LINE
  5
7A
  8
DIMNSIONS
  6
CONTINUOUS
 62
     7
 10
-50.000000000000021
 20
25.0
 30
0.0
 11
-51.340079590300498
 21
30.001245117187491
 31
0.0
  0
LINE
  5
7B
  8
DIMNSIONS
  6
CONTINUOUS
 62
     7
 10
-50.000000000000021
 20
25.0
 30
0.0
 11
-48.659920409699531
 21
30.001245117187491
 31
0.0
  0
LINE
  5
7C
  8
DIMNSIONS
  6
CONTINUOUS
 62
     7
 10
-50.000000000000021
 20
175.0
 30
0.0
 11
-48.659920409699531
 21
169.99875488281251
 31
0.0
  0
LINE
  5
7D
  8
DIMNSIONS
  6
CONTINUOUS
 62
     7
 10
-50.000000000000021
 20
175.0
 30
0.0
 11
-51.340079590300498
 21
169.99875488281251
 31
0.0
  0
TEXT
  5
7E
  8
DIMNSIONS
 62
     7
 10
-51.987777777777772
 20
94.708333333333343
 30
0.0
 40
5.4294704861111107
  1
150
 50
90.0
 41
0.7
 11
-57.417248263888887
 21
94.708333333333343
 31
0.0
 73
     3
  0
LINE
  5
7F
  8
DIMNSIONS
  6
CONTINUOUS
 62
     7
 10
-28.999999999999979
 20
-26.0
 30
0.0
 11
-54.000000000000021
 21
-26.0
 31
0.0
  0
LINE
  5
80
  8
DIMNSIONS
  6
CONTINUOUS
 62
     7
 10
-28.999999999999979
 20
0.0
 30
0.0
 11
-54.000000000000021
 21
0.0
 31
0.0
  0
LINE
  5
81
  8
DIMNSIONS
  6
CONTINUOUS
 62
     7
 10
-50.000000000000021
 20
-26.0
 30
0.0
 11
-50.000000000000021
 21
0.0
 31
0.0
  0
LINE
  5
82
  8
DIMNSIONS
  6
CONTINUOUS
 62
     7
 10
-50.000000000000021
 20
-26.0
 30
0.0
 11
-51.340079590300498
 21
-20.998754882812499
 31
0.0
  0
LINE
  5
83
  8
DIMNSIONS
  6
CONTINUOUS
 62
     7
 10
-50.000000000000021
 20
-26.0
 30
0.0
 11
-48.659920409699531
 21
-20.998754882812499
 31
0.0
  0
LINE
  5
84
  8
DIMNSIONS
  6
CONTINUOUS
 62
     7
 10
-50.000000000000021
 20
0.0
 30
0.0
 11
-48.659920409699531
 21
-5.0012451171874943
 31
0.0
  0
LINE
  5
85
  8
DIMNSIONS
  6
CONTINUOUS
 62
     7
 10
-50.000000000000021
 20
0.0
 30
0.0
 11
-51.340079590300498
 21
-5.0012451171874943
 31
0.0
  0
TEXT
  5
86
  8
DIMNSIONS
 62
     7
 10
-51.987777777777772
 20
-16.527777777777771
 30
0.0
 40
5.4294704861111107
  1
26
 50
90.0
 41
0.7
 11
-57.417248263888887
 21
-16.527777777777771
 31
0.0
 73
     3
  0
LINE
  5
87
  8
DIMNSIONS
  6
CONTINUOUS
 62
     7
 10
-25.0
 20
-30.0
 30
0.0
 11
-25.0
 21
-54.0
 31
0.0
  0
LINE
  5
88
  8
DIMNSIONS
  6
CONTINUOUS
 62
     7
 10
78.999999999999986
 20
-30.0
 30
0.0
 11
78.999999999999986
 21
-54.0
 31
0.0
  0
LINE
  5
89
  8
DIMNSIONS
  6
CONTINUOUS
 62
     7
 10
-25.0
 20
-50.0
 30
0.0
 11
78.999999999999986
 21
-50.0
 31
0.0
  0
LINE
  5
8A
  8
DIMNSIONS
  6
CONTINUOUS
 62
     7
 10
-25.0
 20
-50.0
 30
0.0
 11
-19.998754882812499
 21
-48.659920409699509
 31
0.0
  0
LINE
  5
8B
  8
DIMNSIONS
  6
CONTINUOUS
 62
     7
 10
-25.0
 20
-50.0
 30
0.0
 11
-19.998754882812499
 21
-51.340079590300491
 31
0.0
  0
LINE
  5
8C
  8
DIMNSIONS
  6
CONTINUOUS
 62
     7
 10
78.999999999999986
 20
-50.0
 30
0.0
 11
73.998754882812449
 21
-51.340079590300491
 31
0.0
  0
LINE
  5
8D
  8
DIMNSIONS
  6
CONTINUOUS
 62
     7
 10
78.999999999999986
 20
-50.0
 30
0.0
 11
73.998754882812449
 21
-48.659920409699509
 31
0.0
  0
TEXT
  5
8E
  8
DIMNSIONS
 62
     7
 10
21.708333333333321
 20
-48.012222222222242
 30
0.0
 40
5.4294704861111107
  1
104
 41
0.7
 11
21.708333333333321
 21
-42.582751736111128
 31
0.0
 73
     3
  0
LINE
  5
8F
  8
DIMNSIONS
  6
CONTINUOUS
 62
     7
 10
-25.395493369860159
 20
-29.0
 30
0.0
 11
-54.000000000000021
 21
-29.0
 31
0.0
  0
LINE
  5
90
  8
DIMNSIONS
  6
CONTINUOUS
 62
     7
 10
-28.999999999999979
 20
-26.0
 30
0.0
 11
-54.000000000000021
 21
-26.0
 31
0.0
  0
LINE
  5
91
  8
DIMNSIONS
  6
CONTINUOUS
 62
     7
 10
-50.000000000000021
 20
-26.0
 30
0.0
 11
-50.000000000000021
 21
-29.0
 31
0.0
  0
LINE
  5
92
  8
DIMNSIONS
  6
CONTINUOUS
 62
     7
 10
-50.000000000000021
 20
-29.0
 30
0.0
 11
-50.000000000000021
 21
-42.027777777777771
 31
0.0
  0
LINE
  5
93
  8
DIMNSIONS
  6
CONTINUOUS
 62
     7
 10
-50.000000000000021
 20
-29.0
 30
0.0
 11
-48.659920409699531
 21
-34.001245117187487
 31
0.0
  0
LINE
  5
94
  8
DIMNSIONS
  6
CONTINUOUS
 62
     7
 10
-50.000000000000021
 20
-29.0
 30
0.0
 11
-51.340079590300498
 21
-34.001245117187487
 31
0.0
  0
LINE
  5
95
  8
DIMNSIONS
  6
CONTINUOUS
 62
     7
 10
-50.000000000000021
 20
-26.0
 30
0.0
 11
-50.000000000000021
 21
-16.0
 31
0.0
  0
LINE
  5
96
  8
DIMNSIONS
  6
CONTINUOUS
 62
     7
 10
-50.000000000000021
 20
-26.0
 30
0.0
 11
-51.340079590300498
 21
-20.998754882812499
 31
0.0
  0
LINE
  5
97
  8
DIMNSIONS
  6
CONTINUOUS
 62
     7
 10
-50.000000000000021
 20
-26.0
 30
0.0
 11
-48.659920409699531
 21
-20.998754882812499
 31
0.0
  0
TEXT
  5
98
  8
DIMNSIONS
 62
     7
 10
-51.987777777777772
 20
-42.027777777777771
 30
0.0
 40
5.4294704861111107
  1
3
 50
90.0
 41
0.7
 11
-57.417248263888887
 21
-42.027777777777771
 31
0.0
 73
     3
  0
LINE
  5
99
  8
DIMNSIONS
  6
CONTINUOUS
 62
     7
 10
-15.43626056136346
 20
20.0
 30
0.0
 11
-54.000000000000021
 21
20.0
 31
0.0
  0
LINE
  5
9A
  8
DIMNSIONS
  6
CONTINUOUS
 62
     7
 10
-28.999999999999979
 20
25.0
 30
0.0
 11
-54.000000000000021
 21
25.0
 31
0.0
  0
LINE
  5
9B
  8
DIMNSIONS
  6
CONTINUOUS
 62
     7
 10
-50.000000000000021
 20
25.0
 30
0.0
 11
-50.000000000000021
 21
20.0
 31
0.0
  0
LINE
  5
9C
  8
DIMNSIONS
  6
CONTINUOUS
 62
     7
 10
-50.000000000000021
 20
20.0
 30
0.0
 11
-50.000000000000021
 21
7.8333333333333428
 31
0.0
  0
LINE
  5
9D
  8
DIMNSIONS
  6
CONTINUOUS
 62
     7
 10
-50.000000000000021
 20
20.0
 30
0.0
 11
-48.659920409699531
 21
14.9987548828125
 31
0.0
  0
LINE
  5
9E
  8
DIMNSIONS
  6
CONTINUOUS
 62
     7
 10
-50.000000000000021
 20
20.0
 30
0.0
 11
-51.340079590300498
 21
14.9987548828125
 31
0.0
  0
LINE
  5
9F
  8
DIMNSIONS
  6
CONTINUOUS
 62
     7
 10
-50.000000000000021
 20
25.0
 30
0.0
 11
-50.000000000000021
 21
35.0
 31
0.0
  0
LINE
  5
A0
  8
DIMNSIONS
  6
CONTINUOUS
 62
     7
 10
-50.000000000000021
 20
25.0
 30
0.0
 11
-51.340079590300498
 21
30.001245117187491
 31
0.0
  0
LINE
  5
A1
  8
DIMNSIONS
  6
CONTINUOUS
 62
     7
 10
-50.000000000000021
 20
25.0
 30
0.0
 11
-48.659920409699531
 21
30.001245117187491
 31
0.0
  0
TEXT
  5
A2
  8
DIMNSIONS
 62
     7
 10
-51.987777777777772
 20
7.8333333333333419
 30
0.0
 40
5.4294704861111107
  1
5
 50
90.0
 41
0.7
 11
-57.417248263888887
 21
7.8333333333333428
 31
0.0
 73
     3
  0
LINE
  5
A3
  8
DIMNSIONS
  6
CONTINUOUS
 62
     7
 10
-28.999999999999979
 20
175.0
 30
0.0
 11
-54.000000000000021
 21
175.0
 31
0.0
  0
LINE
  5
A4
  8
DIMNSIONS
  6
CONTINUOUS
 62
     7
 10
17.75766878990801
 20
179.5
 30
0.0
 11
-54.000000000000021
 21
179.5
 31
0.0
  0
LINE
  5
A5
  8
DIMNSIONS
  6
CONTINUOUS
 62
     7
 10
-50.000000000000021
 20
179.5
 30
0.0
 11
-50.000000000000021
 21
175.0
 31
0.0
  0
LINE
  5
A6
  8
DIMNSIONS
  6
CONTINUOUS
 62
     7
 10
-50.000000000000021
 20
175.0
 30
0.0
 11
-50.000000000000021
 21
165.0
 31
0.0
  0
LINE
  5
A7
  8
DIMNSIONS
  6
CONTINUOUS
 62
     7
 10
-50.000000000000021
 20
175.0
 30
0.0
 11
-48.659920409699531
 21
169.99875488281251
 31
0.0
  0
LINE
  5
A8
  8
DIMNSIONS
  6
CONTINUOUS
 62
     7
 10
-50.000000000000021
 20
175.0
 30
0.0
 11
-51.340079590300498
 21
169.99875488281251
 31
0.0
  0
LINE
  5
A9
  8
DIMNSIONS
  6
CONTINUOUS
 62
     7
 10
-50.000000000000021
 20
179.5
 30
0.0
 11
-50.000000000000021
 21
198.08333333333329
 31
0.0
  0
LINE
  5
AA
  8
DIMNSIONS
  6
CONTINUOUS
 62
     7
 10
-50.000000000000021
 20
179.5
 30
0.0
 11
-51.340079590300498
 21
184.50124511718741
 31
0.0
  0
LINE
  5
AB
  8
DIMNSIONS
  6
CONTINUOUS
 62
     7
 10
-50.000000000000021
 20
179.5
 30
0.0
 11
-48.659920409699531
 21
184.50124511718741
 31
0.0
  0
TEXT
  5
AC
  8
DIMNSIONS
 62
     7
 10
-51.987777777777772
 20
187.5
 30
0.0
 40
5.4294704861111107
  1
4.5
 50
90.0
 41
0.7
 11
-57.417248263888887
 21
187.5
 31
0.0
 73
     3
  0
TEXT
  5
AD
  8
DATA
 62
     7
 10
-60.0
 20
-108.0057254530948
 30
0.0
 40
3.2576822916666659
  1
仕様および外観は予告なく変更されることがありますので、ご了承ください。
 41
0.7
 11
-60.0
 21
-104.7480431614282
 31
0.0
 73
     3
  0
POLYLINE
  5
AE
  8
DATA
  6
CONTINUOUS
 62
     7
 66
     1
 10
0.0
 20
0.0
 30
0.0
 70
     1
  0
VERTEX
  5
341
  8
DATA
  6
CONTINUOUS
 62
     7
 10
-25.0
 20
175.0
 30
0.0
  0
VERTEX
  5
342
  8
DATA
  6
CONTINUOUS
 62
     7
 10
79.0
 20
175.0
 30
0.0
  0
VERTEX
  5
343
  8
DATA
  6
CONTINUOUS
 62
     7
 10
79.0
 20
25.0
 30
0.0
  0
VERTEX
  5
344
  8
DATA
  6
CONTINUOUS
 62
     7
 10
-25.0
 20
25.0
 30
0.0
  0
SEQEND
  5
345
  8
DATA
  6
CONTINUOUS
 62
     7
  0
LINE
  5
B5
  8
DATA
  6
CONTINUOUS
 62
     7
 10
-25.0
 20
-26.0
 30
0.0
 11
-25.0
 21
0.0
 31
0.0
  0
LINE
  5
B6
  8
DATA
  6
CONTINUOUS
 62
     7
 10
78.999999999999986
 20
-26.0
 30
0.0
 11
66.999999999999986
 21
-26.0
 31
0.0
  0
LINE
  5
B7
  8
DATA
  6
CONTINUOUS
 62
     7
 10
-13.0
 20
-26.0
 30
0.0
 11
-25.0
 21
-26.0
 31
0.0
  0
LINE
  5
B8
  8
DATA
  6
CONTINUOUS
 62
     7
 10
78.999999999999986
 20
0.0
 30
0.0
 11
78.999999999999986
 21
-26.0
 31
0.0
  0
LINE
  5
B9
  8
DATA
  6
CONTINUOUS
 62
     7
 10
-25.0
 20
0.0
 30
0.0
 11
78.999999999999986
 21
0.0
 31
0.0
  0
LINE
  5
BA
  8
DATA
  6
CONTINUOUS
 62
     7
 10
-25.0
 20
-25.0
 30
0.0
 11
78.999999999999986
 21
-25.0
 31
0.0
  0
LINE
  5
BB
  8
DATA
  6
CONTINUOUS
 62
     7
 10
-13.0
 20
-25.0
 30
0.0
 11
-13.0
 21
-26.0
 31
0.0
  0
LINE
  5
BC
  8
DATA
  6
CONTINUOUS
 62
     7
 10
66.999999999999986
 20
-25.0
 30
0.0
 11
66.999999999999986
 21
-26.0
 31
0.0
  0
LINE
  5
BD
  8
DATA
  6
CONTINUOUS
 62
     7
 10
-21.395493369860159
 20
-29.0
 30
0.0
 11
-21.995493369860011
 21
-26.0
 31
0.0
  0
LINE
  5
BE
  8
DATA
  6
CONTINUOUS
 62
     7
 10
-15.595493369860151
 20
-29.0
 30
0.0
 11
-14.995493369860149
 21
-26.0
 31
0.0
  0
LINE
  5
BF
  8
DATA
  6
CONTINUOUS
 62
     7
 10
-21.395493369860159
 20
-29.0
 30
0.0
 11
-15.595493369860151
 21
-29.0
 31
0.0
  0
LINE
  5
C0
  8
DATA
  6
CONTINUOUS
 62
     7
 10
75.395493369860148
 20
-29.0
 30
0.0
 11
75.995493369860014
 21
-26.0
 31
0.0
  0
LINE
  5
C1
  8
DATA
  6
CONTINUOUS
 62
     7
 10
69.595493369860151
 20
-29.0
 30
0.0
 11
68.995493369860156
 21
-26.0
 31
0.0
  0
LINE
  5
C2
  8
DATA
  6
CONTINUOUS
 62
     7
 10
75.395493369860148
 20
-29.0
 30
0.0
 11
69.595493369860151
 21
-29.0
 31
0.0
  0
CIRCLE
  5
C3
  8
DATA
  6
CONTINUOUS
 62
     7
 10
-8.9900443028742547
 20
-14.08780078785702
 30
0.0
 40
1.175000000000068
  0
POLYLINE
  5
C4
  8
DATA
  6
CONTINUOUS
 62
     7
 66
     1
 10
0.0
 20
0.0
 30
0.0
 70
     1
  0
VERTEX
  5
346
  8
DATA
  6
CONTINUOUS
 62
     7
 10
-8.9900443028742547
 20
-11.38780078785703
 30
0.0
  0
VERTEX
  5
347
  8
DATA
  6
CONTINUOUS
 62
     7
 10
-11.328312893092169
 20
-12.737800787857051
 30
0.0
  0
VERTEX
  5
348
  8
DATA
  6
CONTINUOUS
 62
     7
 10
-11.328312893092169
 20
-15.437800787857039
 30
0.0
  0
VERTEX
  5
349
  8
DATA
  6
CONTINUOUS
 62
     7
 10
-8.9900443028742547
 20
-16.787800787857009
 30
0.0
  0
VERTEX
  5
34A
  8
DATA
  6
CONTINUOUS
 62
     7
 10
-6.6517757126562174
 20
-15.437800787857039
 30
0.0
  0
VERTEX
  5
34B
  8
DATA
  6
CONTINUOUS
 62
     7
 10
-6.6517757126562174
 20
-12.737800787857051
 30
0.0
  0
SEQEND
  5
34C
  8
DATA
  6
CONTINUOUS
 62
     7
  0
CIRCLE
  5
CD
  8
DATA
  6
CONTINUOUS
 62
     7
 10
23.509955697126269
 20
-14.08780078785702
 30
0.0
 40
1.175000000000068
  0
POLYLINE
  5
CE
  8
DATA
  6
CONTINUOUS
 62
     7
 66
     1
 10
0.0
 20
0.0
 30
0.0
 70
     1
  0
VERTEX
  5
34D
  8
DATA
  6
CONTINUOUS
 62
     7
 10
23.509955697126269
 20
-11.38780078785703
 30
0.0
  0
VERTEX
  5
34E
  8
DATA
  6
CONTINUOUS
 62
     7
 10
21.171687106908351
 20
-12.737800787857051
 30
0.0
  0
VERTEX
  5
34F
  8
DATA
  6
CONTINUOUS
 62
     7
 10
21.171687106908351
 20
-15.437800787857039
 30
0.0
  0
VERTEX
  5
350
  8
DATA
  6
CONTINUOUS
 62
     7
 10
23.509955697126269
 20
-16.787800787857009
 30
0.0
  0
VERTEX
  5
351
  8
DATA
  6
CONTINUOUS
 62
     7
 10
25.848224287344308
 20
-15.437800787857039
 30
0.0
  0
VERTEX
  5
352
  8
DATA
  6
CONTINUOUS
 62
     7
 10
25.848224287344308
 20
-12.737800787857051
 30
0.0
  0
SEQEND
  5
353
  8
DATA
  6
CONTINUOUS
 62
     7
  0
LINE
  5
D7
  8
DATA
  6
CONTINUOUS
 62
     7
 10
-3.6899491900659309
 20
-10.162800787857011
 30
0.0
 11
18.209860584318239
 21
-10.162800787857011
 31
0.0
  0
LINE
  5
D8
  8
DATA
  6
CONTINUOUS
 62
     7
 10
17.650943386866011
 20
-18.012800787857032
 30
0.0
 11
-3.1310319926136421
 21
-18.012800787857032
 31
0.0
  0
POLYLINE
  5
D9
  8
DATA
  6
CONTINUOUS
 62
     7
 66
     1
 10
0.0
 20
0.0
 30
0.0
 70
     1
  0
VERTEX
  5
354
  8
DATA
  6
CONTINUOUS
 62
     7
 10
-3.740110474053508
 20
-13.32280078785703
 30
0.0
  0
VERTEX
  5
355
  8
DATA
  6
CONTINUOUS
 62
     7
 10
-2.210110474053522
 20
-13.32280078785703
 30
0.0
  0
VERTEX
  5
356
  8
DATA
  6
CONTINUOUS
 62
     7
 10
-2.210110474053522
 20
-14.85280078785701
 30
0.0
  0
VERTEX
  5
357
  8
DATA
  6
CONTINUOUS
 62
     7
 10
-3.740110474053508
 20
-14.85280078785701
 30
0.0
  0
SEQEND
  5
358
  8
DATA
  6
CONTINUOUS
 62
     7
  0
POLYLINE
  5
E0
  8
DATA
  6
CONTINUOUS
 62
     7
 66
     1
 10
0.0
 20
0.0
 30
0.0
 70
     1
  0
VERTEX
  5
359
  8
DATA
  6
CONTINUOUS
 62
     7
 10
-1.7401104740534801
 20
-13.32280078785703
 30
0.0
  0
VERTEX
  5
35A
  8
DATA
  6
CONTINUOUS
 62
     7
 10
-0.2101104740535078
 20
-13.32280078785703
 30
0.0
  0
VERTEX
  5
35B
  8
DATA
  6
CONTINUOUS
 62
     7
 10
-0.2101104740535078
 20
-14.85280078785701
 30
0.0
  0
VERTEX
  5
35C
  8
DATA
  6
CONTINUOUS
 62
     7
 10
-1.7401104740534801
 20
-14.85280078785701
 30
0.0
  0
SEQEND
  5
35D
  8
DATA
  6
CONTINUOUS
 62
     7
  0
POLYLINE
  5
E7
  8
DATA
  6
CONTINUOUS
 62
     7
 66
     1
 10
0.0
 20
0.0
 30
0.0
 70
     1
  0
VERTEX
  5
35E
  8
DATA
  6
CONTINUOUS
 62
     7
 10
0.2598895259465195
 20
-13.32280078785703
 30
0.0
  0
VERTEX
  5
35F
  8
DATA
  6
CONTINUOUS
 62
     7
 10
1.789889525946492
 20
-13.32280078785703
 30
0.0
  0
VERTEX
  5
360
  8
DATA
  6
CONTINUOUS
 62
     7
 10
1.789889525946492
 20
-14.85280078785701
 30
0.0
  0
VERTEX
  5
361
  8
DATA
  6
CONTINUOUS
 62
     7
 10
0.2598895259465195
 20
-14.85280078785701
 30
0.0
  0
SEQEND
  5
362
  8
DATA
  6
CONTINUOUS
 62
     7
  0
POLYLINE
  5
EE
  8
DATA
  6
CONTINUOUS
 62
     7
 66
     1
 10
0.0
 20
0.0
 30
0.0
 70
     1
  0
VERTEX
  5
363
  8
DATA
  6
CONTINUOUS
 62
     7
 10
2.2598895259465048
 20
-13.32280078785703
 30
0.0
  0
VERTEX
  5
364
  8
DATA
  6
CONTINUOUS
 62
     7
 10
3.789889525946478
 20
-13.32280078785703
 30
0.0
  0
VERTEX
  5
365
  8
DATA
  6
CONTINUOUS
 62
     7
 10
3.789889525946478
 20
-14.85280078785701
 30
0.0
  0
VERTEX
  5
366
  8
DATA
  6
CONTINUOUS
 62
     7
 10
2.2598895259465048
 20
-14.85280078785701
 30
0.0
  0
SEQEND
  5
367
  8
DATA
  6
CONTINUOUS
 62
     7
  0
POLYLINE
  5
F5
  8
DATA
  6
CONTINUOUS
 62
     7
 66
     1
 10
0.0
 20
0.0
 30
0.0
 70
     1
  0
VERTEX
  5
368
  8
DATA
  6
CONTINUOUS
 62
     7
 10
4.2598895259465044
 20
-13.32280078785703
 30
0.0
  0
VERTEX
  5
369
  8
DATA
  6
CONTINUOUS
 62
     7
 10
5.7898895259465908
 20
-13.32280078785703
 30
0.0
  0
VERTEX
  5
36A
  8
DATA
  6
CONTINUOUS
 62
     7
 10
5.7898895259465908
 20
-14.85280078785701
 30
0.0
  0
VERTEX
  5
36B
  8
DATA
  6
CONTINUOUS
 62
     7
 10
4.2598895259465044
 20
-14.85280078785701
 30
0.0
  0
SEQEND
  5
36C
  8
DATA
  6
CONTINUOUS
 62
     7
  0
POLYLINE
  5
FC
  8
DATA
  6
CONTINUOUS
 62
     7
 66
     1
 10
0.0
 20
0.0
 30
0.0
 70
     1
  0
VERTEX
  5
36D
  8
DATA
  6
CONTINUOUS
 62
     7
 10
6.2598895259466483
 20
-13.32280078785703
 30
0.0
  0
VERTEX
  5
36E
  8
DATA
  6
CONTINUOUS
 62
     7
 10
7.789889525946732
 20
-13.32280078785703
 30
0.0
  0
VERTEX
  5
36F
  8
DATA
  6
CONTINUOUS
 62
     7
 10
7.789889525946732
 20
-14.85280078785701
 30
0.0
  0
VERTEX
  5
370
  8
DATA
  6
CONTINUOUS
 62
     7
 10
6.2598895259466483
 20
-14.85280078785701
 30
0.0
  0
SEQEND
  5
371
  8
DATA
  6
CONTINUOUS
 62
     7
  0
POLYLINE
  5
103
  8
DATA
  6
CONTINUOUS
 62
     7
 66
     1
 10
0.0
 20
0.0
 30
0.0
 70
     1
  0
VERTEX
  5
372
  8
DATA
  6
CONTINUOUS
 62
     7
 10
8.2598895259467895
 20
-13.32280078785703
 30
0.0
  0
VERTEX
  5
373
  8
DATA
  6
CONTINUOUS
 62
     7
 10
9.7898895259468777
 20
-13.32280078785703
 30
0.0
  0
VERTEX
  5
374
  8
DATA
  6
CONTINUOUS
 62
     7
 10
9.7898895259468777
 20
-14.85280078785701
 30
0.0
  0
VERTEX
  5
375
  8
DATA
  6
CONTINUOUS
 62
     7
 10
8.2598895259467895
 20
-14.85280078785701
 30
0.0
  0
SEQEND
  5
376
  8
DATA
  6
CONTINUOUS
 62
     7
  0
POLYLINE
  5
10A
  8
DATA
  6
CONTINUOUS
 62
     7
 66
     1
 10
0.0
 20
0.0
 30
0.0
 70
     1
  0
VERTEX
  5
377
  8
DATA
  6
CONTINUOUS
 62
     7
 10
10.25988952594693
 20
-13.32280078785703
 30
0.0
  0
VERTEX
  5
378
  8
DATA
  6
CONTINUOUS
 62
     7
 10
11.78988952594702
 20
-13.32280078785703
 30
0.0
  0
VERTEX
  5
379
  8
DATA
  6
CONTINUOUS
 62
     7
 10
11.78988952594702
 20
-14.85280078785701
 30
0.0
  0
VERTEX
  5
37A
  8
DATA
  6
CONTINUOUS
 62
     7
 10
10.25988952594693
 20
-14.85280078785701
 30
0.0
  0
SEQEND
  5
37B
  8
DATA
  6
CONTINUOUS
 62
     7
  0
POLYLINE
  5
111
  8
DATA
  6
CONTINUOUS
 62
     7
 66
     1
 10
0.0
 20
0.0
 30
0.0
 70
     1
  0
VERTEX
  5
37C
  8
DATA
  6
CONTINUOUS
 62
     7
 10
-3.740110474053508
 20
-11.32280078785703
 30
0.0
  0
VERTEX
  5
37D
  8
DATA
  6
CONTINUOUS
 62
     7
 10
-2.210110474053522
 20
-11.32280078785703
 30
0.0
  0
VERTEX
  5
37E
  8
DATA
  6
CONTINUOUS
 62
     7
 10
-2.210110474053522
 20
-12.85280078785701
 30
0.0
  0
VERTEX
  5
37F
  8
DATA
  6
CONTINUOUS
 62
     7
 10
-3.740110474053508
 20
-12.85280078785701
 30
0.0
  0
SEQEND
  5
380
  8
DATA
  6
CONTINUOUS
 62
     7
  0
POLYLINE
  5
118
  8
DATA
  6
CONTINUOUS
 62
     7
 66
     1
 10
0.0
 20
0.0
 30
0.0
 70
     1
  0
VERTEX
  5
381
  8
DATA
  6
CONTINUOUS
 62
     7
 10
-1.7401104740534801
 20
-11.32280078785703
 30
0.0
  0
VERTEX
  5
382
  8
DATA
  6
CONTINUOUS
 62
     7
 10
-0.2101104740535078
 20
-11.32280078785703
 30
0.0
  0
VERTEX
  5
383
  8
DATA
  6
CONTINUOUS
 62
     7
 10
-0.2101104740535078
 20
-12.85280078785701
 30
0.0
  0
VERTEX
  5
384
  8
DATA
  6
CONTINUOUS
 62
     7
 10
-1.7401104740534801
 20
-12.85280078785701
 30
0.0
  0
SEQEND
  5
385
  8
DATA
  6
CONTINUOUS
 62
     7
  0
POLYLINE
  5
11F
  8
DATA
  6
CONTINUOUS
 62
     7
 66
     1
 10
0.0
 20
0.0
 30
0.0
 70
     1
  0
VERTEX
  5
386
  8
DATA
  6
CONTINUOUS
 62
     7
 10
0.2598895259465195
 20
-11.32280078785703
 30
0.0
  0
VERTEX
  5
387
  8
DATA
  6
CONTINUOUS
 62
     7
 10
1.789889525946492
 20
-11.32280078785703
 30
0.0
  0
VERTEX
  5
388
  8
DATA
  6
CONTINUOUS
 62
     7
 10
1.789889525946492
 20
-12.85280078785701
 30
0.0
  0
VERTEX
  5
389
  8
DATA
  6
CONTINUOUS
 62
     7
 10
0.2598895259465195
 20
-12.85280078785701
 30
0.0
  0
SEQEND
  5
38A
  8
DATA
  6
CONTINUOUS
 62
     7
  0
POLYLINE
  5
126
  8
DATA
  6
CONTINUOUS
 62
     7
 66
     1
 10
0.0
 20
0.0
 30
0.0
 70
     1
  0
VERTEX
  5
38B
  8
DATA
  6
CONTINUOUS
 62
     7
 10
2.2598895259465048
 20
-11.32280078785703
 30
0.0
  0
VERTEX
  5
38C
  8
DATA
  6
CONTINUOUS
 62
     7
 10
3.789889525946478
 20
-11.32280078785703
 30
0.0
  0
VERTEX
  5
38D
  8
DATA
  6
CONTINUOUS
 62
     7
 10
3.789889525946478
 20
-12.85280078785701
 30
0.0
  0
VERTEX
  5
38E
  8
DATA
  6
CONTINUOUS
 62
     7
 10
2.2598895259465048
 20
-12.85280078785701
 30
0.0
  0
SEQEND
  5
38F
  8
DATA
  6
CONTINUOUS
 62
     7
  0
POLYLINE
  5
12D
  8
DATA
  6
CONTINUOUS
 62
     7
 66
     1
 10
0.0
 20
0.0
 30
0.0
 70
     1
  0
VERTEX
  5
390
  8
DATA
  6
CONTINUOUS
 62
     7
 10
4.2598895259465044
 20
-11.32280078785703
 30
0.0
  0
VERTEX
  5
391
  8
DATA
  6
CONTINUOUS
 62
     7
 10
5.7898895259465908
 20
-11.32280078785703
 30
0.0
  0
VERTEX
  5
392
  8
DATA
  6
CONTINUOUS
 62
     7
 10
5.7898895259465908
 20
-12.85280078785701
 30
0.0
  0
VERTEX
  5
393
  8
DATA
  6
CONTINUOUS
 62
     7
 10
4.2598895259465044
 20
-12.85280078785701
 30
0.0
  0
SEQEND
  5
394
  8
DATA
  6
CONTINUOUS
 62
     7
  0
POLYLINE
  5
134
  8
DATA
  6
CONTINUOUS
 62
     7
 66
     1
 10
0.0
 20
0.0
 30
0.0
 70
     1
  0
VERTEX
  5
395
  8
DATA
  6
CONTINUOUS
 62
     7
 10
6.2598895259466483
 20
-11.32280078785703
 30
0.0
  0
VERTEX
  5
396
  8
DATA
  6
CONTINUOUS
 62
     7
 10
7.789889525946732
 20
-11.32280078785703
 30
0.0
  0
VERTEX
  5
397
  8
DATA
  6
CONTINUOUS
 62
     7
 10
7.789889525946732
 20
-12.85280078785701
 30
0.0
  0
VERTEX
  5
398
  8
DATA
  6
CONTINUOUS
 62
     7
 10
6.2598895259466483
 20
-12.85280078785701
 30
0.0
  0
SEQEND
  5
399
  8
DATA
  6
CONTINUOUS
 62
     7
  0
POLYLINE
  5
13B
  8
DATA
  6
CONTINUOUS
 62
     7
 66
     1
 10
0.0
 20
0.0
 30
0.0
 70
     1
  0
VERTEX
  5
39A
  8
DATA
  6
CONTINUOUS
 62
     7
 10
8.2598895259467895
 20
-11.32280078785703
 30
0.0
  0
VERTEX
  5
39B
  8
DATA
  6
CONTINUOUS
 62
     7
 10
9.7898895259468777
 20
-11.32280078785703
 30
0.0
  0
VERTEX
  5
39C
  8
DATA
  6
CONTINUOUS
 62
     7
 10
9.7898895259468777
 20
-12.85280078785701
 30
0.0
  0
VERTEX
  5
39D
  8
DATA
  6
CONTINUOUS
 62
     7
 10
8.2598895259467895
 20
-12.85280078785701
 30
0.0
  0
SEQEND
  5
39E
  8
DATA
  6
CONTINUOUS
 62
     7
  0
POLYLINE
  5
142
  8
DATA
  6
CONTINUOUS
 62
     7
 66
     1
 10
0.0
 20
0.0
 30
0.0
 70
     1
  0
VERTEX
  5
39F
  8
DATA
  6
CONTINUOUS
 62
     7
 10
10.25988952594693
 20
-11.32280078785703
 30
0.0
  0
VERTEX
  5
3A0
  8
DATA
  6
CONTINUOUS
 62
     7
 10
11.78988952594702
 20
-11.32280078785703
 30
0.0
  0
VERTEX
  5
3A1
  8
DATA
  6
CONTINUOUS
 62
     7
 10
11.78988952594702
 20
-12.85280078785701
 30
0.0
  0
VERTEX
  5
3A2
  8
DATA
  6
CONTINUOUS
 62
     7
 10
10.25988952594693
 20
-12.85280078785701
 30
0.0
  0
SEQEND
  5
3A3
  8
DATA
  6
CONTINUOUS
 62
     7
  0
POLYLINE
  5
149
  8
DATA
  6
CONTINUOUS
 62
     7
 66
     1
 10
0.0
 20
0.0
 30
0.0
 70
     1
  0
VERTEX
  5
3A4
  8
DATA
  6
CONTINUOUS
 62
     7
 10
-3.740110474053508
 20
-15.32280078785703
 30
0.0
  0
VERTEX
  5
3A5
  8
DATA
  6
CONTINUOUS
 62
     7
 10
-2.210110474053522
 20
-15.32280078785703
 30
0.0
  0
VERTEX
  5
3A6
  8
DATA
  6
CONTINUOUS
 62
     7
 10
-2.210110474053522
 20
-16.85280078785701
 30
0.0
  0
VERTEX
  5
3A7
  8
DATA
  6
CONTINUOUS
 62
     7
 10
-3.740110474053508
 20
-16.85280078785701
 30
0.0
  0
SEQEND
  5
3A8
  8
DATA
  6
CONTINUOUS
 62
     7
  0
POLYLINE
  5
150
  8
DATA
  6
CONTINUOUS
 62
     7
 66
     1
 10
0.0
 20
0.0
 30
0.0
 70
     1
  0
VERTEX
  5
3A9
  8
DATA
  6
CONTINUOUS
 62
     7
 10
-1.7401104740534801
 20
-15.32280078785703
 30
0.0
  0
VERTEX
  5
3AA
  8
DATA
  6
CONTINUOUS
 62
     7
 10
-0.2101104740535078
 20
-15.32280078785703
 30
0.0
  0
VERTEX
  5
3AB
  8
DATA
  6
CONTINUOUS
 62
     7
 10
-0.2101104740535078
 20
-16.85280078785701
 30
0.0
  0
VERTEX
  5
3AC
  8
DATA
  6
CONTINUOUS
 62
     7
 10
-1.7401104740534801
 20
-16.85280078785701
 30
0.0
  0
SEQEND
  5
3AD
  8
DATA
  6
CONTINUOUS
 62
     7
  0
POLYLINE
  5
157
  8
DATA
  6
CONTINUOUS
 62
     7
 66
     1
 10
0.0
 20
0.0
 30
0.0
 70
     1
  0
VERTEX
  5
3AE
  8
DATA
  6
CONTINUOUS
 62
     7
 10
0.2598895259465195
 20
-15.32280078785703
 30
0.0
  0
VERTEX
  5
3AF
  8
DATA
  6
CONTINUOUS
 62
     7
 10
1.789889525946492
 20
-15.32280078785703
 30
0.0
  0
VERTEX
  5
3B0
  8
DATA
  6
CONTINUOUS
 62
     7
 10
1.789889525946492
 20
-16.85280078785701
 30
0.0
  0
VERTEX
  5
3B1
  8
DATA
  6
CONTINUOUS
 62
     7
 10
0.2598895259465195
 20
-16.85280078785701
 30
0.0
  0
SEQEND
  5
3B2
  8
DATA
  6
CONTINUOUS
 62
     7
  0
POLYLINE
  5
15E
  8
DATA
  6
CONTINUOUS
 62
     7
 66
     1
 10
0.0
 20
0.0
 30
0.0
 70
     1
  0
VERTEX
  5
3B3
  8
DATA
  6
CONTINUOUS
 62
     7
 10
2.2598895259465048
 20
-15.32280078785703
 30
0.0
  0
VERTEX
  5
3B4
  8
DATA
  6
CONTINUOUS
 62
     7
 10
3.789889525946478
 20
-15.32280078785703
 30
0.0
  0
VERTEX
  5
3B5
  8
DATA
  6
CONTINUOUS
 62
     7
 10
3.789889525946478
 20
-16.85280078785701
 30
0.0
  0
VERTEX
  5
3B6
  8
DATA
  6
CONTINUOUS
 62
     7
 10
2.2598895259465048
 20
-16.85280078785701
 30
0.0
  0
SEQEND
  5
3B7
  8
DATA
  6
CONTINUOUS
 62
     7
  0
POLYLINE
  5
165
  8
DATA
  6
CONTINUOUS
 62
     7
 66
     1
 10
0.0
 20
0.0
 30
0.0
 70
     1
  0
VERTEX
  5
3B8
  8
DATA
  6
CONTINUOUS
 62
     7
 10
4.2598895259465044
 20
-15.32280078785703
 30
0.0
  0
VERTEX
  5
3B9
  8
DATA
  6
CONTINUOUS
 62
     7
 10
5.7898895259465908
 20
-15.32280078785703
 30
0.0
  0
VERTEX
  5
3BA
  8
DATA
  6
CONTINUOUS
 62
     7
 10
5.7898895259465908
 20
-16.85280078785701
 30
0.0
  0
VERTEX
  5
3BB
  8
DATA
  6
CONTINUOUS
 62
     7
 10
4.2598895259465044
 20
-16.85280078785701
 30
0.0
  0
SEQEND
  5
3BC
  8
DATA
  6
CONTINUOUS
 62
     7
  0
POLYLINE
  5
16C
  8
DATA
  6
CONTINUOUS
 62
     7
 66
     1
 10
0.0
 20
0.0
 30
0.0
 70
     1
  0
VERTEX
  5
3BD
  8
DATA
  6
CONTINUOUS
 62
     7
 10
6.2598895259466483
 20
-15.32280078785703
 30
0.0
  0
VERTEX
  5
3BE
  8
DATA
  6
CONTINUOUS
 62
     7
 10
7.789889525946732
 20
-15.32280078785703
 30
0.0
  0
VERTEX
  5
3BF
  8
DATA
  6
CONTINUOUS
 62
     7
 10
7.789889525946732
 20
-16.85280078785701
 30
0.0
  0
VERTEX
  5
3C0
  8
DATA
  6
CONTINUOUS
 62
     7
 10
6.2598895259466483
 20
-16.85280078785701
 30
0.0
  0
SEQEND
  5
3C1
  8
DATA
  6
CONTINUOUS
 62
     7
  0
POLYLINE
  5
173
  8
DATA
  6
CONTINUOUS
 62
     7
 66
     1
 10
0.0
 20
0.0
 30
0.0
 70
     1
  0
VERTEX
  5
3C2
  8
DATA
  6
CONTINUOUS
 62
     7
 10
8.2598895259467895
 20
-15.32280078785703
 30
0.0
  0
VERTEX
  5
3C3
  8
DATA
  6
CONTINUOUS
 62
     7
 10
9.7898895259468777
 20
-15.32280078785703
 30
0.0
  0
VERTEX
  5
3C4
  8
DATA
  6
CONTINUOUS
 62
     7
 10
9.7898895259468777
 20
-16.85280078785701
 30
0.0
  0
VERTEX
  5
3C5
  8
DATA
  6
CONTINUOUS
 62
     7
 10
8.2598895259467895
 20
-16.85280078785701
 30
0.0
  0
SEQEND
  5
3C6
  8
DATA
  6
CONTINUOUS
 62
     7
  0
POLYLINE
  5
17A
  8
DATA
  6
CONTINUOUS
 62
     7
 66
     1
 10
0.0
 20
0.0
 30
0.0
 70
     1
  0
VERTEX
  5
3C7
  8
DATA
  6
CONTINUOUS
 62
     7
 10
10.25988952594693
 20
-15.32280078785703
 30
0.0
  0
VERTEX
  5
3C8
  8
DATA
  6
CONTINUOUS
 62
     7
 10
11.78988952594702
 20
-15.32280078785703
 30
0.0
  0
VERTEX
  5
3C9
  8
DATA
  6
CONTINUOUS
 62
     7
 10
11.78988952594702
 20
-16.85280078785701
 30
0.0
  0
VERTEX
  5
3CA
  8
DATA
  6
CONTINUOUS
 62
     7
 10
10.25988952594693
 20
-16.85280078785701
 30
0.0
  0
SEQEND
  5
3CB
  8
DATA
  6
CONTINUOUS
 62
     7
  0
POLYLINE
  5
181
  8
DATA
  6
CONTINUOUS
 62
     7
 66
     1
 10
0.0
 20
0.0
 30
0.0
  0
VERTEX
  5
3CC
  8
DATA
  6
CONTINUOUS
 62
     7
 10
15.80995569712665
 20
-13.687800787857039
 30
0.0
  0
VERTEX
  5
3CD
  8
DATA
  6
CONTINUOUS
 62
     7
 10
17.909955697126559
 20
-13.687800787857039
 30
0.0
  0
VERTEX
  5
3CE
  8
DATA
  6
CONTINUOUS
 62
     7
 10
17.909955697126559
 20
-14.487800787857051
 30
0.0
  0
VERTEX
  5
3CF
  8
DATA
  6
CONTINUOUS
 62
     7
 10
15.80995569712665
 20
-14.487800787857051
 30
0.0
  0
SEQEND
  5
3D0
  8
DATA
  6
CONTINUOUS
 62
     7
  0
POLYLINE
  5
188
  8
DATA
  6
CONTINUOUS
 62
     7
 66
     1
 10
0.0
 20
0.0
 30
0.0
  0
VERTEX
  5
3D1
  8
DATA
  6
CONTINUOUS
 62
     7
 10
15.009955697126699
 20
-14.487800787857051
 30
0.0
  0
VERTEX
  5
3D2
  8
DATA
  6
CONTINUOUS
 62
     7
 10
12.90995569712657
 20
-14.487800787857051
 30
0.0
  0
VERTEX
  5
3D3
  8
DATA
  6
CONTINUOUS
 62
     7
 10
12.90995569712657
 20
-13.687800787857039
 30
0.0
  0
VERTEX
  5
3D4
  8
DATA
  6
CONTINUOUS
 62
     7
 10
15.009955697126699
 20
-13.687800787857039
 30
0.0
  0
SEQEND
  5
3D5
  8
DATA
  6
CONTINUOUS
 62
     7
  0
POLYLINE
  5
18F
  8
DATA
  6
CONTINUOUS
 62
     7
 66
     1
 10
0.0
 20
0.0
 30
0.0
  0
VERTEX
  5
3D6
  8
DATA
  6
CONTINUOUS
 62
     7
 10
15.80995569712665
 20
-14.487800787857051
 30
0.0
  0
VERTEX
  5
3D7
  8
DATA
  6
CONTINUOUS
 62
     7
 10
15.80995569712665
 20
-16.58780078785702
 30
0.0
  0
VERTEX
  5
3D8
  8
DATA
  6
CONTINUOUS
 62
     7
 10
15.009955697126699
 20
-16.58780078785702
 30
0.0
  0
VERTEX
  5
3D9
  8
DATA
  6
CONTINUOUS
 62
     7
 10
15.009955697126699
 20
-14.487800787857051
 30
0.0
  0
SEQEND
  5
3DA
  8
DATA
  6
CONTINUOUS
 62
     7
  0
POLYLINE
  5
196
  8
DATA
  6
CONTINUOUS
 62
     7
 66
     1
 10
0.0
 20
0.0
 30
0.0
  0
VERTEX
  5
3DB
  8
DATA
  6
CONTINUOUS
 62
     7
 10
15.009955697126699
 20
-13.687800787857039
 30
0.0
  0
VERTEX
  5
3DC
  8
DATA
  6
CONTINUOUS
 62
     7
 10
15.009955697126699
 20
-11.58780078785702
 30
0.0
  0
VERTEX
  5
3DD
  8
DATA
  6
CONTINUOUS
 62
     7
 10
15.80995569712665
 20
-11.58780078785702
 30
0.0
  0
VERTEX
  5
3DE
  8
DATA
  6
CONTINUOUS
 62
     7
 10
15.80995569712665
 20
-13.687800787857039
 30
0.0
  0
SEQEND
  5
3DF
  8
DATA
  6
CONTINUOUS
 62
     7
  0
POLYLINE
  5
19D
  8
DATA
  6
CONTINUOUS
 62
     7
 66
     1
 10
0.0
 20
0.0
 30
0.0
 70
     1
  0
VERTEX
  5
3E0
  8
DATA
  6
CONTINUOUS
 62
     7
 10
13.54967126665491
 20
-12.32837297720709
 30
0.0
  0
VERTEX
  5
3E1
  8
DATA
  6
CONTINUOUS
 62
     7
 10
14.549671266654959
 20
-12.32837297720709
 30
0.0
  0
VERTEX
  5
3E2
  8
DATA
  6
CONTINUOUS
 62
     7
 10
14.549671266654959
 20
-13.32837297720709
 30
0.0
  0
VERTEX
  5
3E3
  8
DATA
  6
CONTINUOUS
 62
     7
 10
13.54967126665491
 20
-13.32837297720709
 30
0.0
  0
SEQEND
  5
3E4
  8
DATA
  6
CONTINUOUS
 62
     7
  0
POLYLINE
  5
1A4
  8
DATA
  6
CONTINUOUS
 62
     7
 66
     1
 10
0.0
 20
0.0
 30
0.0
 70
     1
  0
VERTEX
  5
3E5
  8
DATA
  6
CONTINUOUS
 62
     7
 10
16.27024012759837
 20
-12.32837297720709
 30
0.0
  0
VERTEX
  5
3E6
  8
DATA
  6
CONTINUOUS
 62
     7
 10
17.270240127598331
 20
-12.32837297720709
 30
0.0
  0
VERTEX
  5
3E7
  8
DATA
  6
CONTINUOUS
 62
     7
 10
17.270240127598331
 20
-13.32837297720709
 30
0.0
  0
VERTEX
  5
3E8
  8
DATA
  6
CONTINUOUS
 62
     7
 10
16.27024012759837
 20
-13.32837297720709
 30
0.0
  0
SEQEND
  5
3E9
  8
DATA
  6
CONTINUOUS
 62
     7
  0
POLYLINE
  5
1AB
  8
DATA
  6
CONTINUOUS
 62
     7
 66
     1
 10
0.0
 20
0.0
 30
0.0
 70
     1
  0
VERTEX
  5
3EA
  8
DATA
  6
CONTINUOUS
 62
     7
 10
13.54967126665491
 20
-14.847228598506939
 30
0.0
  0
VERTEX
  5
3EB
  8
DATA
  6
CONTINUOUS
 62
     7
 10
14.549671266654959
 20
-14.847228598506939
 30
0.0
  0
VERTEX
  5
3EC
  8
DATA
  6
CONTINUOUS
 62
     7
 10
14.549671266654959
 20
-15.847228598506939
 30
0.0
  0
VERTEX
  5
3ED
  8
DATA
  6
CONTINUOUS
 62
     7
 10
13.54967126665491
 20
-15.847228598506939
 30
0.0
  0
SEQEND
  5
3EE
  8
DATA
  6
CONTINUOUS
 62
     7
  0
POLYLINE
  5
1B2
  8
DATA
  6
CONTINUOUS
 62
     7
 66
     1
 10
0.0
 20
0.0
 30
0.0
 70
     1
  0
VERTEX
  5
3EF
  8
DATA
  6
CONTINUOUS
 62
     7
 10
16.27024012759837
 20
-14.847228598506939
 30
0.0
  0
VERTEX
  5
3F0
  8
DATA
  6
CONTINUOUS
 62
     7
 10
17.270240127598331
 20
-14.847228598506939
 30
0.0
  0
VERTEX
  5
3F1
  8
DATA
  6
CONTINUOUS
 62
     7
 10
17.270240127598331
 20
-15.847228598506939
 30
0.0
  0
VERTEX
  5
3F2
  8
DATA
  6
CONTINUOUS
 62
     7
 10
16.27024012759837
 20
-15.847228598506939
 30
0.0
  0
SEQEND
  5
3F3
  8
DATA
  6
CONTINUOUS
 62
     7
  0
LINE
  5
1B9
  8
DATA
  6
CONTINUOUS
 62
     7
 10
-4.685416120821329
 20
-11.25790909334324
 30
0.0
 11
-4.1264989233690272
 21
-17.10790909334327
 31
0.0
  0
LINE
  5
1BA
  8
DATA
  6
CONTINUOUS
 62
     7
 10
19.20532751507352
 20
-11.25790909334324
 30
0.0
 11
18.646410317621289
 21
-17.10790909334321
 31
0.0
  0
ARC
  5
1BB
  8
DATA
  6
CONTINUOUS
 62
     7
 10
-3.6899491900659309
 20
-11.162800787857011
 30
0.0
 40
1.0
 50
90.0
 51
185.4575534851075
  0
ARC
  5
1BC
  8
DATA
  6
CONTINUOUS
 62
     7
 10
18.209860584318239
 20
-11.162800787857011
 30
0.0
 40
0.9999999999999051
 50
354.54244651489188
 51
90.0
  0
ARC
  5
1BD
  8
DATA
  6
CONTINUOUS
 62
     7
 10
-3.1310319926136421
 20
-17.012800787857032
 30
0.0
 40
1.0000000000000031
 50
185.4575534851075
 51
270.0
  0
ARC
  5
1BE
  8
DATA
  6
CONTINUOUS
 62
     7
 10
17.650943386866011
 20
-17.012800787857032
 30
0.0
 40
1.0
 50
270.0
 51
354.54244651489512
  0
TEXT
  5
1BF
  8
DATA
 62
     7
 10
0.4526545157297902
 20
-22.851508971550778
 30
0.0
 40
2.8097509765624999
  1
DVI Out
 41
0.7
 11
0.4526545157297904
 21
-20.041757994988281
 31
0.0
 73
     3
  0
LINE
  5
1C0
  8
DATA
  6
CONTINUOUS
 62
     7
 10
78.999999999999986
 20
-21.100000000000019
 30
0.0
 11
78.999999999999986
 21
-4.3000000000000114
 31
0.0
  0
CIRCLE
  5
1C1
  8
DATA
  6
CONTINUOUS
 62
     7
 10
60.0
 20
-14.0
 30
0.0
 40
1.5
  0
CIRCLE
  5
1C2
  8
DATA
  6
CONTINUOUS
 62
     7
 10
48.999999999999993
 20
-14.0
 30
0.0
 40
1.5
  0
CIRCLE
  5
1C3
  8
DATA
  6
CONTINUOUS
 62
     7
 10
37.999999999999993
 20
-14.0
 30
0.0
 40
1.5
  0
TEXT
  5
1C4
  8
DATA
 62
     7
 10
34.570567421263803
 20
-22.851508971550778
 30
0.0
 40
2.8097509765624999
  1
MENU
 41
0.7
 11
34.570567421263803
 21
-20.041757994988281
 31
0.0
 73
     3
  0
TEXT
  5
1C5
  8
DATA
 62
     7
 10
59.05094162120389
 20
-22.851508971550778
 30
0.0
 40
2.8097509765624999
  1
+
 41
0.7
 11
59.05094162120389
 21
-20.041757994988281
 31
0.0
 73
     3
  0
TEXT
  5
1C6
  8
DATA
 62
     7
 10
48.131229898947971
 20
-22.851508971550778
 30
0.0
 40
2.8097509765624999
  1
-
 41
0.7
 11
48.131229898947971
 21
-20.041757994988281
 31
0.0
 73
     3
  0
LINE
  5
1C7
  8
DATA
  6
CONTINUOUS
 62
     7
 10
25.740276619073921
 20
20.0
 30
0.0
 11
25.740276619073921
 21
25.0
 31
0.0
  0
LINE
  5
1C8
  8
DATA
  6
CONTINUOUS
 62
     7
 10
21.063739438637871
 20
20.0
 30
0.0
 11
21.063739438637871
 21
25.0
 31
0.0
  0
LINE
  5
1C9
  8
DATA
  6
CONTINUOUS
 62
     7
 10
-6.759723380927511
 20
20.0
 30
0.0
 11
-6.759723380927511
 21
25.0
 31
0.0
  0
LINE
  5
1CA
  8
DATA
  6
CONTINUOUS
 62
     7
 10
-11.43626056136346
 20
20.0
 30
0.0
 11
-11.43626056136346
 21
25.0
 31
0.0
  0
LINE
  5
1CB
  8
DATA
  6
CONTINUOUS
 62
     7
 10
19.092632281263
 20
20.0
 30
0.0
 11
19.092632281263
 21
25.0
 31
0.0
  0
LINE
  5
1CC
  8
DATA
  6
CONTINUOUS
 62
     7
 10
-4.7933637890926653
 20
20.0
 30
0.0
 11
-4.7933637890926653
 21
25.0
 31
0.0
  0
LINE
  5
1CD
  8
DATA
  6
CONTINUOUS
 62
     7
 10
25.740276619073921
 20
20.0
 30
0.0
 11
21.063739438637871
 21
20.0
 31
0.0
  0
LINE
  5
1CE
  8
DATA
  6
CONTINUOUS
 62
     7
 10
19.092632281263
 20
20.0
 30
0.0
 11
-4.7933637890926653
 21
20.0
 31
0.0
  0
LINE
  5
1CF
  8
DATA
  6
CONTINUOUS
 62
     7
 10
-6.759723380927511
 20
20.0
 30
0.0
 11
-11.43626056136346
 21
20.0
 31
0.0
  0
LINE
  5
1D0
  8
DATA
  6
CONTINUOUS
 62
     7
 10
36.499999999999993
 20
21.5
 30
0.0
 11
39.499999999999993
 21
21.5
 31
0.0
  0
LINE
  5
1D1
  8
DATA
  6
CONTINUOUS
 62
     7
 10
47.499999999999993
 20
21.5
 30
0.0
 11
50.499999999999993
 21
21.5
 31
0.0
  0
LINE
  5
1D2
  8
DATA
  6
CONTINUOUS
 62
     7
 10
58.499999999999993
 20
21.5
 30
0.0
 11
61.499999999999993
 21
21.5
 31
0.0
  0
LINE
  5
1D3
  8
DATA
  6
CONTINUOUS
 62
     7
 10
36.499999999999993
 20
21.5
 30
0.0
 11
36.499999999999993
 21
25.0
 31
0.0
  0
LINE
  5
1D4
  8
DATA
  6
CONTINUOUS
 62
     7
 10
39.499999999999993
 20
21.5
 30
0.0
 11
39.499999999999993
 21
25.0
 31
0.0
  0
LINE
  5
1D5
  8
DATA
  6
CONTINUOUS
 62
     7
 10
47.499999999999993
 20
21.5
 30
0.0
 11
47.499999999999993
 21
25.0
 31
0.0
  0
LINE
  5
1D6
  8
DATA
  6
CONTINUOUS
 62
     7
 10
50.499999999999993
 20
21.5
 30
0.0
 11
50.499999999999993
 21
25.0
 31
0.0
  0
LINE
  5
1D7
  8
DATA
  6
CONTINUOUS
 62
     7
 10
58.499999999999993
 20
21.5
 30
0.0
 11
58.499999999999993
 21
25.0
 31
0.0
  0
LINE
  5
1D8
  8
DATA
  6
CONTINUOUS
 62
     7
 10
61.499999999999993
 20
21.5
 30
0.0
 11
61.499999999999993
 21
25.0
 31
0.0
  0
LINE
  5
1D9
  8
DATA
  6
CONTINUOUS
 62
     7
 10
-25.0
 20
238.5
 30
0.0
 11
-25.0
 21
212.5
 31
0.0
  0
LINE
  5
1DA
  8
DATA
  6
CONTINUOUS
 62
     7
 10
78.999999999999986
 20
238.5
 30
0.0
 11
66.999999999999986
 21
238.5
 31
0.0
  0
LINE
  5
1DB
  8
DATA
  6
CONTINUOUS
 62
     7
 10
-13.0
 20
238.5
 30
0.0
 11
-25.0
 21
238.5
 31
0.0
  0
LINE
  5
1DC
  8
DATA
  6
CONTINUOUS
 62
     7
 10
78.999999999999986
 20
212.5
 30
0.0
 11
78.999999999999986
 21
238.5
 31
0.0
  0
LINE
  5
1DD
  8
DATA
  6
CONTINUOUS
 62
     7
 10
-25.0
 20
212.5
 30
0.0
 11
78.999999999999986
 21
212.5
 31
0.0
  0
LINE
  5
1DE
  8
DATA
  6
CONTINUOUS
 62
     7
 10
-25.0
 20
237.5
 30
0.0
 11
78.999999999999986
 21
237.5
 31
0.0
  0
LINE
  5
1DF
  8
DATA
  6
CONTINUOUS
 62
     7
 10
-13.0
 20
237.5
 30
0.0
 11
-13.0
 21
238.5
 31
0.0
  0
LINE
  5
1E0
  8
DATA
  6
CONTINUOUS
 62
     7
 10
66.999999999999986
 20
237.5
 30
0.0
 11
66.999999999999986
 21
238.5
 31
0.0
  0
LINE
  5
1E1
  8
DATA
  6
CONTINUOUS
 62
     7
 10
-21.395493369860159
 20
241.5
 30
0.0
 11
-21.995493369860011
 21
238.5
 31
0.0
  0
LINE
  5
1E2
  8
DATA
  6
CONTINUOUS
 62
     7
 10
-15.595493369860151
 20
241.5
 30
0.0
 11
-14.995493369860149
 21
238.5
 31
0.0
  0
LINE
  5
1E3
  8
DATA
  6
CONTINUOUS
 62
     7
 10
-21.395493369860159
 20
241.5
 30
0.0
 11
-15.595493369860151
 21
241.5
 31
0.0
  0
LINE
  5
1E4
  8
DATA
  6
CONTINUOUS
 62
     7
 10
75.395493369860148
 20
241.5
 30
0.0
 11
75.995493369860014
 21
238.5
 31
0.0
  0
LINE
  5
1E5
  8
DATA
  6
CONTINUOUS
 62
     7
 10
69.595493369860151
 20
241.5
 30
0.0
 11
68.995493369860156
 21
238.5
 31
0.0
  0
LINE
  5
1E6
  8
DATA
  6
CONTINUOUS
 62
     7
 10
75.395493369860148
 20
241.5
 30
0.0
 11
69.595493369860151
 21
241.5
 31
0.0
  0
TEXT
  5
1E7
  8
DATA
 62
     7
 10
41.598517598255953
 20
234.87804629185399
 30
0.0
 40
2.8097509765624999
  1
VGA In
 50
180.0
 41
0.7
 11
41.598517598255953
 21
232.06829531529149
 31
0.0
 73
     3
  0
CIRCLE
  5
1E8
  8
DATA
  6
CONTINUOUS
 62
     7
 10
66.102281342936863
 20
224.0
 30
0.0
 40
5.0
  0
CIRCLE
  5
1E9
  8
DATA
  6
CONTINUOUS
 62
     7
 10
6.0020453218637471
 20
224.0
 30
0.0
 40
3.2999999999999958
  0
CIRCLE
  5
1EA
  8
DATA
  6
CONTINUOUS
 62
     7
 10
6.0020453218637471
 20
224.0
 30
0.0
 40
0.5
  0
CIRCLE
  5
1EB
  8
DATA
  6
CONTINUOUS
 62
     7
 10
-6.0
 20
224.0
 30
0.0
 40
1.2999999999999969
  0
TEXT
  5
1EC
  8
DATA
 62
     7
 10
67.53057616528568
 20
234.87804629185399
 30
0.0
 40
2.8097509765624999
  1
IR
 50
180.0
 41
0.7
 11
67.53057616528568
 21
232.06829531529149
 31
0.0
 73
     3
  0
TEXT
  5
1ED
  8
DATA
 62
     7
 10
11.140286237133679
 20
234.87804629185399
 30
0.0
 40
2.8097509765624999
  1
5V DC
 50
180.0
 41
0.7
 11
11.140286237133679
 21
232.06829531529149
 31
0.0
 73
     3
  0
TEXT
  5
1EE
  8
DATA
 62
     7
 10
-2.6110358815297441
 20
234.87804629185399
 30
0.0
 40
2.8097509765624999
  1
Power
 50
180.0
 41
0.7
 11
-2.6110358815297441
 21
232.06829531529149
 31
0.0
 73
     3
  0
POLYLINE
  5
1EF
  8
DATA
  6
CONTINUOUS
 62
     7
 66
     1
 10
0.0
 20
0.0
 30
0.0
 70
   129
  0
VERTEX
  5
3F4
  8
DATA
  6
CONTINUOUS
 62
     7
 10
32.647184911558789
 20
223.98229030839099
 30
0.0
 42
-0.4142135623730951
  0
VERTEX
  5
3F5
  8
DATA
  6
CONTINUOUS
 62
     7
 10
33.147184911558789
 20
224.48229030839099
 30
0.0
 42
-0.4142135623731035
  0
VERTEX
  5
3F6
  8
DATA
  6
CONTINUOUS
 62
     7
 10
33.647184911558789
 20
223.98229030839099
 30
0.0
 42
-0.4142135623730951
  0
VERTEX
  5
3F7
  8
DATA
  6
CONTINUOUS
 62
     7
 10
33.147184911558789
 20
223.48229030839099
 30
0.0
 42
-0.4142135623730868
  0
VERTEX
  5
3F8
  8
DATA
  6
CONTINUOUS
 62
     7
 10
32.647184911558789
 20
223.98229030839099
 30
0.0
  0
SEQEND
  5
3F9
  8
DATA
  6
CONTINUOUS
 62
     7
  0
LINE
  5
1F6
  8
DATA
  6
CONTINUOUS
 62
     7
 10
43.077239025500397
 20
219.812290308391
 30
0.0
 11
30.177239025500398
 21
219.812290308391
 31
0.0
  0
LINE
  5
1F7
  8
DATA
  6
CONTINUOUS
 62
     7
 10
42.700669025500389
 20
228.152290308391
 30
0.0
 11
30.5537990255004
 21
228.152290308391
 31
0.0
  0
POLYLINE
  5
1F8
  8
DATA
  6
CONTINUOUS
 62
     7
 66
     1
 10
0.0
 20
0.0
 30
0.0
 70
   129
  0
VERTEX
  5
3FA
  8
DATA
  6
CONTINUOUS
 62
     7
 10
34.92718491155879
 20
223.98229030839099
 30
0.0
 42
-0.4142135623730951
  0
VERTEX
  5
3FB
  8
DATA
  6
CONTINUOUS
 62
     7
 10
35.427184911558783
 20
224.48229030839099
 30
0.0
 42
-0.4142135623730868
  0
VERTEX
  5
3FC
  8
DATA
  6
CONTINUOUS
 62
     7
 10
35.927184911558783
 20
223.98229030839099
 30
0.0
 42
-0.4142135623730951
  0
VERTEX
  5
3FD
  8
DATA
  6
CONTINUOUS
 62
     7
 10
35.427184911558783
 20
223.48229030839099
 30
0.0
 42
-0.4142135623731035
  0
VERTEX
  5
3FE
  8
DATA
  6
CONTINUOUS
 62
     7
 10
34.92718491155879
 20
223.98229030839099
 30
0.0
  0
SEQEND
  5
3FF
  8
DATA
  6
CONTINUOUS
 62
     7
  0
POLYLINE
  5
1FF
  8
DATA
  6
CONTINUOUS
 62
     7
 66
     1
 10
0.0
 20
0.0
 30
0.0
 70
   129
  0
VERTEX
  5
400
  8
DATA
  6
CONTINUOUS
 62
     7
 10
40.429253455884819
 20
225.962290308391
 30
0.0
 42
-0.4142135623730951
  0
VERTEX
  5
401
  8
DATA
  6
CONTINUOUS
 62
     7
 10
40.929253455884819
 20
226.462290308391
 30
0.0
 42
-0.4142135623730951
  0
VERTEX
  5
402
  8
DATA
  6
CONTINUOUS
 62
     7
 10
41.429253455884833
 20
225.962290308391
 30
0.0
 42
-0.4142135623730951
  0
VERTEX
  5
403
  8
DATA
  6
CONTINUOUS
 62
     7
 10
40.929253455884819
 20
225.462290308391
 30
0.0
 42
-0.4142135623730951
  0
VERTEX
  5
404
  8
DATA
  6
CONTINUOUS
 62
     7
 10
40.429253455884819
 20
225.962290308391
 30
0.0
  0
SEQEND
  5
405
  8
DATA
  6
CONTINUOUS
 62
     7
  0
POLYLINE
  5
206
  8
DATA
  6
CONTINUOUS
 62
     7
 66
     1
 10
0.0
 20
0.0
 30
0.0
 70
   129
  0
VERTEX
  5
406
  8
DATA
  6
CONTINUOUS
 62
     7
 10
38.139253455884841
 20
225.962290308391
 30
0.0
 42
-0.4142135623730951
  0
VERTEX
  5
407
  8
DATA
  6
CONTINUOUS
 62
     7
 10
38.639253455884841
 20
226.462290308391
 30
0.0
 42
-0.4142135623730951
  0
VERTEX
  5
408
  8
DATA
  6
CONTINUOUS
 62
     7
 10
39.139253455884841
 20
225.962290308391
 30
0.0
 42
-0.4142135623730951
  0
VERTEX
  5
409
  8
DATA
  6
CONTINUOUS
 62
     7
 10
38.639253455884841
 20
225.462290308391
 30
0.0
 42
-0.4142135623730951
  0
VERTEX
  5
40A
  8
DATA
  6
CONTINUOUS
 62
     7
 10
38.139253455884841
 20
225.962290308391
 30
0.0
  0
SEQEND
  5
40B
  8
DATA
  6
CONTINUOUS
 62
     7
  0
POLYLINE
  5
20D
  8
DATA
  6
CONTINUOUS
 62
     7
 66
     1
 10
0.0
 20
0.0
 30
0.0
 70
   129
  0
VERTEX
  5
40C
  8
DATA
  6
CONTINUOUS
 62
     7
 10
35.849253455884842
 20
225.962290308391
 30
0.0
 42
-0.4142135623730951
  0
VERTEX
  5
40D
  8
DATA
  6
CONTINUOUS
 62
     7
 10
36.349253455884842
 20
226.462290308391
 30
0.0
 42
-0.4142135623730868
  0
VERTEX
  5
40E
  8
DATA
  6
CONTINUOUS
 62
     7
 10
36.849253455884842
 20
225.962290308391
 30
0.0
 42
-0.4142135623730951
  0
VERTEX
  5
40F
  8
DATA
  6
CONTINUOUS
 62
     7
 10
36.349253455884842
 20
225.462290308391
 30
0.0
 42
-0.4142135623731035
  0
VERTEX
  5
410
  8
DATA
  6
CONTINUOUS
 62
     7
 10
35.849253455884842
 20
225.962290308391
 30
0.0
  0
SEQEND
  5
411
  8
DATA
  6
CONTINUOUS
 62
     7
  0
POLYLINE
  5
214
  8
DATA
  6
CONTINUOUS
 62
     7
 66
     1
 10
0.0
 20
0.0
 30
0.0
 70
   129
  0
VERTEX
  5
412
  8
DATA
  6
CONTINUOUS
 62
     7
 10
33.569253455884841
 20
225.962290308391
 30
0.0
 42
-0.4142135623730951
  0
VERTEX
  5
413
  8
DATA
  6
CONTINUOUS
 62
     7
 10
34.069253455884841
 20
226.462290308391
 30
0.0
 42
-0.4142135623731035
  0
VERTEX
  5
414
  8
DATA
  6
CONTINUOUS
 62
     7
 10
34.569253455884841
 20
225.962290308391
 30
0.0
 42
-0.4142135623730951
  0
VERTEX
  5
415
  8
DATA
  6
CONTINUOUS
 62
     7
 10
34.069253455884841
 20
225.462290308391
 30
0.0
 42
-0.4142135623730868
  0
VERTEX
  5
416
  8
DATA
  6
CONTINUOUS
 62
     7
 10
33.569253455884841
 20
225.962290308391
 30
0.0
  0
SEQEND
  5
417
  8
DATA
  6
CONTINUOUS
 62
     7
  0
POLYLINE
  5
21B
  8
DATA
  6
CONTINUOUS
 62
     7
 66
     1
 10
0.0
 20
0.0
 30
0.0
 70
   129
  0
VERTEX
  5
418
  8
DATA
  6
CONTINUOUS
 62
     7
 10
40.429253455884819
 20
222.002290308391
 30
0.0
 42
-0.4142135623730951
  0
VERTEX
  5
419
  8
DATA
  6
CONTINUOUS
 62
     7
 10
40.929253455884819
 20
222.502290308391
 30
0.0
 42
-0.4142135623730951
  0
VERTEX
  5
41A
  8
DATA
  6
CONTINUOUS
 62
     7
 10
41.429253455884833
 20
222.002290308391
 30
0.0
 42
-0.4142135623730951
  0
VERTEX
  5
41B
  8
DATA
  6
CONTINUOUS
 62
     7
 10
40.929253455884819
 20
221.502290308391
 30
0.0
 42
-0.4142135623730951
  0
VERTEX
  5
41C
  8
DATA
  6
CONTINUOUS
 62
     7
 10
40.429253455884819
 20
222.002290308391
 30
0.0
  0
SEQEND
  5
41D
  8
DATA
  6
CONTINUOUS
 62
     7
  0
POLYLINE
  5
222
  8
DATA
  6
CONTINUOUS
 62
     7
 66
     1
 10
0.0
 20
0.0
 30
0.0
 70
   129
  0
VERTEX
  5
41E
  8
DATA
  6
CONTINUOUS
 62
     7
 10
38.139253455884841
 20
222.002290308391
 30
0.0
 42
-0.4142135623730951
  0
VERTEX
  5
41F
  8
DATA
  6
CONTINUOUS
 62
     7
 10
38.639253455884841
 20
222.502290308391
 30
0.0
 42
-0.4142135623730951
  0
VERTEX
  5
420
  8
DATA
  6
CONTINUOUS
 62
     7
 10
39.139253455884841
 20
222.002290308391
 30
0.0
 42
-0.4142135623730951
  0
VERTEX
  5
421
  8
DATA
  6
CONTINUOUS
 62
     7
 10
38.639253455884841
 20
221.502290308391
 30
0.0
 42
-0.4142135623730951
  0
VERTEX
  5
422
  8
DATA
  6
CONTINUOUS
 62
     7
 10
38.139253455884841
 20
222.002290308391
 30
0.0
  0
SEQEND
  5
423
  8
DATA
  6
CONTINUOUS
 62
     7
  0
POLYLINE
  5
229
  8
DATA
  6
CONTINUOUS
 62
     7
 66
     1
 10
0.0
 20
0.0
 30
0.0
 70
   129
  0
VERTEX
  5
424
  8
DATA
  6
CONTINUOUS
 62
     7
 10
35.849253455884842
 20
222.002290308391
 30
0.0
 42
-0.4142135623730951
  0
VERTEX
  5
425
  8
DATA
  6
CONTINUOUS
 62
     7
 10
36.349253455884842
 20
222.502290308391
 30
0.0
 42
-0.4142135623731035
  0
VERTEX
  5
426
  8
DATA
  6
CONTINUOUS
 62
     7
 10
36.849253455884842
 20
222.002290308391
 30
0.0
 42
-0.4142135623730951
  0
VERTEX
  5
427
  8
DATA
  6
CONTINUOUS
 62
     7
 10
36.349253455884842
 20
221.502290308391
 30
0.0
 42
-0.4142135623730868
  0
VERTEX
  5
428
  8
DATA
  6
CONTINUOUS
 62
     7
 10
35.849253455884842
 20
222.002290308391
 30
0.0
  0
SEQEND
  5
429
  8
DATA
  6
CONTINUOUS
 62
     7
  0
POLYLINE
  5
230
  8
DATA
  6
CONTINUOUS
 62
     7
 66
     1
 10
0.0
 20
0.0
 30
0.0
 70
   129
  0
VERTEX
  5
42A
  8
DATA
  6
CONTINUOUS
 62
     7
 10
33.569253455884841
 20
222.002290308391
 30
0.0
 42
-0.4142135623730951
  0
VERTEX
  5
42B
  8
DATA
  6
CONTINUOUS
 62
     7
 10
34.069253455884841
 20
222.502290308391
 30
0.0
 42
-0.4142135623730868
  0
VERTEX
  5
42C
  8
DATA
  6
CONTINUOUS
 62
     7
 10
34.569253455884841
 20
222.002290308391
 30
0.0
 42
-0.4142135623730951
  0
VERTEX
  5
42D
  8
DATA
  6
CONTINUOUS
 62
     7
 10
34.069253455884841
 20
221.502290308391
 30
0.0
 42
-0.4142135623731035
  0
VERTEX
  5
42E
  8
DATA
  6
CONTINUOUS
 62
     7
 10
33.569253455884841
 20
222.002290308391
 30
0.0
  0
SEQEND
  5
42F
  8
DATA
  6
CONTINUOUS
 62
     7
  0
POLYLINE
  5
237
  8
DATA
  6
CONTINUOUS
 62
     7
 66
     1
 10
0.0
 20
0.0
 30
0.0
 70
   129
  0
VERTEX
  5
430
  8
DATA
  6
CONTINUOUS
 62
     7
 10
41.787184911558761
 20
223.98229030839099
 30
0.0
 42
-0.4142135623730951
  0
VERTEX
  5
431
  8
DATA
  6
CONTINUOUS
 62
     7
 10
42.287184911558761
 20
224.48229030839099
 30
0.0
 42
-0.4142135623731035
  0
VERTEX
  5
432
  8
DATA
  6
CONTINUOUS
 62
     7
 10
42.787184911558768
 20
223.98229030839099
 30
0.0
 42
-0.4142135623730951
  0
VERTEX
  5
433
  8
DATA
  6
CONTINUOUS
 62
     7
 10
42.287184911558761
 20
223.48229030839099
 30
0.0
 42
-0.4142135623730868
  0
VERTEX
  5
434
  8
DATA
  6
CONTINUOUS
 62
     7
 10
41.787184911558761
 20
223.98229030839099
 30
0.0
  0
SEQEND
  5
435
  8
DATA
  6
CONTINUOUS
 62
     7
  0
POLYLINE
  5
23E
  8
DATA
  6
CONTINUOUS
 62
     7
 66
     1
 10
0.0
 20
0.0
 30
0.0
 70
   129
  0
VERTEX
  5
436
  8
DATA
  6
CONTINUOUS
 62
     7
 10
39.507184911558781
 20
223.98229030839099
 30
0.0
 42
-0.4142135623730951
  0
VERTEX
  5
437
  8
DATA
  6
CONTINUOUS
 62
     7
 10
40.007184911558781
 20
224.48229030839099
 30
0.0
 42
-0.4142135623730951
  0
VERTEX
  5
438
  8
DATA
  6
CONTINUOUS
 62
     7
 10
40.507184911558781
 20
223.98229030839099
 30
0.0
 42
-0.4142135623730951
  0
VERTEX
  5
439
  8
DATA
  6
CONTINUOUS
 62
     7
 10
40.007184911558781
 20
223.48229030839099
 30
0.0
 42
-0.4142135623730951
  0
VERTEX
  5
43A
  8
DATA
  6
CONTINUOUS
 62
     7
 10
39.507184911558781
 20
223.98229030839099
 30
0.0
  0
SEQEND
  5
43B
  8
DATA
  6
CONTINUOUS
 62
     7
  0
POLYLINE
  5
245
  8
DATA
  6
CONTINUOUS
 62
     7
 66
     1
 10
0.0
 20
0.0
 30
0.0
 70
   129
  0
VERTEX
  5
43C
  8
DATA
  6
CONTINUOUS
 62
     7
 10
37.217184911558768
 20
223.98229030839099
 30
0.0
 42
-0.4142135623730951
  0
VERTEX
  5
43D
  8
DATA
  6
CONTINUOUS
 62
     7
 10
37.717184911558768
 20
224.48229030839099
 30
0.0
 42
-0.4142135623731035
  0
VERTEX
  5
43E
  8
DATA
  6
CONTINUOUS
 62
     7
 10
38.217184911558768
 20
223.98229030839099
 30
0.0
 42
-0.4142135623730951
  0
VERTEX
  5
43F
  8
DATA
  6
CONTINUOUS
 62
     7
 10
37.717184911558768
 20
223.48229030839099
 30
0.0
 42
-0.4142135623730868
  0
VERTEX
  5
440
  8
DATA
  6
CONTINUOUS
 62
     7
 10
37.217184911558768
 20
223.98229030839099
 30
0.0
  0
SEQEND
  5
441
  8
DATA
  6
CONTINUOUS
 62
     7
  0
POLYLINE
  5
24C
  8
DATA
  6
CONTINUOUS
 62
     7
 66
     1
 10
0.0
 20
0.0
 30
0.0
 70
   129
  0
VERTEX
  5
442
  8
DATA
  6
CONTINUOUS
 62
     7
 10
31.279253455884842
 20
225.962290308391
 30
0.0
 42
-0.4142135623730951
  0
VERTEX
  5
443
  8
DATA
  6
CONTINUOUS
 62
     7
 10
31.779253455884842
 20
226.462290308391
 30
0.0
 42
-0.4142135623730868
  0
VERTEX
  5
444
  8
DATA
  6
CONTINUOUS
 62
     7
 10
32.279253455884842
 20
225.962290308391
 30
0.0
 42
-0.4142135623730951
  0
VERTEX
  5
445
  8
DATA
  6
CONTINUOUS
 62
     7
 10
31.779253455884842
 20
225.462290308391
 30
0.0
 42
-0.4142135623731035
  0
VERTEX
  5
446
  8
DATA
  6
CONTINUOUS
 62
     7
 10
31.279253455884842
 20
225.962290308391
 30
0.0
  0
SEQEND
  5
447
  8
DATA
  6
CONTINUOUS
 62
     7
  0
POLYLINE
  5
253
  8
DATA
  6
CONTINUOUS
 62
     7
 66
     1
 10
0.0
 20
0.0
 30
0.0
 70
   129
  0
VERTEX
  5
448
  8
DATA
  6
CONTINUOUS
 62
     7
 10
31.279253455884842
 20
222.002290308391
 30
0.0
 42
-0.4142135623730951
  0
VERTEX
  5
449
  8
DATA
  6
CONTINUOUS
 62
     7
 10
31.779253455884842
 20
222.502290308391
 30
0.0
 42
-0.4142135623731035
  0
VERTEX
  5
44A
  8
DATA
  6
CONTINUOUS
 62
     7
 10
32.279253455884842
 20
222.002290308391
 30
0.0
 42
-0.4142135623730951
  0
VERTEX
  5
44B
  8
DATA
  6
CONTINUOUS
 62
     7
 10
31.779253455884842
 20
221.502290308391
 30
0.0
 42
-0.4142135623730868
  0
VERTEX
  5
44C
  8
DATA
  6
CONTINUOUS
 62
     7
 10
31.279253455884842
 20
222.002290308391
 30
0.0
  0
SEQEND
  5
44D
  8
DATA
  6
CONTINUOUS
 62
     7
  0
ARC
  5
25A
  8
DATA
  6
CONTINUOUS
 62
     7
 10
42.700669025500389
 20
226.652290308391
 30
0.0
 40
1.499998001665334
 50
9.9999255496015014
 51
90.0
  0
ARC
  5
25B
  8
DATA
  6
CONTINUOUS
 62
     7
 10
43.077239025500397
 20
221.812290308391
 30
0.0
 40
2.0
 50
270.0
 51
0.0
  0
LINE
  5
25C
  8
DATA
  6
CONTINUOUS
 62
     7
 10
45.077239025500397
 20
221.812290308391
 30
0.0
 11
44.177889025500399
 21
226.912760308391
 31
0.0
  0
ARC
  5
25D
  8
DATA
  6
CONTINUOUS
 62
     7
 10
30.5537990255004
 20
226.652290308391
 30
0.0
 40
1.5
 50
90.0
 51
170.0000744503985
  0
ARC
  5
25E
  8
DATA
  6
CONTINUOUS
 62
     7
 10
30.177239025500398
 20
221.812290308391
 30
0.0
 40
2.0
 50
180.0
 51
270.0
  0
LINE
  5
25F
  8
DATA
  6
CONTINUOUS
 62
     7
 10
28.177239025500398
 20
221.812290308391
 30
0.0
 11
29.0765890255004
 21
226.912760308391
 31
0.0
  0
CIRCLE
  5
260
  8
DATA
  6
CONTINUOUS
 62
     7
 10
24.095937380126109
 20
224.0
 30
0.0
 40
1.1750000000001251
  0
POLYLINE
  5
261
  8
DATA
  6
CONTINUOUS
 62
     7
 66
     1
 10
0.0
 20
0.0
 30
0.0
 70
     1
  0
VERTEX
  5
44E
  8
DATA
  6
CONTINUOUS
 62
     7
 10
24.095937380126109
 20
221.30000000000001
 30
0.0
  0
VERTEX
  5
44F
  8
DATA
  6
CONTINUOUS
 62
     7
 10
26.434205970344081
 20
222.65000000000009
 30
0.0
  0
VERTEX
  5
450
  8
DATA
  6
CONTINUOUS
 62
     7
 10
26.434205970344081
 20
225.34999999999999
 30
0.0
  0
VERTEX
  5
451
  8
DATA
  6
CONTINUOUS
 62
     7
 10
24.095937380126109
 20
226.6999999999999
 30
0.0
  0
VERTEX
  5
452
  8
DATA
  6
CONTINUOUS
 62
     7
 10
21.75766878990801
 20
225.34999999999999
 30
0.0
  0
VERTEX
  5
453
  8
DATA
  6
CONTINUOUS
 62
     7
 10
21.75766878990801
 20
222.65000000000009
 30
0.0
  0
SEQEND
  5
454
  8
DATA
  6
CONTINUOUS
 62
     7
  0
CIRCLE
  5
26A
  8
DATA
  6
CONTINUOUS
 62
     7
 10
49.095937380126323
 20
224.0
 30
0.0
 40
1.1750000000001251
  0
POLYLINE
  5
26B
  8
DATA
  6
CONTINUOUS
 62
     7
 66
     1
 10
0.0
 20
0.0
 30
0.0
 70
     1
  0
VERTEX
  5
455
  8
DATA
  6
CONTINUOUS
 62
     7
 10
49.095937380126323
 20
221.30000000000001
 30
0.0
  0
VERTEX
  5
456
  8
DATA
  6
CONTINUOUS
 62
     7
 10
51.434205970344287
 20
222.65000000000009
 30
0.0
  0
VERTEX
  5
457
  8
DATA
  6
CONTINUOUS
 62
     7
 10
51.434205970344287
 20
225.34999999999999
 30
0.0
  0
VERTEX
  5
458
  8
DATA
  6
CONTINUOUS
 62
     7
 10
49.095937380126323
 20
226.6999999999999
 30
0.0
  0
VERTEX
  5
459
  8
DATA
  6
CONTINUOUS
 62
     7
 10
46.75766878990823
 20
225.34999999999999
 30
0.0
  0
VERTEX
  5
45A
  8
DATA
  6
CONTINUOUS
 62
     7
 10
46.75766878990823
 20
222.65000000000009
 30
0.0
  0
SEQEND
  5
45B
  8
DATA
  6
CONTINUOUS
 62
     7
  0
LINE
  5
274
  8
DATA
  6
CONTINUOUS
 62
     7
 10
21.75766878990801
 20
179.5
 30
0.0
 11
21.75766878990801
 21
175.0
 31
0.0
  0
LINE
  5
275
  8
DATA
  6
CONTINUOUS
 62
     7
 10
26.434205970344081
 20
179.5
 30
0.0
 11
26.434205970344081
 21
175.0
 31
0.0
  0
LINE
  5
276
  8
DATA
  6
CONTINUOUS
 62
     7
 10
46.75766878990823
 20
179.5
 30
0.0
 11
46.75766878990823
 21
175.0
 31
0.0
  0
LINE
  5
277
  8
DATA
  6
CONTINUOUS
 62
     7
 10
51.434205970344287
 20
179.5
 30
0.0
 11
51.434205970344287
 21
175.0
 31
0.0
  0
LINE
  5
278
  8
DATA
  6
CONTINUOUS
 62
     7
 10
28.177239025500398
 20
179.5
 30
0.0
 11
28.177239025500398
 21
175.0
 31
0.0
  0
LINE
  5
279
  8
DATA
  6
CONTINUOUS
 62
     7
 10
45.077239025500397
 20
179.5
 30
0.0
 11
45.077239025500397
 21
175.0
 31
0.0
  0
LINE
  5
27A
  8
DATA
  6
CONTINUOUS
 62
     7
 10
21.75766878990801
 20
179.5
 30
0.0
 11
26.434205970344081
 21
179.5
 31
0.0
  0
LINE
  5
27B
  8
DATA
  6
CONTINUOUS
 62
     7
 10
28.177239025500398
 20
179.5
 30
0.0
 11
45.077239025500397
 21
179.5
 31
0.0
  0
LINE
  5
27C
  8
DATA
  6
CONTINUOUS
 62
     7
 10
46.75766878990823
 20
179.5
 30
0.0
 11
51.434205970344287
 21
179.5
 31
0.0
  0
ARC
  5
27D
  8
DATA
  6
CONTINUOUS
 62
     7
 10
-6.0
 20
174.64281620390571
 30
0.0
 40
1.2999999999999949
 50
15.94751954710768
 51
164.0524804528923
  0
TEXT
  5
27E
  8
DATA
 62
     7
 10
0.4512144132715712
 20
43.133079231083371
 30
0.0
 40
11.928546657986111
  1
VGA
 41
0.7
 11
0.451214413271572
 21
55.061625889069489
 31
0.0
 73
     3
  0
TEXT
  5
27F
  8
DATA
 62
     7
 10
27.28103965043482
 20
43.01786450593417
 30
0.0
 40
7.1571279947916651
  1
to
 41
0.7
 11
27.28103965043482
 21
50.174992500725843
 31
0.0
 73
     3
  0
TEXT
  5
280
  8
DATA
 62
     7
 10
41.35359787503441
 20
43.156047426907179
 30
0.0
 40
11.928546657986111
  1
DVI
 41
0.7
 11
41.35359787503441
 21
55.08459408489329
 31
0.0
 73
     3
  0
TEXT
  5
281
  8
DATA
 62
     7
 10
24.16656422947392
 20
30.883676183881871
 30
0.0
 40
5.4294704861111107
  1
Scaler Plus
 41
0.7
 11
24.16656422947392
 21
36.313146669992982
 31
0.0
 73
     3
  0
LINE
  5
282
  8
DATA
  6
CONTINUOUS
 62
     7
 10
100.0
 20
-26.0
 30
0.0
 11
250.0
 21
-26.0
 31
0.0
  0
LINE
  5
283
  8
DATA
  6
CONTINUOUS
 62
     7
 10
100.0
 20
0.0
 30
0.0
 11
250.0
 21
0.0
 31
0.0
  0
LINE
  5
284
  8
DATA
  6
CONTINUOUS
 62
     7
 10
100.0
 20
-26.0
 30
0.0
 11
100.0
 21
0.0
 31
0.0
  0
LINE
  5
285
  8
DATA
  6
CONTINUOUS
 62
     7
 10
250.0
 20
-26.0
 30
0.0
 11
250.0
 21
0.0
 31
0.0
  0
LINE
  5
286
  8
DATA
  6
CONTINUOUS
 62
     7
 10
108.5096586079967
 20
-29.0
 30
0.0
 11
109.10965860799649
 21
-26.0
 31
0.0
  0
LINE
  5
287
  8
DATA
  6
CONTINUOUS
 62
     7
 10
102.7096586079967
 20
-29.0
 30
0.0
 11
102.10965860799671
 21
-26.0
 31
0.0
  0
LINE
  5
288
  8
DATA
  6
CONTINUOUS
 62
     7
 10
108.5096586079967
 20
-29.0
 30
0.0
 11
102.7096586079967
 21
-29.0
 31
0.0
  0
LINE
  5
289
  8
DATA
  6
CONTINUOUS
 62
     7
 10
241.4903413920033
 20
-29.0
 30
0.0
 11
240.89034139200339
 21
-26.0
 31
0.0
  0
LINE
  5
28A
  8
DATA
  6
CONTINUOUS
 62
     7
 10
247.29034139200331
 20
-29.0
 30
0.0
 11
247.89034139200331
 21
-26.0
 31
0.0
  0
LINE
  5
28B
  8
DATA
  6
CONTINUOUS
 62
     7
 10
241.4903413920033
 20
-29.0
 30
0.0
 11
247.29034139200331
 21
-29.0
 31
0.0
  0
LINE
  5
28C
  8
DATA
  6
CONTINUOUS
 62
     7
 10
96.5
 20
-15.5
 30
0.0
 11
96.5
 21
-12.5
 31
0.0
  0
LINE
  5
28D
  8
DATA
  6
CONTINUOUS
 62
     7
 10
96.5
 20
-12.5
 30
0.0
 11
100.0
 21
-12.5
 31
0.0
  0
LINE
  5
28E
  8
DATA
  6
CONTINUOUS
 62
     7
 10
96.5
 20
-15.5
 30
0.0
 11
100.0
 21
-15.5
 31
0.0
  0
LINE
  5
28F
  8
DATA
  6
CONTINUOUS
 62
     7
 10
255.0
 20
-16.599999999999991
 30
0.0
 11
250.0
 21
-16.599999999999991
 31
0.0
  0
LINE
  5
290
  8
DATA
  6
CONTINUOUS
 62
     7
 10
250.0
 20
-11.4
 30
0.0
 11
255.0
 21
-11.4
 31
0.0
  0
LINE
  5
291
  8
DATA
  6
CONTINUOUS
 62
     7
 10
255.0
 20
-18.0
 30
0.0
 11
250.0
 21
-18.0
 31
0.0
  0
LINE
  5
292
  8
DATA
  6
CONTINUOUS
 62
     7
 10
250.0
 20
-10.0
 30
0.0
 11
255.0
 21
-10.0
 31
0.0
  0
LINE
  5
293
  8
DATA
  6
CONTINUOUS
 62
     7
 10
255.0
 20
-10.0
 30
0.0
 11
255.0
 21
-18.0
 31
0.0
  0
LINE
  5
294
  8
DATA
  6
CONTINUOUS
 62
     7
 10
94.999999999999986
 20
-16.599999999999991
 30
0.0
 11
100.0
 21
-16.599999999999991
 31
0.0
  0
LINE
  5
295
  8
DATA
  6
CONTINUOUS
 62
     7
 10
100.0
 20
-11.4
 30
0.0
 11
94.999999999999986
 21
-11.4
 31
0.0
  0
LINE
  5
296
  8
DATA
  6
CONTINUOUS
 62
     7
 10
94.999999999999986
 20
-18.0
 30
0.0
 11
100.0
 21
-18.0
 31
0.0
  0
LINE
  5
297
  8
DATA
  6
CONTINUOUS
 62
     7
 10
100.0
 20
-10.0
 30
0.0
 11
94.999999999999986
 21
-10.0
 31
0.0
  0
LINE
  5
298
  8
DATA
  6
CONTINUOUS
 62
     7
 10
94.999999999999986
 20
-10.0
 30
0.0
 11
94.999999999999986
 21
-18.0
 31
0.0
  0
TEXT
  5
299
  8
DATA
 62
     7
 10
199.69999999999999
 20
-93.958457981036204
 30
0.0
 40
4.8865234375000002
  1
EXT-VGA-2-DVISP
 41
0.7
 11
199.69999999999999
 21
-89.071934543536187
 31
0.0
 73
     3
  0
TEXT
  5
29A
  8
DATA
 62
     7
 10
199.77608675388549
 20
-78.650259390329452
 30
0.0
 40
4.8865234375000002
  1
Gefen
 41
0.7
 11
199.77608675388549
 21
-73.76373595282945
 31
0.0
 73
     3
  0
TEXT
  5
29B
  8
DATA
 62
     7
 10
195.80000000000001
 20
-85.837514498476764
 30
0.0
 40
3.2576822916666659
  1
VGA to DVIスケーラープラス
 41
0.7
 11
195.80000000000001
 21
-82.579832206810096
 31
0.0
 73
     3
  0
ENDSEC
  0
EOF
