  0
SECTION
  2
HEADER
  9
$ACADVER
  1
AC1009
  9
$INSBASE
 10
0.0
 20
0.0
 30
0.0
  9
$EXTMIN
 10
-80.010985489947416
 20
-131.67677505465531
 30
-0.0015258207003583
  9
$EXTMAX
 10
280.01098716632811
 20
403.54994963264153
 30
0.0000000349246037
  9
$LIMMIN
 10
0.0
 20
0.0
  9
$LIMMAX
 10
0.0
 20
0.0
  9
$ORTHOMODE
 70
     0
  9
$REGENMODE
 70
     1
  9
$FILLMODE
 70
     1
  9
$QTEXTMODE
 70
     0
  9
$MIRRTEXT
 70
     1
  9
$DRAGMODE
 70
     2
  9
$LTSCALE
 40
10.16
  9
$OSMODE
 70
   231
  9
$ATTMODE
 70
     1
  9
$TEXTSIZE
 40
0.0
  9
$TRACEWID
 40
1.0
  9
$TEXTSTYLE
  7
STANDARD
  9
$CLAYER
  8
DATA
  9
$CELTYPE
  6
BYLAYER
  9
$CECOLOR
 62
   256
  9
$DIMSCALE
 40
1.0
  9
$DIMASZ
 40
0.18
  9
$DIMEXO
 40
0.0625
  9
$DIMDLI
 40
0.38
  9
$DIMRND
 40
0.0
  9
$DIMDLE
 40
0.0
  9
$DIMEXE
 40
0.18
  9
$DIMTP
 40
0.0
  9
$DIMTM
 40
0.0
  9
$DIMTXT
 40
0.18
  9
$DIMCEN
 40
0.09
  9
$DIMTSZ
 40
0.0
  9
$DIMTOL
 70
     0
  9
$DIMLIM
 70
     0
  9
$DIMTIH
 70
     1
  9
$DIMTOH
 70
     1
  9
$DIMSE1
 70
     0
  9
$DIMSE2
 70
     0
  9
$DIMTAD
 70
     0
  9
$DIMZIN
 70
     0
  9
$DIMBLK
  1

  9
$DIMASO
 70
     1
  9
$DIMSHO
 70
     1
  9
$DIMPOST
  1

  9
$DIMAPOST
  1

  9
$DIMALT
 70
     0
  9
$DIMALTD
 70
     2
  9
$DIMALTF
 40
25.399999999999999
  9
$DIMLFAC
 40
1.0
  9
$DIMTOFL
 70
     0
  9
$DIMTVP
 40
0.0
  9
$DIMTIX
 70
     0
  9
$DIMSOXD
 70
     0
  9
$DIMSAH
 70
     0
  9
$DIMBLK1
  1

  9
$DIMBLK2
  1

  9
$DIMSTYLE
  2
STANDARD
  9
$DIMCLRD
 70
     0
  9
$DIMCLRE
 70
     0
  9
$DIMCLRT
 70
     0
  9
$DIMTFAC
 40
1.0
  9
$DIMGAP
 40
0.09
  9
$LUNITS
 70
     2
  9
$LUPREC
 70
     4
  9
$SKETCHINC
 40
0.1
  9
$FILLETRAD
 40
0.0
  9
$AUNITS
 70
     0
  9
$AUPREC
 70
     0
  9
$MENU
  1
acad
  9
$ELEVATION
 40
0.0
  9
$PELEVATION
 40
0.0
  9
$THICKNESS
 40
0.0
  9
$LIMCHECK
 70
     0
  9
$BLIPMODE
 70
     0
  9
$CHAMFERA
 40
0.0
  9
$CHAMFERB
 40
0.0
  9
$SKPOLY
 70
     0
  9
$TDCREATE
 40
2455408.6724537038
  9
$TDUPDATE
 40
2455408.674417709
  9
$TDINDWG
 40
0.0002850579
  9
$TDUSRTIMER
 40
0.0002848727
  9
$USRTIMER
 70
     1
  9
$ANGBASE
 50
0.0
  9
$ANGDIR
 70
     0
  9
$PDMODE
 70
     1
  9
$PDSIZE
 40
-2.0
  9
$PLINEWID
 40
0.0
  9
$COORDS
 70
     0
  9
$SPLFRAME
 70
     0
  9
$SPLINETYPE
 70
     6
  9
$SPLINESEGS
 70
     8
  9
$ATTDIA
 70
     0
  9
$ATTREQ
 70
     1
  9
$HANDLING
 70
     1
  9
$HANDSEED
  5
27E
  9
$SURFTAB1
 70
     6
  9
$SURFTAB2
 70
     6
  9
$SURFTYPE
 70
     6
  9
$SURFU
 70
     6
  9
$SURFV
 70
     6
  9
$UCSNAME
  2

  9
$UCSORG
 10
0.0
 20
0.0
 30
0.0
  9
$UCSXDIR
 10
1.0
 20
0.0
 30
0.0
  9
$UCSYDIR
 10
0.0
 20
1.0
 30
0.0
  9
$PUCSNAME
  2

  9
$PUCSORG
 10
0.0
 20
0.0
 30
0.0
  9
$PUCSXDIR
 10
1.0
 20
0.0
 30
0.0
  9
$PUCSYDIR
 10
0.0
 20
1.0
 30
0.0
  9
$USERI1
 70
     0
  9
$USERI2
 70
     0
  9
$USERI3
 70
     0
  9
$USERI4
 70
     0
  9
$USERI5
 70
     0
  9
$USERR1
 40
0.0
  9
$USERR2
 40
0.0
  9
$USERR3
 40
0.0
  9
$USERR4
 40
0.0
  9
$USERR5
 40
0.0
  9
$WORLDVIEW
 70
     1
  9
$SHADEDGE
 70
     3
  9
$SHADEDIF
 70
    70
  9
$TILEMODE
 70
     1
  9
$MAXACTVP
 70
    64
  9
$PLIMCHECK
 70
     0
  9
$PEXTMIN
 10
1.0000000000000000E+020
 20
1.0000000000000000E+020
 30
1.0000000000000000E+020
  9
$PEXTMAX
 10
-1.0000000000000000E+020
 20
-1.0000000000000000E+020
 30
-1.0000000000000000E+020
  9
$PLIMMIN
 10
0.0
 20
0.0
  9
$PLIMMAX
 10
12.0
 20
9.0
  9
$UNITMODE
 70
     0
  9
$VISRETAIN
 70
     0
  9
$PLINEGEN
 70
     1
  9
$PSLTSCALE
 70
     0
  0
ENDSEC
  0
SECTION
  2
TABLES
  0
TABLE
  2
VPORT
 70
     1
  0
VPORT
  2
*ACTIVE
 70
     0
 10
0.0
 20
0.0
 11
1.0
 21
1.0
 12
100.0000008381904
 22
135.93658728899311
 13
0.0
 23
0.0
 14
1.0
 24
1.0
 15
0.0
 25
0.0
 16
0.0
 26
0.0
 36
1.0
 17
0.0
 27
0.0
 37
0.0
 40
539.16704413284754
 41
1.9619164619164611
 42
50.0
 43
0.0
 44
0.0
 50
0.0
 51
0.0
 71
     0
 72
  2000
 73
     1
 74
     1
 75
     0
 76
     0
 77
     0
 78
     0
  0
ENDTAB
  0
TABLE
  2
LTYPE
 70
    11
  0
LTYPE
  2
CONTINUOUS
 70
     0
  3
Solid line
 72
    65
 73
     0
 40
0.0
  0
ENDTAB
  0
TABLE
  2
LAYER
 70
     5
  0
LAYER
  2
0
 70
     0
 62
     7
  6
CONTINUOUS
  0
LAYER
  2
DATA
 70
     0
 62
     7
  6
CONTINUOUS
  0
LAYER
  2
HIBINO-BASE
 70
     0
 62
     7
  6
CONTINUOUS
  0
LAYER
  2
SPEC
 70
     0
 62
     7
  6
CONTINUOUS
  0
LAYER
  2
DIMNSIONS
 70
     0
 62
     7
  6
CONTINUOUS
  0
ENDTAB
  0
TABLE
  2
STYLE
 70
     3
  0
STYLE
  2
STANDARD
 70
     0
 40
0.0
 41
1.0
 50
0.0
 71
     0
 42
0.0
  3
txt
  4
BIGFONT.SHX
  0
ENDTAB
  0
TABLE
  2
VIEW
 70
     0
  0
ENDTAB
  0
TABLE
  2
UCS
 70
     0
  0
ENDTAB
  0
TABLE
  2
APPID
 70
     3
  0
APPID
  2
ACAD
 70
     0
  0
APPID
  2
ACADANNOTATIVE
 70
     0
  0
APPID
  2
ACAD_MLEADERVER
 70
     0
  0
ENDTAB
  0
TABLE
  2
DIMSTYLE
 70
     2
  0
DIMSTYLE
  2
STANDARD
 70
     0
  3

  4

  5

  6

  7

 40
1.0
 41
0.18
 42
0.0625
 43
0.38
 44
0.18
 45
0.0
 46
0.0
 47
0.0
 48
0.0
140
0.18
141
0.09
142
0.0
143
25.399999999999999
144
1.0
145
0.0
146
1.0
147
0.09
 71
     0
 72
     0
 73
     1
 74
     1
 75
     0
 76
     0
 77
     0
 78
     0
170
     0
171
     2
172
     0
173
     0
174
     0
175
     0
176
     0
177
     0
178
     0
  0
ENDTAB
  0
ENDSEC
  0
SECTION
  2
BLOCKS
  0
BLOCK
  8
0
  2
$MODEL_SPACE
 70
     0
 10
0.0
 20
0.0
 30
0.0
  3
$MODEL_SPACE
  1

  0
ENDBLK
  5
1F1
  8
0
  0
BLOCK
 67
     1
  8
0
  2
$PAPER_SPACE
 70
     0
 10
0.0
 20
0.0
 30
0.0
  3
$PAPER_SPACE
  1

  0
ENDBLK
  5
1ED
 67
     1
  8
0
  0
ENDSEC
  0
SECTION
  2
ENTITIES
  0
LINE
  5
2C
  8
HIBINO-BASE
  6
CONTINUOUS
 62
     7
 10
-79.999999999999986
 20
403.53364789486591
 30
0.0
 11
279.99999999999989
 21
403.53364789486591
 31
0.0
  0
LINE
  5
2D
  8
HIBINO-BASE
  6
CONTINUOUS
 62
     7
 10
279.99999999999989
 20
-116.46635210513411
 30
0.0
 11
-79.999999999999986
 21
-116.46635210513411
 31
0.0
  0
LINE
  5
2E
  8
HIBINO-BASE
  6
CONTINUOUS
 62
     7
 10
-79.999999999999986
 20
-116.46635210513411
 30
0.0
 11
-79.999999999999986
 21
403.53364789486591
 31
0.0
  0
LINE
  5
2F
  8
HIBINO-BASE
  6
CONTINUOUS
 62
     7
 10
279.99999999999989
 20
403.53364789486591
 30
0.0
 11
279.99999999999989
 21
-116.46635210513411
 31
0.0
  0
LINE
  5
30
  8
HIBINO-BASE
  6
CONTINUOUS
 62
     7
 10
100.0
 20
-71.466352105134064
 30
0.0
 11
279.99999999999989
 21
-71.466352105134064
 31
0.0
  0
LINE
  5
31
  8
HIBINO-BASE
  6
CONTINUOUS
 62
     7
 10
100.0
 20
-116.46635210513411
 30
0.0
 11
100.0
 21
-71.466352105134064
 31
0.0
  0
TEXT
  5
32
  8
HIBINO-BASE
 62
     7
 10
101.8
 20
-76.483738771800731
 30
0.0
 40
3.2576822916666659
  1
NOTE
 41
0.7
 11
101.8
 21
-73.226056480134062
 31
0.0
 73
     3
  0
LINE
  5
33
  8
HIBINO-BASE
  6
CONTINUOUS
 62
     7
 10
170.0
 20
-116.46635210513411
 30
0.0
 11
170.0
 21
-71.466352105134064
 31
0.0
  0
TEXT
  5
34
  8
HIBINO-BASE
 62
     7
 10
171.7999999999999
 20
-76.483738771800731
 30
0.0
 40
3.2576822916666659
  1
TITLE
 41
0.7
 11
171.7999999999999
 21
-73.226056480134062
 31
0.0
 73
     3
  0
LINE
  5
35
  8
HIBINO-BASE
  6
CONTINUOUS
 62
     7
 10
100.0
 20
-96.466352105134064
 30
0.0
 11
279.99999999999989
 21
-96.466352105134064
 31
0.0
  0
TEXT
  5
36
  8
HIBINO-BASE
 62
     7
 10
196.80000000000001
 20
-101.3710987718007
 30
0.0
 40
3.2576822916666659
  1
DRAWN
 41
0.7
 11
196.80000000000001
 21
-98.113416480134106
 31
0.0
 73
     3
  0
TEXT
  5
37
  8
HIBINO-BASE
 62
     7
 10
146.7999999999999
 20
-101.3710987718007
 30
0.0
 40
3.2576822916666659
  1
DATE
 41
0.7
 11
146.7999999999999
 21
-98.113416480134106
 31
0.0
 73
     3
  0
TEXT
  5
38
  8
HIBINO-BASE
 62
     7
 10
126.8
 20
-101.3710987718007
 30
0.0
 40
3.2576822916666659
  1
SCALE
 41
0.7
 11
126.8
 21
-98.113416480134106
 31
0.0
 73
     3
  0
TEXT
  5
39
  8
HIBINO-BASE
 62
     7
 10
171.7999999999999
 20
-101.3710987718007
 30
0.0
 40
3.2576822916666659
  1
DESIGN
 41
0.7
 11
171.7999999999999
 21
-98.113416480134106
 31
0.0
 73
     3
  0
TEXT
  5
3A
  8
HIBINO-BASE
 62
     7
 10
246.7999999999999
 20
-101.3710987718007
 30
0.0
 40
3.2576822916666659
  1
DRAWING NO.
 41
0.7
 11
246.7999999999999
 21
-98.113416480134106
 31
0.0
 73
     3
  0
TEXT
  5
3B
  8
HIBINO-BASE
 62
     7
 10
221.7999999999999
 20
-101.3710987718007
 30
0.0
 40
3.2576822916666659
  1
CHECK
 41
0.7
 11
221.7999999999999
 21
-98.113416480134106
 31
0.0
 73
     3
  0
LINE
  5
3C
  8
HIBINO-BASE
  6
CONTINUOUS
 62
     7
 10
128.74999999999989
 20
-113.96635210513411
 30
0.0
 11
136.25
 21
-106.46635210513401
 31
0.0
  0
TEXT
  5
3D
  8
HIBINO-BASE
 62
     7
 10
127.5
 20
-108.68423877180069
 30
0.0
 40
3.2576822916666659
  1
1
 41
0.7
 11
127.5
 21
-105.4265564801341
 31
0.0
 73
     3
  0
LINE
  5
3E
  8
HIBINO-BASE
  6
CONTINUOUS
 62
     7
 10
125.0
 20
-116.46635210513411
 30
0.0
 11
125.0
 21
-96.466352105134064
 31
0.0
  0
LINE
  5
3F
  8
HIBINO-BASE
  6
CONTINUOUS
 62
     7
 10
145.0
 20
-116.46635210513411
 30
0.0
 11
145.0
 21
-96.466352105134064
 31
0.0
  0
LINE
  5
40
  8
HIBINO-BASE
  6
CONTINUOUS
 62
     7
 10
195.0
 20
-96.466352105134064
 30
0.0
 11
195.0
 21
-116.46635210513411
 31
0.0
  0
LINE
  5
41
  8
HIBINO-BASE
  6
CONTINUOUS
 62
     7
 10
245.0
 20
-96.466352105134064
 30
0.0
 11
245.0
 21
-116.46635210513411
 31
0.0
  0
LINE
  5
42
  8
HIBINO-BASE
  6
CONTINUOUS
 62
     7
 10
220.0
 20
-116.46635210513411
 30
0.0
 11
220.0
 21
-96.466352105134064
 31
0.0
  0
TEXT
  5
43
  8
HIBINO-BASE
 62
     7
 10
147.38858505911
 20
-112.0900688900208
 30
0.0
 40
3.2576822916666659
  1
'10.08.
 41
0.7
 11
147.38858505911
 21
-108.83238659835411
 31
0.0
 73
     3
  0
TEXT
  5
44
  8
HIBINO-BASE
 62
     7
 10
135.0
 20
-112.43423877180069
 30
0.0
 40
3.2576822916666659
  1
2
 41
0.7
 11
135.0
 21
-109.1765564801341
 31
0.0
 73
     3
  0
TEXT
  5
45
  8
HIBINO-BASE
 62
     7
 10
107.76666666666659
 20
-112.51435210513399
 30
0.0
 40
6.5153645833333318
  1
A4
 41
0.7
 11
107.76666666666659
 21
-105.9989875218007
 31
0.0
 73
     3
  0
TEXT
  5
46
  8
HIBINO-BASE
 62
     7
 10
101.9166666666666
 20
-101.7052621051341
 30
0.0
 40
3.2576822916666659
  1
PAPER SIZE
 41
0.7
 11
101.9166666666666
 21
-98.447579813467414
 31
0.0
 73
     3
  0
TEXT
  5
47
  8
HIBINO-BASE
 62
     7
 10
-74.48072948621963
 20
-129.31683257348661
 30
0.0
 40
7.0583116319444441
  1
Hibino-Intersound Corporation
 41
0.7
 11
-74.48072948621963
 21
-122.2585209415421
 31
0.0
 73
     3
  0
TEXT
  5
48
  8
HIBINO-BASE
 62
     7
 10
140.36121936042781
 20
-128.61465606690771
 30
0.0
 40
7.0583116319444441
  1
ヒビノインターサウンド株式会社
 41
0.7
 11
140.36121936042781
 21
-121.55634443496329
 31
0.0
 73
     3
  0
TEXT
  5
49
  8
HIBINO-BASE
 62
     7
 10
198.96546718677581
 20
-111.82860855789239
 30
0.0
 40
3.2576822916666659
  1
T.Ootake
 41
0.7
 11
198.96546718677581
 21
-108.5709262662257
 31
0.0
 73
     3
  0
LINE
  5
4A
  8
SPEC
  6
CONTINUOUS
 62
     7
 10
-64.999999999999986
 20
383.53364789486602
 30
0.0
 11
230.0
 21
383.53364789486602
 31
0.0
  0
LINE
  5
4B
  8
SPEC
  6
CONTINUOUS
 62
     7
 10
-64.999999999999986
 20
376.03364789486591
 30
0.0
 11
230.0
 21
376.03364789486591
 31
0.0
  0
LINE
  5
4C
  8
SPEC
  6
CONTINUOUS
 62
     7
 10
-64.999999999999986
 20
361.03364789486602
 30
0.0
 11
230.0
 21
361.03364789486602
 31
0.0
  0
LINE
  5
4D
  8
SPEC
  6
CONTINUOUS
 62
     7
 10
-64.999999999999986
 20
368.53364789486602
 30
0.0
 11
230.0
 21
368.53364789486602
 31
0.0
  0
LINE
  5
4E
  8
SPEC
  6
CONTINUOUS
 62
     7
 10
-64.999999999999986
 20
383.53364789486602
 30
0.0
 11
-64.999999999999986
 21
308.53364789486602
 31
0.0
  0
TEXT
  5
4F
  8
SPEC
 62
     7
 10
-62.5
 20
386.32018789486591
 30
0.0
 40
4.8865234375000002
  1
仕様
 41
0.7
 11
-62.5
 21
391.2067113323659
 31
0.0
 73
     3
  0
LINE
  5
50
  8
SPEC
  6
CONTINUOUS
 62
     7
 10
18.75
 20
383.53364789486602
 30
0.0
 11
18.749999999999979
 21
308.53364789486602
 31
0.0
  0
LINE
  5
51
  8
SPEC
  6
CONTINUOUS
 62
     7
 10
230.0
 20
383.53364789486602
 30
0.0
 11
230.0
 21
308.53364789486602
 31
0.0
  0
LINE
  5
52
  8
SPEC
  6
CONTINUOUS
 62
     7
 10
-64.999999999999986
 20
353.53364789486602
 30
0.0
 11
230.0
 21
353.53364789486602
 31
0.0
  0
LINE
  5
53
  8
SPEC
  6
CONTINUOUS
 62
     7
 10
-64.999999999999986
 20
346.03364789486602
 30
0.0
 11
230.0
 21
346.03364789486602
 31
0.0
  0
LINE
  5
54
  8
SPEC
  6
CONTINUOUS
 62
     7
 10
-64.999999999999986
 20
338.53364789486591
 30
0.0
 11
230.0
 21
338.53364789486591
 31
0.0
  0
LINE
  5
55
  8
SPEC
  6
CONTINUOUS
 62
     7
 10
-64.999999999999986
 20
331.03364789486602
 30
0.0
 11
230.0
 21
331.03364789486602
 31
0.0
  0
LINE
  5
56
  8
SPEC
  6
CONTINUOUS
 62
     7
 10
-64.999999999999986
 20
323.53364789486602
 30
0.0
 11
230.0
 21
323.53364789486602
 31
0.0
  0
LINE
  5
57
  8
SPEC
  6
CONTINUOUS
 62
     7
 10
-64.999999999999986
 20
316.03364789486602
 30
0.0
 11
230.0
 21
316.03364789486602
 31
0.0
  0
LINE
  5
58
  8
SPEC
  6
CONTINUOUS
 62
     7
 10
-64.999999999999986
 20
308.53364789486602
 30
0.0
 11
230.0
 21
308.53364789486602
 31
0.0
  0
TEXT
  5
59
  8
SPEC
 62
     7
 10
-63.356106072039609
 20
332.8625255080276
 30
0.0
 40
3.8006293402777769
  1
電源
 41
0.7
 11
-63.356106072039609
 21
336.6631548483054
 31
0.0
 73
     3
  0
TEXT
  5
5A
  8
SPEC
 62
     7
 10
20.536326764175332
 20
332.90725698352901
 30
0.0
 40
3.8006293402777769
  1
5V DC
 41
0.7
 11
20.536326764175332
 21
336.70788632380692
 31
0.0
 73
     3
  0
TEXT
  5
5B
  8
SPEC
 62
     7
 10
-63.230907147168857
 20
340.65376395902109
 30
0.0
 40
3.8006293402777769
  1
オーディオ/ビデオ出力端子
 41
0.7
 11
-63.230907147168857
 21
344.45439329929889
 31
0.0
 73
     3
  0
TEXT
  5
5C
  8
SPEC
 62
     7
 10
20.54659143565863
 20
340.4795328738233
 30
0.0
 40
3.8006293402777769
  1
HDMI Type A 19pin
 41
0.7
 11
20.54659143565863
 21
344.28016221410121
 31
0.0
 73
     3
  0
TEXT
  5
5D
  8
SPEC
 62
     7
 10
-63.262622127957712
 20
348.16637372282588
 30
0.0
 40
3.8006293402777769
  1
オーディオフォーマット
 41
0.7
 11
-63.262622127957712
 21
351.96700306310368
 31
0.0
 73
     3
  0
TEXT
  5
5E
  8
SPEC
 62
     7
 10
20.514404532408001
 20
347.92384230369771
 30
0.0
 40
3.8006293402777769
  1
2-channel PCM、bitsream audio
 41
0.7
 11
20.514404532408001
 21
351.72447164397539
 31
0.0
 73
     3
  0
TEXT
  5
5F
  8
SPEC
 62
     7
 10
20.535213552111809
 20
355.4752903038397
 30
0.0
 40
3.8006293402777769
  1
TOSLINK(optical fiber)
 41
0.7
 11
20.535213552111809
 21
359.27591964411738
 31
0.0
 73
     3
  0
TEXT
  5
60
  8
SPEC
 62
     7
 10
-63.285609609662266
 20
363.1079405838974
 30
0.0
 40
3.8006293402777769
  1
オーディオ入出力端子(アナログ)
 41
0.7
 11
-63.285609609662266
 21
366.9085699241752
 31
0.0
 73
     3
  0
TEXT
  5
61
  8
SPEC
 62
     7
 10
20.562651635472779
 20
363.05437691458502
 30
0.0
 40
3.8006293402777769
  1
3.5mm Mini-Stereo phone jack
 41
0.7
 11
20.562651635472779
 21
366.85500625486281
 31
0.0
 73
     3
  0
TEXT
  5
62
  8
SPEC
 62
     7
 10
-64.012743320101649
 20
370.61789746594422
 30
0.0
 40
3.8006293402777769
  1
ビデオ入力端子
 41
0.7
 11
-64.012743320101649
 21
374.41852680622202
 31
0.0
 73
     3
  0
TEXT
  5
63
  8
SPEC
 62
     7
 10
20.536561503138831
 20
370.42324414773628
 30
0.0
 40
3.8006293402777769
  1
DE-15F Type 15pin
 41
0.7
 11
20.536561503138831
 21
374.22387348801408
 31
0.0
 73
     3
  0
TEXT
  5
64
  8
SPEC
 62
     7
 10
-64.108478862140572
 20
377.92486549548801
 30
0.0
 40
3.8006293402777769
  1
ビデオアンプ帯域
 41
0.7
 11
-64.108478862140572
 21
381.72549483576591
 31
0.0
 73
     3
  0
TEXT
  5
65
  8
SPEC
 62
     7
 10
20.306824617546539
 20
378.00767723686698
 30
0.0
 40
3.8006293402777769
  1
165MHz
 41
0.7
 11
20.306824617546539
 21
381.80830657714478
 31
0.0
 73
     3
  0
TEXT
  5
66
  8
SPEC
 62
     7
 10
-63.219805120299171
 20
355.66637372282588
 30
0.0
 40
3.8006293402777769
  1
オーディオ入出力端子(デジタ ル)
 41
0.7
 11
-63.219805120299171
 21
359.46700306310368
 31
0.0
 73
     3
  0
TEXT
  5
67
  8
SPEC
 62
     7
 10
-63.418790946994861
 20
318.19958745092129
 30
0.0
 40
3.8006293402777769
  1
寸法
 41
0.7
 11
-63.418790946994861
 21
322.00021679119908
 31
0.0
 73
     3
  0
TEXT
  5
68
  8
SPEC
 62
     7
 10
20.27198908144674
 20
317.99453263740259
 30
0.0
 40
3.8006293402777769
  1
103(W)\U+00D727(H)\U+00D7149(D)mm(突起部含まず）
 41
0.7
 11
20.27198908144674
 21
321.79516197768038
 31
0.0
 73
     3
  0
TEXT
  5
69
  8
SPEC
 62
     7
 10
20.481307180631109
 20
310.76836818561372
 30
0.0
 40
3.8006293402777769
  1
約300g
 41
0.7
 11
20.481307180631109
 21
314.56899752589152
 31
0.0
 73
     3
  0
TEXT
  5
6A
  8
SPEC
 62
     7
 10
-63.329338136353769
 20
310.57191075033433
 30
0.0
 40
3.8006293402777769
  1
重量
 41
0.7
 11
-63.329338136353769
 21
314.37254009061212
 31
0.0
 73
     3
  0
TEXT
  5
6B
  8
SPEC
 62
     7
 10
-63.333342254879668
 20
325.51709682016627
 30
0.0
 40
3.8006293402777769
  1
消費電力
 41
0.7
 11
-63.333342254879668
 21
329.31772616044412
 31
0.0
 73
     3
  0
TEXT
  5
6C
  8
SPEC
 62
     7
 10
20.30161528337014
 20
325.45221145011448
 30
0.0
 40
3.8006293402777769
  1
13W
 41
0.7
 11
20.30161528337014
 21
329.25284079039233
 31
0.0
 73
     3
  0
TEXT
  5
6D
  8
DIMNSIONS
 62
     7
 10
60.0
 20
-91.927372105134054
 30
0.0
 40
4.8865234375000002
  1
(単位：mm)
 41
0.7
 11
60.0
 21
-87.040848667634066
 31
0.0
 73
     3
  0
LINE
  5
6E
  8
DIMNSIONS
  6
CONTINUOUS
 62
     7
 10
-29.000000000000011
 20
-37.499999999999957
 30
0.0
 11
-47.750000000000021
 21
-37.499999999999957
 31
0.0
  0
LINE
  5
6F
  8
DIMNSIONS
  6
CONTINUOUS
 62
     7
 10
-29.000000000000011
 20
-10.5
 30
0.0
 11
-47.750000000000021
 21
-10.5
 31
0.0
  0
LINE
  5
70
  8
DIMNSIONS
  6
CONTINUOUS
 62
     7
 10
-43.750000000000021
 20
-37.499999999999957
 30
0.0
 11
-43.750000000000021
 21
-10.5
 31
0.0
  0
LINE
  5
71
  8
DIMNSIONS
  6
CONTINUOUS
 62
     7
 10
-43.750000000000021
 20
-37.499999999999957
 30
0.0
 11
-45.090079590300498
 21
-32.498754882812491
 31
0.0
  0
LINE
  5
72
  8
DIMNSIONS
  6
CONTINUOUS
 62
     7
 10
-43.750000000000021
 20
-37.499999999999957
 30
0.0
 11
-42.409920409699517
 21
-32.498754882812491
 31
0.0
  0
LINE
  5
73
  8
DIMNSIONS
  6
CONTINUOUS
 62
     7
 10
-43.750000000000021
 20
-10.5
 30
0.0
 11
-42.409920409699517
 21
-15.501245117187491
 31
0.0
  0
LINE
  5
74
  8
DIMNSIONS
  6
CONTINUOUS
 62
     7
 10
-43.750000000000021
 20
-10.5
 30
0.0
 11
-45.090079590300498
 21
-15.501245117187491
 31
0.0
  0
TEXT
  5
75
  8
DIMNSIONS
 62
     7
 10
-45.737777777777772
 20
-27.527777777777771
 30
0.0
 40
5.4294704861111107
  1
27
 50
90.0
 41
0.7
 11
-51.167248263888887
 21
-27.527777777777771
 31
0.0
 73
     3
  0
LINE
  5
76
  8
DIMNSIONS
  6
CONTINUOUS
 62
     7
 10
-23.000000000000011
 20
-41.5
 30
0.0
 11
-47.750000000000021
 21
-41.5
 31
0.0
  0
LINE
  5
77
  8
DIMNSIONS
  6
CONTINUOUS
 62
     7
 10
-27.70000000000001
 20
-37.499999999999957
 30
0.0
 11
-47.750000000000021
 21
-37.499999999999957
 31
0.0
  0
LINE
  5
78
  8
DIMNSIONS
  6
CONTINUOUS
 62
     7
 10
-43.750000000000021
 20
-37.499999999999957
 30
0.0
 11
-43.750000000000021
 21
-41.5
 31
0.0
  0
LINE
  5
79
  8
DIMNSIONS
  6
CONTINUOUS
 62
     7
 10
-43.750000000000021
 20
-41.5
 30
0.0
 11
-43.750000000000021
 21
-53.527777777777771
 31
0.0
  0
LINE
  5
7A
  8
DIMNSIONS
  6
CONTINUOUS
 62
     7
 10
-43.750000000000021
 20
-41.5
 30
0.0
 11
-42.409920409699517
 21
-46.501245117187487
 31
0.0
  0
LINE
  5
7B
  8
DIMNSIONS
  6
CONTINUOUS
 62
     7
 10
-43.750000000000021
 20
-41.5
 30
0.0
 11
-45.090079590300498
 21
-46.501245117187487
 31
0.0
  0
LINE
  5
7C
  8
DIMNSIONS
  6
CONTINUOUS
 62
     7
 10
-43.750000000000021
 20
-37.499999999999957
 30
0.0
 11
-43.750000000000021
 21
-27.499999999999972
 31
0.0
  0
LINE
  5
7D
  8
DIMNSIONS
  6
CONTINUOUS
 62
     7
 10
-43.750000000000021
 20
-37.499999999999957
 30
0.0
 11
-45.090079590300498
 21
-32.498754882812491
 31
0.0
  0
LINE
  5
7E
  8
DIMNSIONS
  6
CONTINUOUS
 62
     7
 10
-43.750000000000021
 20
-37.499999999999957
 30
0.0
 11
-42.409920409699517
 21
-32.498754882812491
 31
0.0
  0
TEXT
  5
7F
  8
DIMNSIONS
 62
     7
 10
-45.737777777777772
 20
-53.527777777777771
 30
0.0
 40
5.4294704861111107
  1
4
 50
90.0
 41
0.7
 11
-51.167248263888887
 21
-53.527777777777771
 31
0.0
 73
     3
  0
LINE
  5
80
  8
DIMNSIONS
  6
CONTINUOUS
 62
     7
 10
-29.000000000000011
 20
18.749999999999979
 30
0.0
 11
-47.750000000000021
 21
18.749999999999979
 31
0.0
  0
LINE
  5
81
  8
DIMNSIONS
  6
CONTINUOUS
 62
     7
 10
-29.000000000000011
 20
167.75
 30
0.0
 11
-47.750000000000021
 21
167.75
 31
0.0
  0
LINE
  5
82
  8
DIMNSIONS
  6
CONTINUOUS
 62
     7
 10
-43.750000000000021
 20
18.749999999999979
 30
0.0
 11
-43.750000000000021
 21
167.75
 31
0.0
  0
LINE
  5
83
  8
DIMNSIONS
  6
CONTINUOUS
 62
     7
 10
-43.750000000000021
 20
18.749999999999979
 30
0.0
 11
-45.090079590300498
 21
23.75124511718748
 31
0.0
  0
LINE
  5
84
  8
DIMNSIONS
  6
CONTINUOUS
 62
     7
 10
-43.750000000000021
 20
18.749999999999979
 30
0.0
 11
-42.409920409699517
 21
23.75124511718748
 31
0.0
  0
LINE
  5
85
  8
DIMNSIONS
  6
CONTINUOUS
 62
     7
 10
-43.750000000000021
 20
167.75
 30
0.0
 11
-42.409920409699517
 21
162.74875488281251
 31
0.0
  0
LINE
  5
86
  8
DIMNSIONS
  6
CONTINUOUS
 62
     7
 10
-43.750000000000021
 20
167.75
 30
0.0
 11
-45.090079590300498
 21
162.74875488281251
 31
0.0
  0
TEXT
  5
87
  8
DIMNSIONS
 62
     7
 10
-45.737777777777772
 20
87.958333333333314
 30
0.0
 40
5.4294704861111107
  1
149
 50
90.0
 41
0.7
 11
-51.167248263888887
 21
87.958333333333314
 31
0.0
 73
     3
  0
LINE
  5
88
  8
DIMNSIONS
  6
CONTINUOUS
 62
     7
 10
2.5127291942484642
 20
14.24999999999998
 30
0.0
 11
-47.750000000000021
 21
14.24999999999998
 31
0.0
  0
LINE
  5
89
  8
DIMNSIONS
  6
CONTINUOUS
 62
     7
 10
-29.000000000000011
 20
18.749999999999979
 30
0.0
 11
-47.750000000000021
 21
18.749999999999979
 31
0.0
  0
LINE
  5
8A
  8
DIMNSIONS
  6
CONTINUOUS
 62
     7
 10
-43.750000000000021
 20
18.749999999999979
 30
0.0
 11
-43.750000000000021
 21
14.24999999999998
 31
0.0
  0
LINE
  5
8B
  8
DIMNSIONS
  6
CONTINUOUS
 62
     7
 10
-43.750000000000021
 20
14.24999999999998
 30
0.0
 11
-43.750000000000021
 21
-1.3333333333333419
 31
0.0
  0
LINE
  5
8C
  8
DIMNSIONS
  6
CONTINUOUS
 62
     7
 10
-43.750000000000021
 20
14.24999999999998
 30
0.0
 11
-42.409920409699517
 21
9.2487548828124773
 31
0.0
  0
LINE
  5
8D
  8
DIMNSIONS
  6
CONTINUOUS
 62
     7
 10
-43.750000000000021
 20
14.24999999999998
 30
0.0
 11
-45.090079590300498
 21
9.2487548828124773
 31
0.0
  0
LINE
  5
8E
  8
DIMNSIONS
  6
CONTINUOUS
 62
     7
 10
-43.750000000000021
 20
18.749999999999979
 30
0.0
 11
-43.750000000000021
 21
28.749999999999989
 31
0.0
  0
LINE
  5
8F
  8
DIMNSIONS
  6
CONTINUOUS
 62
     7
 10
-43.750000000000021
 20
18.749999999999979
 30
0.0
 11
-45.090079590300498
 21
23.75124511718748
 31
0.0
  0
LINE
  5
90
  8
DIMNSIONS
  6
CONTINUOUS
 62
     7
 10
-43.750000000000021
 20
18.749999999999979
 30
0.0
 11
-42.409920409699517
 21
23.75124511718748
 31
0.0
  0
TEXT
  5
91
  8
DIMNSIONS
 62
     7
 10
-45.737777777777772
 20
-1.3333333333333151
 30
0.0
 40
5.4294704861111107
  1
4.5
 50
90.0
 41
0.7
 11
-51.167248263888887
 21
-1.3333333333333139
 31
0.0
 73
     3
  0
LINE
  5
92
  8
DIMNSIONS
  6
CONTINUOUS
 62
     7
 10
-29.000000000000011
 20
167.75
 30
0.0
 11
-47.750000000000021
 21
167.75
 31
0.0
  0
LINE
  5
93
  8
DIMNSIONS
  6
CONTINUOUS
 62
     7
 10
17.499999999999979
 20
172.75
 30
0.0
 11
-47.750000000000021
 21
172.75
 31
0.0
  0
LINE
  5
94
  8
DIMNSIONS
  6
CONTINUOUS
 62
     7
 10
-43.750000000000021
 20
172.75
 30
0.0
 11
-43.750000000000021
 21
167.75
 31
0.0
  0
LINE
  5
95
  8
DIMNSIONS
  6
CONTINUOUS
 62
     7
 10
-43.750000000000021
 20
167.75
 30
0.0
 11
-43.750000000000021
 21
157.75
 31
0.0
  0
LINE
  5
96
  8
DIMNSIONS
  6
CONTINUOUS
 62
     7
 10
-43.750000000000021
 20
167.75
 30
0.0
 11
-42.409920409699517
 21
162.74875488281251
 31
0.0
  0
LINE
  5
97
  8
DIMNSIONS
  6
CONTINUOUS
 62
     7
 10
-43.750000000000021
 20
167.75
 30
0.0
 11
-45.090079590300498
 21
162.74875488281251
 31
0.0
  0
LINE
  5
98
  8
DIMNSIONS
  6
CONTINUOUS
 62
     7
 10
-43.750000000000021
 20
172.75
 30
0.0
 11
-43.750000000000021
 21
183.45555555555549
 31
0.0
  0
LINE
  5
99
  8
DIMNSIONS
  6
CONTINUOUS
 62
     7
 10
-43.750000000000021
 20
172.75
 30
0.0
 11
-45.090079590300498
 21
177.75124511718741
 31
0.0
  0
LINE
  5
9A
  8
DIMNSIONS
  6
CONTINUOUS
 62
     7
 10
-43.750000000000021
 20
172.75
 30
0.0
 11
-42.409920409699517
 21
177.75124511718741
 31
0.0
  0
TEXT
  5
9B
  8
DIMNSIONS
 62
     7
 10
-45.737777777777772
 20
179.92777777777781
 30
0.0
 40
5.4294704861111107
  1
5
 50
90.0
 41
0.7
 11
-51.167248263888887
 21
179.92777777777781
 31
0.0
 73
     3
  0
LINE
  5
9C
  8
DIMNSIONS
  6
CONTINUOUS
 62
     7
 10
-24.999356882938951
 20
-40.159113684908213
 30
0.0
 11
-24.999356882938951
 21
-60.25
 31
0.0
  0
LINE
  5
9D
  8
DIMNSIONS
  6
CONTINUOUS
 62
     7
 10
77.999356882937903
 20
-40.159113684908213
 30
0.0
 11
77.999356882937903
 21
-60.25
 31
0.0
  0
LINE
  5
9E
  8
DIMNSIONS
  6
CONTINUOUS
 62
     7
 10
-24.999356882938951
 20
-56.25
 30
0.0
 11
77.999356882937903
 21
-56.25
 31
0.0
  0
LINE
  5
9F
  8
DIMNSIONS
  6
CONTINUOUS
 62
     7
 10
-24.999356882938951
 20
-56.25
 30
0.0
 11
-19.99811176575146
 21
-54.909920409699509
 31
0.0
  0
LINE
  5
A0
  8
DIMNSIONS
  6
CONTINUOUS
 62
     7
 10
-24.999356882938951
 20
-56.25
 30
0.0
 11
-19.99811176575146
 21
-57.590079590300491
 31
0.0
  0
LINE
  5
A1
  8
DIMNSIONS
  6
CONTINUOUS
 62
     7
 10
77.999356882937903
 20
-56.25
 30
0.0
 11
72.998111765750423
 21
-57.590079590300491
 31
0.0
  0
LINE
  5
A2
  8
DIMNSIONS
  6
CONTINUOUS
 62
     7
 10
77.999356882937903
 20
-56.25
 30
0.0
 11
72.998111765750423
 21
-54.909920409699509
 31
0.0
  0
TEXT
  5
A3
  8
DIMNSIONS
 62
     7
 10
21.208333333332821
 20
-54.262222222222249
 30
0.0
 40
5.4294704861111107
  1
103
 41
0.7
 11
21.208333333332821
 21
-48.832751736111142
 31
0.0
 73
     3
  0
TEXT
  5
A4
  8
DATA
 62
     7
 10
200.0
 20
-93.883952283475523
 30
0.0
 40
4.8865234375000002
  1
EXT-VGAAUD-2HDMIS
 41
0.7
 11
200.0
 21
-88.99742884597552
 31
0.0
 73
     3
  0
TEXT
  5
A5
  8
DATA
 62
     7
 10
200.0
 20
-79.704572105134062
 30
0.0
 40
4.8865234375000002
  1
Gefen
 41
0.7
 11
200.0
 21
-74.818048667634059
 31
0.0
 73
     3
  0
TEXT
  5
A6
  8
DATA
 62
     7
 10
194.79829013745049
 20
-85.799896377900538
 30
0.0
 40
3.257687421875
  1
VGA Audio to HDMIスケーラー
 41
0.7
 11
194.79829013745049
 21
-82.542208956025547
 31
0.0
 73
     3
  0
TEXT
  5
A7
  8
DATA
 62
     7
 10
-60.0
 20
-107.99035210513409
 30
0.0
 40
3.2576822916666659
  1
仕様および外観は予告なく変更されることがありますので、ご了承ください。
 41
0.7
 11
-60.0
 21
-104.7326698134674
 31
0.0
 73
     3
  0
LINE
  5
A8
  8
DATA
  6
CONTINUOUS
 62
     7
 10
-25.000000000000011
 20
-36.19999999999996
 30
0.0
 11
-25.000000000000011
 21
-11.80000000000001
 31
0.0
  0
LINE
  5
A9
  8
DATA
  6
CONTINUOUS
 62
     7
 10
76.700000000000003
 20
-37.499999999999957
 30
0.0
 11
65.999999999999986
 21
-37.499999999999957
 31
0.0
  0
LINE
  5
AA
  8
DATA
  6
CONTINUOUS
 62
     7
 10
-13.000000000000011
 20
-37.499999999999957
 30
0.0
 11
-23.70000000000001
 21
-37.499999999999957
 31
0.0
  0
LINE
  5
AB
  8
DATA
  6
CONTINUOUS
 62
     7
 10
77.999999999999986
 20
-11.80000000000001
 30
0.0
 11
77.999999999999986
 21
-36.19999999999996
 31
0.0
  0
LINE
  5
AC
  8
DATA
  6
CONTINUOUS
 62
     7
 10
-23.70000000000001
 20
-10.5
 30
0.0
 11
76.700000000000003
 21
-10.5
 31
0.0
  0
LINE
  5
AD
  8
DATA
  6
CONTINUOUS
 62
     7
 10
-25.000000000000011
 20
18.749999999999979
 30
0.0
 11
-25.000000000000011
 21
167.75
 31
0.0
  0
LINE
  5
AE
  8
DATA
  6
CONTINUOUS
 62
     7
 10
77.999999999999986
 20
18.749999999999979
 30
0.0
 11
-25.000000000000011
 21
18.749999999999979
 31
0.0
  0
LINE
  5
AF
  8
DATA
  6
CONTINUOUS
 62
     7
 10
77.999999999999986
 20
167.75
 30
0.0
 11
77.999999999999986
 21
18.749999999999979
 31
0.0
  0
LINE
  5
B0
  8
DATA
  6
CONTINUOUS
 62
     7
 10
-25.000000000000011
 20
167.75
 30
0.0
 11
77.999999999999986
 21
167.75
 31
0.0
  0
LINE
  5
B1
  8
DATA
  6
CONTINUOUS
 62
     7
 10
-22.20000000000001
 20
-12.0
 30
0.0
 11
75.200000000000003
 21
-12.0
 31
0.0
  0
LINE
  5
B2
  8
DATA
  6
CONTINUOUS
 62
     7
 10
-23.500000000000011
 20
-34.69999999999996
 30
0.0
 11
-23.500000000000011
 21
-13.30000000000001
 31
0.0
  0
LINE
  5
B3
  8
DATA
  6
CONTINUOUS
 62
     7
 10
76.499999999999986
 20
-13.30000000000001
 30
0.0
 11
76.499999999999986
 21
-34.69999999999996
 31
0.0
  0
LINE
  5
B4
  8
DATA
  6
CONTINUOUS
 62
     7
 10
75.200000000000003
 20
-35.999999999999957
 30
0.0
 11
-22.20000000000001
 21
-35.999999999999957
 31
0.0
  0
LINE
  5
B5
  8
DATA
  6
CONTINUOUS
 62
     7
 10
-13.000000000000011
 20
-37.499999999999957
 30
0.0
 11
-13.000000000000011
 21
-35.999999999999957
 31
0.0
  0
LINE
  5
B6
  8
DATA
  6
CONTINUOUS
 62
     7
 10
65.999999999999986
 20
-37.499999999999957
 30
0.0
 11
65.999999999999986
 21
-35.999999999999957
 31
0.0
  0
ARC
  5
B7
  8
DATA
  6
CONTINUOUS
 62
     7
 10
-22.20000000000001
 20
-34.69999999999996
 30
0.0
 40
1.3000000000000109
 50
180.0
 51
269.99999999999937
  0
ARC
  5
B8
  8
DATA
  6
CONTINUOUS
 62
     7
 10
-23.699999999999999
 20
-36.19999999999996
 30
0.0
 40
1.3000000000000109
 50
180.0
 51
269.99999999999937
  0
ARC
  5
B9
  8
DATA
  6
CONTINUOUS
 62
     7
 10
-22.20000000000001
 20
-13.30000000000001
 30
0.0
 40
1.3000000000000109
 50
90.0
 51
180.0
  0
ARC
  5
BA
  8
DATA
  6
CONTINUOUS
 62
     7
 10
-23.70000000000001
 20
-11.80000000000001
 30
0.0
 40
1.3000000000000109
 50
90.0
 51
180.0
  0
ARC
  5
BB
  8
DATA
  6
CONTINUOUS
 62
     7
 10
75.200000000000003
 20
-34.69999999999996
 30
0.0
 40
1.3000000000000109
 50
270.0
 51
0.0
  0
ARC
  5
BC
  8
DATA
  6
CONTINUOUS
 62
     7
 10
76.700000000000003
 20
-36.19999999999996
 30
0.0
 40
1.3000000000000109
 50
270.0
 51
0.0
  0
ARC
  5
BD
  8
DATA
  6
CONTINUOUS
 62
     7
 10
75.200000000000003
 20
-13.30000000000001
 30
0.0
 40
1.2999999999999969
 50
0.0
 51
90.000000000000185
  0
ARC
  5
BE
  8
DATA
  6
CONTINUOUS
 62
     7
 10
76.700000000000003
 20
-11.80000000000001
 30
0.0
 40
1.2999999999999969
 50
0.0
 51
90.000000000000185
  0
ARC
  5
BF
  8
DATA
  6
CONTINUOUS
 62
     7
 10
-18.078260869565401
 20
-35.911005434782943
 30
0.0
 40
5.6644914400676898
 50
224.76579986161761
 51
260.6350557157171
  0
ARC
  5
C0
  8
DATA
  6
CONTINUOUS
 62
     7
 10
-19.921739130434609
 20
-35.911005434782943
 30
0.0
 40
5.664491440067696
 50
279.36494428428301
 51
315.23420013838239
  0
LINE
  5
C1
  8
DATA
  6
CONTINUOUS
 62
     7
 10
-22.100000000000009
 20
-39.900000000000013
 30
0.0
 11
-23.70000000000001
 21
-37.499999999999957
 31
0.0
  0
LINE
  5
C2
  8
DATA
  6
CONTINUOUS
 62
     7
 10
-15.90000000000002
 20
-39.900000000000013
 30
0.0
 11
-14.30000000000002
 21
-37.499999999999957
 31
0.0
  0
ARC
  5
C3
  8
DATA
  6
CONTINUOUS
 62
     7
 10
71.078260869565369
 20
-35.911005434782943
 30
0.0
 40
5.664491440067696
 50
279.36494428428301
 51
315.23420013838239
  0
ARC
  5
C4
  8
DATA
  6
CONTINUOUS
 62
     7
 10
72.921739130434588
 20
-35.911005434782943
 30
0.0
 40
5.6644914400676898
 50
224.76579986161761
 51
260.6350557157171
  0
LINE
  5
C5
  8
DATA
  6
CONTINUOUS
 62
     7
 10
75.09999999999998
 20
-39.900000000000013
 30
0.0
 11
76.700000000000003
 21
-37.499999999999957
 31
0.0
  0
LINE
  5
C6
  8
DATA
  6
CONTINUOUS
 62
     7
 10
68.899999999999991
 20
-39.900000000000013
 30
0.0
 11
67.299999999999997
 21
-37.499999999999957
 31
0.0
  0
CIRCLE
  5
C7
  8
DATA
  6
CONTINUOUS
 62
     7
 10
-16.0
 20
-22.5
 30
0.0
 40
1.5
  0
CIRCLE
  5
C8
  8
DATA
  6
CONTINUOUS
 62
     7
 10
-5.0
 20
-22.44590582097441
 30
0.0
 40
3.9000000000000048
  0
CIRCLE
  5
C9
  8
DATA
  6
CONTINUOUS
 62
     7
 10
-5.0
 20
-22.44590582097441
 30
0.0
 40
0.75
  0
CIRCLE
  5
CA
  8
DATA
  6
CONTINUOUS
 62
     7
 10
60.0
 20
-22.5
 30
0.0
 40
3.0
  0
CIRCLE
  5
CB
  8
DATA
  6
CONTINUOUS
 62
     7
 10
60.0
 20
-22.5
 30
0.0
 40
1.75
  0
POLYLINE
  5
CC
  8
DATA
  6
CONTINUOUS
 62
     7
 66
     1
 10
0.0
 20
0.0
 30
0.0
 70
     1
  0
VERTEX
  5
21D
  8
DATA
  6
CONTINUOUS
 62
     7
 10
42.249999999999993
 20
-19.048652291996401
 30
0.0
  0
VERTEX
  5
21E
  8
DATA
  6
CONTINUOUS
 62
     7
 10
51.749999999999993
 20
-19.048652291996401
 30
0.0
  0
VERTEX
  5
21F
  8
DATA
  6
CONTINUOUS
 62
     7
 10
51.749999999999993
 20
-29.048652291996412
 30
0.0
  0
VERTEX
  5
220
  8
DATA
  6
CONTINUOUS
 62
     7
 10
42.249999999999993
 20
-29.048652291996412
 30
0.0
  0
SEQEND
  5
221
  8
DATA
  6
CONTINUOUS
 62
     7
  0
CIRCLE
  5
D3
  8
DATA
  6
CONTINUOUS
 62
     7
 10
33.850997784466443
 20
-22.491313362349189
 30
0.0
 40
1.1750000000000109
  0
POLYLINE
  5
D4
  8
DATA
  6
CONTINUOUS
 62
     7
 66
     1
 10
0.0
 20
0.0
 30
0.0
 70
     1
  0
VERTEX
  5
222
  8
DATA
  6
CONTINUOUS
 62
     7
 10
33.850997784466443
 20
-19.7913133623492
 30
0.0
  0
VERTEX
  5
223
  8
DATA
  6
CONTINUOUS
 62
     7
 10
31.512729194248472
 20
-21.141313362349191
 30
0.0
  0
VERTEX
  5
224
  8
DATA
  6
CONTINUOUS
 62
     7
 10
31.512729194248472
 20
-23.84131336234919
 30
0.0
  0
VERTEX
  5
225
  8
DATA
  6
CONTINUOUS
 62
     7
 10
33.850997784466443
 20
-25.191313362349181
 30
0.0
  0
VERTEX
  5
226
  8
DATA
  6
CONTINUOUS
 62
     7
 10
36.189266374684408
 20
-23.84131336234919
 30
0.0
  0
VERTEX
  5
227
  8
DATA
  6
CONTINUOUS
 62
     7
 10
36.189266374684408
 20
-21.141313362349191
 30
0.0
  0
SEQEND
  5
228
  8
DATA
  6
CONTINUOUS
 62
     7
  0
CIRCLE
  5
DD
  8
DATA
  6
CONTINUOUS
 62
     7
 10
8.8509977844664434
 20
-22.491313362349189
 30
0.0
 40
1.1750000000000109
  0
POLYLINE
  5
DE
  8
DATA
  6
CONTINUOUS
 62
     7
 66
     1
 10
0.0
 20
0.0
 30
0.0
 70
     1
  0
VERTEX
  5
229
  8
DATA
  6
CONTINUOUS
 62
     7
 10
8.8509977844664434
 20
-19.7913133623492
 30
0.0
  0
VERTEX
  5
22A
  8
DATA
  6
CONTINUOUS
 62
     7
 10
6.5127291942484637
 20
-21.141313362349191
 30
0.0
  0
VERTEX
  5
22B
  8
DATA
  6
CONTINUOUS
 62
     7
 10
6.5127291942484637
 20
-23.84131336234919
 30
0.0
  0
VERTEX
  5
22C
  8
DATA
  6
CONTINUOUS
 62
     7
 10
8.8509977844664434
 20
-25.191313362349181
 30
0.0
  0
VERTEX
  5
22D
  8
DATA
  6
CONTINUOUS
 62
     7
 10
11.18926637468442
 20
-23.84131336234919
 30
0.0
  0
VERTEX
  5
22E
  8
DATA
  6
CONTINUOUS
 62
     7
 10
11.18926637468442
 20
-21.141313362349191
 30
0.0
  0
SEQEND
  5
22F
  8
DATA
  6
CONTINUOUS
 62
     7
  0
LINE
  5
E7
  8
DATA
  6
CONTINUOUS
 62
     7
 10
26.95276099465493
 20
-26.491313362349199
 30
0.0
 11
15.74923457427778
 21
-26.491313362349199
 31
0.0
  0
LINE
  5
E8
  8
DATA
  6
CONTINUOUS
 62
     7
 10
14.93673457427783
 20
-18.491313362349189
 30
0.0
 11
27.765260994654991
 21
-18.491313362349189
 31
0.0
  0
LINE
  5
E9
  8
DATA
  6
CONTINUOUS
 62
     7
 10
14.366017727026209
 20
-25.307440994732211
 30
0.0
 11
13.55351772702627
 21
-20.107440994732251
 31
0.0
  0
LINE
  5
EA
  8
DATA
  6
CONTINUOUS
 62
     7
 10
29.148477841906551
 20
-20.107440994732251
 30
0.0
 11
28.335977841906491
 21
-25.30744099473225
 31
0.0
  0
CIRCLE
  5
EB
  8
DATA
  6
CONTINUOUS
 62
     7
 10
21.35099778446645
 20
-20.02998515008133
 30
0.0
 40
0.5
  0
CIRCLE
  5
EC
  8
DATA
  6
CONTINUOUS
 62
     7
 10
23.35099778446644
 20
-20.02998515008133
 30
0.0
 40
0.5
  0
CIRCLE
  5
ED
  8
DATA
  6
CONTINUOUS
 62
     7
 10
25.35099778446645
 20
-20.02998515008133
 30
0.0
 40
0.5
  0
CIRCLE
  5
EE
  8
DATA
  6
CONTINUOUS
 62
     7
 10
19.35099778446645
 20
-20.02998515008133
 30
0.0
 40
0.5
  0
CIRCLE
  5
EF
  8
DATA
  6
CONTINUOUS
 62
     7
 10
17.35099778446645
 20
-20.02998515008133
 30
0.0
 40
0.5
  0
CIRCLE
  5
F0
  8
DATA
  6
CONTINUOUS
 62
     7
 10
22.46834135993069
 20
-22.504176408686391
 30
0.0
 40
0.5
  0
CIRCLE
  5
F1
  8
DATA
  6
CONTINUOUS
 62
     7
 10
24.46834135993069
 20
-22.504176408686391
 30
0.0
 40
0.5
  0
CIRCLE
  5
F2
  8
DATA
  6
CONTINUOUS
 62
     7
 10
26.46834135993069
 20
-22.504176408686391
 30
0.0
 40
0.5
  0
CIRCLE
  5
F3
  8
DATA
  6
CONTINUOUS
 62
     7
 10
20.46834135993069
 20
-22.504176408686391
 30
0.0
 40
0.5
  0
CIRCLE
  5
F4
  8
DATA
  6
CONTINUOUS
 62
     7
 10
18.46834135993069
 20
-22.504176408686391
 30
0.0
 40
0.5
  0
CIRCLE
  5
F5
  8
DATA
  6
CONTINUOUS
 62
     7
 10
21.35099778446645
 20
-24.952641574617051
 30
0.0
 40
0.5
  0
CIRCLE
  5
F6
  8
DATA
  6
CONTINUOUS
 62
     7
 10
23.35099778446644
 20
-24.952641574617051
 30
0.0
 40
0.5
  0
CIRCLE
  5
F7
  8
DATA
  6
CONTINUOUS
 62
     7
 10
25.35099778446645
 20
-24.952641574617051
 30
0.0
 40
0.5
  0
CIRCLE
  5
F8
  8
DATA
  6
CONTINUOUS
 62
     7
 10
19.35099778446645
 20
-24.952641574617051
 30
0.0
 40
0.5
  0
CIRCLE
  5
F9
  8
DATA
  6
CONTINUOUS
 62
     7
 10
17.35099778446645
 20
-24.952641574617051
 30
0.0
 40
0.5
  0
ARC
  5
FA
  8
DATA
  6
CONTINUOUS
 62
     7
 10
14.93673457427783
 20
-19.891313362349191
 30
0.0
 40
1.400000000000005
 50
90.0
 51
188.88065915052059
  0
ARC
  5
FB
  8
DATA
  6
CONTINUOUS
 62
     7
 10
27.765260994654991
 20
-19.891313362349191
 30
0.0
 40
1.400000000000019
 50
351.11934084947939
 51
90.0
  0
ARC
  5
FC
  8
DATA
  6
CONTINUOUS
 62
     7
 10
15.74923457427778
 20
-25.09131336234919
 30
0.0
 40
1.400000000000015
 50
188.88065915051931
 51
270.0
  0
ARC
  5
FD
  8
DATA
  6
CONTINUOUS
 62
     7
 10
26.95276099465493
 20
-25.09131336234919
 30
0.0
 40
1.400000000000005
 50
270.0
 51
351.1193408494795
  0
TEXT
  5
FE
  8
DATA
 62
     7
 10
15.84947845349441
 20
-34.524254264919449
 30
0.0
 40
2.4432617187500001
  1
VGA In
 41
0.7
 11
15.84947845349441
 21
-32.080992546169448
 31
0.0
 73
     3
  0
TEXT
  5
FF
  8
DATA
 62
     7
 10
-8.6475376690781758
 20
-34.524254264919449
 30
0.0
 40
2.4432617187500001
  1
5V DC
 41
0.7
 11
-8.6475376690781758
 21
-32.080992546169448
 31
0.0
 73
     3
  0
TEXT
  5
100
  8
DATA
 62
     7
 10
-18.4072275884856
 20
-34.524254264919449
 30
0.0
 40
2.4432617187500001
  1
PWR
 41
0.7
 11
-18.4072275884856
 21
-32.080992546169448
 31
0.0
 73
     3
  0
TEXT
  5
101
  8
DATA
 62
     7
 10
41.721320368995571
 20
-34.524254264919449
 30
0.0
 40
2.4432617187500001
  1
Optical
 41
0.7
 11
41.721320368995571
 21
-32.080992546169448
 31
0.0
 73
     3
  0
TEXT
  5
102
  8
DATA
 62
     7
 10
57.555556496830569
 20
-34.524254264919449
 30
0.0
 40
2.4432617187500001
  1
L/R
 41
0.7
 11
57.555556496830569
 21
-32.080992546169448
 31
0.0
 73
     3
  0
TEXT
  5
103
  8
DATA
 62
     7
 10
47.073364680933523
 20
-17.017909148940792
 30
0.0
 40
2.4432617187500001
  1
Audio In
 41
0.7
 11
47.073364680933523
 21
-14.57464743019079
 31
0.0
 73
     3
  0
TEXT
  5
104
  8
DATA
 62
     7
 10
6.2499999999999991
 20
36.703342928566343
 30
0.0
 40
7.6012586805555546
  1
VGA
 41
0.7
 11
6.25
 21
44.304601609121889
 31
0.0
 73
     3
  0
TEXT
  5
105
  8
DATA
 62
     7
 10
23.009474726673261
 20
36.703342928566343
 30
0.0
 40
7.6012586805555546
  1
w
 41
0.7
 11
23.009474726673261
 21
44.304601609121889
 31
0.0
 73
     3
  0
TEXT
  5
106
  8
DATA
 62
     7
 10
28.233965228464129
 20
36.703342928566343
 30
0.0
 40
7.6012586805555546
  1
/Audio
 41
0.7
 11
28.233965228464129
 21
44.304601609121889
 31
0.0
 73
     3
  0
TEXT
  5
107
  8
DATA
 62
     7
 10
13.04244142898412
 20
25.61655229992887
 30
0.0
 40
7.6012586805555546
  1
HDMI
 41
0.7
 11
13.04244142898412
 21
33.21781098048443
 31
0.0
 73
     3
  0
TEXT
  5
108
  8
DATA
 62
     7
 10
0.2974845275524269
 20
25.61655229992887
 30
0.0
 40
7.6012586805555546
  1
to
 41
0.7
 11
0.2974845275524274
 21
33.21781098048443
 31
0.0
 73
     3
  0
TEXT
  5
109
  8
DATA
 62
     7
 10
34.031936649909589
 20
25.61655229992887
 30
0.0
 40
7.6012586805555546
  1
Scaler
 41
0.7
 11
34.031936649909589
 21
33.21781098048443
 31
0.0
 73
     3
  0
ARC
  5
10A
  8
DATA
  6
CONTINUOUS
 62
     7
 10
-16.0
 20
19.245335990374439
 30
0.0
 40
1.500000000000002
 50
199.28237154939171
 51
340.71762845060869
  0
LINE
  5
10B
  8
DATA
  6
CONTINUOUS
 62
     7
 10
36.189266374684408
 20
14.24999999999998
 30
0.0
 11
31.512729194248472
 21
14.24999999999998
 31
0.0
  0
LINE
  5
10C
  8
DATA
  6
CONTINUOUS
 62
     7
 10
29.148477841906551
 20
14.24999999999998
 30
0.0
 11
13.53673457427835
 21
14.24999999999998
 31
0.0
  0
LINE
  5
10D
  8
DATA
  6
CONTINUOUS
 62
     7
 10
11.18926637468442
 20
14.24999999999998
 30
0.0
 11
6.5127291942484637
 21
14.24999999999998
 31
0.0
  0
LINE
  5
10E
  8
DATA
  6
CONTINUOUS
 62
     7
 10
6.5127291942484637
 20
14.24999999999998
 30
0.0
 11
6.5127291942484637
 21
18.749999999999979
 31
0.0
  0
LINE
  5
10F
  8
DATA
  6
CONTINUOUS
 62
     7
 10
13.53673457427835
 20
14.24999999999998
 30
0.0
 11
13.53673457427835
 21
18.749999999999979
 31
0.0
  0
LINE
  5
110
  8
DATA
  6
CONTINUOUS
 62
     7
 10
31.512729194248472
 20
14.24999999999998
 30
0.0
 11
31.512729194248472
 21
18.749999999999979
 31
0.0
  0
LINE
  5
111
  8
DATA
  6
CONTINUOUS
 62
     7
 10
11.18926637468442
 20
14.24999999999998
 30
0.0
 11
11.18926637468442
 21
18.749999999999979
 31
0.0
  0
LINE
  5
112
  8
DATA
  6
CONTINUOUS
 62
     7
 10
36.189266374684408
 20
14.24999999999998
 30
0.0
 11
36.189266374684408
 21
18.749999999999979
 31
0.0
  0
LINE
  5
113
  8
DATA
  6
CONTINUOUS
 62
     7
 10
29.148477841906551
 20
14.24999999999998
 30
0.0
 11
29.148477841906551
 21
18.749999999999979
 31
0.0
  0
LINE
  5
114
  8
DATA
  6
CONTINUOUS
 62
     7
 10
-25.000000000000011
 20
219.44999999993669
 30
0.0
 11
-25.000000000000011
 21
195.0499999999368
 31
0.0
  0
LINE
  5
115
  8
DATA
  6
CONTINUOUS
 62
     7
 10
76.700000000000003
 20
220.74999999993679
 30
0.0
 11
65.999999999999986
 21
220.74999999993679
 31
0.0
  0
LINE
  5
116
  8
DATA
  6
CONTINUOUS
 62
     7
 10
-13.000000000000011
 20
220.74999999993679
 30
0.0
 11
-23.70000000000001
 21
220.74999999993679
 31
0.0
  0
LINE
  5
117
  8
DATA
  6
CONTINUOUS
 62
     7
 10
77.999999999999986
 20
195.0499999999368
 30
0.0
 11
77.999999999999986
 21
219.44999999993669
 31
0.0
  0
LINE
  5
118
  8
DATA
  6
CONTINUOUS
 62
     7
 10
-23.70000000000001
 20
193.74999999993679
 30
0.0
 11
76.700000000000003
 21
193.74999999993679
 31
0.0
  0
LINE
  5
119
  8
DATA
  6
CONTINUOUS
 62
     7
 10
-22.20000000000001
 20
195.24999999993679
 30
0.0
 11
75.200000000000003
 21
195.24999999993679
 31
0.0
  0
LINE
  5
11A
  8
DATA
  6
CONTINUOUS
 62
     7
 10
-23.500000000000011
 20
217.94999999993669
 30
0.0
 11
-23.500000000000011
 21
196.5499999999368
 31
0.0
  0
LINE
  5
11B
  8
DATA
  6
CONTINUOUS
 62
     7
 10
76.499999999999986
 20
196.5499999999368
 30
0.0
 11
76.499999999999986
 21
217.94999999993669
 31
0.0
  0
LINE
  5
11C
  8
DATA
  6
CONTINUOUS
 62
     7
 10
75.200000000000003
 20
219.2499999999367
 30
0.0
 11
-22.20000000000001
 21
219.2499999999367
 31
0.0
  0
LINE
  5
11D
  8
DATA
  6
CONTINUOUS
 62
     7
 10
-13.000000000000011
 20
220.74999999993679
 30
0.0
 11
-13.000000000000011
 21
219.2499999999367
 31
0.0
  0
LINE
  5
11E
  8
DATA
  6
CONTINUOUS
 62
     7
 10
65.999999999999986
 20
220.74999999993679
 30
0.0
 11
65.999999999999986
 21
219.2499999999367
 31
0.0
  0
ARC
  5
11F
  8
DATA
  6
CONTINUOUS
 62
     7
 10
-22.20000000000001
 20
217.94999999993669
 30
0.0
 40
1.3000000000000109
 50
90.000000000000625
 51
180.0
  0
ARC
  5
120
  8
DATA
  6
CONTINUOUS
 62
     7
 10
-23.699999999999999
 20
219.44999999993669
 30
0.0
 40
1.3000000000000109
 50
90.000000000000625
 51
180.0
  0
ARC
  5
121
  8
DATA
  6
CONTINUOUS
 62
     7
 10
-22.20000000000001
 20
196.5499999999368
 30
0.0
 40
1.2999999999999969
 50
180.0
 51
270.0
  0
ARC
  5
122
  8
DATA
  6
CONTINUOUS
 62
     7
 10
-23.70000000000001
 20
195.0499999999368
 30
0.0
 40
1.2999999999999969
 50
180.0
 51
270.0
  0
ARC
  5
123
  8
DATA
  6
CONTINUOUS
 62
     7
 10
75.200000000000003
 20
217.94999999993669
 30
0.0
 40
1.3
 50
0.0
 51
90.0
  0
ARC
  5
124
  8
DATA
  6
CONTINUOUS
 62
     7
 10
76.700000000000003
 20
219.44999999993669
 30
0.0
 40
1.3
 50
0.0
 51
90.0
  0
ARC
  5
125
  8
DATA
  6
CONTINUOUS
 62
     7
 10
75.200000000000003
 20
196.5499999999368
 30
0.0
 40
1.2999999999999969
 50
269.99999999999977
 51
0.0
  0
ARC
  5
126
  8
DATA
  6
CONTINUOUS
 62
     7
 10
76.700000000000003
 20
195.0499999999368
 30
0.0
 40
1.2999999999999969
 50
269.99999999999977
 51
0.0
  0
ARC
  5
127
  8
DATA
  6
CONTINUOUS
 62
     7
 10
-18.078260869565401
 20
219.1610054347197
 30
0.0
 40
5.664491440067696
 50
99.364944284282956
 51
135.23420013838239
  0
ARC
  5
128
  8
DATA
  6
CONTINUOUS
 62
     7
 10
-19.921739130434609
 20
219.1610054347197
 30
0.0
 40
5.6644914400676898
 50
44.765799861617623
 51
80.635055715717044
  0
LINE
  5
129
  8
DATA
  6
CONTINUOUS
 62
     7
 10
-22.100000000000009
 20
223.1499999999368
 30
0.0
 11
-23.70000000000001
 21
220.74999999993679
 31
0.0
  0
LINE
  5
12A
  8
DATA
  6
CONTINUOUS
 62
     7
 10
-15.90000000000002
 20
223.1499999999368
 30
0.0
 11
-14.30000000000002
 21
220.74999999993679
 31
0.0
  0
ARC
  5
12B
  8
DATA
  6
CONTINUOUS
 62
     7
 10
71.078260869565369
 20
219.1610054347197
 30
0.0
 40
5.6644914400676898
 50
44.765799861617623
 51
80.635055715717044
  0
ARC
  5
12C
  8
DATA
  6
CONTINUOUS
 62
     7
 10
72.921739130434588
 20
219.1610054347197
 30
0.0
 40
5.664491440067696
 50
99.364944284282956
 51
135.23420013838239
  0
LINE
  5
12D
  8
DATA
  6
CONTINUOUS
 62
     7
 10
75.09999999999998
 20
223.1499999999368
 30
0.0
 11
76.700000000000003
 21
220.74999999993679
 31
0.0
  0
LINE
  5
12E
  8
DATA
  6
CONTINUOUS
 62
     7
 10
68.899999999999991
 20
223.1499999999368
 30
0.0
 11
67.299999999999997
 21
220.74999999993679
 31
0.0
  0
CIRCLE
  5
12F
  8
DATA
  6
CONTINUOUS
 62
     7
 10
54.012247966523567
 20
208.77634118498321
 30
0.0
 40
3.0
  0
CIRCLE
  5
130
  8
DATA
  6
CONTINUOUS
 62
     7
 10
54.012247966523567
 20
208.77634118498321
 30
0.0
 40
1.75
  0
POLYLINE
  5
131
  8
DATA
  6
CONTINUOUS
 62
     7
 66
     1
 10
0.0
 20
0.0
 30
0.0
 70
     1
  0
VERTEX
  5
230
  8
DATA
  6
CONTINUOUS
 62
     7
 10
37.307223171638313
 20
212.62545808484279
 30
0.0
  0
VERTEX
  5
231
  8
DATA
  6
CONTINUOUS
 62
     7
 10
46.80722317163832
 20
212.62545808484279
 30
0.0
  0
VERTEX
  5
232
  8
DATA
  6
CONTINUOUS
 62
     7
 10
46.80722317163832
 20
202.62545808484279
 30
0.0
  0
VERTEX
  5
233
  8
DATA
  6
CONTINUOUS
 62
     7
 10
37.307223171638313
 20
202.62545808484279
 30
0.0
  0
SEQEND
  5
234
  8
DATA
  6
CONTINUOUS
 62
     7
  0
LINE
  5
138
  8
DATA
  6
CONTINUOUS
 62
     7
 10
21.499999999999989
 20
172.75
 30
0.0
 11
26.499999999999989
 21
172.75
 31
0.0
  0
LINE
  5
139
  8
DATA
  6
CONTINUOUS
 62
     7
 10
23.999999999999989
 20
167.75
 30
0.0
 11
23.999999999999989
 21
172.75
 31
0.0
  0
LINE
  5
13A
  8
DATA
  6
CONTINUOUS
 62
     7
 10
21.499999999999989
 20
167.75
 30
0.0
 11
21.499999999999989
 21
172.75
 31
0.0
  0
LINE
  5
13B
  8
DATA
  6
CONTINUOUS
 62
     7
 10
26.499999999999989
 20
172.75
 30
0.0
 11
26.499999999999989
 21
167.75
 31
0.0
  0
TEXT
  5
13C
  8
DATA
 62
     7
 10
47.312338425185047
 20
217.55655610217431
 30
0.0
 40
2.4432617187500001
  1
Optical
 50
180.0
 41
0.7
 11
47.312338425185047
 21
215.11329438342429
 31
0.0
 73
     3
  0
TEXT
  5
13D
  8
DATA
 62
     7
 10
55.034107894699169
 20
199.72366374217279
 30
0.0
 40
2.4432617187500001
  1
Audio Out
 50
180.0
 41
0.7
 11
55.034107894699169
 21
197.28040202342279
 31
0.0
 73
     3
  0
LINE
  5
13E
  8
DATA
  6
CONTINUOUS
 62
     7
 10
-14.500000000000011
 20
169.75
 30
0.0
 11
-10.500000000000011
 21
169.75
 31
0.0
  0
LINE
  5
13F
  8
DATA
  6
CONTINUOUS
 62
     7
 10
-5.0000000000000142
 20
169.75
 30
0.0
 11
-1.000000000000014
 21
169.75
 31
0.0
  0
LINE
  5
140
  8
DATA
  6
CONTINUOUS
 62
     7
 10
4.4999999999999849
 20
169.75
 30
0.0
 11
8.4999999999999876
 21
169.75
 31
0.0
  0
LINE
  5
141
  8
DATA
  6
CONTINUOUS
 62
     7
 10
-14.500000000000011
 20
167.75
 30
0.0
 11
-14.500000000000011
 21
169.75
 31
0.0
  0
LINE
  5
142
  8
DATA
  6
CONTINUOUS
 62
     7
 10
-10.500000000000011
 20
169.75
 30
0.0
 11
-10.500000000000011
 21
167.75
 31
0.0
  0
LINE
  5
143
  8
DATA
  6
CONTINUOUS
 62
     7
 10
-5.0000000000000142
 20
167.75
 30
0.0
 11
-5.0000000000000142
 21
169.75
 31
0.0
  0
LINE
  5
144
  8
DATA
  6
CONTINUOUS
 62
     7
 10
-1.000000000000014
 20
169.75
 30
0.0
 11
-1.000000000000014
 21
167.75
 31
0.0
  0
LINE
  5
145
  8
DATA
  6
CONTINUOUS
 62
     7
 10
4.4999999999999849
 20
167.75
 30
0.0
 11
4.4999999999999849
 21
169.75
 31
0.0
  0
LINE
  5
146
  8
DATA
  6
CONTINUOUS
 62
     7
 10
8.4999999999999876
 20
169.75
 30
0.0
 11
8.4999999999999876
 21
167.75
 31
0.0
  0
LINE
  5
147
  8
DATA
  6
CONTINUOUS
 62
     7
 10
255.24999999994671
 20
-10.49999999980988
 30
0.0
 11
255.24999999994671
 21
-37.499999999809852
 31
0.0
  0
LINE
  5
148
  8
DATA
  6
CONTINUOUS
 62
     7
 10
106.2499999999463
 20
-10.499999999809861
 30
0.0
 11
106.2499999999463
 21
-37.499999999809852
 31
0.0
  0
LINE
  5
149
  8
DATA
  6
CONTINUOUS
 62
     7
 10
106.2499999999463
 20
-10.499999999809861
 30
0.0
 11
255.24999999994671
 21
-10.499999999809861
 31
0.0
  0
LINE
  5
14A
  8
DATA
  6
CONTINUOUS
 62
     7
 10
106.2499999999463
 20
-37.499999999809852
 30
0.0
 11
255.24999999994671
 21
-37.499999999809852
 31
0.0
  0
CIRCLE
  5
14B
  8
DATA
  6
CONTINUOUS
 62
     7
 10
-12.4
 20
208.74999999993679
 30
0.0
 40
2.0
  0
CIRCLE
  5
14C
  8
DATA
  6
CONTINUOUS
 62
     7
 10
-2.9000000000000048
 20
208.74999999993679
 30
0.0
 40
2.0
  0
CIRCLE
  5
14D
  8
DATA
  6
CONTINUOUS
 62
     7
 10
6.5999999999999934
 20
208.74999999993679
 30
0.0
 40
2.0
  0
POLYLINE
  5
14E
  8
DATA
  6
CONTINUOUS
 62
     7
 66
     1
 10
0.0
 20
0.0
 30
0.0
 70
     1
  0
VERTEX
  5
235
  8
DATA
  6
CONTINUOUS
 62
     7
 10
24.761126798654281
 20
202.36282465325129
 30
0.0
  0
VERTEX
  5
236
  8
DATA
  6
CONTINUOUS
 62
     7
 10
21.972739119528232
 20
201.6156784264445
 30
0.0
  0
VERTEX
  5
237
  8
DATA
  6
CONTINUOUS
 62
     7
 10
21.22559289272154
 20
198.82729074731861
 30
0.0
  0
VERTEX
  5
238
  8
DATA
  6
CONTINUOUS
 62
     7
 10
23.266834345040841
 20
196.7860492949992
 30
0.0
  0
VERTEX
  5
239
  8
DATA
  6
CONTINUOUS
 62
     7
 10
26.05522202416687
 20
197.53319552180591
 30
0.0
  0
VERTEX
  5
23A
  8
DATA
  6
CONTINUOUS
 62
     7
 10
26.802368250973569
 20
200.321583200932
 30
0.0
  0
SEQEND
  5
23B
  8
DATA
  6
CONTINUOUS
 62
     7
  0
CIRCLE
  5
157
  8
DATA
  6
CONTINUOUS
 62
     7
 10
24.01398057184754
 20
199.57443697412521
 30
0.0
 40
1.275000000000005
  0
LINE
  5
158
  8
DATA
  6
CONTINUOUS
 62
     7
 10
16.163980571847539
 20
206.6372876428895
 30
0.0
 11
31.863980571847531
 21
206.6372876428895
 31
0.0
  0
LINE
  5
159
  8
DATA
  6
CONTINUOUS
 62
     7
 10
16.163980571847539
 20
206.6372876428895
 30
0.0
 11
16.163980571847539
 21
210.9372876428896
 31
0.0
  0
LINE
  5
15A
  8
DATA
  6
CONTINUOUS
 62
     7
 10
31.863980571847531
 20
206.6372876428895
 30
0.0
 11
31.863980571847531
 21
210.9372876428896
 31
0.0
  0
LINE
  5
15B
  8
DATA
  6
CONTINUOUS
 62
     7
 10
16.163980571847539
 20
210.9372876428896
 30
0.0
 11
18.76398057184754
 21
212.63728764288959
 31
0.0
  0
LINE
  5
15C
  8
DATA
  6
CONTINUOUS
 62
     7
 10
31.863980571847531
 20
210.9372876428896
 30
0.0
 11
29.26398057184754
 21
212.63728764288959
 31
0.0
  0
LINE
  5
15D
  8
DATA
  6
CONTINUOUS
 62
     7
 10
18.76398057184754
 20
212.63728764288959
 30
0.0
 11
29.26398057184754
 21
212.63728764288959
 31
0.0
  0
POLYLINE
  5
15E
  8
DATA
  6
CONTINUOUS
 62
     7
 66
     1
 10
0.0
 20
0.0
 30
0.0
 70
     1
  0
VERTEX
  5
23C
  8
DATA
  6
CONTINUOUS
 62
     7
 10
19.01398057184754
 20
209.42345081738239
 30
0.0
  0
VERTEX
  5
23D
  8
DATA
  6
CONTINUOUS
 62
     7
 10
29.01398057184754
 20
209.42345081738239
 30
0.0
  0
VERTEX
  5
23E
  8
DATA
  6
CONTINUOUS
 62
     7
 10
29.01398057184754
 20
208.92345081738239
 30
0.0
  0
VERTEX
  5
23F
  8
DATA
  6
CONTINUOUS
 62
     7
 10
19.01398057184754
 20
208.92345081738239
 30
0.0
  0
SEQEND
  5
240
  8
DATA
  6
CONTINUOUS
 62
     7
  0
TEXT
  5
165
  8
DATA
 62
     7
 10
56.434854203752103
 20
217.55655610217431
 30
0.0
 40
2.4432617187500001
  1
L/R
 50
180.0
 41
0.7
 11
56.434854203752103
 21
215.11329438342429
 31
0.0
 73
     3
  0
CIRCLE
  5
166
  8
DATA
  6
CONTINUOUS
 62
     7
 10
63.962830250887919
 20
205.30041501554189
 30
0.0
 40
5.000000000000159
  0
TEXT
  5
167
  8
DATA
 62
     7
 10
65.744856389693524
 20
217.55655610217431
 30
0.0
 40
2.4432617187500001
  1
IR
 50
180.0
 41
0.7
 11
65.744856389693524
 21
215.11329438342429
 31
0.0
 73
     3
  0
TEXT
  5
168
  8
DATA
 62
     7
 10
29.118925924611268
 20
217.55655610217431
 30
0.0
 40
2.4432617187500001
  1
HDMI Out
 50
180.0
 41
0.7
 11
29.118925924611268
 21
215.11329438342429
 31
0.0
 73
     3
  0
TEXT
  5
169
  8
DATA
 62
     7
 10
10.165653540770229
 20
217.55655610217431
 30
0.0
 40
2.4432617187500001
  1
MENU
 50
180.0
 41
0.7
 11
10.165653540770229
 21
215.11329438342429
 31
0.0
 73
     3
  0
TEXT
  5
16A
  8
DATA
 62
     7
 10
-1.939233669119218
 20
217.55655610217431
 30
0.0
 40
2.4432617187500001
  1
-
 50
180.0
 41
0.7
 11
-1.939233669119218
 21
215.11329438342429
 31
0.0
 73
     3
  0
TEXT
  5
16B
  8
DATA
 62
     7
 10
-11.735961285278201
 20
217.55655610217431
 30
0.0
 40
2.4432617187500001
  1
+
 50
180.0
 41
0.7
 11
-11.735961285278201
 21
215.11329438342429
 31
0.0
 73
     3
  0
TEXT
  5
16C
  8
DATA
 62
     7
 10
15.12681678099883
 20
199.72366374217279
 30
0.0
 40
2.4432617187500001
  1
EXT-VGAAUD-2 HDMIS
 50
180.0
 41
0.7
 11
15.12681678099883
 21
197.28040202342279
 31
0.0
 73
     3
  0
TEXT
  5
16D
  8
DATA
 62
     7
 10
6.3154743303345811
 20
203.18933159386509
 30
0.0
 40
2.4432617187500001
  1
Gefen
 50
180.0
 41
0.7
 11
6.3154743303345811
 21
200.74606987511521
 31
0.0
 73
     3
  0
ARC
  5
16E
  8
DATA
  6
CONTINUOUS
 62
     7
 10
112.3553007774703
 20
-35.911005434492807
 30
0.0
 40
5.6644914400677218
 50
279.36494428428279
 51
315.23420013838239
  0
ARC
  5
16F
  8
DATA
  6
CONTINUOUS
 62
     7
 10
114.1987790383395
 20
-35.911005434492807
 30
0.0
 40
5.664491440067696
 50
224.76579986161761
 51
260.63505571571687
  0
LINE
  5
170
  8
DATA
  6
CONTINUOUS
 62
     7
 10
116.3770399079049
 20
-39.899999999709891
 30
0.0
 11
117.9770399079049
 21
-37.499999999709843
 31
0.0
  0
LINE
  5
171
  8
DATA
  6
CONTINUOUS
 62
     7
 10
110.1770399079049
 20
-39.899999999709891
 30
0.0
 11
108.5770399079049
 21
-37.499999999709843
 31
0.0
  0
ARC
  5
172
  8
DATA
  6
CONTINUOUS
 62
     7
 10
249.1446992224227
 20
-35.911005434492807
 30
0.0
 40
5.66449144006768
 50
224.76579986161769
 51
260.63505571571687
  0
ARC
  5
173
  8
DATA
  6
CONTINUOUS
 62
     7
 10
247.30122096155361
 20
-35.911005434492807
 30
0.0
 40
5.6644914400677182
 50
279.3649442842825
 51
315.23420013838228
  0
LINE
  5
174
  8
DATA
  6
CONTINUOUS
 62
     7
 10
245.12296009198809
 20
-39.899999999709891
 30
0.0
 11
243.5229600919881
 21
-37.499999999709843
 31
0.0
  0
LINE
  5
175
  8
DATA
  6
CONTINUOUS
 62
     7
 10
251.32296009198811
 20
-39.899999999709891
 30
0.0
 11
252.9229600919881
 21
-37.499999999709843
 31
0.0
  0
LINE
  5
176
  8
DATA
  6
CONTINUOUS
 62
     7
 10
260.24999999994679
 20
-13.808801885030221
 30
0.0
 11
260.24999999994679
 21
-18.808801885030189
 31
0.0
  0
LINE
  5
177
  8
DATA
  6
CONTINUOUS
 62
     7
 10
255.24999999994671
 20
-16.308801885030221
 30
0.0
 11
260.24999999994679
 21
-16.308801885030221
 31
0.0
  0
LINE
  5
178
  8
DATA
  6
CONTINUOUS
 62
     7
 10
255.24999999994671
 20
-13.808801885030221
 30
0.0
 11
260.24999999994679
 21
-13.808801885030221
 31
0.0
  0
LINE
  5
179
  8
DATA
  6
CONTINUOUS
 62
     7
 10
260.24999999994679
 20
-18.808801885030189
 30
0.0
 11
255.24999999994671
 21
-18.808801885030189
 31
0.0
  0
LINE
  5
17A
  8
DATA
  6
CONTINUOUS
 62
     7
 10
257.24999999994668
 20
-23.499999999809852
 30
0.0
 11
257.24999999994668
 21
-27.499999999809859
 31
0.0
  0
LINE
  5
17B
  8
DATA
  6
CONTINUOUS
 62
     7
 10
255.24999999994671
 20
-23.499999999809852
 30
0.0
 11
257.24999999994668
 21
-23.499999999809852
 31
0.0
  0
LINE
  5
17C
  8
DATA
  6
CONTINUOUS
 62
     7
 10
257.24999999994668
 20
-27.499999999809859
 30
0.0
 11
255.24999999994671
 21
-27.499999999809859
 31
0.0
  0
LINE
  5
17D
  8
DATA
  6
CONTINUOUS
 62
     7
 10
101.7499999999463
 20
-18.489999999809871
 30
0.0
 11
101.7499999999463
 21
-26.489999999809871
 31
0.0
  0
LINE
  5
17E
  8
DATA
  6
CONTINUOUS
 62
     7
 10
106.2499999999463
 20
-18.489999999809871
 30
0.0
 11
101.7499999999463
 21
-18.489999999809871
 31
0.0
  0
LINE
  5
17F
  8
DATA
  6
CONTINUOUS
 62
     7
 10
106.2499999999463
 20
-26.489999999809871
 30
0.0
 11
101.7499999999463
 21
-26.489999999809871
 31
0.0
  0
LINE
  5
180
  8
DATA
  6
CONTINUOUS
 62
     7
 10
101.7499999999463
 20
-22.489999999809861
 30
0.0
 11
106.2499999999463
 21
-22.489999999809861
 31
0.0
  0
LINE
  5
181
  8
DATA
  6
CONTINUOUS
 62
     7
 10
101.7499999999463
 20
-20.149999999809861
 30
0.0
 11
106.2499999999463
 21
-20.149999999809861
 31
0.0
  0
LINE
  5
182
  8
DATA
  6
CONTINUOUS
 62
     7
 10
106.2499999999463
 20
-24.829999999809871
 30
0.0
 11
101.7499999999463
 21
-24.829999999809871
 31
0.0
  0
ENDSEC
  0
EOF
