  0
SECTION
  2
HEADER
  9
$ACADVER
  1
AC1009
  9
$INSBASE
 10
0.0
 20
0.0
 30
0.0
  9
$EXTMIN
 10
-170.0164782349211
 20
-265.74833863455001
 30
-0.0015258207003583
  9
$EXTMAX
 10
371.91162235326101
 20
537.09174839639525
 30
0.0000000349246037
  9
$LIMMIN
 10
0.0
 20
0.0
  9
$LIMMAX
 10
0.0
 20
0.0
  9
$ORTHOMODE
 70
     0
  9
$REGENMODE
 70
     1
  9
$FILLMODE
 70
     1
  9
$QTEXTMODE
 70
     0
  9
$MIRRTEXT
 70
     1
  9
$DRAGMODE
 70
     2
  9
$LTSCALE
 40
15.24
  9
$OSMODE
 70
   231
  9
$ATTMODE
 70
     1
  9
$TEXTSIZE
 40
0.0
  9
$TRACEWID
 40
1.0
  9
$TEXTSTYLE
  7
STANDARD
  9
$CLAYER
  8
DATA
  9
$CELTYPE
  6
BYLAYER
  9
$CECOLOR
 62
   256
  9
$DIMSCALE
 40
1.0
  9
$DIMASZ
 40
0.18
  9
$DIMEXO
 40
0.0625
  9
$DIMDLI
 40
0.38
  9
$DIMRND
 40
0.0
  9
$DIMDLE
 40
0.0
  9
$DIMEXE
 40
0.18
  9
$DIMTP
 40
0.0
  9
$DIMTM
 40
0.0
  9
$DIMTXT
 40
0.18
  9
$DIMCEN
 40
0.09
  9
$DIMTSZ
 40
0.0
  9
$DIMTOL
 70
     0
  9
$DIMLIM
 70
     0
  9
$DIMTIH
 70
     1
  9
$DIMTOH
 70
     1
  9
$DIMSE1
 70
     0
  9
$DIMSE2
 70
     0
  9
$DIMTAD
 70
     0
  9
$DIMZIN
 70
     0
  9
$DIMBLK
  1

  9
$DIMASO
 70
     1
  9
$DIMSHO
 70
     1
  9
$DIMPOST
  1

  9
$DIMAPOST
  1

  9
$DIMALT
 70
     0
  9
$DIMALTD
 70
     2
  9
$DIMALTF
 40
25.399999999999999
  9
$DIMLFAC
 40
1.0
  9
$DIMTOFL
 70
     0
  9
$DIMTVP
 40
0.0
  9
$DIMTIX
 70
     0
  9
$DIMSOXD
 70
     0
  9
$DIMSAH
 70
     0
  9
$DIMBLK1
  1

  9
$DIMBLK2
  1

  9
$DIMSTYLE
  2
STANDARD
  9
$DIMCLRD
 70
     0
  9
$DIMCLRE
 70
     0
  9
$DIMCLRT
 70
     0
  9
$DIMTFAC
 40
1.0
  9
$DIMGAP
 40
0.09
  9
$LUNITS
 70
     2
  9
$LUPREC
 70
     4
  9
$SKETCHINC
 40
0.1
  9
$FILLETRAD
 40
0.0
  9
$AUNITS
 70
     0
  9
$AUPREC
 70
     0
  9
$MENU
  1
acad
  9
$ELEVATION
 40
0.0
  9
$PELEVATION
 40
0.0
  9
$THICKNESS
 40
0.0
  9
$LIMCHECK
 70
     0
  9
$BLIPMODE
 70
     0
  9
$CHAMFERA
 40
0.0
  9
$CHAMFERB
 40
0.0
  9
$SKPOLY
 70
     0
  9
$TDCREATE
 40
2455615.6587268519
  9
$TDUPDATE
 40
2455615.6621404169
  9
$TDINDWG
 40
0.0002478356
  9
$TDUSRTIMER
 40
0.0002476505
  9
$USRTIMER
 70
     1
  9
$ANGBASE
 50
0.0
  9
$ANGDIR
 70
     0
  9
$PDMODE
 70
     1
  9
$PDSIZE
 40
-2.0
  9
$PLINEWID
 40
0.0
  9
$COORDS
 70
     1
  9
$SPLFRAME
 70
     0
  9
$SPLINETYPE
 70
     6
  9
$SPLINESEGS
 70
     8
  9
$ATTDIA
 70
     0
  9
$ATTREQ
 70
     1
  9
$HANDLING
 70
     1
  9
$HANDSEED
  5
44C
  9
$SURFTAB1
 70
     6
  9
$SURFTAB2
 70
     6
  9
$SURFTYPE
 70
     6
  9
$SURFU
 70
     6
  9
$SURFV
 70
     6
  9
$UCSNAME
  2

  9
$UCSORG
 10
0.0
 20
0.0
 30
0.0
  9
$UCSXDIR
 10
1.0
 20
0.0
 30
0.0
  9
$UCSYDIR
 10
0.0
 20
1.0
 30
0.0
  9
$PUCSNAME
  2

  9
$PUCSORG
 10
0.0
 20
0.0
 30
0.0
  9
$PUCSXDIR
 10
1.0
 20
0.0
 30
0.0
  9
$PUCSYDIR
 10
0.0
 20
1.0
 30
0.0
  9
$USERI1
 70
     0
  9
$USERI2
 70
     0
  9
$USERI3
 70
     0
  9
$USERI4
 70
     0
  9
$USERI5
 70
     0
  9
$USERR1
 40
0.0
  9
$USERR2
 40
0.0
  9
$USERR3
 40
0.0
  9
$USERR4
 40
0.0
  9
$USERR5
 40
0.0
  9
$WORLDVIEW
 70
     1
  9
$SHADEDGE
 70
     3
  9
$SHADEDIF
 70
    70
  9
$TILEMODE
 70
     1
  9
$MAXACTVP
 70
    64
  9
$PLIMCHECK
 70
     0
  9
$PEXTMIN
 10
1.0000000000000000E+020
 20
1.0000000000000000E+020
 30
1.0000000000000000E+020
  9
$PEXTMAX
 10
-1.0000000000000000E+020
 20
-1.0000000000000000E+020
 30
-1.0000000000000000E+020
  9
$PLIMMIN
 10
0.0
 20
0.0
  9
$PLIMMAX
 10
12.0
 20
9.0
  9
$UNITMODE
 70
     0
  9
$VISRETAIN
 70
     0
  9
$PLINEGEN
 70
     1
  9
$PSLTSCALE
 70
     0
  0
ENDSEC
  0
SECTION
  2
TABLES
  0
TABLE
  2
VPORT
 70
     1
  0
VPORT
  2
*ACTIVE
 70
     0
 10
0.0
 20
0.0
 11
1.0
 21
1.0
 12
100.9475720591699
 22
135.6717048809227
 13
0.0
 23
0.0
 14
1.0
 24
1.0
 15
0.0
 25
0.0
 16
0.0
 26
0.0
 36
1.0
 17
0.0
 27
0.0
 37
0.0
 40
808.75056619927125
 41
1.9619164619164611
 42
50.0
 43
0.0
 44
0.0
 50
0.0
 51
0.0
 71
     0
 72
  2000
 73
     1
 74
     1
 75
     0
 76
     0
 77
     0
 78
     0
  0
ENDTAB
  0
TABLE
  2
LTYPE
 70
    11
  0
LTYPE
  2
CONTINUOUS
 70
     0
  3
Solid line
 72
    65
 73
     0
 40
0.0
  0
ENDTAB
  0
TABLE
  2
LAYER
 70
     6
  0
LAYER
  2
0
 70
     0
 62
     7
  6
CONTINUOUS
  0
LAYER
  2
DATA
 70
     0
 62
     7
  6
CONTINUOUS
  0
LAYER
  2
HIBINO-BASE
 70
     0
 62
     7
  6
CONTINUOUS
  0
LAYER
  2
SPEC
 70
     0
 62
     7
  6
CONTINUOUS
  0
LAYER
  2
DIMNSIONS
 70
     0
 62
     7
  6
CONTINUOUS
  0
ENDTAB
  0
TABLE
  2
STYLE
 70
     3
  0
STYLE
  2
STANDARD
 70
     0
 40
0.0
 41
1.0
 50
0.0
 71
     0
 42
0.0
  3
txt
  4
BIGFONT.SHX
  0
ENDTAB
  0
TABLE
  2
VIEW
 70
     0
  0
ENDTAB
  0
TABLE
  2
UCS
 70
     0
  0
ENDTAB
  0
TABLE
  2
APPID
 70
     3
  0
APPID
  2
ACAD
 70
     0
  0
APPID
  2
ACADANNOTATIVE
 70
     0
  0
APPID
  2
ACAD_MLEADERVER
 70
     0
  0
ENDTAB
  0
TABLE
  2
DIMSTYLE
 70
     2
  0
DIMSTYLE
  2
STANDARD
 70
     0
  3

  4

  5

  6

  7

 40
1.0
 41
0.18
 42
0.0625
 43
0.38
 44
0.18
 45
0.0
 46
0.0
 47
0.0
 48
0.0
140
0.18
141
0.09
142
0.0
143
25.399999999999999
144
1.0
145
0.0
146
1.0
147
0.09
 71
     0
 72
     0
 73
     1
 74
     1
 75
     0
 76
     0
 77
     0
 78
     0
170
     0
171
     2
172
     0
173
     0
174
     0
175
     0
176
     0
177
     0
178
     0
  0
ENDTAB
  0
ENDSEC
  0
SECTION
  2
BLOCKS
  0
BLOCK
  8
0
  2
$MODEL_SPACE
 70
     0
 10
0.0
 20
0.0
 30
0.0
  3
$MODEL_SPACE
  1

  0
ENDBLK
  5
36F
  8
0
  0
BLOCK
 67
     1
  8
0
  2
$PAPER_SPACE
 70
     0
 10
0.0
 20
0.0
 30
0.0
  3
$PAPER_SPACE
  1

  0
ENDBLK
  5
36B
 67
     1
  8
0
  0
ENDSEC
  0
SECTION
  2
ENTITIES
  0
LINE
  5
2D
  8
HIBINO-BASE
  6
CONTINUOUS
 62
     7
 10
-169.99999999999989
 20
537.06729578973182
 30
0.0
 11
370.0
 21
537.06729578973182
 31
0.0
  0
LINE
  5
2E
  8
HIBINO-BASE
  6
CONTINUOUS
 62
     7
 10
370.0
 20
-242.93270421026821
 30
0.0
 11
-169.99999999999989
 21
-242.93270421026821
 31
0.0
  0
LINE
  5
2F
  8
HIBINO-BASE
  6
CONTINUOUS
 62
     7
 10
-169.99999999999989
 20
-242.93270421026821
 30
0.0
 11
-169.99999999999989
 21
537.06729578973182
 31
0.0
  0
LINE
  5
30
  8
HIBINO-BASE
  6
CONTINUOUS
 62
     7
 10
370.0
 20
537.06729578973182
 30
0.0
 11
370.0
 21
-242.93270421026821
 31
0.0
  0
LINE
  5
31
  8
HIBINO-BASE
  6
CONTINUOUS
 62
     7
 10
100.0
 20
-175.4327042102681
 30
0.0
 11
370.0
 21
-175.4327042102681
 31
0.0
  0
LINE
  5
32
  8
HIBINO-BASE
  6
CONTINUOUS
 62
     7
 10
100.0
 20
-242.93270421026821
 30
0.0
 11
100.0
 21
-175.4327042102681
 31
0.0
  0
TEXT
  5
33
  8
HIBINO-BASE
 62
     7
 10
102.7
 20
-182.95878421026811
 30
0.0
 40
4.8865234374999993
  1
NOTE
 41
0.7
 11
102.7
 21
-178.0722607727682
 31
0.0
 73
     3
  0
LINE
  5
34
  8
HIBINO-BASE
  6
CONTINUOUS
 62
     7
 10
205.0
 20
-242.93270421026821
 30
0.0
 11
205.0
 21
-175.4327042102681
 31
0.0
  0
TEXT
  5
35
  8
HIBINO-BASE
 62
     7
 10
207.69999999999999
 20
-182.95878421026811
 30
0.0
 40
4.8865234374999993
  1
TITLE
 41
0.7
 11
207.69999999999999
 21
-178.0722607727682
 31
0.0
 73
     3
  0
LINE
  5
36
  8
HIBINO-BASE
  6
CONTINUOUS
 62
     7
 10
100.0
 20
-212.9327042102681
 30
0.0
 11
370.0
 21
-212.9327042102681
 31
0.0
  0
TEXT
  5
37
  8
HIBINO-BASE
 62
     7
 10
245.19999999999999
 20
-220.28982421026819
 30
0.0
 40
4.8865234374999993
  1
DRAWN
 41
0.7
 11
245.19999999999999
 21
-215.4033007727682
 31
0.0
 73
     3
  0
TEXT
  5
38
  8
HIBINO-BASE
 62
     7
 10
170.19999999999999
 20
-220.28982421026819
 30
0.0
 40
4.8865234374999993
  1
DATE
 41
0.7
 11
170.19999999999999
 21
-215.4033007727682
 31
0.0
 73
     3
  0
TEXT
  5
39
  8
HIBINO-BASE
 62
     7
 10
140.19999999999999
 20
-220.28982421026819
 30
0.0
 40
4.8865234374999993
  1
SCALE
 41
0.7
 11
140.19999999999999
 21
-215.4033007727682
 31
0.0
 73
     3
  0
TEXT
  5
3A
  8
HIBINO-BASE
 62
     7
 10
207.69999999999999
 20
-220.28982421026819
 30
0.0
 40
4.8865234374999993
  1
DESIGN
 41
0.7
 11
207.69999999999999
 21
-215.4033007727682
 31
0.0
 73
     3
  0
TEXT
  5
3B
  8
HIBINO-BASE
 62
     7
 10
320.19999999999999
 20
-220.28982421026819
 30
0.0
 40
4.8865234374999993
  1
DRAWING NO.
 41
0.7
 11
320.19999999999999
 21
-215.4033007727682
 31
0.0
 73
     3
  0
TEXT
  5
3C
  8
HIBINO-BASE
 62
     7
 10
282.69999999999999
 20
-220.28982421026819
 30
0.0
 40
4.8865234374999993
  1
CHECK
 41
0.7
 11
282.69999999999999
 21
-215.4033007727682
 31
0.0
 73
     3
  0
LINE
  5
3D
  8
HIBINO-BASE
  6
CONTINUOUS
 62
     7
 10
143.12499999999989
 20
-239.18270421026821
 30
0.0
 11
154.375
 21
-227.9327042102681
 31
0.0
  0
TEXT
  5
3E
  8
HIBINO-BASE
 62
     7
 10
141.24999999999989
 20
-231.25953421026821
 30
0.0
 40
4.8865234374999993
  1
1
 41
0.7
 11
141.24999999999989
 21
-226.3730107727682
 31
0.0
 73
     3
  0
LINE
  5
3F
  8
HIBINO-BASE
  6
CONTINUOUS
 62
     7
 10
137.5
 20
-242.93270421026821
 30
0.0
 11
137.5
 21
-212.9327042102681
 31
0.0
  0
LINE
  5
40
  8
HIBINO-BASE
  6
CONTINUOUS
 62
     7
 10
167.5
 20
-242.93270421026821
 30
0.0
 11
167.5
 21
-212.9327042102681
 31
0.0
  0
LINE
  5
41
  8
HIBINO-BASE
  6
CONTINUOUS
 62
     7
 10
242.5
 20
-212.9327042102681
 30
0.0
 11
242.5
 21
-242.93270421026821
 31
0.0
  0
LINE
  5
42
  8
HIBINO-BASE
  6
CONTINUOUS
 62
     7
 10
317.5
 20
-212.9327042102681
 30
0.0
 11
317.5
 21
-242.93270421026821
 31
0.0
  0
LINE
  5
43
  8
HIBINO-BASE
  6
CONTINUOUS
 62
     7
 10
279.99999999999989
 20
-242.93270421026821
 30
0.0
 11
279.99999999999989
 21
-212.9327042102681
 31
0.0
  0
TEXT
  5
44
  8
HIBINO-BASE
 62
     7
 10
170.06961999999999
 20
-234.3417642102682
 30
0.0
 40
4.8865234374999993
  1
'11.02.
 41
0.7
 11
170.06961999999999
 21
-229.45524077276821
 31
0.0
 73
     3
  0
TEXT
  5
45
  8
HIBINO-BASE
 62
     7
 10
152.5
 20
-236.88453421026821
 30
0.0
 40
4.8865234374999993
  1
3
 41
0.7
 11
152.5
 21
-231.9980107727682
 31
0.0
 73
     3
  0
TEXT
  5
46
  8
HIBINO-BASE
 62
     7
 10
111.65000000000001
 20
-237.0047042102681
 30
0.0
 40
9.7730468749999986
  1
A4
 41
0.7
 11
111.65000000000001
 21
-227.2316573352681
 31
0.0
 73
     3
  0
TEXT
  5
47
  8
HIBINO-BASE
 62
     7
 10
102.875
 20
-220.79106921026809
 30
0.0
 40
4.8865234374999993
  1
PAPER SIZE
 41
0.7
 11
102.875
 21
-215.9045457727681
 31
0.0
 73
     3
  0
TEXT
  5
48
  8
HIBINO-BASE
 62
     7
 10
-161.7210942293294
 20
-262.20842491279689
 30
0.0
 40
10.58746744791666
  1
Hibino-Intersound Corporation
 41
0.7
 11
-161.7210942293294
 21
-251.62095746488029
 31
0.0
 73
     3
  0
TEXT
  5
49
  8
HIBINO-BASE
 62
     7
 10
160.54182904064169
 20
-261.15516015292872
 30
0.0
 40
10.58746744791666
  1
ヒビノインターサウンド株式会社
 41
0.7
 11
160.54182904064169
 21
-250.56769270501201
 31
0.0
 73
     3
  0
LINE
  5
4A
  8
SPEC
  6
CONTINUOUS
 62
     7
 10
-147.49999999999989
 20
507.0672957897317
 30
0.0
 11
295.0
 21
507.0672957897317
 31
0.0
  0
LINE
  5
4B
  8
SPEC
  6
CONTINUOUS
 62
     7
 10
-147.49999999999989
 20
495.8172957897317
 30
0.0
 11
295.0
 21
495.8172957897317
 31
0.0
  0
LINE
  5
4C
  8
SPEC
  6
CONTINUOUS
 62
     7
 10
-147.49999999999989
 20
473.3172957897317
 30
0.0
 11
295.0
 21
473.3172957897317
 31
0.0
  0
LINE
  5
4D
  8
SPEC
  6
CONTINUOUS
 62
     7
 10
-147.49999999999989
 20
484.5672957897317
 30
0.0
 11
295.0
 21
484.5672957897317
 31
0.0
  0
LINE
  5
4E
  8
SPEC
  6
CONTINUOUS
 62
     7
 10
-147.49999999999989
 20
507.0672957897317
 30
0.0
 11
-147.49999999999989
 21
360.81729578973182
 31
0.0
  0
TEXT
  5
4F
  8
SPEC
 62
     7
 10
-143.74999999999989
 20
511.24710578973179
 30
0.0
 40
7.3297851562499989
  1
仕様
 41
0.7
 11
-143.74999999999989
 21
518.57689094598175
 31
0.0
 73
     3
  0
LINE
  5
50
  8
SPEC
  6
CONTINUOUS
 62
     7
 10
295.0
 20
507.0672957897317
 30
0.0
 11
295.0
 21
360.81729578973182
 31
0.0
  0
LINE
  5
51
  8
SPEC
  6
CONTINUOUS
 62
     7
 10
-147.49999999999989
 20
462.0672957897317
 30
0.0
 11
295.0
 21
462.0672957897317
 31
0.0
  0
LINE
  5
52
  8
SPEC
  6
CONTINUOUS
 62
     7
 10
-147.49999999999989
 20
450.8172957897317
 30
0.0
 11
295.0
 21
450.8172957897317
 31
0.0
  0
LINE
  5
53
  8
SPEC
  6
CONTINUOUS
 62
     7
 10
-147.49999999999989
 20
439.5672957897317
 30
0.0
 11
295.0
 21
439.5672957897317
 31
0.0
  0
LINE
  5
54
  8
SPEC
  6
CONTINUOUS
 62
     7
 10
-147.49999999999989
 20
428.3172957897317
 30
0.0
 11
295.0
 21
428.3172957897317
 31
0.0
  0
LINE
  5
55
  8
SPEC
  6
CONTINUOUS
 62
     7
 10
-147.49999999999989
 20
417.0672957897317
 30
0.0
 11
295.0
 21
417.0672957897317
 31
0.0
  0
LINE
  5
56
  8
SPEC
  6
CONTINUOUS
 62
     7
 10
-147.49999999999989
 20
405.8172957897317
 30
0.0
 11
295.0
 21
405.8172957897317
 31
0.0
  0
LINE
  5
57
  8
SPEC
  6
CONTINUOUS
 62
     7
 10
-147.49999999999989
 20
394.5672957897317
 30
0.0
 11
295.0
 21
394.5672957897317
 31
0.0
  0
LINE
  5
58
  8
SPEC
  6
CONTINUOUS
 62
     7
 10
-147.49999999999989
 20
383.31729578973182
 30
0.0
 11
295.0
 21
383.31729578973182
 31
0.0
  0
LINE
  5
59
  8
SPEC
  6
CONTINUOUS
 62
     7
 10
-147.49999999999989
 20
372.0672957897317
 30
0.0
 11
295.0
 21
372.0672957897317
 31
0.0
  0
LINE
  5
5A
  8
SPEC
  6
CONTINUOUS
 62
     7
 10
-147.49999999999989
 20
360.81729578973182
 30
0.0
 11
295.0
 21
360.81729578973182
 31
0.0
  0
TEXT
  5
5B
  8
SPEC
 62
     7
 10
-145.0854837004039
 20
375.44975518912719
 30
0.0
 40
5.7009440104166673
  1
寸法
 41
0.7
 11
-145.0854837004039
 21
381.15069919954391
 31
0.0
 73
     3
  0
TEXT
  5
5C
  8
SPEC
 62
     7
 10
2.570695454324706
 20
374.80381591664678
 30
0.0
 40
5.7009440104166673
  1
77(W)\U+00D725(H)\U+00D7263(D)mm(突起部含まず）
 41
0.7
 11
2.570695454324706
 21
380.50475992706339
 31
0.0
 73
     3
  0
TEXT
  5
5D
  8
SPEC
 62
     7
 10
2.5632784661366652
 20
364.23484363895437
 30
0.0
 40
5.7009440104166673
  1
約320g
 41
0.7
 11
2.5632784661366652
 21
369.93578764937109
 31
0.0
 73
     3
  0
TEXT
  5
5E
  8
SPEC
 62
     7
 10
-144.9812424522836
 20
364.0334960362834
 30
0.0
 40
5.7009440104166673
  1
重量
 41
0.7
 11
-144.9812424522836
 21
369.73444004670012
 31
0.0
 73
     3
  0
TEXT
  5
5F
  8
SPEC
 62
     7
 10
-145.0345291462491
 20
397.6068559421845
 30
0.0
 40
5.7009440104166673
  1
電源
 41
0.7
 11
-145.0345291462491
 21
403.30779995260121
 31
0.0
 73
     3
  0
TEXT
  5
60
  8
SPEC
 62
     7
 10
2.8089851823607419
 20
397.40048900742062
 30
0.0
 40
5.7009440104166673
  1
5V DC
 41
0.7
 11
2.8089851823607428
 21
403.10143301783722
 31
0.0
 73
     3
  0
TEXT
  5
61
  8
SPEC
 62
     7
 10
-144.86147950789641
 20
386.48094483196593
 30
0.0
 40
5.7009440104166673
  1
消費電力
 41
0.7
 11
-144.86147950789641
 21
392.18188884238259
 31
0.0
 73
     3
  0
TEXT
  5
62
  8
SPEC
 62
     7
 10
2.3231730713121679
 20
386.44498719070913
 30
0.0
 40
5.7009440104166673
  1
10W(最大)
 41
0.7
 11
2.3231730713121679
 21
392.14593120112568
 31
0.0
 73
     3
  0
TEXT
  5
63
  8
SPEC
 62
     7
 10
-144.88324095325081
 20
419.96546437981408
 30
0.0
 40
5.7009440104166673
  1
LEDモード切替(2）
 41
0.7
 11
-144.88324095325081
 21
425.6664083902308
 31
0.0
 73
     3
  0
TEXT
  5
64
  8
SPEC
 62
     7
 10
2.982177906722554
 20
419.82878224320029
 30
0.0
 40
5.7009440104166673
  1
Audio Channels、INT/EXT Mode　
 41
0.7
 11
2.982177906722554
 21
425.5297262536169
 31
0.0
 73
     3
  0
TEXT
  5
65
  8
SPEC
 62
     7
 10
-144.77047455355381
 20
431.03171861618989
 30
0.0
 40
5.7009440104166673
  1
LEDインジケータ ー
 41
0.7
 11
-144.77047455355381
 21
436.7326626266065
 31
0.0
 73
     3
  0
TEXT
  5
66
  8
SPEC
 62
     7
 10
1.408427626113919
 20
431.14593192542401
 30
0.0
 40
5.7009440104166673
  1
(1)Red
 41
0.7
 11
1.408427626113919
 21
436.84687593584079
 31
0.0
 73
     3
  0
TEXT
  5
67
  8
SPEC
 62
     7
 10
-144.8797178806206
 20
442.5314234149713
 30
0.0
 40
5.7009440104166673
  1
HDMI端子
 41
0.7
 11
-144.8797178806206
 21
448.23236742538791
 31
0.0
 73
     3
  0
TEXT
  5
68
  8
SPEC
 62
     7
 10
2.69433595254604
 20
442.60902543855639
 30
0.0
 40
5.7009440104166673
  1
type A 19pin female；(1)input、(8)output
 41
0.7
 11
2.69433595254604
 21
448.30996944897299
 31
0.0
 73
     3
  0
TEXT
  5
69
  8
SPEC
 62
     7
 10
-144.92285968158541
 20
453.83491932792231
 30
0.0
 40
5.7009440104166673
  1
入力ビデオ信号
 41
0.7
 11
-144.92285968158541
 21
459.53586333833908
 31
0.0
 73
     3
  0
TEXT
  5
6A
  8
SPEC
 62
     7
 10
2.2881262664978399
 20
453.87692788078328
 30
0.0
 40
5.7009440104166673
  1
1.2Vp-p
 41
0.7
 11
2.2881262664978399
 21
459.57787189119989
 31
0.0
 73
     3
  0
TEXT
  5
6B
  8
SPEC
 62
     7
 10
-144.93382171146831
 20
464.77812040546888
 30
0.0
 40
5.7009440104166673
  1
入力DDC信号
 41
0.7
 11
-144.93382171146831
 21
470.4790644158856
 31
0.0
 73
     3
  0
TEXT
  5
6C
  8
SPEC
 62
     7
 10
2.737472553765314
 20
464.85625299831179
 30
0.0
 40
5.7009440104166673
  1
5Vp-p(TTL)
 41
0.7
 11
2.737472553765314
 21
470.55719700872862
 31
0.0
 73
     3
  0
TEXT
  5
6D
  8
SPEC
 62
     7
 10
-146.0977278814392
 20
476.43976854498618
 30
0.0
 40
5.7009440104166673
  1
ビデオ最大対応解像度
 41
0.7
 11
-146.0977278814392
 21
482.1407125554029
 31
0.0
 73
     3
  0
TEXT
  5
6E
  8
SPEC
 62
     7
 10
2.2944067490436439
 20
476.59662328784162
 30
0.0
 40
5.7009440104166673
  1
1080p、1920\U+00D71200@60Hz With 12-bit Deep Color 
 41
0.7
 11
2.2944067490436448
 21
482.29756729825829
 31
0.0
 73
     3
  0
TEXT
  5
6F
  8
SPEC
 62
     7
 10
-146.04865913849761
 20
487.40477583432448
 30
0.0
 40
5.7009440104166673
  1
ピクセルクロック/スピード
 41
0.7
 11
-146.04865913849761
 21
493.1057198447412
 31
0.0
 73
     3
  0
TEXT
  5
70
  8
SPEC
 62
     7
 10
2.399454643374709
 20
487.36482856280611
 30
0.0
 40
5.7009440104166673
  1
165MHz
 41
0.7
 11
2.3994546433747099
 21
493.06577257322277
 31
0.0
 73
     3
  0
TEXT
  5
71
  8
SPEC
 62
     7
 10
-145.52801794712161
 20
498.5396341325573
 30
0.0
 40
5.7009440104166673
  1
シングルリンク帯域
 41
0.7
 11
-145.52801794712161
 21
504.24057814297402
 31
0.0
 73
     3
  0
TEXT
  5
72
  8
SPEC
 62
     7
 10
2.7130761986084622
 20
498.41948284364099
 30
0.0
 40
5.7009440104166673
  1
225MHz
 41
0.7
 11
2.7130761986084622
 21
504.1204268540576
 31
0.0
 73
     3
  0
LINE
  5
73
  8
SPEC
  6
CONTINUOUS
 62
     7
 10
-0.0000000000000142
 20
360.81729578973182
 30
0.0
 11
-0.0000000000000142
 21
507.0672957897317
 31
0.0
  0
TEXT
  5
74
  8
SPEC
 62
     7
 10
2.8722533166861122
 20
408.57912821460889
 30
0.0
 40
5.7009440104166673
  1
0～40℃
 41
0.7
 11
2.8722533166861122
 21
414.28007222502561
 31
0.0
 73
     3
  0
TEXT
  5
75
  8
SPEC
 62
     7
 10
-144.9562132709967
 20
408.53465423531247
 30
0.0
 40
5.7009440104166673
  1
動作温度
 41
0.7
 11
-144.9562132709967
 21
414.23559824572908
 31
0.0
 73
     3
  0
TEXT
  5
76
  8
DIMNSIONS
 62
     7
 10
40.0
 20
-206.12423421026821
 30
0.0
 40
7.3297851562499989
  1
(単位：mm)
 41
0.7
 11
40.0
 21
-198.79444905401809
 31
0.0
 73
     3
  0
LINE
  5
77
  8
DIMNSIONS
  6
CONTINUOUS
 62
     7
 10
-74.750000000000014
 20
-131.25
 30
0.0
 11
-93.499999999999986
 21
-131.25
 31
0.0
  0
LINE
  5
78
  8
DIMNSIONS
  6
CONTINUOUS
 62
     7
 10
-74.750000000000014
 20
-106.25
 30
0.0
 11
-93.499999999999986
 21
-106.25
 31
0.0
  0
LINE
  5
79
  8
DIMNSIONS
  6
CONTINUOUS
 62
     7
 10
-87.500000000000014
 20
-131.25
 30
0.0
 11
-87.500000000000014
 21
-106.25
 31
0.0
  0
LINE
  5
7A
  8
DIMNSIONS
  6
CONTINUOUS
 62
     7
 10
-87.500000000000014
 20
-131.25
 30
0.0
 11
-89.51011938545075
 21
-123.7481323242187
 31
0.0
  0
LINE
  5
7B
  8
DIMNSIONS
  6
CONTINUOUS
 62
     7
 10
-87.500000000000014
 20
-131.25
 30
0.0
 11
-85.489880614549264
 21
-123.7481323242187
 31
0.0
  0
LINE
  5
7C
  8
DIMNSIONS
  6
CONTINUOUS
 62
     7
 10
-87.500000000000014
 20
-106.25
 30
0.0
 11
-85.489880614549264
 21
-113.7518676757812
 31
0.0
  0
LINE
  5
7D
  8
DIMNSIONS
  6
CONTINUOUS
 62
     7
 10
-87.500000000000014
 20
-106.25
 30
0.0
 11
-89.51011938545075
 21
-113.7518676757812
 31
0.0
  0
TEXT
  5
7E
  8
DIMNSIONS
 62
     7
 10
-90.481666666666655
 20
-124.0416666666667
 30
0.0
 40
8.1442057291666661
  1
25
 50
90.0
 41
0.7
 11
-98.625872395833341
 21
-124.0416666666667
 31
0.0
 73
     3
  0
LINE
  5
7F
  8
DIMNSIONS
  6
CONTINUOUS
 62
     7
 10
-74.750000000000014
 20
-56.25
 30
0.0
 11
-131.0
 21
-56.25
 31
0.0
  0
LINE
  5
80
  8
DIMNSIONS
  6
CONTINUOUS
 62
     7
 10
-74.750000000000014
 20
206.75
 30
0.0
 11
-131.0
 21
206.75
 31
0.0
  0
LINE
  5
81
  8
DIMNSIONS
  6
CONTINUOUS
 62
     7
 10
-125.0
 20
-56.25
 30
0.0
 11
-125.0
 21
206.75
 31
0.0
  0
LINE
  5
82
  8
DIMNSIONS
  6
CONTINUOUS
 62
     7
 10
-125.0
 20
-56.25
 30
0.0
 11
-127.01011938545069
 21
-48.748132324218737
 31
0.0
  0
LINE
  5
83
  8
DIMNSIONS
  6
CONTINUOUS
 62
     7
 10
-125.0
 20
-56.25
 30
0.0
 11
-122.98988061454919
 21
-48.748132324218737
 31
0.0
  0
LINE
  5
84
  8
DIMNSIONS
  6
CONTINUOUS
 62
     7
 10
-125.0
 20
206.75
 30
0.0
 11
-122.98988061454919
 21
199.24813232421869
 31
0.0
  0
LINE
  5
85
  8
DIMNSIONS
  6
CONTINUOUS
 62
     7
 10
-125.0
 20
206.75
 30
0.0
 11
-127.01011938545069
 21
199.24813232421869
 31
0.0
  0
TEXT
  5
86
  8
DIMNSIONS
 62
     7
 10
-127.9816666666666
 20
67.3125
 30
0.0
 40
8.1442057291666661
  1
263
 50
90.0
 41
0.7
 11
-136.12587239583331
 21
67.3125
 31
0.0
 73
     3
  0
LINE
  5
87
  8
DIMNSIONS
  6
CONTINUOUS
 62
     7
 10
-0.8112704799109877
 20
-51.47990097058323
 30
0.0
 11
18.75
 21
-75.0
 31
0.0
  0
LINE
  5
88
  8
DIMNSIONS
  6
CONTINUOUS
 62
     7
 10
-0.8112704799109877
 20
-51.47990097058323
 30
0.0
 11
5.5506778968194226
 21
-55.934585181670883
 31
0.0
  0
LINE
  5
89
  8
DIMNSIONS
  6
CONTINUOUS
 62
     7
 10
-0.8112704799109877
 20
-51.47990097058323
 30
0.0
 11
2.4709963263588861
 21
-58.518744851587797
 31
0.0
  0
LINE
  5
8A
  8
DIMNSIONS
  6
CONTINUOUS
 62
     7
 10
18.75
 20
-75.0
 30
0.0
 11
61.79166666666665
 21
-75.0
 31
0.0
  0
TEXT
  5
8B
  8
DIMNSIONS
 62
     7
 10
24.75
 20
-72.018333333333331
 30
0.0
 40
8.1442057291666661
  1
6-\U+03C64.5
 41
0.7
 11
24.75
 21
-63.874127604166652
 31
0.0
 73
     3
  0
LINE
  5
8C
  8
DIMNSIONS
  6
CONTINUOUS
 62
     7
 10
-68.750000000000014
 20
-137.25
 30
0.0
 11
-68.750000000000014
 21
-156.0
 31
0.0
  0
LINE
  5
8D
  8
DIMNSIONS
  6
CONTINUOUS
 62
     7
 10
8.2499999999999876
 20
-137.25
 30
0.0
 11
8.2499999999999876
 21
-156.0
 31
0.0
  0
LINE
  5
8E
  8
DIMNSIONS
  6
CONTINUOUS
 62
     7
 10
-68.750000000000014
 20
-150.0
 30
0.0
 11
8.2499999999999876
 21
-150.0
 31
0.0
  0
LINE
  5
8F
  8
DIMNSIONS
  6
CONTINUOUS
 62
     7
 10
-68.750000000000014
 20
-150.0
 30
0.0
 11
-61.248132324218759
 21
-147.98988061454921
 31
0.0
  0
LINE
  5
90
  8
DIMNSIONS
  6
CONTINUOUS
 62
     7
 10
-68.750000000000014
 20
-150.0
 30
0.0
 11
-61.248132324218759
 21
-152.01011938545071
 31
0.0
  0
LINE
  5
91
  8
DIMNSIONS
  6
CONTINUOUS
 62
     7
 10
8.2499999999999876
 20
-150.0
 30
0.0
 11
0.7481323242187301
 21
-152.01011938545071
 31
0.0
  0
LINE
  5
92
  8
DIMNSIONS
  6
CONTINUOUS
 62
     7
 10
8.2499999999999876
 20
-150.0
 30
0.0
 11
0.7481323242187301
 21
-147.98988061454921
 31
0.0
  0
TEXT
  5
93
  8
DIMNSIONS
 62
     7
 10
-35.541666666666671
 20
-147.01833333333329
 30
0.0
 40
8.1442057291666661
  1
77
 41
0.7
 11
-35.541666666666671
 21
-138.87412760416669
 31
0.0
 73
     3
  0
LINE
  5
94
  8
DIMNSIONS
  6
CONTINUOUS
 62
     7
 10
-58.250000000000021
 20
-55.25
 30
0.0
 11
-58.250000000000021
 21
-81.0
 31
0.0
  0
LINE
  5
95
  8
DIMNSIONS
  6
CONTINUOUS
 62
     7
 10
-30.250000000000011
 20
-55.25
 30
0.0
 11
-30.250000000000011
 21
-81.0
 31
0.0
  0
LINE
  5
96
  8
DIMNSIONS
  6
CONTINUOUS
 62
     7
 10
-58.250000000000021
 20
-75.0
 30
0.0
 11
-30.250000000000011
 21
-75.0
 31
0.0
  0
LINE
  5
97
  8
DIMNSIONS
  6
CONTINUOUS
 62
     7
 10
-58.250000000000021
 20
-75.0
 30
0.0
 11
-50.748132324218759
 21
-72.989880614549264
 31
0.0
  0
LINE
  5
98
  8
DIMNSIONS
  6
CONTINUOUS
 62
     7
 10
-58.250000000000021
 20
-75.0
 30
0.0
 11
-50.748132324218759
 21
-77.010119385450736
 31
0.0
  0
LINE
  5
99
  8
DIMNSIONS
  6
CONTINUOUS
 62
     7
 10
-30.250000000000011
 20
-75.0
 30
0.0
 11
-37.751867675781277
 21
-77.010119385450736
 31
0.0
  0
LINE
  5
9A
  8
DIMNSIONS
  6
CONTINUOUS
 62
     7
 10
-30.250000000000011
 20
-75.0
 30
0.0
 11
-37.751867675781277
 21
-72.989880614549264
 31
0.0
  0
TEXT
  5
9B
  8
DIMNSIONS
 62
     7
 10
-49.541666666666671
 20
-72.018333333333331
 30
0.0
 40
8.1442057291666661
  1
28
 41
0.7
 11
-49.541666666666671
 21
-63.874127604166652
 31
0.0
 73
     3
  0
LINE
  5
9C
  8
DIMNSIONS
  6
CONTINUOUS
 62
     7
 10
-30.250000000000011
 20
-55.25
 30
0.0
 11
-30.250000000000011
 21
-81.0
 31
0.0
  0
LINE
  5
9D
  8
DIMNSIONS
  6
CONTINUOUS
 62
     7
 10
-2.2500000000000142
 20
-55.25
 30
0.0
 11
-2.2500000000000142
 21
-81.0
 31
0.0
  0
LINE
  5
9E
  8
DIMNSIONS
  6
CONTINUOUS
 62
     7
 10
-30.250000000000011
 20
-75.0
 30
0.0
 11
-2.2500000000000142
 21
-75.0
 31
0.0
  0
LINE
  5
9F
  8
DIMNSIONS
  6
CONTINUOUS
 62
     7
 10
-30.250000000000011
 20
-75.0
 30
0.0
 11
-22.748132324218759
 21
-72.989880614549264
 31
0.0
  0
LINE
  5
A0
  8
DIMNSIONS
  6
CONTINUOUS
 62
     7
 10
-30.250000000000011
 20
-75.0
 30
0.0
 11
-22.748132324218759
 21
-77.010119385450736
 31
0.0
  0
LINE
  5
A1
  8
DIMNSIONS
  6
CONTINUOUS
 62
     7
 10
-2.2500000000000142
 20
-75.0
 30
0.0
 11
-9.7518676757812681
 21
-77.010119385450736
 31
0.0
  0
LINE
  5
A2
  8
DIMNSIONS
  6
CONTINUOUS
 62
     7
 10
-2.2500000000000142
 20
-75.0
 30
0.0
 11
-9.7518676757812681
 21
-72.989880614549264
 31
0.0
  0
TEXT
  5
A3
  8
DIMNSIONS
 62
     7
 10
-21.541666666666689
 20
-72.018333333333331
 30
0.0
 40
8.1442057291666661
  1
28
 41
0.7
 11
-21.541666666666689
 21
-63.874127604166652
 31
0.0
 73
     3
  0
LINE
  5
A4
  8
DIMNSIONS
  6
CONTINUOUS
 62
     7
 10
-74.750000000000014
 20
-42.25
 30
0.0
 11
-93.499999999999986
 21
-42.25
 31
0.0
  0
LINE
  5
A5
  8
DIMNSIONS
  6
CONTINUOUS
 62
     7
 10
-74.750000000000014
 20
192.75
 30
0.0
 11
-93.499999999999986
 21
192.75
 31
0.0
  0
LINE
  5
A6
  8
DIMNSIONS
  6
CONTINUOUS
 62
     7
 10
-87.500000000000014
 20
-42.25
 30
0.0
 11
-87.500000000000014
 21
192.75
 31
0.0
  0
LINE
  5
A7
  8
DIMNSIONS
  6
CONTINUOUS
 62
     7
 10
-87.500000000000014
 20
-42.25
 30
0.0
 11
-89.51011938545075
 21
-34.748132324218751
 31
0.0
  0
LINE
  5
A8
  8
DIMNSIONS
  6
CONTINUOUS
 62
     7
 10
-87.500000000000014
 20
-42.25
 30
0.0
 11
-85.489880614549264
 21
-34.748132324218751
 31
0.0
  0
LINE
  5
A9
  8
DIMNSIONS
  6
CONTINUOUS
 62
     7
 10
-87.500000000000014
 20
192.75
 30
0.0
 11
-85.489880614549264
 21
185.24813232421869
 31
0.0
  0
LINE
  5
AA
  8
DIMNSIONS
  6
CONTINUOUS
 62
     7
 10
-87.500000000000014
 20
192.75
 30
0.0
 11
-89.51011938545075
 21
185.24813232421869
 31
0.0
  0
TEXT
  5
AB
  8
DIMNSIONS
 62
     7
 10
-90.481666666666655
 20
67.3125
 30
0.0
 40
8.1442057291666661
  1
235
 50
90.0
 41
0.7
 11
-98.625872395833341
 21
67.3125
 31
0.0
 73
     3
  0
LINE
  5
AC
  8
DIMNSIONS
  6
CONTINUOUS
 62
     7
 10
-72.754471031601739
 20
-106.2500049975378
 30
0.0
 11
-93.499999999999986
 21
-106.2500049975378
 31
0.0
  0
LINE
  5
AD
  8
DIMNSIONS
  6
CONTINUOUS
 62
     7
 10
-54.452786430373763
 20
-100.25
 30
0.0
 11
-93.499999999999986
 21
-100.25
 31
0.0
  0
LINE
  5
AE
  8
DIMNSIONS
  6
CONTINUOUS
 62
     7
 10
-87.500000000000014
 20
-100.25
 30
0.0
 11
-87.500000000000014
 21
-106.2500049975378
 31
0.0
  0
LINE
  5
AF
  8
DIMNSIONS
  6
CONTINUOUS
 62
     7
 10
-87.500000000000014
 20
-106.2500049975378
 30
0.0
 11
-87.500000000000014
 21
-121.2500049975377
 31
0.0
  0
LINE
  5
B0
  8
DIMNSIONS
  6
CONTINUOUS
 62
     7
 10
-87.500000000000014
 20
-106.2500049975378
 30
0.0
 11
-85.489880614549264
 21
-113.751872673319
 31
0.0
  0
LINE
  5
B1
  8
DIMNSIONS
  6
CONTINUOUS
 62
     7
 10
-87.500000000000014
 20
-106.2500049975378
 30
0.0
 11
-89.51011938545075
 21
-113.751872673319
 31
0.0
  0
LINE
  5
B2
  8
DIMNSIONS
  6
CONTINUOUS
 62
     7
 10
-87.500000000000014
 20
-100.25
 30
0.0
 11
-87.500000000000014
 21
-88.458333333333343
 31
0.0
  0
LINE
  5
B3
  8
DIMNSIONS
  6
CONTINUOUS
 62
     7
 10
-87.500000000000014
 20
-100.25
 30
0.0
 11
-89.51011938545075
 21
-92.74813232421873
 31
0.0
  0
LINE
  5
B4
  8
DIMNSIONS
  6
CONTINUOUS
 62
     7
 10
-87.500000000000014
 20
-100.25
 30
0.0
 11
-85.489880614549264
 21
-92.74813232421873
 31
0.0
  0
TEXT
  5
B5
  8
DIMNSIONS
 62
     7
 10
-90.481666666666683
 20
-93.749999999999957
 30
0.0
 40
8.1442057291666661
  1
6
 50
90.0
 41
0.7
 11
-98.625872395833355
 21
-93.749999999999957
 31
0.0
 73
     3
  0
LINE
  5
B6
  8
DIMNSIONS
  6
CONTINUOUS
 62
     7
 10
-66.443741096848058
 20
-49.75
 30
0.0
 11
-112.25
 21
-49.75
 31
0.0
  0
LINE
  5
B7
  8
DIMNSIONS
  6
CONTINUOUS
 62
     7
 10
-66.443741096848058
 20
200.25
 30
0.0
 11
-112.25
 21
200.25
 31
0.0
  0
LINE
  5
B8
  8
DIMNSIONS
  6
CONTINUOUS
 62
     7
 10
-106.25
 20
-49.75
 30
0.0
 11
-106.25
 21
200.25
 31
0.0
  0
LINE
  5
B9
  8
DIMNSIONS
  6
CONTINUOUS
 62
     7
 10
-106.25
 20
-49.75
 30
0.0
 11
-108.26011938545069
 21
-42.24813232421873
 31
0.0
  0
LINE
  5
BA
  8
DIMNSIONS
  6
CONTINUOUS
 62
     7
 10
-106.25
 20
-49.75
 30
0.0
 11
-104.23988061454919
 21
-42.24813232421873
 31
0.0
  0
LINE
  5
BB
  8
DIMNSIONS
  6
CONTINUOUS
 62
     7
 10
-106.25
 20
200.25
 30
0.0
 11
-104.23988061454919
 21
192.74813232421869
 31
0.0
  0
LINE
  5
BC
  8
DIMNSIONS
  6
CONTINUOUS
 62
     7
 10
-106.25
 20
200.25
 30
0.0
 11
-108.26011938545069
 21
192.74813232421869
 31
0.0
  0
TEXT
  5
BD
  8
DIMNSIONS
 62
     7
 10
-109.2316666666666
 20
67.3125
 30
0.0
 40
8.1442057291666661
  1
250
 50
90.0
 41
0.7
 11
-117.3758723958333
 21
67.3125
 31
0.0
 73
     3
  0
TEXT
  5
BE
  8
DATA
 62
     7
 10
217.97257937041161
 20
-210.288246439261
 30
0.0
 40
7.3297851562499989
  1
GTB-HDFST-148-BLK/GTB-HDFST-148
 41
0.7
 11
217.97257937041161
 21
-202.95846128301099
 31
0.0
 73
     3
  0
TEXT
  5
BF
  8
DATA
 62
     7
 10
250.0
 20
-187.7900342102682
 30
0.0
 40
7.3297851562499989
  1
Gefen
 41
0.7
 11
250.0
 21
-180.46024905401811
 31
0.0
 73
     3
  0
TEXT
  5
C0
  8
DATA
 62
     7
 10
242.85156673738791
 20
-197.8206909928148
 30
0.0
 40
4.8865311328124994
  1
1:8HDMI1.3スプッター
 41
0.7
 11
242.85156673738791
 21
-192.9341598600023
 31
0.0
 73
     3
  0
TEXT
  5
C1
  8
DATA
 62
     7
 10
-139.99999999999989
 20
-230.21870421026821
 30
0.0
 40
4.8865234374999993
  1
仕様および外観は予告なく変更されることがありますので、ご了承ください。
 41
0.7
 11
-139.99999999999989
 21
-225.3321807727682
 31
0.0
 73
     3
  0
LINE
  5
C2
  8
DATA
  6
CONTINUOUS
 62
     7
 10
62.5
 20
-131.25
 30
0.0
 11
325.5
 21
-131.25
 31
0.0
  0
LINE
  5
C3
  8
DATA
  6
CONTINUOUS
 62
     7
 10
-68.750000000000014
 20
-131.25
 30
0.0
 11
-68.750000000000014
 21
-108.25
 31
0.0
  0
LINE
  5
C4
  8
DATA
  6
CONTINUOUS
 62
     7
 10
8.2499999999999876
 20
-131.25
 30
0.0
 11
-68.750000000000014
 21
-131.25
 31
0.0
  0
LINE
  5
C5
  8
DATA
  6
CONTINUOUS
 62
     7
 10
8.2499999999999876
 20
-108.25
 30
0.0
 11
8.2499999999999876
 21
-131.25
 31
0.0
  0
LINE
  5
C6
  8
DATA
  6
CONTINUOUS
 62
     7
 10
-66.750000000000014
 20
-106.25
 30
0.0
 11
6.2499999999999849
 21
-106.25
 31
0.0
  0
LINE
  5
C7
  8
DATA
  6
CONTINUOUS
 62
     7
 10
-68.750000000000014
 20
-53.75
 30
0.0
 11
-68.750000000000014
 21
204.25
 31
0.0
  0
LINE
  5
C8
  8
DATA
  6
CONTINUOUS
 62
     7
 10
5.7499999999999849
 20
-56.25
 30
0.0
 11
-66.250000000000014
 21
-56.25
 31
0.0
  0
LINE
  5
C9
  8
DATA
  6
CONTINUOUS
 62
     7
 10
8.2499999999999876
 20
204.25
 30
0.0
 11
8.2499999999999876
 21
-53.75
 31
0.0
  0
LINE
  5
CA
  8
DATA
  6
CONTINUOUS
 62
     7
 10
-66.250000000000014
 20
206.75
 30
0.0
 11
5.7499999999999849
 21
206.75
 31
0.0
  0
CIRCLE
  5
CB
  8
DATA
  6
CONTINUOUS
 62
     7
 10
-30.250000000000011
 20
-49.75
 30
0.0
 40
2.25
  0
CIRCLE
  5
CC
  8
DATA
  6
CONTINUOUS
 62
     7
 10
-30.250000000000011
 20
-49.75
 30
0.0
 40
4.5
  0
CIRCLE
  5
CD
  8
DATA
  6
CONTINUOUS
 62
     7
 10
-30.250000000000011
 20
200.25
 30
0.0
 40
2.25
  0
CIRCLE
  5
CE
  8
DATA
  6
CONTINUOUS
 62
     7
 10
-30.250000000000011
 20
200.25
 30
0.0
 40
4.5
  0
LINE
  5
CF
  8
DATA
  6
CONTINUOUS
 62
     7
 10
8.2499999999999876
 20
-129.64999999999989
 30
0.0
 11
-68.750000000000014
 21
-129.64999999999989
 31
0.0
  0
ARC
  5
D0
  8
DATA
  6
CONTINUOUS
 62
     7
 10
-66.750000000000014
 20
-108.25
 30
0.0
 40
2.0
 50
90.0
 51
180.0
  0
ARC
  5
D1
  8
DATA
  6
CONTINUOUS
 62
     7
 10
6.2499999999999849
 20
-108.25
 30
0.0
 40
2.0
 50
0.0
 51
90.0
  0
TEXT
  5
D2
  8
DATA
 62
     7
 10
248.6639013587382
 20
-234.3060224457287
 30
0.0
 40
4.8865234374999993
  1
T.Ootake
 41
0.7
 11
248.6639013587382
 21
-229.41949900822871
 31
0.0
 73
     3
  0
LINE
  5
D3
  8
DATA
  6
CONTINUOUS
 62
     7
 10
-18.656585865309509
 20
-48.250000000163169
 30
0.0
 11
-10.8565858653095
 21
-48.250000000163169
 31
0.0
  0
LINE
  5
D4
  8
DATA
  6
CONTINUOUS
 62
     7
 10
-8.9830831734132488
 20
-43.750000000163169
 30
0.0
 11
-8.9830831734132488
 21
-42.250000000163183
 31
0.0
  0
LINE
  5
D5
  8
DATA
  6
CONTINUOUS
 62
     7
 10
-20.530088557205762
 20
-43.750000000163169
 30
0.0
 11
-20.530088557205762
 21
-42.250000000163183
 31
0.0
  0
LINE
  5
D6
  8
DATA
  6
CONTINUOUS
 62
     7
 10
-8.9830831734132488
 20
-43.750000000163169
 30
0.0
 11
-20.530088557205762
 21
-43.750000000163169
 31
0.0
  0
LINE
  5
D7
  8
DATA
  6
CONTINUOUS
 62
     7
 10
-10.8565858653095
 20
-48.250000000163169
 30
0.0
 11
-10.8565858653095
 21
-43.750000000163169
 31
0.0
  0
LINE
  5
D8
  8
DATA
  6
CONTINUOUS
 62
     7
 10
-18.656585865309509
 20
-48.250000000163169
 30
0.0
 11
-18.656585865309509
 21
-43.750000000163169
 31
0.0
  0
CIRCLE
  5
D9
  8
DATA
  6
CONTINUOUS
 62
     7
 10
-14.750000000000011
 20
-114.14999999999991
 30
0.0
 40
3.9000000000000048
  0
POLYLINE
  5
DA
  8
DATA
  6
CONTINUOUS
 62
     7
 66
     1
 10
0.0
 20
0.0
 30
0.0
 70
     1
  0
VERTEX
  5
39C
  8
DATA
  6
CONTINUOUS
 62
     7
 10
-17.636751345948142
 20
-109.14999999999991
 30
0.0
  0
VERTEX
  5
39D
  8
DATA
  6
CONTINUOUS
 62
     7
 10
-20.523502691896269
 20
-114.14999999999991
 30
0.0
  0
VERTEX
  5
39E
  8
DATA
  6
CONTINUOUS
 62
     7
 10
-17.636751345948142
 20
-119.15000000000001
 30
0.0
  0
VERTEX
  5
39F
  8
DATA
  6
CONTINUOUS
 62
     7
 10
-11.86324865405188
 20
-119.15000000000001
 30
0.0
  0
VERTEX
  5
3A0
  8
DATA
  6
CONTINUOUS
 62
     7
 10
-8.9764973081037578
 20
-114.14999999999991
 30
0.0
  0
VERTEX
  5
3A1
  8
DATA
  6
CONTINUOUS
 62
     7
 10
-11.86324865405188
 20
-109.14999999999991
 30
0.0
  0
SEQEND
  5
3A2
  8
DATA
  6
CONTINUOUS
 62
     7
  0
CIRCLE
  5
E3
  8
DATA
  6
CONTINUOUS
 62
     7
 10
-14.750000000000011
 20
-114.14999999999991
 30
0.0
 40
2.9000000000000048
  0
CIRCLE
  5
E4
  8
DATA
  6
CONTINUOUS
 62
     7
 10
-14.750000000000011
 20
-114.14999999999991
 30
0.0
 40
0.75
  0
TEXT
  5
E5
  8
DATA
 62
     7
 10
-49.781611656891457
 20
-38.643000000000008
 30
0.0
 40
2.4432617187500001
  1
USB
 41
0.7
 11
-49.781611656891457
 21
-36.199738281250013
 31
0.0
 73
     3
  0
TEXT
  5
E6
  8
DATA
 62
     7
 10
-18.858805580196432
 20
-40.893723313782978
 30
0.0
 40
2.4432617187500001
  1
5V DC
 41
0.7
 11
-18.858805580196432
 21
-38.450461595032976
 31
0.0
 73
     3
  0
ARC
  5
E7
  8
DATA
  6
CONTINUOUS
 62
     7
 10
5.7499999999999849
 20
204.25
 30
0.0
 40
2.5
 50
0.0
 51
90.0
  0
ARC
  5
E8
  8
DATA
  6
CONTINUOUS
 62
     7
 10
-66.250000000000014
 20
204.25
 30
0.0
 40
2.5
 50
90.0
 51
180.0
  0
ARC
  5
E9
  8
DATA
  6
CONTINUOUS
 62
     7
 10
-66.250000000000014
 20
-53.75
 30
0.0
 40
2.5
 50
180.0
 51
270.0
  0
ARC
  5
EA
  8
DATA
  6
CONTINUOUS
 62
     7
 10
5.7499999999999849
 20
-53.75
 30
0.0
 40
2.5
 50
270.0
 51
0.0
  0
CIRCLE
  5
EB
  8
DATA
  6
CONTINUOUS
 62
     7
 10
-1.752815044685903
 20
-10.48021780870252
 30
0.0
 40
1.400000000000005
  0
TEXT
  5
EC
  8
DATA
 62
     7
 10
-61.449445298576961
 20
80.597058919117785
 30
0.0
 40
8.1442057291666661
  1
TOOL Box
 41
0.7
 11
-61.449445298576961
 21
88.741264648284456
 31
0.0
 73
     3
  0
TEXT
  5
ED
  8
DATA
 62
     7
 10
-45.287905358641837
 20
60.420018678837373
 30
0.0
 40
4.8865234374999993
  1
1:8 Splitter
 41
0.7
 11
-45.287905358641837
 21
65.306542116337368
 31
0.0
 73
     3
  0
TEXT
  5
EE
  8
DATA
 62
     7
 10
-37.389526793209242
 20
52.953012067468698
 30
0.0
 40
4.8865234374999993
  1
for 
 41
0.7
 11
-37.389526793209242
 21
57.839535504968708
 31
0.0
 73
     3
  0
TEXT
  5
EF
  8
DATA
 62
     7
 10
-24.537334533469689
 20
52.953012067468698
 30
0.0
 40
4.8865234374999993
  1
HDMI 
 41
0.7
 11
-24.537334533469689
 21
57.839535504968708
 31
0.0
 73
     3
  0
POLYLINE
  5
F0
  8
DATA
  6
CONTINUOUS
 62
     7
 66
     1
 10
0.0
 20
0.0
 30
0.0
 70
     1
  0
VERTEX
  5
3A3
  8
DATA
  6
CONTINUOUS
 62
     7
 10
-46.912944539613648
 20
186.49624267768121
 30
0.0
  0
VERTEX
  5
3A4
  8
DATA
  6
CONTINUOUS
 62
     7
 10
-44.124556860487637
 20
187.24338890448789
 30
0.0
  0
VERTEX
  5
3A5
  8
DATA
  6
CONTINUOUS
 62
     7
 10
-43.377410633680952
 20
190.03177658361389
 30
0.0
  0
VERTEX
  5
3A6
  8
DATA
  6
CONTINUOUS
 62
     7
 10
-45.418652086000243
 20
192.0730180359333
 30
0.0
  0
VERTEX
  5
3A7
  8
DATA
  6
CONTINUOUS
 62
     7
 10
-48.207039765126247
 20
191.32587180912651
 30
0.0
  0
VERTEX
  5
3A8
  8
DATA
  6
CONTINUOUS
 62
     7
 10
-48.954185991933016
 20
188.53748413000039
 30
0.0
  0
SEQEND
  5
3A9
  8
DATA
  6
CONTINUOUS
 62
     7
  0
CIRCLE
  5
F9
  8
DATA
  6
CONTINUOUS
 62
     7
 10
-46.165798312806949
 20
189.28463035680721
 30
0.0
 40
1.2750000000000341
  0
LINE
  5
FA
  8
DATA
  6
CONTINUOUS
 62
     7
 10
-38.31579831280699
 20
182.221779688043
 30
0.0
 11
-54.015798312806922
 21
182.221779688043
 31
0.0
  0
LINE
  5
FB
  8
DATA
  6
CONTINUOUS
 62
     7
 10
-38.31579831280699
 20
182.221779688043
 30
0.0
 11
-38.31579831280699
 21
177.92177968804279
 31
0.0
  0
LINE
  5
FC
  8
DATA
  6
CONTINUOUS
 62
     7
 10
-54.015798312806922
 20
182.221779688043
 30
0.0
 11
-54.015798312806922
 21
177.92177968804279
 31
0.0
  0
LINE
  5
FD
  8
DATA
  6
CONTINUOUS
 62
     7
 10
-38.31579831280699
 20
177.92177968804279
 30
0.0
 11
-40.915798312806963
 21
176.2217796880428
 31
0.0
  0
LINE
  5
FE
  8
DATA
  6
CONTINUOUS
 62
     7
 10
-54.015798312806922
 20
177.92177968804279
 30
0.0
 11
-51.415798312806949
 21
176.2217796880428
 31
0.0
  0
LINE
  5
FF
  8
DATA
  6
CONTINUOUS
 62
     7
 10
-40.915798312806963
 20
176.2217796880428
 30
0.0
 11
-51.415798312806949
 21
176.2217796880428
 31
0.0
  0
POLYLINE
  5
100
  8
DATA
  6
CONTINUOUS
 62
     7
 66
     1
 10
0.0
 20
0.0
 30
0.0
 70
     1
  0
VERTEX
  5
3AA
  8
DATA
  6
CONTINUOUS
 62
     7
 10
-51.165798312806949
 20
179.93561651355009
 30
0.0
  0
VERTEX
  5
3AB
  8
DATA
  6
CONTINUOUS
 62
     7
 10
-41.165798312806949
 20
179.93561651355009
 30
0.0
  0
VERTEX
  5
3AC
  8
DATA
  6
CONTINUOUS
 62
     7
 10
-41.165798312806949
 20
179.43561651355009
 30
0.0
  0
VERTEX
  5
3AD
  8
DATA
  6
CONTINUOUS
 62
     7
 10
-51.165798312806949
 20
179.43561651355009
 30
0.0
  0
SEQEND
  5
3AE
  8
DATA
  6
CONTINUOUS
 62
     7
  0
POLYLINE
  5
107
  8
DATA
  6
CONTINUOUS
 62
     7
 66
     1
 10
0.0
 20
0.0
 30
0.0
 70
     1
  0
VERTEX
  5
3AF
  8
DATA
  6
CONTINUOUS
 62
     7
 10
-13.56470250779852
 20
186.49624267768121
 30
0.0
  0
VERTEX
  5
3B0
  8
DATA
  6
CONTINUOUS
 62
     7
 10
-16.353090186924518
 20
187.24338890448789
 30
0.0
  0
VERTEX
  5
3B1
  8
DATA
  6
CONTINUOUS
 62
     7
 10
-17.100236413731221
 20
190.03177658361389
 30
0.0
  0
VERTEX
  5
3B2
  8
DATA
  6
CONTINUOUS
 62
     7
 10
-15.058994961411919
 20
192.0730180359333
 30
0.0
  0
VERTEX
  5
3B3
  8
DATA
  6
CONTINUOUS
 62
     7
 10
-12.27060728228593
 20
191.32587180912651
 30
0.0
  0
VERTEX
  5
3B4
  8
DATA
  6
CONTINUOUS
 62
     7
 10
-11.52346105547916
 20
188.53748413000039
 30
0.0
  0
SEQEND
  5
3B5
  8
DATA
  6
CONTINUOUS
 62
     7
  0
CIRCLE
  5
110
  8
DATA
  6
CONTINUOUS
 62
     7
 10
-14.311848734605221
 20
189.28463035680721
 30
0.0
 40
1.2750000000000341
  0
LINE
  5
111
  8
DATA
  6
CONTINUOUS
 62
     7
 10
-22.161848734605179
 20
182.221779688043
 30
0.0
 11
-6.4618487346052547
 21
182.221779688043
 31
0.0
  0
LINE
  5
112
  8
DATA
  6
CONTINUOUS
 62
     7
 10
-22.161848734605179
 20
182.221779688043
 30
0.0
 11
-22.161848734605179
 21
177.92177968804279
 31
0.0
  0
LINE
  5
113
  8
DATA
  6
CONTINUOUS
 62
     7
 10
-6.4618487346052547
 20
182.221779688043
 30
0.0
 11
-6.4618487346052547
 21
177.92177968804279
 31
0.0
  0
LINE
  5
114
  8
DATA
  6
CONTINUOUS
 62
     7
 10
-22.161848734605179
 20
177.92177968804279
 30
0.0
 11
-19.561848734605221
 21
176.2217796880428
 31
0.0
  0
LINE
  5
115
  8
DATA
  6
CONTINUOUS
 62
     7
 10
-6.4618487346052547
 20
177.92177968804279
 30
0.0
 11
-9.0618487346052188
 21
176.2217796880428
 31
0.0
  0
LINE
  5
116
  8
DATA
  6
CONTINUOUS
 62
     7
 10
-19.561848734605221
 20
176.2217796880428
 30
0.0
 11
-9.0618487346052188
 21
176.2217796880428
 31
0.0
  0
POLYLINE
  5
117
  8
DATA
  6
CONTINUOUS
 62
     7
 66
     1
 10
0.0
 20
0.0
 30
0.0
 70
     1
  0
VERTEX
  5
3B6
  8
DATA
  6
CONTINUOUS
 62
     7
 10
-19.311848734605221
 20
179.93561651355009
 30
0.0
  0
VERTEX
  5
3B7
  8
DATA
  6
CONTINUOUS
 62
     7
 10
-9.3118487346052188
 20
179.93561651355009
 30
0.0
  0
VERTEX
  5
3B8
  8
DATA
  6
CONTINUOUS
 62
     7
 10
-9.3118487346052188
 20
179.43561651355009
 30
0.0
  0
VERTEX
  5
3B9
  8
DATA
  6
CONTINUOUS
 62
     7
 10
-19.311848734605221
 20
179.43561651355009
 30
0.0
  0
SEQEND
  5
3BA
  8
DATA
  6
CONTINUOUS
 62
     7
  0
TEXT
  5
11E
  8
DATA
 62
     7
 10
-61.222127245581532
 20
177.99917806552551
 30
0.0
 40
3.2576822916666659
  1
1
 41
0.7
 11
-61.222127245581532
 21
181.2568603571921
 31
0.0
 73
     3
  0
TEXT
  5
11F
  8
DATA
 62
     7
 10
-0.4018944909075943
 20
177.99917806552551
 30
0.0
 40
3.2576822916666659
  1
5
 41
0.7
 11
-0.4018944909075941
 21
181.2568603571921
 31
0.0
 73
     3
  0
LINE
  5
120
  8
DATA
  6
CONTINUOUS
 62
     7
 10
-68.750000000000014
 20
249.99999999983879
 30
0.0
 11
-68.750000000000014
 21
226.99999999983851
 31
0.0
  0
LINE
  5
121
  8
DATA
  6
CONTINUOUS
 62
     7
 10
8.2499999999999876
 20
249.99999999983879
 30
0.0
 11
-68.750000000000014
 21
249.99999999983879
 31
0.0
  0
LINE
  5
122
  8
DATA
  6
CONTINUOUS
 62
     7
 10
8.2499999999999876
 20
226.99999999983851
 30
0.0
 11
8.2499999999999876
 21
249.99999999983879
 31
0.0
  0
LINE
  5
123
  8
DATA
  6
CONTINUOUS
 62
     7
 10
-66.750000000000014
 20
224.99999999983851
 30
0.0
 11
6.2499999999999849
 21
224.99999999983851
 31
0.0
  0
LINE
  5
124
  8
DATA
  6
CONTINUOUS
 62
     7
 10
8.2499999999999876
 20
248.39999999983871
 30
0.0
 11
-68.750000000000014
 21
248.39999999983871
 31
0.0
  0
ARC
  5
125
  8
DATA
  6
CONTINUOUS
 62
     7
 10
-66.750000000000014
 20
226.99999999983851
 30
0.0
 40
2.0
 50
180.0
 51
270.0
  0
ARC
  5
126
  8
DATA
  6
CONTINUOUS
 62
     7
 10
6.2499999999999849
 20
226.99999999983851
 30
0.0
 40
2.0
 50
270.0
 51
0.0
  0
LINE
  5
127
  8
DATA
  6
CONTINUOUS
 62
     7
 10
-27.776249249937859
 20
-100.25
 30
0.0
 11
-27.776249249937859
 21
-106.25
 31
0.0
  0
LINE
  5
128
  8
DATA
  6
CONTINUOUS
 62
     7
 10
-32.45278643037377
 20
-100.25
 30
0.0
 11
-32.45278643037377
 21
-106.25
 31
0.0
  0
ARC
  5
129
  8
DATA
  6
CONTINUOUS
 62
     7
 10
-1.7731143483223371
 20
-106.1451734261381
 30
0.0
 40
1.399999999999991
 50
355.7058952698622
 51
184.2941047301376
  0
LINE
  5
12A
  8
DATA
  6
CONTINUOUS
 62
     7
 10
-48.988485751401939
 20
218.99999999983851
 30
0.0
 11
-48.988485751401939
 21
224.99999999983851
 31
0.0
  0
LINE
  5
12B
  8
DATA
  6
CONTINUOUS
 62
     7
 10
-43.411710393149882
 20
218.99999999983851
 30
0.0
 11
-43.411710393149882
 21
224.99999999983851
 31
0.0
  0
LINE
  5
12C
  8
DATA
  6
CONTINUOUS
 62
     7
 10
-17.09476299229247
 20
218.99999999983851
 30
0.0
 11
-17.09476299229247
 21
224.99999999983851
 31
0.0
  0
LINE
  5
12D
  8
DATA
  6
CONTINUOUS
 62
     7
 10
-11.5179876340404
 20
218.99999999983851
 30
0.0
 11
-11.5179876340404
 21
224.99999999983851
 31
0.0
  0
LINE
  5
12E
  8
DATA
  6
CONTINUOUS
 62
     7
 10
62.5
 20
-131.25
 30
0.0
 11
62.5
 21
-129.64999999999989
 31
0.0
  0
LINE
  5
12F
  8
DATA
  6
CONTINUOUS
 62
     7
 10
325.5
 20
-131.25
 30
0.0
 11
325.5
 21
-129.64999999999989
 31
0.0
  0
LINE
  5
130
  8
DATA
  6
CONTINUOUS
 62
     7
 10
62.5
 20
-129.64999999999989
 30
0.0
 11
76.5
 21
-129.64999999999989
 31
0.0
  0
LINE
  5
131
  8
DATA
  6
CONTINUOUS
 62
     7
 10
311.5
 20
-129.64999999999989
 30
0.0
 11
325.5
 21
-129.64999999999989
 31
0.0
  0
LINE
  5
132
  8
DATA
  6
CONTINUOUS
 62
     7
 10
76.5
 20
-106.25
 30
0.0
 11
311.5
 21
-106.25
 31
0.0
  0
LINE
  5
133
  8
DATA
  6
CONTINUOUS
 62
     7
 10
76.5
 20
-129.64999999999989
 30
0.0
 11
76.5
 21
-106.25
 31
0.0
  0
LINE
  5
134
  8
DATA
  6
CONTINUOUS
 62
     7
 10
311.5
 20
-129.64999999999989
 30
0.0
 11
311.5
 21
-106.25
 31
0.0
  0
LINE
  5
135
  8
DATA
  6
CONTINUOUS
 62
     7
 10
78.09999999999998
 20
-131.25
 30
0.0
 11
78.09999999999998
 21
-106.25
 31
0.0
  0
LINE
  5
136
  8
DATA
  6
CONTINUOUS
 62
     7
 10
309.89999999999998
 20
-131.25
 30
0.0
 11
309.89999999999998
 21
-106.25
 31
0.0
  0
CIRCLE
  5
137
  8
DATA
  6
CONTINUOUS
 62
     7
 10
122.5
 20
-124.25
 30
0.0
 40
2.7500000000000022
  0
LINE
  5
138
  8
DATA
  6
CONTINUOUS
 62
     7
 10
123.8
 20
-125.5500000000001
 30
0.0
 11
121.1999999999999
 21
-122.9499999999999
 31
0.0
  0
LINE
  5
139
  8
DATA
  6
CONTINUOUS
 62
     7
 10
123.8
 20
-122.9499999999999
 30
0.0
 11
121.1999999999999
 21
-125.5500000000001
 31
0.0
  0
CIRCLE
  5
13A
  8
DATA
  6
CONTINUOUS
 62
     7
 10
265.5
 20
-124.25
 30
0.0
 40
2.7500000000000022
  0
LINE
  5
13B
  8
DATA
  6
CONTINUOUS
 62
     7
 10
264.19999999999999
 20
-125.5500000000001
 30
0.0
 11
266.80000000000001
 21
-122.9499999999999
 31
0.0
  0
LINE
  5
13C
  8
DATA
  6
CONTINUOUS
 62
     7
 10
264.19999999999999
 20
-122.9499999999999
 30
0.0
 11
266.80000000000013
 21
-125.5500000000001
 31
0.0
  0
LINE
  5
13D
  8
DATA
  6
CONTINUOUS
 62
     7
 10
201.80000000000001
 20
-124.6500000000029
 30
0.0
 11
201.80000000000001
 21
-112.64999999999699
 31
0.0
  0
LINE
  5
13E
  8
DATA
  6
CONTINUOUS
 62
     7
 10
200.0
 20
-124.6500000000029
 30
0.0
 11
200.0
 21
-112.64999999999699
 31
0.0
  0
ARC
  5
13F
  8
DATA
  6
CONTINUOUS
 62
     7
 10
200.90000000000001
 20
-112.9417475435739
 30
0.0
 40
0.9461060348510059
 50
17.960824461479479
 51
162.03917553851969
  0
ARC
  5
140
  8
DATA
  6
CONTINUOUS
 62
     7
 10
200.90000000000001
 20
-124.358252456426
 30
0.0
 40
0.9461060348509655
 50
197.9608244614802
 51
342.03917553852062
  0
LINE
  5
141
  8
DATA
  6
CONTINUOUS
 62
     7
 10
205.80000000000001
 20
-124.6500000000029
 30
0.0
 11
205.80000000000001
 21
-112.64999999999699
 31
0.0
  0
LINE
  5
142
  8
DATA
  6
CONTINUOUS
 62
     7
 10
204.0
 20
-124.6500000000029
 30
0.0
 11
204.0
 21
-112.64999999999699
 31
0.0
  0
ARC
  5
143
  8
DATA
  6
CONTINUOUS
 62
     7
 10
204.90000000000001
 20
-112.9417475435739
 30
0.0
 40
0.9461060348510059
 50
17.960824461479479
 51
162.03917553851969
  0
ARC
  5
144
  8
DATA
  6
CONTINUOUS
 62
     7
 10
204.90000000000001
 20
-124.358252456426
 30
0.0
 40
0.9461060348509655
 50
197.9608244614802
 51
342.03917553852062
  0
LINE
  5
145
  8
DATA
  6
CONTINUOUS
 62
     7
 10
209.80000000000001
 20
-124.6500000000029
 30
0.0
 11
209.80000000000001
 21
-112.64999999999699
 31
0.0
  0
LINE
  5
146
  8
DATA
  6
CONTINUOUS
 62
     7
 10
208.0
 20
-124.6500000000029
 30
0.0
 11
208.0
 21
-112.64999999999699
 31
0.0
  0
ARC
  5
147
  8
DATA
  6
CONTINUOUS
 62
     7
 10
208.90000000000001
 20
-112.9417475435739
 30
0.0
 40
0.9461060348510059
 50
17.960824461479479
 51
162.03917553851969
  0
ARC
  5
148
  8
DATA
  6
CONTINUOUS
 62
     7
 10
208.90000000000001
 20
-124.358252456426
 30
0.0
 40
0.9461060348509655
 50
197.9608244614802
 51
342.03917553852062
  0
LINE
  5
149
  8
DATA
  6
CONTINUOUS
 62
     7
 10
213.80000000000001
 20
-124.6500000000029
 30
0.0
 11
213.80000000000001
 21
-112.64999999999699
 31
0.0
  0
LINE
  5
14A
  8
DATA
  6
CONTINUOUS
 62
     7
 10
212.0
 20
-124.6500000000029
 30
0.0
 11
212.0
 21
-112.64999999999699
 31
0.0
  0
ARC
  5
14B
  8
DATA
  6
CONTINUOUS
 62
     7
 10
212.90000000000001
 20
-112.9417475435739
 30
0.0
 40
0.9461060348510059
 50
17.960824461479479
 51
162.03917553851969
  0
ARC
  5
14C
  8
DATA
  6
CONTINUOUS
 62
     7
 10
212.90000000000001
 20
-124.358252456426
 30
0.0
 40
0.9461060348509655
 50
197.9608244614802
 51
342.03917553852062
  0
LINE
  5
14D
  8
DATA
  6
CONTINUOUS
 62
     7
 10
217.80000000000001
 20
-124.6500000000029
 30
0.0
 11
217.80000000000001
 21
-112.64999999999699
 31
0.0
  0
LINE
  5
14E
  8
DATA
  6
CONTINUOUS
 62
     7
 10
216.0
 20
-124.6500000000029
 30
0.0
 11
216.0
 21
-112.64999999999699
 31
0.0
  0
ARC
  5
14F
  8
DATA
  6
CONTINUOUS
 62
     7
 10
216.90000000000001
 20
-112.9417475435739
 30
0.0
 40
0.9461060348510059
 50
17.960824461479479
 51
162.03917553851969
  0
ARC
  5
150
  8
DATA
  6
CONTINUOUS
 62
     7
 10
216.90000000000001
 20
-124.358252456426
 30
0.0
 40
0.9461060348509655
 50
197.9608244614802
 51
342.03917553852062
  0
LINE
  5
151
  8
DATA
  6
CONTINUOUS
 62
     7
 10
221.80000000000001
 20
-124.6500000000029
 30
0.0
 11
221.80000000000001
 21
-112.64999999999699
 31
0.0
  0
LINE
  5
152
  8
DATA
  6
CONTINUOUS
 62
     7
 10
220.0
 20
-124.6500000000029
 30
0.0
 11
220.0
 21
-112.64999999999699
 31
0.0
  0
ARC
  5
153
  8
DATA
  6
CONTINUOUS
 62
     7
 10
220.90000000000001
 20
-112.9417475435739
 30
0.0
 40
0.9461060348510059
 50
17.960824461479479
 51
162.03917553851969
  0
ARC
  5
154
  8
DATA
  6
CONTINUOUS
 62
     7
 10
220.90000000000001
 20
-124.358252456426
 30
0.0
 40
0.9461060348509655
 50
197.9608244614802
 51
342.03917553852062
  0
LINE
  5
155
  8
DATA
  6
CONTINUOUS
 62
     7
 10
225.80000000000001
 20
-124.6500000000029
 30
0.0
 11
225.80000000000001
 21
-112.64999999999699
 31
0.0
  0
LINE
  5
156
  8
DATA
  6
CONTINUOUS
 62
     7
 10
224.0
 20
-124.6500000000029
 30
0.0
 11
224.0
 21
-112.64999999999699
 31
0.0
  0
ARC
  5
157
  8
DATA
  6
CONTINUOUS
 62
     7
 10
224.90000000000001
 20
-112.9417475435739
 30
0.0
 40
0.9461060348510059
 50
17.960824461479479
 51
162.03917553851969
  0
ARC
  5
158
  8
DATA
  6
CONTINUOUS
 62
     7
 10
224.90000000000001
 20
-124.358252456426
 30
0.0
 40
0.9461060348509655
 50
197.9608244614802
 51
342.03917553852062
  0
LINE
  5
159
  8
DATA
  6
CONTINUOUS
 62
     7
 10
229.80000000000001
 20
-124.6500000000029
 30
0.0
 11
229.80000000000001
 21
-112.64999999999699
 31
0.0
  0
LINE
  5
15A
  8
DATA
  6
CONTINUOUS
 62
     7
 10
228.0
 20
-124.6500000000029
 30
0.0
 11
228.0
 21
-112.64999999999699
 31
0.0
  0
ARC
  5
15B
  8
DATA
  6
CONTINUOUS
 62
     7
 10
228.90000000000001
 20
-112.9417475435739
 30
0.0
 40
0.9461060348510196
 50
17.960824461479209
 51
162.03917553851969
  0
ARC
  5
15C
  8
DATA
  6
CONTINUOUS
 62
     7
 10
228.90000000000001
 20
-124.358252456426
 30
0.0
 40
0.9461060348509655
 50
197.9608244614802
 51
342.03917553852079
  0
LINE
  5
15D
  8
DATA
  6
CONTINUOUS
 62
     7
 10
233.80000000000001
 20
-124.6500000000029
 30
0.0
 11
233.80000000000001
 21
-112.64999999999699
 31
0.0
  0
LINE
  5
15E
  8
DATA
  6
CONTINUOUS
 62
     7
 10
232.0
 20
-124.6500000000029
 30
0.0
 11
232.0
 21
-112.64999999999699
 31
0.0
  0
ARC
  5
15F
  8
DATA
  6
CONTINUOUS
 62
     7
 10
232.90000000000001
 20
-112.9417475435739
 30
0.0
 40
0.9461060348510196
 50
17.960824461479209
 51
162.03917553851969
  0
ARC
  5
160
  8
DATA
  6
CONTINUOUS
 62
     7
 10
232.90000000000001
 20
-124.358252456426
 30
0.0
 40
0.9461060348509655
 50
197.9608244614802
 51
342.03917553852079
  0
LINE
  5
161
  8
DATA
  6
CONTINUOUS
 62
     7
 10
237.80000000000001
 20
-124.6500000000029
 30
0.0
 11
237.80000000000001
 21
-112.64999999999699
 31
0.0
  0
LINE
  5
162
  8
DATA
  6
CONTINUOUS
 62
     7
 10
236.0
 20
-124.6500000000029
 30
0.0
 11
236.0
 21
-112.64999999999699
 31
0.0
  0
ARC
  5
163
  8
DATA
  6
CONTINUOUS
 62
     7
 10
236.90000000000001
 20
-112.9417475435739
 30
0.0
 40
0.9461060348510196
 50
17.960824461479209
 51
162.03917553851969
  0
ARC
  5
164
  8
DATA
  6
CONTINUOUS
 62
     7
 10
236.90000000000001
 20
-124.358252456426
 30
0.0
 40
0.9461060348509655
 50
197.9608244614802
 51
342.03917553852079
  0
LINE
  5
165
  8
DATA
  6
CONTINUOUS
 62
     7
 10
241.80000000000001
 20
-124.6500000000029
 30
0.0
 11
241.80000000000001
 21
-112.64999999999699
 31
0.0
  0
LINE
  5
166
  8
DATA
  6
CONTINUOUS
 62
     7
 10
240.0
 20
-124.6500000000029
 30
0.0
 11
240.0
 21
-112.64999999999699
 31
0.0
  0
ARC
  5
167
  8
DATA
  6
CONTINUOUS
 62
     7
 10
240.90000000000001
 20
-112.9417475435739
 30
0.0
 40
0.9461060348510196
 50
17.960824461479209
 51
162.03917553851969
  0
ARC
  5
168
  8
DATA
  6
CONTINUOUS
 62
     7
 10
240.90000000000001
 20
-124.358252456426
 30
0.0
 40
0.9461060348509655
 50
197.9608244614802
 51
342.03917553852079
  0
LINE
  5
169
  8
DATA
  6
CONTINUOUS
 62
     7
 10
245.80000000000001
 20
-124.6500000000029
 30
0.0
 11
245.80000000000001
 21
-112.64999999999699
 31
0.0
  0
LINE
  5
16A
  8
DATA
  6
CONTINUOUS
 62
     7
 10
244.0
 20
-124.6500000000029
 30
0.0
 11
244.0
 21
-112.64999999999699
 31
0.0
  0
ARC
  5
16B
  8
DATA
  6
CONTINUOUS
 62
     7
 10
244.90000000000001
 20
-112.9417475435739
 30
0.0
 40
0.9461060348510196
 50
17.960824461479209
 51
162.03917553851969
  0
ARC
  5
16C
  8
DATA
  6
CONTINUOUS
 62
     7
 10
244.90000000000001
 20
-124.358252456426
 30
0.0
 40
0.9461060348509655
 50
197.9608244614802
 51
342.03917553852079
  0
LINE
  5
16D
  8
DATA
  6
CONTINUOUS
 62
     7
 10
249.80000000000001
 20
-124.6500000000029
 30
0.0
 11
249.80000000000001
 21
-112.64999999999699
 31
0.0
  0
LINE
  5
16E
  8
DATA
  6
CONTINUOUS
 62
     7
 10
248.0
 20
-124.6500000000029
 30
0.0
 11
248.0
 21
-112.64999999999699
 31
0.0
  0
ARC
  5
16F
  8
DATA
  6
CONTINUOUS
 62
     7
 10
248.90000000000001
 20
-112.9417475435739
 30
0.0
 40
0.9461060348510196
 50
17.960824461479209
 51
162.03917553851969
  0
ARC
  5
170
  8
DATA
  6
CONTINUOUS
 62
     7
 10
248.90000000000001
 20
-124.358252456426
 30
0.0
 40
0.9461060348509655
 50
197.9608244614802
 51
342.03917553852079
  0
LINE
  5
171
  8
DATA
  6
CONTINUOUS
 62
     7
 10
253.80000000000001
 20
-124.6500000000029
 30
0.0
 11
253.80000000000001
 21
-112.64999999999699
 31
0.0
  0
LINE
  5
172
  8
DATA
  6
CONTINUOUS
 62
     7
 10
252.0
 20
-124.6500000000029
 30
0.0
 11
252.0
 21
-112.64999999999699
 31
0.0
  0
ARC
  5
173
  8
DATA
  6
CONTINUOUS
 62
     7
 10
252.90000000000001
 20
-112.9417475435739
 30
0.0
 40
0.9461060348510196
 50
17.960824461479209
 51
162.03917553851969
  0
ARC
  5
174
  8
DATA
  6
CONTINUOUS
 62
     7
 10
252.90000000000001
 20
-124.358252456426
 30
0.0
 40
0.9461060348509655
 50
197.9608244614802
 51
342.03917553852079
  0
LINE
  5
175
  8
DATA
  6
CONTINUOUS
 62
     7
 10
257.80000000000001
 20
-124.6500000000029
 30
0.0
 11
257.80000000000001
 21
-112.64999999999699
 31
0.0
  0
LINE
  5
176
  8
DATA
  6
CONTINUOUS
 62
     7
 10
256.0
 20
-124.6500000000029
 30
0.0
 11
256.0
 21
-112.64999999999699
 31
0.0
  0
ARC
  5
177
  8
DATA
  6
CONTINUOUS
 62
     7
 10
256.89999999999998
 20
-112.9417475435739
 30
0.0
 40
0.9461060348510196
 50
17.960824461479209
 51
162.03917553851969
  0
ARC
  5
178
  8
DATA
  6
CONTINUOUS
 62
     7
 10
256.89999999999998
 20
-124.358252456426
 30
0.0
 40
0.9461060348509655
 50
197.9608244614802
 51
342.03917553852079
  0
LINE
  5
179
  8
DATA
  6
CONTINUOUS
 62
     7
 10
274.80000000000001
 20
-124.6500000000029
 30
0.0
 11
274.80000000000001
 21
-112.64999999999699
 31
0.0
  0
LINE
  5
17A
  8
DATA
  6
CONTINUOUS
 62
     7
 10
273.0
 20
-124.6500000000029
 30
0.0
 11
273.0
 21
-112.64999999999699
 31
0.0
  0
ARC
  5
17B
  8
DATA
  6
CONTINUOUS
 62
     7
 10
273.89999999999998
 20
-112.9417475435739
 30
0.0
 40
0.9461060348510196
 50
17.960824461479209
 51
162.03917553851969
  0
ARC
  5
17C
  8
DATA
  6
CONTINUOUS
 62
     7
 10
273.89999999999998
 20
-124.358252456426
 30
0.0
 40
0.9461060348509655
 50
197.9608244614802
 51
342.03917553852079
  0
LINE
  5
17D
  8
DATA
  6
CONTINUOUS
 62
     7
 10
278.80000000000001
 20
-124.6500000000029
 30
0.0
 11
278.80000000000001
 21
-112.64999999999699
 31
0.0
  0
LINE
  5
17E
  8
DATA
  6
CONTINUOUS
 62
     7
 10
277.0
 20
-124.6500000000029
 30
0.0
 11
277.0
 21
-112.64999999999699
 31
0.0
  0
ARC
  5
17F
  8
DATA
  6
CONTINUOUS
 62
     7
 10
277.89999999999998
 20
-112.9417475435739
 30
0.0
 40
0.9461060348510196
 50
17.960824461479209
 51
162.03917553851969
  0
ARC
  5
180
  8
DATA
  6
CONTINUOUS
 62
     7
 10
277.89999999999998
 20
-124.358252456426
 30
0.0
 40
0.9461060348509655
 50
197.9608244614802
 51
342.03917553852079
  0
LINE
  5
181
  8
DATA
  6
CONTINUOUS
 62
     7
 10
282.80000000000001
 20
-124.6500000000029
 30
0.0
 11
282.80000000000001
 21
-112.64999999999699
 31
0.0
  0
LINE
  5
182
  8
DATA
  6
CONTINUOUS
 62
     7
 10
281.0
 20
-124.6500000000029
 30
0.0
 11
281.0
 21
-112.64999999999699
 31
0.0
  0
ARC
  5
183
  8
DATA
  6
CONTINUOUS
 62
     7
 10
281.89999999999998
 20
-112.9417475435739
 30
0.0
 40
0.9461060348510196
 50
17.960824461479209
 51
162.03917553851969
  0
ARC
  5
184
  8
DATA
  6
CONTINUOUS
 62
     7
 10
281.89999999999998
 20
-124.358252456426
 30
0.0
 40
0.9461060348509655
 50
197.9608244614802
 51
342.03917553852079
  0
LINE
  5
185
  8
DATA
  6
CONTINUOUS
 62
     7
 10
286.80000000000001
 20
-124.6500000000029
 30
0.0
 11
286.80000000000001
 21
-112.64999999999699
 31
0.0
  0
LINE
  5
186
  8
DATA
  6
CONTINUOUS
 62
     7
 10
285.0
 20
-124.6500000000029
 30
0.0
 11
285.0
 21
-112.64999999999699
 31
0.0
  0
ARC
  5
187
  8
DATA
  6
CONTINUOUS
 62
     7
 10
285.89999999999998
 20
-112.9417475435739
 30
0.0
 40
0.9461060348510196
 50
17.960824461479209
 51
162.03917553851969
  0
ARC
  5
188
  8
DATA
  6
CONTINUOUS
 62
     7
 10
285.89999999999998
 20
-124.358252456426
 30
0.0
 40
0.9461060348509655
 50
197.9608244614802
 51
342.03917553852079
  0
LINE
  5
189
  8
DATA
  6
CONTINUOUS
 62
     7
 10
290.80000000000001
 20
-124.6500000000029
 30
0.0
 11
290.80000000000001
 21
-112.64999999999699
 31
0.0
  0
LINE
  5
18A
  8
DATA
  6
CONTINUOUS
 62
     7
 10
289.0
 20
-124.6500000000029
 30
0.0
 11
289.0
 21
-112.64999999999699
 31
0.0
  0
ARC
  5
18B
  8
DATA
  6
CONTINUOUS
 62
     7
 10
289.89999999999998
 20
-112.9417475435739
 30
0.0
 40
0.9461060348510196
 50
17.960824461479209
 51
162.03917553851969
  0
ARC
  5
18C
  8
DATA
  6
CONTINUOUS
 62
     7
 10
289.89999999999998
 20
-124.358252456426
 30
0.0
 40
0.9461060348509655
 50
197.9608244614802
 51
342.03917553852079
  0
LINE
  5
18D
  8
DATA
  6
CONTINUOUS
 62
     7
 10
294.80000000000001
 20
-124.6500000000029
 30
0.0
 11
294.80000000000001
 21
-112.64999999999699
 31
0.0
  0
LINE
  5
18E
  8
DATA
  6
CONTINUOUS
 62
     7
 10
293.0
 20
-124.6500000000029
 30
0.0
 11
293.0
 21
-112.64999999999699
 31
0.0
  0
ARC
  5
18F
  8
DATA
  6
CONTINUOUS
 62
     7
 10
293.89999999999998
 20
-112.9417475435739
 30
0.0
 40
0.9461060348510196
 50
17.960824461479209
 51
162.03917553851969
  0
ARC
  5
190
  8
DATA
  6
CONTINUOUS
 62
     7
 10
293.89999999999998
 20
-124.358252456426
 30
0.0
 40
0.9461060348509655
 50
197.9608244614802
 51
342.03917553852079
  0
LINE
  5
191
  8
DATA
  6
CONTINUOUS
 62
     7
 10
298.80000000000001
 20
-124.6500000000029
 30
0.0
 11
298.80000000000001
 21
-112.64999999999699
 31
0.0
  0
LINE
  5
192
  8
DATA
  6
CONTINUOUS
 62
     7
 10
297.0
 20
-124.6500000000029
 30
0.0
 11
297.0
 21
-112.64999999999699
 31
0.0
  0
ARC
  5
193
  8
DATA
  6
CONTINUOUS
 62
     7
 10
297.89999999999998
 20
-112.9417475435739
 30
0.0
 40
0.9461060348510196
 50
17.960824461479209
 51
162.03917553851969
  0
ARC
  5
194
  8
DATA
  6
CONTINUOUS
 62
     7
 10
297.89999999999998
 20
-124.358252456426
 30
0.0
 40
0.9461060348509655
 50
197.9608244614802
 51
342.03917553852079
  0
LINE
  5
195
  8
DATA
  6
CONTINUOUS
 62
     7
 10
302.80000000000001
 20
-124.6500000000029
 30
0.0
 11
302.80000000000001
 21
-112.64999999999699
 31
0.0
  0
LINE
  5
196
  8
DATA
  6
CONTINUOUS
 62
     7
 10
301.0
 20
-124.6500000000029
 30
0.0
 11
301.0
 21
-112.64999999999699
 31
0.0
  0
ARC
  5
197
  8
DATA
  6
CONTINUOUS
 62
     7
 10
301.89999999999998
 20
-112.9417475435739
 30
0.0
 40
0.9461060348510196
 50
17.960824461479209
 51
162.03917553851969
  0
ARC
  5
198
  8
DATA
  6
CONTINUOUS
 62
     7
 10
301.89999999999998
 20
-124.358252456426
 30
0.0
 40
0.9461060348509655
 50
197.9608244614802
 51
342.03917553852079
  0
LINE
  5
199
  8
DATA
  6
CONTINUOUS
 62
     7
 10
186.19999999999999
 20
-124.6500000000029
 30
0.0
 11
186.19999999999999
 21
-112.64999999999699
 31
0.0
  0
LINE
  5
19A
  8
DATA
  6
CONTINUOUS
 62
     7
 10
188.0
 20
-124.6500000000029
 30
0.0
 11
188.0
 21
-112.64999999999699
 31
0.0
  0
ARC
  5
19B
  8
DATA
  6
CONTINUOUS
 62
     7
 10
187.09999999999999
 20
-112.9417475435739
 30
0.0
 40
0.9461060348509655
 50
17.960824461480279
 51
162.03917553852079
  0
ARC
  5
19C
  8
DATA
  6
CONTINUOUS
 62
     7
 10
187.09999999999999
 20
-124.358252456426
 30
0.0
 40
0.9461060348510196
 50
197.96082446147909
 51
342.03917553851983
  0
LINE
  5
19D
  8
DATA
  6
CONTINUOUS
 62
     7
 10
182.19999999999999
 20
-124.6500000000029
 30
0.0
 11
182.19999999999999
 21
-112.64999999999699
 31
0.0
  0
LINE
  5
19E
  8
DATA
  6
CONTINUOUS
 62
     7
 10
184.0
 20
-124.6500000000029
 30
0.0
 11
184.0
 21
-112.64999999999699
 31
0.0
  0
ARC
  5
19F
  8
DATA
  6
CONTINUOUS
 62
     7
 10
183.09999999999999
 20
-112.9417475435739
 30
0.0
 40
0.9461060348509655
 50
17.960824461480279
 51
162.03917553852079
  0
ARC
  5
1A0
  8
DATA
  6
CONTINUOUS
 62
     7
 10
183.09999999999999
 20
-124.358252456426
 30
0.0
 40
0.9461060348510196
 50
197.96082446147909
 51
342.03917553851983
  0
LINE
  5
1A1
  8
DATA
  6
CONTINUOUS
 62
     7
 10
178.19999999999999
 20
-124.6500000000029
 30
0.0
 11
178.19999999999999
 21
-112.64999999999699
 31
0.0
  0
LINE
  5
1A2
  8
DATA
  6
CONTINUOUS
 62
     7
 10
180.0
 20
-124.6500000000029
 30
0.0
 11
180.0
 21
-112.64999999999699
 31
0.0
  0
ARC
  5
1A3
  8
DATA
  6
CONTINUOUS
 62
     7
 10
179.09999999999999
 20
-112.9417475435739
 30
0.0
 40
0.9461060348509655
 50
17.960824461480279
 51
162.03917553852079
  0
ARC
  5
1A4
  8
DATA
  6
CONTINUOUS
 62
     7
 10
179.09999999999999
 20
-124.358252456426
 30
0.0
 40
0.9461060348510196
 50
197.96082446147909
 51
342.03917553851983
  0
LINE
  5
1A5
  8
DATA
  6
CONTINUOUS
 62
     7
 10
174.19999999999999
 20
-124.6500000000029
 30
0.0
 11
174.19999999999999
 21
-112.64999999999699
 31
0.0
  0
LINE
  5
1A6
  8
DATA
  6
CONTINUOUS
 62
     7
 10
176.0
 20
-124.6500000000029
 30
0.0
 11
176.0
 21
-112.64999999999699
 31
0.0
  0
ARC
  5
1A7
  8
DATA
  6
CONTINUOUS
 62
     7
 10
175.09999999999999
 20
-112.9417475435739
 30
0.0
 40
0.9461060348509655
 50
17.960824461480279
 51
162.03917553852079
  0
ARC
  5
1A8
  8
DATA
  6
CONTINUOUS
 62
     7
 10
175.09999999999999
 20
-124.358252456426
 30
0.0
 40
0.9461060348510196
 50
197.96082446147909
 51
342.03917553851983
  0
LINE
  5
1A9
  8
DATA
  6
CONTINUOUS
 62
     7
 10
170.19999999999999
 20
-124.6500000000029
 30
0.0
 11
170.19999999999999
 21
-112.64999999999699
 31
0.0
  0
LINE
  5
1AA
  8
DATA
  6
CONTINUOUS
 62
     7
 10
172.0
 20
-124.6500000000029
 30
0.0
 11
172.0
 21
-112.64999999999699
 31
0.0
  0
ARC
  5
1AB
  8
DATA
  6
CONTINUOUS
 62
     7
 10
171.09999999999999
 20
-112.9417475435739
 30
0.0
 40
0.9461060348509655
 50
17.960824461480279
 51
162.03917553852079
  0
ARC
  5
1AC
  8
DATA
  6
CONTINUOUS
 62
     7
 10
171.09999999999999
 20
-124.358252456426
 30
0.0
 40
0.9461060348510196
 50
197.96082446147909
 51
342.03917553851983
  0
LINE
  5
1AD
  8
DATA
  6
CONTINUOUS
 62
     7
 10
166.19999999999999
 20
-124.6500000000029
 30
0.0
 11
166.19999999999999
 21
-112.64999999999699
 31
0.0
  0
LINE
  5
1AE
  8
DATA
  6
CONTINUOUS
 62
     7
 10
168.0
 20
-124.6500000000029
 30
0.0
 11
168.0
 21
-112.64999999999699
 31
0.0
  0
ARC
  5
1AF
  8
DATA
  6
CONTINUOUS
 62
     7
 10
167.09999999999999
 20
-112.9417475435739
 30
0.0
 40
0.9461060348509655
 50
17.960824461480279
 51
162.03917553852079
  0
ARC
  5
1B0
  8
DATA
  6
CONTINUOUS
 62
     7
 10
167.09999999999999
 20
-124.358252456426
 30
0.0
 40
0.9461060348510196
 50
197.96082446147909
 51
342.03917553851983
  0
LINE
  5
1B1
  8
DATA
  6
CONTINUOUS
 62
     7
 10
162.19999999999999
 20
-124.6500000000029
 30
0.0
 11
162.19999999999999
 21
-112.64999999999699
 31
0.0
  0
LINE
  5
1B2
  8
DATA
  6
CONTINUOUS
 62
     7
 10
164.0
 20
-124.6500000000029
 30
0.0
 11
164.0
 21
-112.64999999999699
 31
0.0
  0
ARC
  5
1B3
  8
DATA
  6
CONTINUOUS
 62
     7
 10
163.09999999999999
 20
-112.9417475435739
 30
0.0
 40
0.9461060348509655
 50
17.960824461480279
 51
162.03917553852079
  0
ARC
  5
1B4
  8
DATA
  6
CONTINUOUS
 62
     7
 10
163.09999999999999
 20
-124.358252456426
 30
0.0
 40
0.9461060348510196
 50
197.96082446147909
 51
342.03917553851983
  0
LINE
  5
1B5
  8
DATA
  6
CONTINUOUS
 62
     7
 10
158.19999999999999
 20
-124.6500000000029
 30
0.0
 11
158.19999999999999
 21
-112.64999999999699
 31
0.0
  0
LINE
  5
1B6
  8
DATA
  6
CONTINUOUS
 62
     7
 10
160.0
 20
-124.6500000000029
 30
0.0
 11
160.0
 21
-112.64999999999699
 31
0.0
  0
ARC
  5
1B7
  8
DATA
  6
CONTINUOUS
 62
     7
 10
159.09999999999999
 20
-112.9417475435739
 30
0.0
 40
0.9461060348509655
 50
17.960824461480279
 51
162.03917553852079
  0
ARC
  5
1B8
  8
DATA
  6
CONTINUOUS
 62
     7
 10
159.09999999999999
 20
-124.358252456426
 30
0.0
 40
0.9461060348510196
 50
197.96082446147909
 51
342.03917553851983
  0
LINE
  5
1B9
  8
DATA
  6
CONTINUOUS
 62
     7
 10
154.1999999999999
 20
-124.6500000000029
 30
0.0
 11
154.1999999999999
 21
-112.64999999999699
 31
0.0
  0
LINE
  5
1BA
  8
DATA
  6
CONTINUOUS
 62
     7
 10
156.0
 20
-124.6500000000029
 30
0.0
 11
156.0
 21
-112.64999999999699
 31
0.0
  0
ARC
  5
1BB
  8
DATA
  6
CONTINUOUS
 62
     7
 10
155.09999999999999
 20
-112.9417475435739
 30
0.0
 40
0.9461060348509655
 50
17.960824461480279
 51
162.03917553852079
  0
ARC
  5
1BC
  8
DATA
  6
CONTINUOUS
 62
     7
 10
155.09999999999999
 20
-124.358252456426
 30
0.0
 40
0.9461060348510196
 50
197.96082446147909
 51
342.03917553851983
  0
LINE
  5
1BD
  8
DATA
  6
CONTINUOUS
 62
     7
 10
150.19999999999999
 20
-124.6500000000029
 30
0.0
 11
150.19999999999999
 21
-112.64999999999699
 31
0.0
  0
LINE
  5
1BE
  8
DATA
  6
CONTINUOUS
 62
     7
 10
152.0
 20
-124.6500000000029
 30
0.0
 11
152.0
 21
-112.64999999999699
 31
0.0
  0
ARC
  5
1BF
  8
DATA
  6
CONTINUOUS
 62
     7
 10
151.09999999999999
 20
-112.9417475435739
 30
0.0
 40
0.9461060348509655
 50
17.960824461480279
 51
162.03917553852079
  0
ARC
  5
1C0
  8
DATA
  6
CONTINUOUS
 62
     7
 10
151.09999999999999
 20
-124.358252456426
 30
0.0
 40
0.9461060348510196
 50
197.96082446147909
 51
342.03917553851983
  0
LINE
  5
1C1
  8
DATA
  6
CONTINUOUS
 62
     7
 10
146.19999999999999
 20
-124.6500000000029
 30
0.0
 11
146.19999999999999
 21
-112.64999999999699
 31
0.0
  0
LINE
  5
1C2
  8
DATA
  6
CONTINUOUS
 62
     7
 10
148.0
 20
-124.6500000000029
 30
0.0
 11
148.0
 21
-112.64999999999699
 31
0.0
  0
ARC
  5
1C3
  8
DATA
  6
CONTINUOUS
 62
     7
 10
147.09999999999999
 20
-112.9417475435739
 30
0.0
 40
0.9461060348509655
 50
17.960824461480279
 51
162.03917553852079
  0
ARC
  5
1C4
  8
DATA
  6
CONTINUOUS
 62
     7
 10
147.09999999999999
 20
-124.358252456426
 30
0.0
 40
0.9461060348510196
 50
197.96082446147909
 51
342.03917553851983
  0
LINE
  5
1C5
  8
DATA
  6
CONTINUOUS
 62
     7
 10
142.19999999999999
 20
-124.6500000000029
 30
0.0
 11
142.19999999999999
 21
-112.64999999999699
 31
0.0
  0
LINE
  5
1C6
  8
DATA
  6
CONTINUOUS
 62
     7
 10
144.0
 20
-124.6500000000029
 30
0.0
 11
144.0
 21
-112.64999999999699
 31
0.0
  0
ARC
  5
1C7
  8
DATA
  6
CONTINUOUS
 62
     7
 10
143.09999999999999
 20
-112.9417475435739
 30
0.0
 40
0.9461060348509655
 50
17.960824461480279
 51
162.03917553852079
  0
ARC
  5
1C8
  8
DATA
  6
CONTINUOUS
 62
     7
 10
143.09999999999999
 20
-124.358252456426
 30
0.0
 40
0.9461060348510196
 50
197.96082446147909
 51
342.03917553851983
  0
LINE
  5
1C9
  8
DATA
  6
CONTINUOUS
 62
     7
 10
138.19999999999999
 20
-124.6500000000029
 30
0.0
 11
138.19999999999999
 21
-112.64999999999699
 31
0.0
  0
LINE
  5
1CA
  8
DATA
  6
CONTINUOUS
 62
     7
 10
140.0
 20
-124.6500000000029
 30
0.0
 11
140.0
 21
-112.64999999999699
 31
0.0
  0
ARC
  5
1CB
  8
DATA
  6
CONTINUOUS
 62
     7
 10
139.09999999999999
 20
-112.9417475435739
 30
0.0
 40
0.9461060348509655
 50
17.960824461480279
 51
162.03917553852079
  0
ARC
  5
1CC
  8
DATA
  6
CONTINUOUS
 62
     7
 10
139.09999999999999
 20
-124.358252456426
 30
0.0
 40
0.9461060348510196
 50
197.96082446147909
 51
342.03917553851983
  0
LINE
  5
1CD
  8
DATA
  6
CONTINUOUS
 62
     7
 10
134.19999999999999
 20
-124.6500000000029
 30
0.0
 11
134.19999999999999
 21
-112.64999999999699
 31
0.0
  0
LINE
  5
1CE
  8
DATA
  6
CONTINUOUS
 62
     7
 10
136.0
 20
-124.6500000000029
 30
0.0
 11
136.0
 21
-112.64999999999699
 31
0.0
  0
ARC
  5
1CF
  8
DATA
  6
CONTINUOUS
 62
     7
 10
135.09999999999999
 20
-112.9417475435739
 30
0.0
 40
0.9461060348509655
 50
17.960824461480279
 51
162.03917553852079
  0
ARC
  5
1D0
  8
DATA
  6
CONTINUOUS
 62
     7
 10
135.09999999999999
 20
-124.358252456426
 30
0.0
 40
0.9461060348510196
 50
197.96082446147909
 51
342.03917553851983
  0
LINE
  5
1D1
  8
DATA
  6
CONTINUOUS
 62
     7
 10
130.19999999999999
 20
-124.6500000000029
 30
0.0
 11
130.19999999999999
 21
-112.64999999999699
 31
0.0
  0
LINE
  5
1D2
  8
DATA
  6
CONTINUOUS
 62
     7
 10
132.0
 20
-124.6500000000029
 30
0.0
 11
132.0
 21
-112.64999999999699
 31
0.0
  0
ARC
  5
1D3
  8
DATA
  6
CONTINUOUS
 62
     7
 10
131.09999999999999
 20
-112.9417475435739
 30
0.0
 40
0.9461060348509655
 50
17.960824461480279
 51
162.03917553852079
  0
ARC
  5
1D4
  8
DATA
  6
CONTINUOUS
 62
     7
 10
131.09999999999999
 20
-124.358252456426
 30
0.0
 40
0.9461060348510196
 50
197.96082446147909
 51
342.03917553851983
  0
LINE
  5
1D5
  8
DATA
  6
CONTINUOUS
 62
     7
 10
113.2
 20
-124.6500000000029
 30
0.0
 11
113.2
 21
-112.64999999999699
 31
0.0
  0
LINE
  5
1D6
  8
DATA
  6
CONTINUOUS
 62
     7
 10
115.0
 20
-124.6500000000029
 30
0.0
 11
115.0
 21
-112.64999999999699
 31
0.0
  0
ARC
  5
1D7
  8
DATA
  6
CONTINUOUS
 62
     7
 10
114.09999999999999
 20
-112.9417475435739
 30
0.0
 40
0.9461060348509655
 50
17.960824461480279
 51
162.03917553852079
  0
ARC
  5
1D8
  8
DATA
  6
CONTINUOUS
 62
     7
 10
114.09999999999999
 20
-124.358252456426
 30
0.0
 40
0.9461060348510196
 50
197.96082446147909
 51
342.03917553851983
  0
LINE
  5
1D9
  8
DATA
  6
CONTINUOUS
 62
     7
 10
109.2
 20
-124.6500000000029
 30
0.0
 11
109.2
 21
-112.64999999999699
 31
0.0
  0
LINE
  5
1DA
  8
DATA
  6
CONTINUOUS
 62
     7
 10
111.0
 20
-124.6500000000029
 30
0.0
 11
111.0
 21
-112.64999999999699
 31
0.0
  0
ARC
  5
1DB
  8
DATA
  6
CONTINUOUS
 62
     7
 10
110.09999999999999
 20
-112.9417475435739
 30
0.0
 40
0.9461060348509655
 50
17.960824461480279
 51
162.03917553852079
  0
ARC
  5
1DC
  8
DATA
  6
CONTINUOUS
 62
     7
 10
110.09999999999999
 20
-124.358252456426
 30
0.0
 40
0.9461060348510196
 50
197.96082446147909
 51
342.03917553851983
  0
LINE
  5
1DD
  8
DATA
  6
CONTINUOUS
 62
     7
 10
105.2
 20
-124.6500000000029
 30
0.0
 11
105.2
 21
-112.64999999999699
 31
0.0
  0
LINE
  5
1DE
  8
DATA
  6
CONTINUOUS
 62
     7
 10
107.0
 20
-124.6500000000029
 30
0.0
 11
107.0
 21
-112.64999999999699
 31
0.0
  0
ARC
  5
1DF
  8
DATA
  6
CONTINUOUS
 62
     7
 10
106.09999999999999
 20
-112.9417475435739
 30
0.0
 40
0.9461060348509655
 50
17.960824461480279
 51
162.03917553852079
  0
ARC
  5
1E0
  8
DATA
  6
CONTINUOUS
 62
     7
 10
106.09999999999999
 20
-124.358252456426
 30
0.0
 40
0.9461060348510196
 50
197.96082446147909
 51
342.03917553851983
  0
LINE
  5
1E1
  8
DATA
  6
CONTINUOUS
 62
     7
 10
101.2
 20
-124.6500000000029
 30
0.0
 11
101.2
 21
-112.64999999999699
 31
0.0
  0
LINE
  5
1E2
  8
DATA
  6
CONTINUOUS
 62
     7
 10
103.0
 20
-124.6500000000029
 30
0.0
 11
103.0
 21
-112.64999999999699
 31
0.0
  0
ARC
  5
1E3
  8
DATA
  6
CONTINUOUS
 62
     7
 10
102.09999999999999
 20
-112.9417475435739
 30
0.0
 40
0.9461060348509655
 50
17.960824461480279
 51
162.03917553852079
  0
ARC
  5
1E4
  8
DATA
  6
CONTINUOUS
 62
     7
 10
102.09999999999999
 20
-124.358252456426
 30
0.0
 40
0.9461060348510196
 50
197.96082446147909
 51
342.03917553851983
  0
LINE
  5
1E5
  8
DATA
  6
CONTINUOUS
 62
     7
 10
97.200000000000003
 20
-124.6500000000029
 30
0.0
 11
97.200000000000003
 21
-112.64999999999699
 31
0.0
  0
LINE
  5
1E6
  8
DATA
  6
CONTINUOUS
 62
     7
 10
99.0
 20
-124.6500000000029
 30
0.0
 11
99.0
 21
-112.64999999999699
 31
0.0
  0
ARC
  5
1E7
  8
DATA
  6
CONTINUOUS
 62
     7
 10
98.100000000000037
 20
-112.9417475435739
 30
0.0
 40
0.9461060348509655
 50
17.960824461480279
 51
162.03917553852079
  0
ARC
  5
1E8
  8
DATA
  6
CONTINUOUS
 62
     7
 10
98.100000000000037
 20
-124.358252456426
 30
0.0
 40
0.9461060348510196
 50
197.96082446147909
 51
342.03917553851983
  0
LINE
  5
1E9
  8
DATA
  6
CONTINUOUS
 62
     7
 10
93.200000000000003
 20
-124.6500000000029
 30
0.0
 11
93.200000000000003
 21
-112.64999999999699
 31
0.0
  0
LINE
  5
1EA
  8
DATA
  6
CONTINUOUS
 62
     7
 10
95.0
 20
-124.6500000000029
 30
0.0
 11
95.0
 21
-112.64999999999699
 31
0.0
  0
ARC
  5
1EB
  8
DATA
  6
CONTINUOUS
 62
     7
 10
94.100000000000037
 20
-112.9417475435739
 30
0.0
 40
0.9461060348509655
 50
17.960824461480279
 51
162.03917553852079
  0
ARC
  5
1EC
  8
DATA
  6
CONTINUOUS
 62
     7
 10
94.100000000000037
 20
-124.358252456426
 30
0.0
 40
0.9461060348510196
 50
197.96082446147909
 51
342.03917553851983
  0
LINE
  5
1ED
  8
DATA
  6
CONTINUOUS
 62
     7
 10
89.199999999999989
 20
-124.6500000000029
 30
0.0
 11
89.199999999999989
 21
-112.64999999999699
 31
0.0
  0
LINE
  5
1EE
  8
DATA
  6
CONTINUOUS
 62
     7
 10
91.0
 20
-124.6500000000029
 30
0.0
 11
91.0
 21
-112.64999999999699
 31
0.0
  0
ARC
  5
1EF
  8
DATA
  6
CONTINUOUS
 62
     7
 10
90.100000000000037
 20
-112.9417475435739
 30
0.0
 40
0.9461060348509655
 50
17.960824461480279
 51
162.03917553852079
  0
ARC
  5
1F0
  8
DATA
  6
CONTINUOUS
 62
     7
 10
90.100000000000037
 20
-124.358252456426
 30
0.0
 40
0.9461060348510196
 50
197.96082446147909
 51
342.03917553851983
  0
LINE
  5
1F1
  8
DATA
  6
CONTINUOUS
 62
     7
 10
85.200000000000017
 20
-124.6500000000029
 30
0.0
 11
85.200000000000017
 21
-112.64999999999699
 31
0.0
  0
LINE
  5
1F2
  8
DATA
  6
CONTINUOUS
 62
     7
 10
87.000000000000014
 20
-124.6500000000029
 30
0.0
 11
87.000000000000014
 21
-112.64999999999699
 31
0.0
  0
ARC
  5
1F3
  8
DATA
  6
CONTINUOUS
 62
     7
 10
86.100000000000037
 20
-112.9417475435739
 30
0.0
 40
0.9461060348509655
 50
17.960824461480279
 51
162.03917553852079
  0
ARC
  5
1F4
  8
DATA
  6
CONTINUOUS
 62
     7
 10
86.100000000000037
 20
-124.358252456426
 30
0.0
 40
0.9461060348510196
 50
197.96082446147909
 51
342.03917553851983
  0
LINE
  5
1F5
  8
DATA
  6
CONTINUOUS
 62
     7
 10
305.16495001642681
 20
-106.25
 30
0.0
 11
305.16495001642681
 21
-100.25
 31
0.0
  0
LINE
  5
1F6
  8
DATA
  6
CONTINUOUS
 62
     7
 10
310.7449500164268
 20
-100.25
 30
0.0
 11
310.7449500164268
 21
-106.25
 31
0.0
  0
ARC
  5
1F7
  8
DATA
  6
CONTINUOUS
 62
     7
 10
114.4800882075488
 20
-106.25
 30
0.0
 40
1.400000000000005
 50
0.0
 51
180.0
  0
LINE
  5
1F8
  8
DATA
  6
CONTINUOUS
 62
     7
 10
70.5
 20
-110.25
 30
0.0
 11
70.5
 21
-118.0500000000001
 31
0.0
  0
LINE
  5
1F9
  8
DATA
  6
CONTINUOUS
 62
     7
 10
75.000000000000028
 20
-119.9235026918963
 30
0.0
 11
76.500000000000028
 21
-119.9235026918963
 31
0.0
  0
LINE
  5
1FA
  8
DATA
  6
CONTINUOUS
 62
     7
 10
75.000000000000028
 20
-108.37649730810379
 30
0.0
 11
76.500000000000028
 21
-108.37649730810379
 31
0.0
  0
LINE
  5
1FB
  8
DATA
  6
CONTINUOUS
 62
     7
 10
75.000000000000028
 20
-119.9235026918963
 30
0.0
 11
75.000000000000028
 21
-108.37649730810379
 31
0.0
  0
LINE
  5
1FC
  8
DATA
  6
CONTINUOUS
 62
     7
 10
70.5
 20
-118.0500000000001
 30
0.0
 11
75.000000000000028
 21
-118.0500000000001
 31
0.0
  0
LINE
  5
1FD
  8
DATA
  6
CONTINUOUS
 62
     7
 10
70.5
 20
-110.25
 30
0.0
 11
75.000000000000028
 21
-110.25
 31
0.0
  0
CIRCLE
  5
1FE
  8
DATA
  6
CONTINUOUS
 62
     7
 10
-58.250000000000021
 20
-49.75
 30
0.0
 40
2.25
  0
CIRCLE
  5
1FF
  8
DATA
  6
CONTINUOUS
 62
     7
 10
-58.250000000000021
 20
-49.75
 30
0.0
 40
4.5
  0
CIRCLE
  5
200
  8
DATA
  6
CONTINUOUS
 62
     7
 10
-2.2500000000000142
 20
-49.75
 30
0.0
 40
2.25
  0
CIRCLE
  5
201
  8
DATA
  6
CONTINUOUS
 62
     7
 10
-2.2500000000000142
 20
-49.75
 30
0.0
 40
4.5
  0
CIRCLE
  5
202
  8
DATA
  6
CONTINUOUS
 62
     7
 10
-2.2500000000000142
 20
200.25
 30
0.0
 40
2.25
  0
CIRCLE
  5
203
  8
DATA
  6
CONTINUOUS
 62
     7
 10
-2.2500000000000142
 20
200.25
 30
0.0
 40
4.5
  0
CIRCLE
  5
204
  8
DATA
  6
CONTINUOUS
 62
     7
 10
-58.250000000000021
 20
200.25
 30
0.0
 40
2.25
  0
CIRCLE
  5
205
  8
DATA
  6
CONTINUOUS
 62
     7
 10
-58.250000000000021
 20
200.25
 30
0.0
 40
4.5
  0
LINE
  5
206
  8
DATA
  6
CONTINUOUS
 62
     7
 10
-68.750000000000014
 20
192.75
 30
0.0
 11
8.2499999999999876
 21
192.75
 31
0.0
  0
LINE
  5
207
  8
DATA
  6
CONTINUOUS
 62
     7
 10
8.2499999999999876
 20
-42.25
 30
0.0
 11
-68.750000000000014
 21
-42.25
 31
0.0
  0
POLYLINE
  5
208
  8
DATA
  6
CONTINUOUS
 62
     7
 66
     1
 10
0.0
 20
0.0
 30
0.0
 70
     1
  0
VERTEX
  5
3BB
  8
DATA
  6
CONTINUOUS
 62
     7
 10
-46.912944539613648
 20
166.49624267768121
 30
0.0
  0
VERTEX
  5
3BC
  8
DATA
  6
CONTINUOUS
 62
     7
 10
-44.124556860487637
 20
167.24338890448789
 30
0.0
  0
VERTEX
  5
3BD
  8
DATA
  6
CONTINUOUS
 62
     7
 10
-43.377410633680952
 20
170.03177658361381
 30
0.0
  0
VERTEX
  5
3BE
  8
DATA
  6
CONTINUOUS
 62
     7
 10
-45.418652086000243
 20
172.07301803593319
 30
0.0
  0
VERTEX
  5
3BF
  8
DATA
  6
CONTINUOUS
 62
     7
 10
-48.207039765126247
 20
171.32587180912651
 30
0.0
  0
VERTEX
  5
3C0
  8
DATA
  6
CONTINUOUS
 62
     7
 10
-48.954185991933016
 20
168.53748413000051
 30
0.0
  0
SEQEND
  5
3C1
  8
DATA
  6
CONTINUOUS
 62
     7
  0
CIRCLE
  5
211
  8
DATA
  6
CONTINUOUS
 62
     7
 10
-46.165798312806949
 20
169.28463035680721
 30
0.0
 40
1.2750000000000341
  0
LINE
  5
212
  8
DATA
  6
CONTINUOUS
 62
     7
 10
-38.31579831280699
 20
162.221779688043
 30
0.0
 11
-54.015798312806922
 21
162.221779688043
 31
0.0
  0
LINE
  5
213
  8
DATA
  6
CONTINUOUS
 62
     7
 10
-38.31579831280699
 20
162.221779688043
 30
0.0
 11
-38.31579831280699
 21
157.92177968804279
 31
0.0
  0
LINE
  5
214
  8
DATA
  6
CONTINUOUS
 62
     7
 10
-54.015798312806922
 20
162.221779688043
 30
0.0
 11
-54.015798312806922
 21
157.92177968804279
 31
0.0
  0
LINE
  5
215
  8
DATA
  6
CONTINUOUS
 62
     7
 10
-38.31579831280699
 20
157.92177968804279
 30
0.0
 11
-40.915798312806963
 21
156.2217796880428
 31
0.0
  0
LINE
  5
216
  8
DATA
  6
CONTINUOUS
 62
     7
 10
-54.015798312806922
 20
157.92177968804279
 30
0.0
 11
-51.415798312806949
 21
156.2217796880428
 31
0.0
  0
LINE
  5
217
  8
DATA
  6
CONTINUOUS
 62
     7
 10
-40.915798312806963
 20
156.2217796880428
 30
0.0
 11
-51.415798312806949
 21
156.2217796880428
 31
0.0
  0
POLYLINE
  5
218
  8
DATA
  6
CONTINUOUS
 62
     7
 66
     1
 10
0.0
 20
0.0
 30
0.0
 70
     1
  0
VERTEX
  5
3C2
  8
DATA
  6
CONTINUOUS
 62
     7
 10
-51.165798312806949
 20
159.93561651355009
 30
0.0
  0
VERTEX
  5
3C3
  8
DATA
  6
CONTINUOUS
 62
     7
 10
-41.165798312806949
 20
159.93561651355009
 30
0.0
  0
VERTEX
  5
3C4
  8
DATA
  6
CONTINUOUS
 62
     7
 10
-41.165798312806949
 20
159.43561651355009
 30
0.0
  0
VERTEX
  5
3C5
  8
DATA
  6
CONTINUOUS
 62
     7
 10
-51.165798312806949
 20
159.43561651355009
 30
0.0
  0
SEQEND
  5
3C6
  8
DATA
  6
CONTINUOUS
 62
     7
  0
POLYLINE
  5
21F
  8
DATA
  6
CONTINUOUS
 62
     7
 66
     1
 10
0.0
 20
0.0
 30
0.0
 70
     1
  0
VERTEX
  5
3C7
  8
DATA
  6
CONTINUOUS
 62
     7
 10
-13.56470250779852
 20
166.49624267768121
 30
0.0
  0
VERTEX
  5
3C8
  8
DATA
  6
CONTINUOUS
 62
     7
 10
-16.353090186924518
 20
167.24338890448789
 30
0.0
  0
VERTEX
  5
3C9
  8
DATA
  6
CONTINUOUS
 62
     7
 10
-17.100236413731221
 20
170.03177658361381
 30
0.0
  0
VERTEX
  5
3CA
  8
DATA
  6
CONTINUOUS
 62
     7
 10
-15.058994961411919
 20
172.07301803593319
 30
0.0
  0
VERTEX
  5
3CB
  8
DATA
  6
CONTINUOUS
 62
     7
 10
-12.27060728228593
 20
171.32587180912651
 30
0.0
  0
VERTEX
  5
3CC
  8
DATA
  6
CONTINUOUS
 62
     7
 10
-11.52346105547916
 20
168.53748413000051
 30
0.0
  0
SEQEND
  5
3CD
  8
DATA
  6
CONTINUOUS
 62
     7
  0
CIRCLE
  5
228
  8
DATA
  6
CONTINUOUS
 62
     7
 10
-14.311848734605221
 20
169.28463035680721
 30
0.0
 40
1.2750000000000341
  0
LINE
  5
229
  8
DATA
  6
CONTINUOUS
 62
     7
 10
-22.161848734605179
 20
162.221779688043
 30
0.0
 11
-6.4618487346052547
 21
162.221779688043
 31
0.0
  0
LINE
  5
22A
  8
DATA
  6
CONTINUOUS
 62
     7
 10
-22.161848734605179
 20
162.221779688043
 30
0.0
 11
-22.161848734605179
 21
157.92177968804279
 31
0.0
  0
LINE
  5
22B
  8
DATA
  6
CONTINUOUS
 62
     7
 10
-6.4618487346052547
 20
162.221779688043
 30
0.0
 11
-6.4618487346052547
 21
157.92177968804279
 31
0.0
  0
LINE
  5
22C
  8
DATA
  6
CONTINUOUS
 62
     7
 10
-22.161848734605179
 20
157.92177968804279
 30
0.0
 11
-19.561848734605221
 21
156.2217796880428
 31
0.0
  0
LINE
  5
22D
  8
DATA
  6
CONTINUOUS
 62
     7
 10
-6.4618487346052547
 20
157.92177968804279
 30
0.0
 11
-9.0618487346052188
 21
156.2217796880428
 31
0.0
  0
LINE
  5
22E
  8
DATA
  6
CONTINUOUS
 62
     7
 10
-19.561848734605221
 20
156.2217796880428
 30
0.0
 11
-9.0618487346052188
 21
156.2217796880428
 31
0.0
  0
POLYLINE
  5
22F
  8
DATA
  6
CONTINUOUS
 62
     7
 66
     1
 10
0.0
 20
0.0
 30
0.0
 70
     1
  0
VERTEX
  5
3CE
  8
DATA
  6
CONTINUOUS
 62
     7
 10
-19.311848734605221
 20
159.93561651355009
 30
0.0
  0
VERTEX
  5
3CF
  8
DATA
  6
CONTINUOUS
 62
     7
 10
-9.3118487346052188
 20
159.93561651355009
 30
0.0
  0
VERTEX
  5
3D0
  8
DATA
  6
CONTINUOUS
 62
     7
 10
-9.3118487346052188
 20
159.43561651355009
 30
0.0
  0
VERTEX
  5
3D1
  8
DATA
  6
CONTINUOUS
 62
     7
 10
-19.311848734605221
 20
159.43561651355009
 30
0.0
  0
SEQEND
  5
3D2
  8
DATA
  6
CONTINUOUS
 62
     7
  0
TEXT
  5
236
  8
DATA
 62
     7
 10
-61.222127245581532
 20
157.99917806552551
 30
0.0
 40
3.2576822916666659
  1
2
 41
0.7
 11
-61.222127245581532
 21
161.2568603571921
 31
0.0
 73
     3
  0
TEXT
  5
237
  8
DATA
 62
     7
 10
-0.4018944909075943
 20
157.99917806552551
 30
0.0
 40
3.2576822916666659
  1
6
 41
0.7
 11
-0.4018944909075941
 21
161.2568603571921
 31
0.0
 73
     3
  0
POLYLINE
  5
238
  8
DATA
  6
CONTINUOUS
 62
     7
 66
     1
 10
0.0
 20
0.0
 30
0.0
 70
     1
  0
VERTEX
  5
3D3
  8
DATA
  6
CONTINUOUS
 62
     7
 10
-46.912944539613648
 20
146.4962426776811
 30
0.0
  0
VERTEX
  5
3D4
  8
DATA
  6
CONTINUOUS
 62
     7
 10
-44.124556860487637
 20
147.24338890448789
 30
0.0
  0
VERTEX
  5
3D5
  8
DATA
  6
CONTINUOUS
 62
     7
 10
-43.377410633680952
 20
150.03177658361381
 30
0.0
  0
VERTEX
  5
3D6
  8
DATA
  6
CONTINUOUS
 62
     7
 10
-45.418652086000243
 20
152.07301803593319
 30
0.0
  0
VERTEX
  5
3D7
  8
DATA
  6
CONTINUOUS
 62
     7
 10
-48.207039765126247
 20
151.32587180912651
 30
0.0
  0
VERTEX
  5
3D8
  8
DATA
  6
CONTINUOUS
 62
     7
 10
-48.954185991933016
 20
148.53748413000039
 30
0.0
  0
SEQEND
  5
3D9
  8
DATA
  6
CONTINUOUS
 62
     7
  0
CIRCLE
  5
241
  8
DATA
  6
CONTINUOUS
 62
     7
 10
-46.165798312806949
 20
149.28463035680721
 30
0.0
 40
1.2750000000000341
  0
LINE
  5
242
  8
DATA
  6
CONTINUOUS
 62
     7
 10
-38.31579831280699
 20
142.221779688043
 30
0.0
 11
-54.015798312806922
 21
142.221779688043
 31
0.0
  0
LINE
  5
243
  8
DATA
  6
CONTINUOUS
 62
     7
 10
-38.31579831280699
 20
142.221779688043
 30
0.0
 11
-38.31579831280699
 21
137.92177968804279
 31
0.0
  0
LINE
  5
244
  8
DATA
  6
CONTINUOUS
 62
     7
 10
-54.015798312806922
 20
142.221779688043
 30
0.0
 11
-54.015798312806922
 21
137.92177968804279
 31
0.0
  0
LINE
  5
245
  8
DATA
  6
CONTINUOUS
 62
     7
 10
-38.31579831280699
 20
137.92177968804279
 30
0.0
 11
-40.915798312806963
 21
136.2217796880428
 31
0.0
  0
LINE
  5
246
  8
DATA
  6
CONTINUOUS
 62
     7
 10
-54.015798312806922
 20
137.92177968804279
 30
0.0
 11
-51.415798312806949
 21
136.2217796880428
 31
0.0
  0
LINE
  5
247
  8
DATA
  6
CONTINUOUS
 62
     7
 10
-40.915798312806963
 20
136.2217796880428
 30
0.0
 11
-51.415798312806949
 21
136.2217796880428
 31
0.0
  0
POLYLINE
  5
248
  8
DATA
  6
CONTINUOUS
 62
     7
 66
     1
 10
0.0
 20
0.0
 30
0.0
 70
     1
  0
VERTEX
  5
3DA
  8
DATA
  6
CONTINUOUS
 62
     7
 10
-51.165798312806949
 20
139.93561651355009
 30
0.0
  0
VERTEX
  5
3DB
  8
DATA
  6
CONTINUOUS
 62
     7
 10
-41.165798312806949
 20
139.93561651355009
 30
0.0
  0
VERTEX
  5
3DC
  8
DATA
  6
CONTINUOUS
 62
     7
 10
-41.165798312806949
 20
139.43561651355009
 30
0.0
  0
VERTEX
  5
3DD
  8
DATA
  6
CONTINUOUS
 62
     7
 10
-51.165798312806949
 20
139.43561651355009
 30
0.0
  0
SEQEND
  5
3DE
  8
DATA
  6
CONTINUOUS
 62
     7
  0
POLYLINE
  5
24F
  8
DATA
  6
CONTINUOUS
 62
     7
 66
     1
 10
0.0
 20
0.0
 30
0.0
 70
     1
  0
VERTEX
  5
3DF
  8
DATA
  6
CONTINUOUS
 62
     7
 10
-13.56470250779852
 20
146.4962426776811
 30
0.0
  0
VERTEX
  5
3E0
  8
DATA
  6
CONTINUOUS
 62
     7
 10
-16.353090186924518
 20
147.24338890448789
 30
0.0
  0
VERTEX
  5
3E1
  8
DATA
  6
CONTINUOUS
 62
     7
 10
-17.100236413731221
 20
150.03177658361381
 30
0.0
  0
VERTEX
  5
3E2
  8
DATA
  6
CONTINUOUS
 62
     7
 10
-15.058994961411919
 20
152.07301803593319
 30
0.0
  0
VERTEX
  5
3E3
  8
DATA
  6
CONTINUOUS
 62
     7
 10
-12.27060728228593
 20
151.32587180912651
 30
0.0
  0
VERTEX
  5
3E4
  8
DATA
  6
CONTINUOUS
 62
     7
 10
-11.52346105547916
 20
148.53748413000039
 30
0.0
  0
SEQEND
  5
3E5
  8
DATA
  6
CONTINUOUS
 62
     7
  0
CIRCLE
  5
258
  8
DATA
  6
CONTINUOUS
 62
     7
 10
-14.311848734605221
 20
149.28463035680721
 30
0.0
 40
1.2750000000000341
  0
LINE
  5
259
  8
DATA
  6
CONTINUOUS
 62
     7
 10
-22.161848734605179
 20
142.221779688043
 30
0.0
 11
-6.4618487346052547
 21
142.221779688043
 31
0.0
  0
LINE
  5
25A
  8
DATA
  6
CONTINUOUS
 62
     7
 10
-22.161848734605179
 20
142.221779688043
 30
0.0
 11
-22.161848734605179
 21
137.92177968804279
 31
0.0
  0
LINE
  5
25B
  8
DATA
  6
CONTINUOUS
 62
     7
 10
-6.4618487346052547
 20
142.221779688043
 30
0.0
 11
-6.4618487346052547
 21
137.92177968804279
 31
0.0
  0
LINE
  5
25C
  8
DATA
  6
CONTINUOUS
 62
     7
 10
-22.161848734605179
 20
137.92177968804279
 30
0.0
 11
-19.561848734605221
 21
136.2217796880428
 31
0.0
  0
LINE
  5
25D
  8
DATA
  6
CONTINUOUS
 62
     7
 10
-6.4618487346052547
 20
137.92177968804279
 30
0.0
 11
-9.0618487346052188
 21
136.2217796880428
 31
0.0
  0
LINE
  5
25E
  8
DATA
  6
CONTINUOUS
 62
     7
 10
-19.561848734605221
 20
136.2217796880428
 30
0.0
 11
-9.0618487346052188
 21
136.2217796880428
 31
0.0
  0
POLYLINE
  5
25F
  8
DATA
  6
CONTINUOUS
 62
     7
 66
     1
 10
0.0
 20
0.0
 30
0.0
 70
     1
  0
VERTEX
  5
3E6
  8
DATA
  6
CONTINUOUS
 62
     7
 10
-19.311848734605221
 20
139.93561651355009
 30
0.0
  0
VERTEX
  5
3E7
  8
DATA
  6
CONTINUOUS
 62
     7
 10
-9.3118487346052188
 20
139.93561651355009
 30
0.0
  0
VERTEX
  5
3E8
  8
DATA
  6
CONTINUOUS
 62
     7
 10
-9.3118487346052188
 20
139.43561651355009
 30
0.0
  0
VERTEX
  5
3E9
  8
DATA
  6
CONTINUOUS
 62
     7
 10
-19.311848734605221
 20
139.43561651355009
 30
0.0
  0
SEQEND
  5
3EA
  8
DATA
  6
CONTINUOUS
 62
     7
  0
TEXT
  5
266
  8
DATA
 62
     7
 10
-61.222127245581532
 20
137.99917806552551
 30
0.0
 40
3.2576822916666659
  1
3
 41
0.7
 11
-61.222127245581532
 21
141.2568603571921
 31
0.0
 73
     3
  0
TEXT
  5
267
  8
DATA
 62
     7
 10
-0.4018944909075943
 20
137.99917806552551
 30
0.0
 40
3.2576822916666659
  1
7
 41
0.7
 11
-0.4018944909075941
 21
141.2568603571921
 31
0.0
 73
     3
  0
POLYLINE
  5
268
  8
DATA
  6
CONTINUOUS
 62
     7
 66
     1
 10
0.0
 20
0.0
 30
0.0
 70
     1
  0
VERTEX
  5
3EB
  8
DATA
  6
CONTINUOUS
 62
     7
 10
-46.912944539613648
 20
126.4962426776812
 30
0.0
  0
VERTEX
  5
3EC
  8
DATA
  6
CONTINUOUS
 62
     7
 10
-44.124556860487637
 20
127.2433889044878
 30
0.0
  0
VERTEX
  5
3ED
  8
DATA
  6
CONTINUOUS
 62
     7
 10
-43.377410633680952
 20
130.03177658361381
 30
0.0
  0
VERTEX
  5
3EE
  8
DATA
  6
CONTINUOUS
 62
     7
 10
-45.418652086000243
 20
132.07301803593319
 30
0.0
  0
VERTEX
  5
3EF
  8
DATA
  6
CONTINUOUS
 62
     7
 10
-48.207039765126247
 20
131.32587180912651
 30
0.0
  0
VERTEX
  5
3F0
  8
DATA
  6
CONTINUOUS
 62
     7
 10
-48.954185991933016
 20
128.53748413000051
 30
0.0
  0
SEQEND
  5
3F1
  8
DATA
  6
CONTINUOUS
 62
     7
  0
CIRCLE
  5
271
  8
DATA
  6
CONTINUOUS
 62
     7
 10
-46.165798312806949
 20
129.28463035680721
 30
0.0
 40
1.2750000000000341
  0
LINE
  5
272
  8
DATA
  6
CONTINUOUS
 62
     7
 10
-38.31579831280699
 20
122.221779688043
 30
0.0
 11
-54.015798312806922
 21
122.221779688043
 31
0.0
  0
LINE
  5
273
  8
DATA
  6
CONTINUOUS
 62
     7
 10
-38.31579831280699
 20
122.221779688043
 30
0.0
 11
-38.31579831280699
 21
117.9217796880428
 31
0.0
  0
LINE
  5
274
  8
DATA
  6
CONTINUOUS
 62
     7
 10
-54.015798312806922
 20
122.221779688043
 30
0.0
 11
-54.015798312806922
 21
117.9217796880428
 31
0.0
  0
LINE
  5
275
  8
DATA
  6
CONTINUOUS
 62
     7
 10
-38.31579831280699
 20
117.9217796880428
 30
0.0
 11
-40.915798312806963
 21
116.2217796880428
 31
0.0
  0
LINE
  5
276
  8
DATA
  6
CONTINUOUS
 62
     7
 10
-54.015798312806922
 20
117.9217796880428
 30
0.0
 11
-51.415798312806949
 21
116.2217796880428
 31
0.0
  0
LINE
  5
277
  8
DATA
  6
CONTINUOUS
 62
     7
 10
-40.915798312806963
 20
116.2217796880428
 30
0.0
 11
-51.415798312806949
 21
116.2217796880428
 31
0.0
  0
POLYLINE
  5
278
  8
DATA
  6
CONTINUOUS
 62
     7
 66
     1
 10
0.0
 20
0.0
 30
0.0
 70
     1
  0
VERTEX
  5
3F2
  8
DATA
  6
CONTINUOUS
 62
     7
 10
-51.165798312806949
 20
119.9356165135501
 30
0.0
  0
VERTEX
  5
3F3
  8
DATA
  6
CONTINUOUS
 62
     7
 10
-41.165798312806949
 20
119.9356165135501
 30
0.0
  0
VERTEX
  5
3F4
  8
DATA
  6
CONTINUOUS
 62
     7
 10
-41.165798312806949
 20
119.4356165135501
 30
0.0
  0
VERTEX
  5
3F5
  8
DATA
  6
CONTINUOUS
 62
     7
 10
-51.165798312806949
 20
119.4356165135501
 30
0.0
  0
SEQEND
  5
3F6
  8
DATA
  6
CONTINUOUS
 62
     7
  0
POLYLINE
  5
27F
  8
DATA
  6
CONTINUOUS
 62
     7
 66
     1
 10
0.0
 20
0.0
 30
0.0
 70
     1
  0
VERTEX
  5
3F7
  8
DATA
  6
CONTINUOUS
 62
     7
 10
-13.56470250779852
 20
126.4962426776812
 30
0.0
  0
VERTEX
  5
3F8
  8
DATA
  6
CONTINUOUS
 62
     7
 10
-16.353090186924518
 20
127.2433889044878
 30
0.0
  0
VERTEX
  5
3F9
  8
DATA
  6
CONTINUOUS
 62
     7
 10
-17.100236413731221
 20
130.03177658361381
 30
0.0
  0
VERTEX
  5
3FA
  8
DATA
  6
CONTINUOUS
 62
     7
 10
-15.058994961411919
 20
132.07301803593319
 30
0.0
  0
VERTEX
  5
3FB
  8
DATA
  6
CONTINUOUS
 62
     7
 10
-12.27060728228593
 20
131.32587180912651
 30
0.0
  0
VERTEX
  5
3FC
  8
DATA
  6
CONTINUOUS
 62
     7
 10
-11.52346105547916
 20
128.53748413000051
 30
0.0
  0
SEQEND
  5
3FD
  8
DATA
  6
CONTINUOUS
 62
     7
  0
CIRCLE
  5
288
  8
DATA
  6
CONTINUOUS
 62
     7
 10
-14.311848734605221
 20
129.28463035680721
 30
0.0
 40
1.2750000000000341
  0
LINE
  5
289
  8
DATA
  6
CONTINUOUS
 62
     7
 10
-22.161848734605179
 20
122.221779688043
 30
0.0
 11
-6.4618487346052547
 21
122.221779688043
 31
0.0
  0
LINE
  5
28A
  8
DATA
  6
CONTINUOUS
 62
     7
 10
-22.161848734605179
 20
122.221779688043
 30
0.0
 11
-22.161848734605179
 21
117.9217796880428
 31
0.0
  0
LINE
  5
28B
  8
DATA
  6
CONTINUOUS
 62
     7
 10
-6.4618487346052547
 20
122.221779688043
 30
0.0
 11
-6.4618487346052547
 21
117.9217796880428
 31
0.0
  0
LINE
  5
28C
  8
DATA
  6
CONTINUOUS
 62
     7
 10
-22.161848734605179
 20
117.9217796880428
 30
0.0
 11
-19.561848734605221
 21
116.2217796880428
 31
0.0
  0
LINE
  5
28D
  8
DATA
  6
CONTINUOUS
 62
     7
 10
-6.4618487346052547
 20
117.9217796880428
 30
0.0
 11
-9.0618487346052188
 21
116.2217796880428
 31
0.0
  0
LINE
  5
28E
  8
DATA
  6
CONTINUOUS
 62
     7
 10
-19.561848734605221
 20
116.2217796880428
 30
0.0
 11
-9.0618487346052188
 21
116.2217796880428
 31
0.0
  0
POLYLINE
  5
28F
  8
DATA
  6
CONTINUOUS
 62
     7
 66
     1
 10
0.0
 20
0.0
 30
0.0
 70
     1
  0
VERTEX
  5
3FE
  8
DATA
  6
CONTINUOUS
 62
     7
 10
-19.311848734605221
 20
119.9356165135501
 30
0.0
  0
VERTEX
  5
3FF
  8
DATA
  6
CONTINUOUS
 62
     7
 10
-9.3118487346052188
 20
119.9356165135501
 30
0.0
  0
VERTEX
  5
400
  8
DATA
  6
CONTINUOUS
 62
     7
 10
-9.3118487346052188
 20
119.4356165135501
 30
0.0
  0
VERTEX
  5
401
  8
DATA
  6
CONTINUOUS
 62
     7
 10
-19.311848734605221
 20
119.4356165135501
 30
0.0
  0
SEQEND
  5
402
  8
DATA
  6
CONTINUOUS
 62
     7
  0
TEXT
  5
296
  8
DATA
 62
     7
 10
-61.222127245581532
 20
117.9991780655255
 30
0.0
 40
3.2576822916666659
  1
4
 41
0.7
 11
-61.222127245581532
 21
121.2568603571921
 31
0.0
 73
     3
  0
TEXT
  5
297
  8
DATA
 62
     7
 10
-0.4018944909075943
 20
117.9991780655255
 30
0.0
 40
3.2576822916666659
  1
8
 41
0.7
 11
-0.4018944909075941
 21
121.2568603571921
 31
0.0
 73
     3
  0
TEXT
  5
298
  8
DATA
 62
     7
 10
-33.414606254952261
 20
108.1590195449663
 30
0.0
 40
3.2576822916666659
  1
Out
 41
0.7
 11
-33.414606254952261
 21
111.4167018366329
 31
0.0
 73
     3
  0
POLYLINE
  5
299
  8
DATA
  6
CONTINUOUS
 62
     7
 66
     1
 10
0.0
 20
0.0
 30
0.0
 70
     1
  0
VERTEX
  5
403
  8
DATA
  6
CONTINUOUS
 62
     7
 10
-30.99714622680672
 20
-10.03255405333277
 30
0.0
  0
VERTEX
  5
404
  8
DATA
  6
CONTINUOUS
 62
     7
 10
-28.20875854768072
 20
-9.2854078265260664
 30
0.0
  0
VERTEX
  5
405
  8
DATA
  6
CONTINUOUS
 62
     7
 10
-27.461612320874021
 20
-6.4970201474000637
 30
0.0
  0
VERTEX
  5
406
  8
DATA
  6
CONTINUOUS
 62
     7
 10
-29.502853773193308
 20
-4.455778695080709
 30
0.0
  0
VERTEX
  5
407
  8
DATA
  6
CONTINUOUS
 62
     7
 10
-32.291241452319312
 20
-5.2029249218874147
 30
0.0
  0
VERTEX
  5
408
  8
DATA
  6
CONTINUOUS
 62
     7
 10
-33.038387679126068
 20
-7.9913126010134752
 30
0.0
  0
SEQEND
  5
409
  8
DATA
  6
CONTINUOUS
 62
     7
  0
CIRCLE
  5
2A2
  8
DATA
  6
CONTINUOUS
 62
     7
 10
-30.250000000000011
 20
-7.2441663742067126
 30
0.0
 40
1.2750000000000341
  0
LINE
  5
2A3
  8
DATA
  6
CONTINUOUS
 62
     7
 10
-22.400000000000048
 20
-14.30701704297095
 30
0.0
 11
-38.099999999999973
 21
-14.30701704297095
 31
0.0
  0
LINE
  5
2A4
  8
DATA
  6
CONTINUOUS
 62
     7
 10
-22.400000000000048
 20
-14.30701704297095
 30
0.0
 11
-22.400000000000048
 21
-18.607017042971108
 31
0.0
  0
LINE
  5
2A5
  8
DATA
  6
CONTINUOUS
 62
     7
 10
-38.099999999999973
 20
-14.30701704297095
 30
0.0
 11
-38.099999999999973
 21
-18.607017042971108
 31
0.0
  0
LINE
  5
2A6
  8
DATA
  6
CONTINUOUS
 62
     7
 10
-22.400000000000048
 20
-18.607017042971108
 30
0.0
 11
-25.000000000000011
 21
-20.307017042971161
 31
0.0
  0
LINE
  5
2A7
  8
DATA
  6
CONTINUOUS
 62
     7
 10
-38.099999999999973
 20
-18.607017042971108
 30
0.0
 11
-35.500000000000007
 21
-20.307017042971161
 31
0.0
  0
LINE
  5
2A8
  8
DATA
  6
CONTINUOUS
 62
     7
 10
-25.000000000000011
 20
-20.307017042971161
 30
0.0
 11
-35.500000000000007
 21
-20.307017042971161
 31
0.0
  0
POLYLINE
  5
2A9
  8
DATA
  6
CONTINUOUS
 62
     7
 66
     1
 10
0.0
 20
0.0
 30
0.0
 70
     1
  0
VERTEX
  5
40A
  8
DATA
  6
CONTINUOUS
 62
     7
 10
-35.250000000000007
 20
-16.593180217463839
 30
0.0
  0
VERTEX
  5
40B
  8
DATA
  6
CONTINUOUS
 62
     7
 10
-25.250000000000011
 20
-16.593180217463839
 30
0.0
  0
VERTEX
  5
40C
  8
DATA
  6
CONTINUOUS
 62
     7
 10
-25.250000000000011
 20
-17.093180217463839
 30
0.0
  0
VERTEX
  5
40D
  8
DATA
  6
CONTINUOUS
 62
     7
 10
-35.250000000000007
 20
-17.093180217463839
 30
0.0
  0
SEQEND
  5
40E
  8
DATA
  6
CONTINUOUS
 62
     7
  0
LINE
  5
2B0
  8
DATA
  6
CONTINUOUS
 62
     7
 10
-47.950768242050323
 20
-118.09105719822411
 30
0.0
 11
-48.572196813478868
 21
-115.1910571982247
 31
0.0
  0
LINE
  5
2B1
  8
DATA
  6
CONTINUOUS
 62
     7
 10
-41.349136267744271
 20
-118.09105719822411
 30
0.0
 11
-40.727707696315697
 21
-115.1910571982247
 31
0.0
  0
LINE
  5
2B2
  8
DATA
  6
CONTINUOUS
 62
     7
 10
-41.021048420538918
 20
-114.8281984716054
 30
0.0
 11
-48.278856089255662
 21
-114.8281984716054
 31
0.0
  0
LINE
  5
2B3
  8
DATA
  6
CONTINUOUS
 62
     7
 10
-41.642476991967477
 20
-118.32819847160491
 30
0.0
 11
-47.657427517827117
 21
-118.32819847160491
 31
0.0
  0
ARC
  5
2B4
  8
DATA
  6
CONTINUOUS
 62
     7
 10
-48.278856089255662
 20
-115.1281984716054
 30
0.0
 40
0.3000000000000114
 50
90.0
 51
192.0947570770216
  0
ARC
  5
2B5
  8
DATA
  6
CONTINUOUS
 62
     7
 10
-41.021048420538953
 20
-115.1281984716054
 30
0.0
 40
0.3000000000000289
 50
347.9052429229796
 51
89.999999999994543
  0
ARC
  5
2B6
  8
DATA
  6
CONTINUOUS
 62
     7
 10
-47.657427517827131
 20
-118.0281984716049
 30
0.0
 40
0.2999999999999615
 50
192.0947570770121
 51
270.0000000000054
  0
ARC
  5
2B7
  8
DATA
  6
CONTINUOUS
 62
     7
 10
-41.642476991967477
 20
-118.0281984716049
 30
0.0
 40
0.3000000000000114
 50
270.0
 51
347.90524292298898
  0
LINE
  5
2B8
  8
DATA
  6
CONTINUOUS
 62
     7
 10
-48.452786430373749
 20
-100.25
 30
0.0
 11
-43.776249249937841
 21
-100.25
 31
0.0
  0
LINE
  5
2B9
  8
DATA
  6
CONTINUOUS
 62
     7
 10
-32.45278643037377
 20
-100.25
 30
0.0
 11
-27.776249249937859
 21
-100.25
 31
0.0
  0
LINE
  5
2BA
  8
DATA
  6
CONTINUOUS
 62
     7
 10
-16.452786430373759
 20
-100.25
 30
0.0
 11
-11.776249249937839
 21
-100.25
 31
0.0
  0
LINE
  5
2BB
  8
DATA
  6
CONTINUOUS
 62
     7
 10
-43.776249249937841
 20
-100.25
 30
0.0
 11
-43.776249249937841
 21
-106.25
 31
0.0
  0
LINE
  5
2BC
  8
DATA
  6
CONTINUOUS
 62
     7
 10
-48.452786430373749
 20
-100.25
 30
0.0
 11
-48.452786430373749
 21
-106.25
 31
0.0
  0
LINE
  5
2BD
  8
DATA
  6
CONTINUOUS
 62
     7
 10
-11.776249249937839
 20
-100.25
 30
0.0
 11
-11.776249249937839
 21
-106.25
 31
0.0
  0
LINE
  5
2BE
  8
DATA
  6
CONTINUOUS
 62
     7
 10
-16.452786430373759
 20
-100.25
 30
0.0
 11
-16.452786430373759
 21
-106.25
 31
0.0
  0
LINE
  5
2BF
  8
DATA
  6
CONTINUOUS
 62
     7
 10
-61.338694603269147
 20
35.732030594501779
 30
0.0
 11
-61.338694603269147
 21
41.232030594501772
 31
0.0
  0
LINE
  5
2C0
  8
DATA
  6
CONTINUOUS
 62
     7
 10
-56.338694603269147
 20
35.732030594501779
 30
0.0
 11
-56.338694603269147
 21
41.232030594501772
 31
0.0
  0
LINE
  5
2C1
  8
DATA
  6
CONTINUOUS
 62
     7
 10
-61.338694603269147
 20
35.732030594501779
 30
0.0
 11
-56.338694603269147
 21
35.732030594501779
 31
0.0
  0
LINE
  5
2C2
  8
DATA
  6
CONTINUOUS
 62
     7
 10
-61.338694603269147
 20
41.232030594501772
 30
0.0
 11
-56.338694603269147
 21
41.232030594501772
 31
0.0
  0
TEXT
  5
2C3
  8
DATA
 62
     7
 10
-53.509782032022422
 20
39.736364784765428
 30
0.0
 40
2.198935546875
  1
Fast
 41
0.7
 11
-53.509782032022422
 21
41.935300331640427
 31
0.0
 73
     3
  0
TEXT
  5
2C4
  8
DATA
 62
     7
 10
-53.509782032022422
 20
35.468874825595641
 30
0.0
 40
2.198935546875
  1
Slow
 41
0.7
 11
-53.509782032022422
 21
37.66781037247064
 31
0.0
 73
     3
  0
LINE
  5
2C5
  8
DATA
  6
CONTINUOUS
 62
     7
 10
-60.838694603269161
 20
38.682030594501768
 30
0.0
 11
-60.838694603269161
 21
40.682030594501768
 31
0.0
  0
LINE
  5
2C6
  8
DATA
  6
CONTINUOUS
 62
     7
 10
-56.838694603269147
 20
38.682030594501768
 30
0.0
 11
-60.838694603269161
 21
38.682030594501768
 31
0.0
  0
LINE
  5
2C7
  8
DATA
  6
CONTINUOUS
 62
     7
 10
-56.838694603269147
 20
40.682030594501768
 30
0.0
 11
-56.838694603269147
 21
38.682030594501768
 31
0.0
  0
LINE
  5
2C8
  8
DATA
  6
CONTINUOUS
 62
     7
 10
-60.838694603269161
 20
40.682030594501768
 30
0.0
 11
-56.838694603269147
 21
40.682030594501768
 31
0.0
  0
LINE
  5
2C9
  8
DATA
  6
CONTINUOUS
 62
     7
 10
-61.338694603269147
 20
15.732030594501779
 30
0.0
 11
-61.338694603269147
 21
21.232030594501779
 31
0.0
  0
LINE
  5
2CA
  8
DATA
  6
CONTINUOUS
 62
     7
 10
-56.338694603269147
 20
15.732030594501779
 30
0.0
 11
-56.338694603269147
 21
21.232030594501779
 31
0.0
  0
LINE
  5
2CB
  8
DATA
  6
CONTINUOUS
 62
     7
 10
-61.338694603269147
 20
15.732030594501779
 30
0.0
 11
-56.338694603269147
 21
15.732030594501779
 31
0.0
  0
LINE
  5
2CC
  8
DATA
  6
CONTINUOUS
 62
     7
 10
-61.338694603269147
 20
21.232030594501779
 30
0.0
 11
-56.338694603269147
 21
21.232030594501779
 31
0.0
  0
TEXT
  5
2CD
  8
DATA
 62
     7
 10
-53.509782032022422
 20
19.736364784765421
 30
0.0
 40
2.198935546875
  1
2CH
 41
0.7
 11
-53.509782032022422
 21
21.93530033164042
 31
0.0
 73
     3
  0
TEXT
  5
2CE
  8
DATA
 62
     7
 10
-53.509782032022422
 20
15.468874825595639
 30
0.0
 40
2.198935546875
  1
Multi CH
 41
0.7
 11
-53.509782032022422
 21
17.66781037247064
 31
0.0
 73
     3
  0
LINE
  5
2CF
  8
DATA
  6
CONTINUOUS
 62
     7
 10
-60.838694603269161
 20
18.682030594501761
 30
0.0
 11
-60.838694603269161
 21
20.682030594501761
 31
0.0
  0
LINE
  5
2D0
  8
DATA
  6
CONTINUOUS
 62
     7
 10
-56.838694603269147
 20
18.682030594501761
 30
0.0
 11
-60.838694603269161
 21
18.682030594501761
 31
0.0
  0
LINE
  5
2D1
  8
DATA
  6
CONTINUOUS
 62
     7
 10
-56.838694603269147
 20
20.682030594501761
 30
0.0
 11
-56.838694603269147
 21
18.682030594501761
 31
0.0
  0
LINE
  5
2D2
  8
DATA
  6
CONTINUOUS
 62
     7
 10
-60.838694603269161
 20
20.682030594501761
 30
0.0
 11
-56.838694603269147
 21
20.682030594501761
 31
0.0
  0
LINE
  5
2D3
  8
DATA
  6
CONTINUOUS
 62
     7
 10
-61.338694603269147
 20
-4.2679694054982074
 30
0.0
 11
-61.338694603269147
 21
1.2320305945017931
 31
0.0
  0
LINE
  5
2D4
  8
DATA
  6
CONTINUOUS
 62
     7
 10
-56.338694603269147
 20
-4.2679694054982074
 30
0.0
 11
-56.338694603269147
 21
1.2320305945017931
 31
0.0
  0
LINE
  5
2D5
  8
DATA
  6
CONTINUOUS
 62
     7
 10
-61.338694603269147
 20
-4.2679694054982074
 30
0.0
 11
-56.338694603269147
 21
-4.2679694054982074
 31
0.0
  0
LINE
  5
2D6
  8
DATA
  6
CONTINUOUS
 62
     7
 10
-61.338694603269147
 20
1.2320305945017931
 30
0.0
 11
-56.338694603269147
 21
1.2320305945017931
 31
0.0
  0
TEXT
  5
2D7
  8
DATA
 62
     7
 10
-53.509782032022422
 20
-0.263635215234566
 30
0.0
 40
2.198935546875
  1
Int
 41
0.7
 11
-53.509782032022422
 21
1.935300331640434
 31
0.0
 73
     3
  0
TEXT
  5
2D8
  8
DATA
 62
     7
 10
-53.509782032022422
 20
-5.37509931911422
 30
0.0
 40
2.198935546875
  1
Ext
 41
0.7
 11
-53.509782032022422
 21
-3.17616377223922
 31
0.0
 73
     3
  0
LINE
  5
2D9
  8
DATA
  6
CONTINUOUS
 62
     7
 10
-60.838694603269161
 20
-1.317969405498217
 30
0.0
 11
-60.838694603269161
 21
0.6820305945017822
 31
0.0
  0
LINE
  5
2DA
  8
DATA
  6
CONTINUOUS
 62
     7
 10
-56.838694603269147
 20
-1.317969405498217
 30
0.0
 11
-60.838694603269161
 21
-1.317969405498217
 31
0.0
  0
LINE
  5
2DB
  8
DATA
  6
CONTINUOUS
 62
     7
 10
-56.838694603269147
 20
0.6820305945017822
 30
0.0
 11
-56.838694603269147
 21
-1.317969405498217
 31
0.0
  0
LINE
  5
2DC
  8
DATA
  6
CONTINUOUS
 62
     7
 10
-60.838694603269161
 20
0.6820305945017822
 30
0.0
 11
-56.838694603269147
 21
0.6820305945017822
 31
0.0
  0
TEXT
  5
2DD
  8
DATA
 62
     7
 10
-62.201127981647332
 20
11.02437758349889
 30
0.0
 40
2.198935546875
  1
Audio
 41
0.7
 11
-62.201127981647332
 21
13.22331313037389
 31
0.0
 73
     3
  0
TEXT
  5
2DE
  8
DATA
 62
     7
 10
-62.337049078568171
 20
-8.8579578640310004
 30
0.0
 40
2.198935546875
  1
EDID
 41
0.7
 11
-62.337049078568171
 21
-6.6590223171560012
 31
0.0
 73
     3
  0
LINE
  5
2DF
  8
DATA
  6
CONTINUOUS
 62
     7
 10
-56.838694603269147
 20
-104.25
 30
0.0
 11
-60.838694603269161
 21
-104.25
 31
0.0
  0
LINE
  5
2E0
  8
DATA
  6
CONTINUOUS
 62
     7
 10
-60.838694603269161
 20
-104.25
 30
0.0
 11
-60.838694603269161
 21
-106.25
 31
0.0
  0
LINE
  5
2E1
  8
DATA
  6
CONTINUOUS
 62
     7
 10
-56.838694603269147
 20
-104.25
 30
0.0
 11
-56.838694603269147
 21
-106.25
 31
0.0
  0
LINE
  5
2E2
  8
DATA
  6
CONTINUOUS
 62
     7
 10
310.7449500164268
 20
-100.25
 30
0.0
 11
305.16495001642681
 21
-100.25
 31
0.0
  0
LINE
  5
2E3
  8
DATA
  6
CONTINUOUS
 62
     7
 10
285.16495001642681
 20
-106.25
 30
0.0
 11
285.16495001642681
 21
-100.25
 31
0.0
  0
LINE
  5
2E4
  8
DATA
  6
CONTINUOUS
 62
     7
 10
290.74495001642669
 20
-100.25
 30
0.0
 11
290.74495001642669
 21
-106.25
 31
0.0
  0
LINE
  5
2E5
  8
DATA
  6
CONTINUOUS
 62
     7
 10
290.74495001642669
 20
-100.25
 30
0.0
 11
285.16495001642681
 21
-100.25
 31
0.0
  0
LINE
  5
2E6
  8
DATA
  6
CONTINUOUS
 62
     7
 10
265.16495001642681
 20
-106.25
 30
0.0
 11
265.16495001642681
 21
-100.25
 31
0.0
  0
LINE
  5
2E7
  8
DATA
  6
CONTINUOUS
 62
     7
 10
270.74495001642669
 20
-100.25
 30
0.0
 11
270.74495001642669
 21
-106.25
 31
0.0
  0
LINE
  5
2E8
  8
DATA
  6
CONTINUOUS
 62
     7
 10
270.74495001642669
 20
-100.25
 30
0.0
 11
265.16495001642681
 21
-100.25
 31
0.0
  0
LINE
  5
2E9
  8
DATA
  6
CONTINUOUS
 62
     7
 10
245.16495001642679
 20
-106.25
 30
0.0
 11
245.16495001642679
 21
-100.25
 31
0.0
  0
LINE
  5
2EA
  8
DATA
  6
CONTINUOUS
 62
     7
 10
250.7449500164268
 20
-100.25
 30
0.0
 11
250.7449500164268
 21
-106.25
 31
0.0
  0
LINE
  5
2EB
  8
DATA
  6
CONTINUOUS
 62
     7
 10
250.7449500164268
 20
-100.25
 30
0.0
 11
245.16495001642679
 21
-100.25
 31
0.0
  0
LINE
  5
2EC
  8
DATA
  6
CONTINUOUS
 62
     7
 10
108.68652589071721
 20
-106.25
 30
0.0
 11
108.68652589071721
 21
-100.25
 31
0.0
  0
LINE
  5
2ED
  8
DATA
  6
CONTINUOUS
 62
     7
 10
114.2665258907172
 20
-100.25
 30
0.0
 11
114.2665258907172
 21
-104.8663847583848
 31
0.0
  0
LINE
  5
2EE
  8
DATA
  6
CONTINUOUS
 62
     7
 10
114.2665258907172
 20
-100.25
 30
0.0
 11
108.68652589071721
 21
-100.25
 31
0.0
  0
LINE
  5
2EF
  8
DATA
  6
CONTINUOUS
 62
     7
 10
-48.988485751401939
 20
218.99999999983851
 30
0.0
 11
-43.411710393149882
 21
218.99999999983851
 31
0.0
  0
LINE
  5
2F0
  8
DATA
  6
CONTINUOUS
 62
     7
 10
-17.09476299229247
 20
218.99999999983851
 30
0.0
 11
-11.5179876340404
 21
218.99999999983851
 31
0.0
  0
LINE
  5
2F1
  8
DATA
  6
CONTINUOUS
 62
     7
 10
-33.143054094102233
 20
218.99999999983851
 30
0.0
 11
-33.143054094102233
 21
224.99999999983851
 31
0.0
  0
LINE
  5
2F2
  8
DATA
  6
CONTINUOUS
 62
     7
 10
-27.566278735850162
 20
218.99999999983851
 30
0.0
 11
-27.566278735850162
 21
224.99999999983851
 31
0.0
  0
LINE
  5
2F3
  8
DATA
  6
CONTINUOUS
 62
     7
 10
-33.143054094102233
 20
218.99999999983851
 30
0.0
 11
-27.566278735850162
 21
218.99999999983851
 31
0.0
  0
LINE
  5
2F4
  8
DATA
  6
CONTINUOUS
 62
     7
 10
-56.838694603269147
 20
222.99999999983851
 30
0.0
 11
-60.838694603269161
 21
222.99999999983851
 31
0.0
  0
LINE
  5
2F5
  8
DATA
  6
CONTINUOUS
 62
     7
 10
-60.838694603269161
 20
222.99999999983851
 30
0.0
 11
-60.838694603269161
 21
224.99999999983851
 31
0.0
  0
LINE
  5
2F6
  8
DATA
  6
CONTINUOUS
 62
     7
 10
-56.838694603269147
 20
222.99999999983851
 30
0.0
 11
-56.838694603269147
 21
224.99999999983851
 31
0.0
  0
ARC
  5
2F7
  8
DATA
  6
CONTINUOUS
 62
     7
 10
-1.752815044685903
 20
225.1289841117889
 30
0.0
 40
1.4000000000000099
 50
185.2862431250897
 51
354.7137568749103
  0
LINE
  5
2F8
  8
DATA
  6
CONTINUOUS
 62
     7
 10
117.5
 20
-106.25
 30
0.0
 11
117.5
 21
-104.25
 31
0.0
  0
LINE
  5
2F9
  8
DATA
  6
CONTINUOUS
 62
     7
 10
119.5
 20
-106.25
 30
0.0
 11
119.5
 21
-104.25
 31
0.0
  0
LINE
  5
2FA
  8
DATA
  6
CONTINUOUS
 62
     7
 10
117.5
 20
-104.25
 30
0.0
 11
119.5
 21
-104.25
 31
0.0
  0
LINE
  5
2FB
  8
DATA
  6
CONTINUOUS
 62
     7
 10
137.5
 20
-106.25
 30
0.0
 11
137.5
 21
-104.25
 31
0.0
  0
LINE
  5
2FC
  8
DATA
  6
CONTINUOUS
 62
     7
 10
139.5
 20
-106.25
 30
0.0
 11
139.5
 21
-104.25
 31
0.0
  0
LINE
  5
2FD
  8
DATA
  6
CONTINUOUS
 62
     7
 10
137.5
 20
-104.25
 30
0.0
 11
139.5
 21
-104.25
 31
0.0
  0
LINE
  5
2FE
  8
DATA
  6
CONTINUOUS
 62
     7
 10
157.5
 20
-106.25
 30
0.0
 11
157.5
 21
-104.25
 31
0.0
  0
LINE
  5
2FF
  8
DATA
  6
CONTINUOUS
 62
     7
 10
159.5
 20
-106.25
 30
0.0
 11
159.5
 21
-104.25
 31
0.0
  0
LINE
  5
300
  8
DATA
  6
CONTINUOUS
 62
     7
 10
157.5
 20
-104.25
 30
0.0
 11
159.5
 21
-104.25
 31
0.0
  0
ENDSEC
  0
EOF
