  0
SECTION
  2
HEADER
  9
$ACADVER
  1
AC1009
  9
$INSBASE
 10
0.0
 20
0.0
 30
0.0
  9
$EXTMIN
 10
-260.02197097989512
 20
-399.81990221444488
 30
-0.0015258207003583
  9
$EXTMAX
 10
468.48144699875411
 20
670.63354716014874
 30
0.0000000349246037
  9
$LIMMIN
 10
0.0
 20
0.0
  9
$LIMMAX
 10
0.0
 20
0.0
  9
$ORTHOMODE
 70
     0
  9
$REGENMODE
 70
     1
  9
$FILLMODE
 70
     1
  9
$QTEXTMODE
 70
     0
  9
$MIRRTEXT
 70
     1
  9
$DRAGMODE
 70
     2
  9
$LTSCALE
 40
20.32
  9
$OSMODE
 70
   231
  9
$ATTMODE
 70
     1
  9
$TEXTSIZE
 40
0.0
  9
$TRACEWID
 40
1.0
  9
$TEXTSTYLE
  7
STANDARD
  9
$CLAYER
  8
DATA
  9
$CELTYPE
  6
BYLAYER
  9
$CECOLOR
 62
   256
  9
$DIMSCALE
 40
1.0
  9
$DIMASZ
 40
0.18
  9
$DIMEXO
 40
0.0625
  9
$DIMDLI
 40
0.38
  9
$DIMRND
 40
0.0
  9
$DIMDLE
 40
0.0
  9
$DIMEXE
 40
0.18
  9
$DIMTP
 40
0.0
  9
$DIMTM
 40
0.0
  9
$DIMTXT
 40
0.18
  9
$DIMCEN
 40
0.09
  9
$DIMTSZ
 40
0.0
  9
$DIMTOL
 70
     0
  9
$DIMLIM
 70
     0
  9
$DIMTIH
 70
     1
  9
$DIMTOH
 70
     1
  9
$DIMSE1
 70
     0
  9
$DIMSE2
 70
     0
  9
$DIMTAD
 70
     0
  9
$DIMZIN
 70
     0
  9
$DIMBLK
  1

  9
$DIMASO
 70
     1
  9
$DIMSHO
 70
     1
  9
$DIMPOST
  1

  9
$DIMAPOST
  1

  9
$DIMALT
 70
     0
  9
$DIMALTD
 70
     2
  9
$DIMALTF
 40
25.399999999999999
  9
$DIMLFAC
 40
1.0
  9
$DIMTOFL
 70
     0
  9
$DIMTVP
 40
0.0
  9
$DIMTIX
 70
     0
  9
$DIMSOXD
 70
     0
  9
$DIMSAH
 70
     0
  9
$DIMBLK1
  1

  9
$DIMBLK2
  1

  9
$DIMSTYLE
  2
STANDARD
  9
$DIMCLRD
 70
     0
  9
$DIMCLRE
 70
     0
  9
$DIMCLRT
 70
     0
  9
$DIMTFAC
 40
1.0
  9
$DIMGAP
 40
0.09
  9
$LUNITS
 70
     2
  9
$LUPREC
 70
     4
  9
$SKETCHINC
 40
0.1
  9
$FILLETRAD
 40
0.0
  9
$AUNITS
 70
     0
  9
$AUPREC
 70
     0
  9
$MENU
  1
acad
  9
$ELEVATION
 40
0.0
  9
$PELEVATION
 40
0.0
  9
$THICKNESS
 40
0.0
  9
$LIMCHECK
 70
     0
  9
$BLIPMODE
 70
     0
  9
$CHAMFERA
 40
0.0
  9
$CHAMFERB
 40
0.0
  9
$SKPOLY
 70
     0
  9
$TDCREATE
 40
2455834.560763889
  9
$TDUPDATE
 40
2455834.567965996
  9
$TDINDWG
 40
0.0002739352
  9
$TDUSRTIMER
 40
0.0002737616
  9
$USRTIMER
 70
     1
  9
$ANGBASE
 50
0.0
  9
$ANGDIR
 70
     0
  9
$PDMODE
 70
     1
  9
$PDSIZE
 40
-2.0
  9
$PLINEWID
 40
0.0
  9
$COORDS
 70
     1
  9
$SPLFRAME
 70
     0
  9
$SPLINETYPE
 70
     6
  9
$SPLINESEGS
 70
     8
  9
$ATTDIA
 70
     0
  9
$ATTREQ
 70
     1
  9
$HANDLING
 70
     1
  9
$HANDSEED
  5
4F0
  9
$SURFTAB1
 70
     6
  9
$SURFTAB2
 70
     6
  9
$SURFTYPE
 70
     6
  9
$SURFU
 70
     6
  9
$SURFV
 70
     6
  9
$UCSNAME
  2

  9
$UCSORG
 10
0.0
 20
0.0
 30
0.0
  9
$UCSXDIR
 10
1.0
 20
0.0
 30
0.0
  9
$UCSYDIR
 10
0.0
 20
1.0
 30
0.0
  9
$PUCSNAME
  2

  9
$PUCSORG
 10
0.0
 20
0.0
 30
0.0
  9
$PUCSXDIR
 10
1.0
 20
0.0
 30
0.0
  9
$PUCSYDIR
 10
0.0
 20
1.0
 30
0.0
  9
$USERI1
 70
     0
  9
$USERI2
 70
     0
  9
$USERI3
 70
     0
  9
$USERI4
 70
     0
  9
$USERI5
 70
     0
  9
$USERR1
 40
0.0
  9
$USERR2
 40
0.0
  9
$USERR3
 40
0.0
  9
$USERR4
 40
0.0
  9
$USERR5
 40
0.0
  9
$WORLDVIEW
 70
     1
  9
$SHADEDGE
 70
     3
  9
$SHADEDIF
 70
    70
  9
$TILEMODE
 70
     1
  9
$MAXACTVP
 70
    64
  9
$PLIMCHECK
 70
     0
  9
$PEXTMIN
 10
1.0000000000000000E+020
 20
1.0000000000000000E+020
 30
1.0000000000000000E+020
  9
$PEXTMAX
 10
-1.0000000000000000E+020
 20
-1.0000000000000000E+020
 30
-1.0000000000000000E+020
  9
$PLIMMIN
 10
0.0
 20
0.0
  9
$PLIMMAX
 10
12.0
 20
9.0
  9
$UNITMODE
 70
     0
  9
$VISRETAIN
 70
     0
  9
$PLINEGEN
 70
     1
  9
$PSLTSCALE
 70
     0
  0
ENDSEC
  0
SECTION
  2
TABLES
  0
TABLE
  2
VPORT
 70
     1
  0
VPORT
  2
*ACTIVE
 70
     0
 10
0.0
 20
0.0
 11
1.0
 21
1.0
 12
104.2297380094295
 22
135.4068224728519
 13
0.0
 23
0.0
 14
1.0
 24
1.0
 15
0.0
 25
0.0
 16
0.0
 26
0.0
 36
1.0
 17
0.0
 27
0.0
 37
0.0
 40
1078.3340882656951
 41
1.9619164619164611
 42
50.0
 43
0.0
 44
0.0
 50
0.0
 51
0.0
 71
     0
 72
  2000
 73
     1
 74
     1
 75
     0
 76
     0
 77
     0
 78
     0
  0
ENDTAB
  0
TABLE
  2
LTYPE
 70
    11
  0
LTYPE
  2
CONTINUOUS
 70
     0
  3
Solid line
 72
    65
 73
     0
 40
0.0
  0
ENDTAB
  0
TABLE
  2
LAYER
 70
     5
  0
LAYER
  2
0
 70
     0
 62
     7
  6
CONTINUOUS
  0
LAYER
  2
DATA
 70
     0
 62
     7
  6
CONTINUOUS
  0
LAYER
  2
HIBINO-BASE
 70
     0
 62
     7
  6
CONTINUOUS
  0
LAYER
  2
SPEC
 70
     0
 62
     7
  6
CONTINUOUS
  0
LAYER
  2
DIMNSIONS
 70
     0
 62
     7
  6
CONTINUOUS
  0
ENDTAB
  0
TABLE
  2
STYLE
 70
     3
  0
STYLE
  2
STANDARD
 70
     0
 40
0.0
 41
1.0
 50
0.0
 71
     0
 42
0.0
  3
txt
  4
BIGFONT.SHX
  0
ENDTAB
  0
TABLE
  2
VIEW
 70
     0
  0
ENDTAB
  0
TABLE
  2
UCS
 70
     0
  0
ENDTAB
  0
TABLE
  2
APPID
 70
     4
  0
APPID
  2
ACAD
 70
     0
  0
APPID
  2
ACADANNOTATIVE
 70
     0
  0
APPID
  2
ACAD_NAV_VCDISPLAY
 70
     0
  0
APPID
  2
ACAD_MLEADERVER
 70
     0
  0
ENDTAB
  0
TABLE
  2
DIMSTYLE
 70
     2
  0
DIMSTYLE
  2
STANDARD
 70
     0
  3

  4

  5

  6

  7

 40
1.0
 41
0.18
 42
0.0625
 43
0.38
 44
0.18
 45
0.0
 46
0.0
 47
0.0
 48
0.0
140
0.18
141
0.09
142
0.0
143
25.399999999999999
144
1.0
145
0.0
146
1.0
147
0.09
 71
     0
 72
     0
 73
     1
 74
     1
 75
     0
 76
     0
 77
     0
 78
     0
170
     0
171
     2
172
     0
173
     0
174
     0
175
     0
176
     0
177
     0
178
     0
  0
ENDTAB
  0
ENDSEC
  0
SECTION
  2
BLOCKS
  0
BLOCK
  8
0
  2
$MODEL_SPACE
 70
     0
 10
0.0
 20
0.0
 30
0.0
  3
$MODEL_SPACE
  1

  0
ENDBLK
  5
408
  8
0
  0
BLOCK
 67
     1
  8
0
  2
$PAPER_SPACE
 70
     0
 10
0.0
 20
0.0
 30
0.0
  3
$PAPER_SPACE
  1

  0
ENDBLK
  5
404
 67
     1
  8
0
  0
ENDSEC
  0
SECTION
  2
ENTITIES
  0
LINE
  5
2C
  8
HIBINO-BASE
  6
CONTINUOUS
 62
     7
 10
-260.0
 20
670.60094368459761
 30
0.0
 11
460.0
 21
670.60094368459761
 31
0.0
  0
LINE
  5
2D
  8
HIBINO-BASE
  6
CONTINUOUS
 62
     7
 10
460.0
 20
-369.39905631540228
 30
0.0
 11
-260.0
 21
-369.39905631540228
 31
0.0
  0
LINE
  5
2E
  8
HIBINO-BASE
  6
CONTINUOUS
 62
     7
 10
-260.0
 20
-369.39905631540228
 30
0.0
 11
-260.0
 21
670.60094368459761
 31
0.0
  0
LINE
  5
2F
  8
HIBINO-BASE
  6
CONTINUOUS
 62
     7
 10
460.0
 20
670.60094368459761
 30
0.0
 11
460.0
 21
-369.39905631540228
 31
0.0
  0
LINE
  5
30
  8
HIBINO-BASE
  6
CONTINUOUS
 62
     7
 10
100.0
 20
-279.39905631540228
 30
0.0
 11
460.0
 21
-279.39905631540228
 31
0.0
  0
LINE
  5
31
  8
HIBINO-BASE
  6
CONTINUOUS
 62
     7
 10
100.0
 20
-369.39905631540228
 30
0.0
 11
100.0
 21
-279.39905631540228
 31
0.0
  0
TEXT
  5
32
  8
HIBINO-BASE
 62
     7
 10
103.59999999999999
 20
-289.43382964873558
 30
0.0
 40
6.5153645833333318
  1
NOTE
 41
0.7
 11
103.59999999999999
 21
-282.91846506540219
 31
0.0
 73
     3
  0
LINE
  5
33
  8
HIBINO-BASE
  6
CONTINUOUS
 62
     7
 10
240.0
 20
-369.39905631540228
 30
0.0
 11
240.0
 21
-279.39905631540228
 31
0.0
  0
TEXT
  5
34
  8
HIBINO-BASE
 62
     7
 10
243.59999999999999
 20
-289.43382964873558
 30
0.0
 40
6.5153645833333318
  1
TITLE
 41
0.7
 11
243.59999999999999
 21
-282.91846506540219
 31
0.0
 73
     3
  0
LINE
  5
35
  8
HIBINO-BASE
  6
CONTINUOUS
 62
     7
 10
100.0
 20
-329.39905631540228
 30
0.0
 11
460.0
 21
-329.39905631540228
 31
0.0
  0
TEXT
  5
36
  8
HIBINO-BASE
 62
     7
 10
293.60000000000002
 20
-339.20854964873558
 30
0.0
 40
6.5153645833333318
  1
DRAWN
 41
0.7
 11
293.60000000000002
 21
-332.69318506540219
 31
0.0
 73
     3
  0
TEXT
  5
37
  8
HIBINO-BASE
 62
     7
 10
193.59999999999999
 20
-339.20854964873558
 30
0.0
 40
6.5153645833333318
  1
DATE
 41
0.7
 11
193.59999999999999
 21
-332.69318506540219
 31
0.0
 73
     3
  0
TEXT
  5
38
  8
HIBINO-BASE
 62
     7
 10
153.59999999999991
 20
-339.20854964873558
 30
0.0
 40
6.5153645833333318
  1
SCALE
 41
0.7
 11
153.59999999999991
 21
-332.69318506540219
 31
0.0
 73
     3
  0
TEXT
  5
39
  8
HIBINO-BASE
 62
     7
 10
243.59999999999999
 20
-339.20854964873558
 30
0.0
 40
6.5153645833333318
  1
DESIGN
 41
0.7
 11
243.59999999999999
 21
-332.69318506540219
 31
0.0
 73
     3
  0
TEXT
  5
3A
  8
HIBINO-BASE
 62
     7
 10
393.60000000000002
 20
-339.20854964873558
 30
0.0
 40
6.5153645833333318
  1
DRAWING NO.
 41
0.7
 11
393.60000000000002
 21
-332.69318506540219
 31
0.0
 73
     3
  0
TEXT
  5
3B
  8
HIBINO-BASE
 62
     7
 10
343.60000000000002
 20
-339.20854964873558
 30
0.0
 40
6.5153645833333318
  1
CHECK
 41
0.7
 11
343.60000000000002
 21
-332.69318506540219
 31
0.0
 73
     3
  0
LINE
  5
3C
  8
HIBINO-BASE
  6
CONTINUOUS
 62
     7
 10
157.5
 20
-364.39905631540228
 30
0.0
 11
172.5
 21
-349.39905631540222
 31
0.0
  0
TEXT
  5
3D
  8
HIBINO-BASE
 62
     7
 10
155.0
 20
-353.83482964873559
 30
0.0
 40
6.5153645833333318
  1
1
 41
0.7
 11
155.0
 21
-347.3194650654022
 31
0.0
 73
     3
  0
LINE
  5
3E
  8
HIBINO-BASE
  6
CONTINUOUS
 62
     7
 10
150.0
 20
-369.39905631540228
 30
0.0
 11
150.0
 21
-329.39905631540228
 31
0.0
  0
LINE
  5
3F
  8
HIBINO-BASE
  6
CONTINUOUS
 62
     7
 10
190.0
 20
-369.39905631540228
 30
0.0
 11
190.0
 21
-329.39905631540228
 31
0.0
  0
LINE
  5
40
  8
HIBINO-BASE
  6
CONTINUOUS
 62
     7
 10
290.0
 20
-329.39905631540228
 30
0.0
 11
290.0
 21
-369.39905631540228
 31
0.0
  0
LINE
  5
41
  8
HIBINO-BASE
  6
CONTINUOUS
 62
     7
 10
390.0
 20
-329.39905631540228
 30
0.0
 11
390.0
 21
-369.39905631540228
 31
0.0
  0
LINE
  5
42
  8
HIBINO-BASE
  6
CONTINUOUS
 62
     7
 10
339.99999999999989
 20
-369.39905631540228
 30
0.0
 11
339.99999999999989
 21
-329.39905631540228
 31
0.0
  0
TEXT
  5
43
  8
HIBINO-BASE
 62
     7
 10
193.42616000000001
 20
-357.94446964873549
 30
0.0
 40
6.5153645833333318
  1
'11.09.
 41
0.7
 11
193.42616000000001
 21
-351.42910506540221
 31
0.0
 73
     3
  0
TEXT
  5
44
  8
HIBINO-BASE
 62
     7
 10
170.0
 20
-361.33482964873548
 30
0.0
 40
6.5153645833333318
  1
4
 41
0.7
 11
170.0
 21
-354.8194650654022
 31
0.0
 73
     3
  0
TEXT
  5
45
  8
HIBINO-BASE
 62
     7
 10
296.0232400441385
 20
-357.94446964873549
 30
0.0
 40
6.5153645833333318
  1
T.Ootake
 41
0.7
 11
296.0232400441385
 21
-351.42910506540221
 31
0.0
 73
     3
  0
TEXT
  5
46
  8
HIBINO-BASE
 62
     7
 10
115.5333333333334
 20
-361.49505631540228
 30
0.0
 40
13.03072916666666
  1
A4
 41
0.7
 11
115.5333333333334
 21
-348.46432714873561
 31
0.0
 73
     3
  0
TEXT
  5
47
  8
HIBINO-BASE
 62
     7
 10
103.8333333333333
 20
-339.87687631540223
 30
0.0
 40
6.5153645833333318
  1
PAPER SIZE
 41
0.7
 11
103.8333333333333
 21
-333.36151173206889
 31
0.0
 73
     3
  0
TEXT
  5
48
  8
HIBINO-BASE
 62
     7
 10
-248.9614589724392
 20
-395.10001725210731
 30
0.0
 40
14.116623263888879
  1
Hibino-Intersound Corporation
 41
0.7
 11
-248.9614589724392
 21
-380.98339398821838
 31
0.0
 73
     3
  0
TEXT
  5
49
  8
HIBINO-BASE
 62
     7
 10
180.72243872085559
 20
-393.69566423894958
 30
0.0
 40
14.116623263888879
  1
ヒビノインターサウンド株式会社
 41
0.7
 11
180.72243872085559
 21
-379.57904097506071
 31
0.0
 73
     3
  0
LINE
  5
4A
  8
SPEC
  6
CONTINUOUS
 62
     7
 10
-230.0
 20
630.6009436845975
 30
0.0
 11
360.0
 21
630.6009436845975
 31
0.0
  0
LINE
  5
4B
  8
SPEC
  6
CONTINUOUS
 62
     7
 10
-230.0
 20
615.60094368459761
 30
0.0
 11
360.0
 21
615.60094368459761
 31
0.0
  0
LINE
  5
4C
  8
SPEC
  6
CONTINUOUS
 62
     7
 10
-230.0
 20
585.60094368459761
 30
0.0
 11
360.0
 21
585.60094368459761
 31
0.0
  0
LINE
  5
4D
  8
SPEC
  6
CONTINUOUS
 62
     7
 10
-230.0
 20
600.6009436845975
 30
0.0
 11
360.0
 21
600.6009436845975
 31
0.0
  0
LINE
  5
4E
  8
SPEC
  6
CONTINUOUS
 62
     7
 10
-230.0
 20
630.6009436845975
 30
0.0
 11
-230.0
 21
420.60094368459772
 31
0.0
  0
TEXT
  5
4F
  8
SPEC
 62
     7
 10
-225.0
 20
636.1740236845975
 30
0.0
 40
9.7730468750000004
  1
仕様
 41
0.7
 11
-225.0
 21
645.94707055959748
 31
0.0
 73
     3
  0
LINE
  5
50
  8
SPEC
  6
CONTINUOUS
 62
     7
 10
360.0
 20
630.6009436845975
 30
0.0
 11
360.0
 21
420.60094368459772
 31
0.0
  0
LINE
  5
51
  8
SPEC
  6
CONTINUOUS
 62
     7
 10
-230.0
 20
570.60094368459761
 30
0.0
 11
360.0
 21
570.60094368459761
 31
0.0
  0
LINE
  5
52
  8
SPEC
  6
CONTINUOUS
 62
     7
 10
-230.0
 20
555.60094368459772
 30
0.0
 11
360.0
 21
555.60094368459772
 31
0.0
  0
LINE
  5
53
  8
SPEC
  6
CONTINUOUS
 62
     7
 10
-230.0
 20
540.60094368459772
 30
0.0
 11
360.0
 21
540.60094368459772
 31
0.0
  0
LINE
  5
54
  8
SPEC
  6
CONTINUOUS
 62
     7
 10
-230.0
 20
525.60094368459772
 30
0.0
 11
360.0
 21
525.60094368459772
 31
0.0
  0
LINE
  5
55
  8
SPEC
  6
CONTINUOUS
 62
     7
 10
-230.0
 20
510.60094368459772
 30
0.0
 11
360.0
 21
510.60094368459772
 31
0.0
  0
LINE
  5
56
  8
SPEC
  6
CONTINUOUS
 62
     7
 10
-230.0
 20
495.60094368459772
 30
0.0
 11
360.0
 21
495.60094368459772
 31
0.0
  0
LINE
  5
57
  8
SPEC
  6
CONTINUOUS
 62
     7
 10
-230.0
 20
480.60094368459772
 30
0.0
 11
360.0
 21
480.60094368459772
 31
0.0
  0
LINE
  5
58
  8
SPEC
  6
CONTINUOUS
 62
     7
 10
-230.0
 20
465.60094368459772
 30
0.0
 11
360.0
 21
465.60094368459772
 31
0.0
  0
LINE
  5
59
  8
SPEC
  6
CONTINUOUS
 62
     7
 10
-230.0
 20
450.60094368459772
 30
0.0
 11
360.0
 21
450.60094368459772
 31
0.0
  0
LINE
  5
5A
  8
SPEC
  6
CONTINUOUS
 62
     7
 10
-230.0
 20
435.60094368459772
 30
0.0
 11
360.0
 21
435.60094368459772
 31
0.0
  0
TEXT
  5
5B
  8
SPEC
 62
     7
 10
-226.79707185893409
 20
439.7951929788145
 30
0.0
 40
7.6012586805555546
  1
寸法
 41
0.7
 11
-226.79707185893409
 21
447.39645165936997
 31
0.0
 73
     3
  0
TEXT
  5
5C
  8
SPEC
 62
     7
 10
-31.950336112722269
 20
438.955100754699
 30
0.0
 40
7.6012586805555546
  1
176(W)\U+00D726(H)\U+00D7302(D)mm(突起部含まず）
 41
0.7
 11
-31.950336112722269
 21
446.55635943525459
 31
0.0
 73
     3
  0
TEXT
  5
5D
  8
SPEC
 62
     7
 10
-31.566921794028719
 20
424.56974584113959
 30
0.0
 40
7.6012586805555546
  1
約750g
 41
0.7
 11
-31.566921794028719
 21
432.17100452169518
 31
0.0
 73
     3
  0
TEXT
  5
5E
  8
SPEC
 62
     7
 10
-226.70288694152239
 20
424.7777916268987
 30
0.0
 40
7.6012586805555546
  1
重量
 41
0.7
 11
-226.70288694152239
 21
432.37905030745418
 31
0.0
 73
     3
  0
TEXT
  5
5F
  8
SPEC
 62
     7
 10
-226.5976765691434
 20
484.57587031126752
 30
0.0
 40
7.6012586805555546
  1
動作温度
 41
0.7
 11
-226.5976765691434
 21
492.17712899182311
 31
0.0
 73
     3
  0
TEXT
  5
60
  8
SPEC
 62
     7
 10
-31.285194160912528
 20
483.9082038091982
 30
0.0
 40
7.6012586805555546
  1
0～40℃
 41
0.7
 11
-31.285194160912528
 21
491.50946248975367
 31
0.0
 73
     3
  0
TEXT
  5
61
  8
SPEC
 62
     7
 10
-226.80298454865289
 20
469.61244895065681
 30
0.0
 40
7.6012586805555546
  1
電源
 41
0.7
 11
-226.80298454865289
 21
477.2137076312124
 31
0.0
 73
     3
  0
TEXT
  5
62
  8
SPEC
 62
     7
 10
-31.384975285797751
 20
468.82920692905481
 30
0.0
 40
7.6012586805555546
  1
5V DC
 41
0.7
 11
-31.384975285797751
 21
476.43046560961028
 31
0.0
 73
     3
  0
TEXT
  5
63
  8
SPEC
 62
     7
 10
-227.95283478424719
 20
499.68287453869658
 30
0.0
 40
7.6012586805555546
  1
IR延長
 41
0.7
 11
-227.95283478424719
 21
507.284133219252
 31
0.0
 73
     3
  0
TEXT
  5
64
  8
SPEC
 62
     7
 10
-31.44713852305172
 20
499.1467679633962
 30
0.0
 40
7.6012586805555546
  1
3.5mm Mini-stereo
 41
0.7
 11
-31.44713852305172
 21
506.74802664395168
 31
0.0
 73
     3
  0
TEXT
  5
65
  8
SPEC
 62
     7
 10
-226.4279533727069
 20
514.3951360717133
 30
0.0
 40
7.6012586805555546
  1
RS-232端子(送信機）
 41
0.7
 11
-226.4279533727069
 21
521.996394752269
 31
0.0
 73
     3
  0
TEXT
  5
66
  8
SPEC
 62
     7
 10
-31.363337206205969
 20
514.44947390588163
 30
0.0
 40
7.6012586805555546
  1
DB9 serial メス
 41
0.7
 11
-31.363337206205969
 21
522.05073258643722
 31
0.0
 73
     3
  0
TEXT
  5
67
  8
SPEC
 62
     7
 10
-226.45497192263369
 20
529.75168527568997
 30
0.0
 40
7.6012586805555546
  1
LEDインジケータ ー(電源)
 41
0.7
 11
-226.45497192263369
 21
537.35294395624567
 31
0.0
 73
     3
  0
TEXT
  5
68
  8
SPEC
 62
     7
 10
-33.255792345374957
 20
529.08920048845664
 30
0.0
 40
7.6012586805555546
  1
(1)Ret
 41
0.7
 11
-33.255792345374957
 21
536.69045916901223
 31
0.0
 73
     3
  0
TEXT
  5
69
  8
SPEC
 62
     7
 10
-226.444248469755
 20
544.55716193799492
 30
0.0
 40
7.6012586805555546
  1
LEDインジケータ ー(ソースマッピング）
 41
0.7
 11
-226.444248469755
 21
552.15842061855039
 31
0.0
 73
     3
  0
TEXT
  5
6A
  8
SPEC
 62
     7
 10
-33.277454849049448
 20
544.15319851065135
 30
0.0
 40
7.6012586805555546
  1
(16)Blue
 41
0.7
 11
-33.277454849049448
 21
551.75445719120694
 31
0.0
 73
     3
  0
TEXT
  5
6B
  8
SPEC
 62
     7
 10
-226.3596836300058
 20
559.441175812908
 30
0.0
 40
7.6012586805555546
  1
HDMI端子
 41
0.7
 11
-226.3596836300058
 21
567.04243449346359
 31
0.0
 73
     3
  0
TEXT
  5
6C
  8
SPEC
 62
     7
 10
-31.368601598285341
 20
559.38437281344102
 30
0.0
 40
7.6012586805555546
  1
type A 19pin female;(4)input,(4)output
 41
0.7
 11
-31.368601598285341
 21
566.98563149399649
 31
0.0
 73
     3
  0
TEXT
  5
6D
  8
SPEC
 62
     7
 10
-228.22548364540179
 20
574.82129132215448
 30
0.0
 40
7.6012586805555546
  1
ビデオ最大対応解像度
 41
0.7
 11
-228.22548364540179
 21
582.42255000270995
 31
0.0
 73
     3
  0
TEXT
  5
6E
  8
SPEC
 62
     7
 10
-31.945343447424641
 20
574.12587486211839
 30
0.0
 40
7.6012586805555546
  1
1080p,1920\U+00D71200@60Hz with 12-bit Deep Color
 41
0.7
 11
-31.945343447424641
 21
581.7271335426741
 31
0.0
 73
     3
  0
TEXT
  5
6F
  8
SPEC
 62
     7
 10
-226.60112591181891
 20
589.45025134319144
 30
0.0
 40
7.6012586805555546
  1
入力ビデオ信号
 41
0.7
 11
-226.60112591181891
 21
597.05151002374703
 31
0.0
 73
     3
  0
TEXT
  5
70
  8
SPEC
 62
     7
 10
-31.914803098201631
 20
589.19764662689443
 30
0.0
 40
7.6012586805555546
  1
1.2Vp-p
 41
0.7
 11
-31.914803098201631
 21
596.79890530745001
 31
0.0
 73
     3
  0
TEXT
  5
71
  8
SPEC
 62
     7
 10
-226.5484507333054
 20
604.59878895856741
 30
0.0
 40
7.6012586805555546
  1
入力DDC信号
 41
0.7
 11
-226.5484507333054
 21
612.200047639123
 31
0.0
 73
     3
  0
TEXT
  5
72
  8
SPEC
 62
     7
 10
-31.356633061899529
 20
604.19945525511048
 30
0.0
 40
7.6012586805555546
  1
5Vp-p(TTL)
 41
0.7
 11
-31.356633061899529
 21
611.80071393566595
 31
0.0
 73
     3
  0
TEXT
  5
73
  8
SPEC
 62
     7
 10
-227.32978577902239
 20
619.27287646862339
 30
0.0
 40
7.6012586805555546
  1
シングルリンク帯域
 41
0.7
 11
-227.32978577902239
 21
626.87413514917887
 31
0.0
 73
     3
  0
TEXT
  5
74
  8
SPEC
 62
     7
 10
-31.428507911138482
 20
618.87030597319892
 30
0.0
 40
7.6012586805555546
  1
225MHz
 41
0.7
 11
-31.428507911138482
 21
626.47156465375451
 31
0.0
 73
     3
  0
LINE
  5
75
  8
SPEC
  6
CONTINUOUS
 62
     7
 10
-34.999999999999957
 20
630.6009436845975
 30
0.0
 11
-34.999999999999957
 21
420.60094368459772
 31
0.0
  0
TEXT
  5
76
  8
SPEC
 62
     7
 10
-226.53286804528221
 20
454.76297674979918
 30
0.0
 40
7.6012586805555546
  1
消費電力
 41
0.7
 11
-226.53286804528221
 21
462.36423543035482
 31
0.0
 73
     3
  0
TEXT
  5
77
  8
SPEC
 62
     7
 10
-31.32558734396908
 20
454.23456836323049
 30
0.0
 40
7.6012586805555546
  1
20W(最大)
 41
0.7
 11
-31.32558734396908
 21
461.83582704378608
 31
0.0
 73
     3
  0
LINE
  5
78
  8
SPEC
  6
CONTINUOUS
 62
     7
 10
-230.0
 20
420.60094368459772
 30
0.0
 11
360.0
 21
420.60094368459772
 31
0.0
  0
TEXT
  5
79
  8
DIMNSIONS
 62
     7
 10
19.999999999999979
 20
-320.32109631540231
 30
0.0
 40
9.7730468750000004
  1
(単位：mm)
 41
0.7
 11
19.999999999999979
 21
-310.54804944040228
 31
0.0
 73
     3
  0
LINE
  5
7A
  8
DIMNSIONS
  6
CONTINUOUS
 62
     7
 10
-108.0
 20
-87.5
 30
0.0
 11
-158.0
 21
-87.5
 31
0.0
  0
LINE
  5
7B
  8
DIMNSIONS
  6
CONTINUOUS
 62
     7
 10
-108.0
 20
214.5
 30
0.0
 11
-158.0
 21
214.5
 31
0.0
  0
LINE
  5
7C
  8
DIMNSIONS
  6
CONTINUOUS
 62
     7
 10
-150.0
 20
-87.5
 30
0.0
 11
-150.0
 21
214.5
 31
0.0
  0
LINE
  5
7D
  8
DIMNSIONS
  6
CONTINUOUS
 62
     7
 10
-150.0
 20
-87.5
 30
0.0
 11
-152.68015918060101
 21
-77.497509765625026
 31
0.0
  0
LINE
  5
7E
  8
DIMNSIONS
  6
CONTINUOUS
 62
     7
 10
-150.0
 20
-87.5
 30
0.0
 11
-147.31984081939899
 21
-77.497509765625026
 31
0.0
  0
LINE
  5
7F
  8
DIMNSIONS
  6
CONTINUOUS
 62
     7
 10
-150.0
 20
214.5
 30
0.0
 11
-147.31984081939899
 21
204.49750976562501
 31
0.0
  0
LINE
  5
80
  8
DIMNSIONS
  6
CONTINUOUS
 62
     7
 10
-150.0
 20
214.5
 30
0.0
 11
-152.68015918060101
 21
204.49750976562501
 31
0.0
  0
TEXT
  5
81
  8
DIMNSIONS
 62
     7
 10
-153.9755555555555
 20
52.916666666666671
 30
0.0
 40
10.85894097222222
  1
302
 50
90.0
 41
0.7
 11
-164.8344965277777
 21
52.916666666666671
 31
0.0
 73
     3
  0
LINE
  5
82
  8
DIMNSIONS
  6
CONTINUOUS
 62
     7
 10
-100.0
 20
-95.5
 30
0.0
 11
-100.0
 21
-145.5
 31
0.0
  0
LINE
  5
83
  8
DIMNSIONS
  6
CONTINUOUS
 62
     7
 10
75.999999999999986
 20
-95.5
 30
0.0
 11
75.999999999999986
 21
-145.5
 31
0.0
  0
LINE
  5
84
  8
DIMNSIONS
  6
CONTINUOUS
 62
     7
 10
-100.0
 20
-137.5
 30
0.0
 11
75.999999999999986
 21
-137.5
 31
0.0
  0
LINE
  5
85
  8
DIMNSIONS
  6
CONTINUOUS
 62
     7
 10
-100.0
 20
-137.5
 30
0.0
 11
-89.997509765625026
 21
-134.81984081939899
 31
0.0
  0
LINE
  5
86
  8
DIMNSIONS
  6
CONTINUOUS
 62
     7
 10
-100.0
 20
-137.5
 30
0.0
 11
-89.997509765625026
 21
-140.18015918060101
 31
0.0
  0
LINE
  5
87
  8
DIMNSIONS
  6
CONTINUOUS
 62
     7
 10
75.999999999999986
 20
-137.5
 30
0.0
 11
65.997509765624983
 21
-140.18015918060101
 31
0.0
  0
LINE
  5
88
  8
DIMNSIONS
  6
CONTINUOUS
 62
     7
 10
75.999999999999986
 20
-137.5
 30
0.0
 11
65.997509765624983
 21
-134.81984081939899
 31
0.0
  0
TEXT
  5
89
  8
DIMNSIONS
 62
     7
 10
-22.583333333333339
 20
-133.5244444444445
 30
0.0
 40
10.85894097222222
  1
176
 41
0.7
 11
-22.583333333333339
 21
-122.6655034722223
 31
0.0
 73
     3
  0
LINE
  5
8A
  8
DIMNSIONS
  6
CONTINUOUS
 62
     7
 10
-108.0
 20
-225.0
 30
0.0
 11
-133.0
 21
-225.0
 31
0.0
  0
LINE
  5
8B
  8
DIMNSIONS
  6
CONTINUOUS
 62
     7
 10
-108.0
 20
-199.0
 30
0.0
 11
-133.0
 21
-199.0
 31
0.0
  0
LINE
  5
8C
  8
DIMNSIONS
  6
CONTINUOUS
 62
     7
 10
-125.0
 20
-225.0
 30
0.0
 11
-125.0
 21
-199.0
 31
0.0
  0
LINE
  5
8D
  8
DIMNSIONS
  6
CONTINUOUS
 62
     7
 10
-125.0
 20
-225.0
 30
0.0
 11
-127.680159180601
 21
-214.99750976562501
 31
0.0
  0
LINE
  5
8E
  8
DIMNSIONS
  6
CONTINUOUS
 62
     7
 10
-125.0
 20
-225.0
 30
0.0
 11
-122.319840819399
 21
-214.99750976562501
 31
0.0
  0
LINE
  5
8F
  8
DIMNSIONS
  6
CONTINUOUS
 62
     7
 10
-125.0
 20
-199.0
 30
0.0
 11
-122.319840819399
 21
-209.00249023437499
 31
0.0
  0
LINE
  5
90
  8
DIMNSIONS
  6
CONTINUOUS
 62
     7
 10
-125.0
 20
-199.0
 30
0.0
 11
-127.680159180601
 21
-209.00249023437499
 31
0.0
  0
TEXT
  5
91
  8
DIMNSIONS
 62
     7
 10
-128.97555555555559
 20
-219.0555555555556
 30
0.0
 40
10.85894097222222
  1
26
 50
90.0
 41
0.7
 11
-139.83449652777779
 21
-219.0555555555556
 31
0.0
 73
     3
  0
LINE
  5
92
  8
DIMNSIONS
  6
CONTINUOUS
 62
     7
 10
-95.100000000000037
 20
-80.25
 30
0.0
 11
-133.0
 21
-80.25
 31
0.0
  0
LINE
  5
93
  8
DIMNSIONS
  6
CONTINUOUS
 62
     7
 10
-95.100000000000037
 20
207.25
 30
0.0
 11
-133.0
 21
207.25
 31
0.0
  0
LINE
  5
94
  8
DIMNSIONS
  6
CONTINUOUS
 62
     7
 10
-125.0
 20
-80.25
 30
0.0
 11
-125.0
 21
207.25
 31
0.0
  0
LINE
  5
95
  8
DIMNSIONS
  6
CONTINUOUS
 62
     7
 10
-125.0
 20
-80.25
 30
0.0
 11
-127.680159180601
 21
-70.247509765625011
 31
0.0
  0
LINE
  5
96
  8
DIMNSIONS
  6
CONTINUOUS
 62
     7
 10
-125.0
 20
-80.25
 30
0.0
 11
-122.319840819399
 21
-70.247509765625011
 31
0.0
  0
LINE
  5
97
  8
DIMNSIONS
  6
CONTINUOUS
 62
     7
 10
-125.0
 20
207.25
 30
0.0
 11
-122.319840819399
 21
197.24750976562501
 31
0.0
  0
LINE
  5
98
  8
DIMNSIONS
  6
CONTINUOUS
 62
     7
 10
-125.0
 20
207.25
 30
0.0
 11
-127.680159180601
 21
197.24750976562501
 31
0.0
  0
TEXT
  5
99
  8
DIMNSIONS
 62
     7
 10
-128.97555555555559
 20
45.861111111111107
 30
0.0
 40
10.85894097222222
  1
287.5
 50
90.0
 41
0.7
 11
-139.83449652777779
 21
45.861111111111107
 31
0.0
 73
     3
  0
LINE
  5
9A
  8
DIMNSIONS
  6
CONTINUOUS
 62
     7
 10
-89.500000000000043
 20
-85.849999999999994
 30
0.0
 11
-89.500000000000043
 21
-120.5
 31
0.0
  0
LINE
  5
9B
  8
DIMNSIONS
  6
CONTINUOUS
 62
     7
 10
-12.000000000000011
 20
-85.849999999999994
 30
0.0
 11
-12.000000000000011
 21
-120.5
 31
0.0
  0
LINE
  5
9C
  8
DIMNSIONS
  6
CONTINUOUS
 62
     7
 10
-89.500000000000043
 20
-112.5
 30
0.0
 11
-12.000000000000011
 21
-112.5
 31
0.0
  0
LINE
  5
9D
  8
DIMNSIONS
  6
CONTINUOUS
 62
     7
 10
-89.500000000000043
 20
-112.5
 30
0.0
 11
-79.497509765625068
 21
-109.819840819399
 31
0.0
  0
LINE
  5
9E
  8
DIMNSIONS
  6
CONTINUOUS
 62
     7
 10
-89.500000000000043
 20
-112.5
 30
0.0
 11
-79.497509765625068
 21
-115.180159180601
 31
0.0
  0
LINE
  5
9F
  8
DIMNSIONS
  6
CONTINUOUS
 62
     7
 10
-12.000000000000011
 20
-112.5
 30
0.0
 11
-22.002490234375021
 21
-115.180159180601
 31
0.0
  0
LINE
  5
A0
  8
DIMNSIONS
  6
CONTINUOUS
 62
     7
 10
-12.000000000000011
 20
-112.5
 30
0.0
 11
-22.002490234375021
 21
-109.819840819399
 31
0.0
  0
TEXT
  5
A1
  8
DIMNSIONS
 62
     7
 10
-64.861111111111128
 20
-108.5244444444444
 30
0.0
 40
10.85894097222222
  1
77.5
 41
0.7
 11
-64.861111111111128
 21
-97.665503472222213
 31
0.0
 73
     3
  0
LINE
  5
A2
  8
DIMNSIONS
  6
CONTINUOUS
 62
     7
 10
-12.000000000000011
 20
-85.849999999999994
 30
0.0
 11
-12.000000000000011
 21
-120.5
 31
0.0
  0
LINE
  5
A3
  8
DIMNSIONS
  6
CONTINUOUS
 62
     7
 10
65.499999999999957
 20
-85.849999999999994
 30
0.0
 11
65.499999999999957
 21
-120.5
 31
0.0
  0
LINE
  5
A4
  8
DIMNSIONS
  6
CONTINUOUS
 62
     7
 10
-12.000000000000011
 20
-112.5
 30
0.0
 11
65.499999999999957
 21
-112.5
 31
0.0
  0
LINE
  5
A5
  8
DIMNSIONS
  6
CONTINUOUS
 62
     7
 10
-12.000000000000011
 20
-112.5
 30
0.0
 11
-1.9975097656250109
 21
-109.819840819399
 31
0.0
  0
LINE
  5
A6
  8
DIMNSIONS
  6
CONTINUOUS
 62
     7
 10
-12.000000000000011
 20
-112.5
 30
0.0
 11
-1.9975097656250109
 21
-115.180159180601
 31
0.0
  0
LINE
  5
A7
  8
DIMNSIONS
  6
CONTINUOUS
 62
     7
 10
65.499999999999957
 20
-112.5
 30
0.0
 11
55.497509765624962
 21
-115.180159180601
 31
0.0
  0
LINE
  5
A8
  8
DIMNSIONS
  6
CONTINUOUS
 62
     7
 10
65.499999999999957
 20
-112.5
 30
0.0
 11
55.497509765624962
 21
-109.819840819399
 31
0.0
  0
TEXT
  5
A9
  8
DIMNSIONS
 62
     7
 10
12.63888888888885
 20
-108.5244444444444
 30
0.0
 40
10.85894097222222
  1
77.5
 41
0.7
 11
12.63888888888885
 21
-97.665503472222213
 31
0.0
 73
     3
  0
LINE
  5
AA
  8
DIMNSIONS
  6
CONTINUOUS
 62
     7
 10
-106.0
 20
-199.0
 30
0.0
 11
-133.0
 21
-199.0
 31
0.0
  0
LINE
  5
AB
  8
DIMNSIONS
  6
CONTINUOUS
 62
     7
 10
-87.999999999999943
 20
-193.0
 30
0.0
 11
-133.0
 21
-193.0
 31
0.0
  0
LINE
  5
AC
  8
DIMNSIONS
  6
CONTINUOUS
 62
     7
 10
-125.0
 20
-193.0
 30
0.0
 11
-125.0
 21
-199.0
 31
0.0
  0
LINE
  5
AD
  8
DIMNSIONS
  6
CONTINUOUS
 62
     7
 10
-125.0
 20
-199.0
 30
0.0
 11
-125.0
 21
-219.0
 31
0.0
  0
LINE
  5
AE
  8
DIMNSIONS
  6
CONTINUOUS
 62
     7
 10
-125.0
 20
-199.0
 30
0.0
 11
-122.319840819399
 21
-209.00249023437499
 31
0.0
  0
LINE
  5
AF
  8
DIMNSIONS
  6
CONTINUOUS
 62
     7
 10
-125.0
 20
-199.0
 30
0.0
 11
-127.680159180601
 21
-209.00249023437499
 31
0.0
  0
LINE
  5
B0
  8
DIMNSIONS
  6
CONTINUOUS
 62
     7
 10
-125.0
 20
-193.0
 30
0.0
 11
-125.0
 21
-180.4444444444444
 31
0.0
  0
LINE
  5
B1
  8
DIMNSIONS
  6
CONTINUOUS
 62
     7
 10
-125.0
 20
-193.0
 30
0.0
 11
-127.680159180601
 21
-182.99750976562501
 31
0.0
  0
LINE
  5
B2
  8
DIMNSIONS
  6
CONTINUOUS
 62
     7
 10
-125.0
 20
-193.0
 30
0.0
 11
-122.319840819399
 21
-182.99750976562501
 31
0.0
  0
TEXT
  5
B3
  8
DIMNSIONS
 62
     7
 10
-128.97555555555559
 20
-187.5
 30
0.0
 40
10.85894097222222
  1
6
 50
90.0
 41
0.7
 11
-139.83449652777779
 21
-187.5
 31
0.0
 73
     3
  0
LINE
  5
B4
  8
DIMNSIONS
  6
CONTINUOUS
 62
     7
 10
66.174148514854863
 20
209.39663079730121
 30
0.0
 11
75.0
 21
237.5
 31
0.0
  0
LINE
  5
B5
  8
DIMNSIONS
  6
CONTINUOUS
 62
     7
 10
66.174148514854863
 20
209.39663079730121
 30
0.0
 11
66.716105129927371
 21
219.73777904831789
 31
0.0
  0
LINE
  5
B6
  8
DIMNSIONS
  6
CONTINUOUS
 62
     7
 10
66.174148514854863
 20
209.39663079730121
 30
0.0
 11
71.814070836765026
 21
218.0813495794464
 31
0.0
  0
LINE
  5
B7
  8
DIMNSIONS
  6
CONTINUOUS
 62
     7
 10
75.0
 20
237.5
 30
0.0
 11
127.4500026914808
 21
237.5
 31
0.0
  0
TEXT
  5
B8
  8
DIMNSIONS
 62
     7
 10
83.0
 20
241.27799999999999
 30
0.0
 40
9.7730468750000004
  1
6-\U+03C64.5
 41
0.7
 11
83.0
 21
251.051046875
 31
0.0
 73
     3
  0
TEXT
  5
B9
  8
DATA
 62
     7
 10
258.63234904680633
 20
-324.61331713264559
 30
0.0
 40
9.7730468750000004
  1
GTB-HDFST-444-BLK/GTB-HDFST-444
 41
0.7
 11
258.63234904680633
 21
-314.84027025764561
 31
0.0
 73
     3
  0
TEXT
  5
BA
  8
DATA
 62
     7
 10
275.22075113375018
 20
-294.3130840225237
 30
0.0
 40
9.7730468750000004
  1
Gefen
 41
0.7
 11
275.22075113375018
 21
-284.54003714752378
 31
0.0
 73
     3
  0
TEXT
  5
BB
  8
DATA
 62
     7
 10
-220.0
 20
-352.44705631540228
 30
0.0
 40
6.5153645833333318
  1
仕様および外観は予告なく変更されることがありますので、ご了承ください。
 41
0.7
 11
-220.0
 21
-345.93169173206888
 31
0.0
 73
     3
  0
LINE
  5
BC
  8
DATA
  6
CONTINUOUS
 62
     7
 10
-100.0
 20
-87.5
 30
0.0
 11
-100.0
 21
214.5
 31
0.0
  0
LINE
  5
BD
  8
DATA
  6
CONTINUOUS
 62
     7
 10
75.999999999999986
 20
-87.5
 30
0.0
 11
-100.0
 21
-87.5
 31
0.0
  0
LINE
  5
BE
  8
DATA
  6
CONTINUOUS
 62
     7
 10
75.999999999999986
 20
214.5
 30
0.0
 11
75.999999999999986
 21
-87.5
 31
0.0
  0
LINE
  5
BF
  8
DATA
  6
CONTINUOUS
 62
     7
 10
-100.0
 20
214.5
 30
0.0
 11
75.999999999999986
 21
214.5
 31
0.0
  0
LINE
  5
C0
  8
DATA
  6
CONTINUOUS
 62
     7
 10
-100.0
 20
-225.0
 30
0.0
 11
75.999999999999986
 21
-225.0
 31
0.0
  0
LINE
  5
C1
  8
DATA
  6
CONTINUOUS
 62
     7
 10
-98.0
 20
-199.0
 30
0.0
 11
73.999999999999986
 21
-199.0
 31
0.0
  0
LINE
  5
C2
  8
DATA
  6
CONTINUOUS
 62
     7
 10
75.999999999999986
 20
-201.0
 30
0.0
 11
75.999999999999986
 21
-225.0
 31
0.0
  0
LINE
  5
C3
  8
DATA
  6
CONTINUOUS
 62
     7
 10
-100.0
 20
-225.0
 30
0.0
 11
-100.0
 21
-201.0
 31
0.0
  0
LINE
  5
C4
  8
DATA
  6
CONTINUOUS
 62
     7
 10
75.999999999999986
 20
-73.5
 30
0.0
 11
-100.0
 21
-73.5
 31
0.0
  0
LINE
  5
C5
  8
DATA
  6
CONTINUOUS
 62
     7
 10
-100.0
 20
200.5
 30
0.0
 11
75.999999999999986
 21
200.5
 31
0.0
  0
CIRCLE
  5
C6
  8
DATA
  6
CONTINUOUS
 62
     7
 10
-89.500000000000043
 20
207.25
 30
0.0
 40
2.25
  0
CIRCLE
  5
C7
  8
DATA
  6
CONTINUOUS
 62
     7
 10
-12.000000000000011
 20
207.25
 30
0.0
 40
2.25
  0
CIRCLE
  5
C8
  8
DATA
  6
CONTINUOUS
 62
     7
 10
65.499999999999957
 20
207.25
 30
0.0
 40
2.25
  0
CIRCLE
  5
C9
  8
DATA
  6
CONTINUOUS
 62
     7
 10
-89.500000000000043
 20
-80.25
 30
0.0
 40
2.25
  0
CIRCLE
  5
CA
  8
DATA
  6
CONTINUOUS
 62
     7
 10
-12.000000000000011
 20
-80.25
 30
0.0
 40
2.25
  0
CIRCLE
  5
CB
  8
DATA
  6
CONTINUOUS
 62
     7
 10
65.499999999999957
 20
-80.25
 30
0.0
 40
2.25
  0
CIRCLE
  5
CC
  8
DATA
  6
CONTINUOUS
 62
     7
 10
-89.500000000000043
 20
207.25
 30
0.0
 40
4.5
  0
CIRCLE
  5
CD
  8
DATA
  6
CONTINUOUS
 62
     7
 10
-12.000000000000011
 20
207.25
 30
0.0
 40
4.5
  0
CIRCLE
  5
CE
  8
DATA
  6
CONTINUOUS
 62
     7
 10
65.499999999999957
 20
207.25
 30
0.0
 40
4.5
  0
CIRCLE
  5
CF
  8
DATA
  6
CONTINUOUS
 62
     7
 10
-89.500000000000043
 20
-80.25
 30
0.0
 40
4.5
  0
CIRCLE
  5
D0
  8
DATA
  6
CONTINUOUS
 62
     7
 10
-12.000000000000011
 20
-80.25
 30
0.0
 40
4.5
  0
CIRCLE
  5
D1
  8
DATA
  6
CONTINUOUS
 62
     7
 10
65.499999999999957
 20
-80.25
 30
0.0
 40
4.5
  0
POLYLINE
  5
D2
  8
DATA
  6
CONTINUOUS
 62
     7
 66
     1
 10
0.0
 20
0.0
 30
0.0
 70
     1
  0
VERTEX
  5
436
  8
DATA
  6
CONTINUOUS
 62
     7
 10
-74.999999999999957
 20
179.4621940149587
 30
0.0
  0
VERTEX
  5
437
  8
DATA
  6
CONTINUOUS
 62
     7
 10
-77.499999999999957
 20
180.90556968793271
 30
0.0
  0
VERTEX
  5
438
  8
DATA
  6
CONTINUOUS
 62
     7
 10
-79.999999999999957
 20
179.4621940149587
 30
0.0
  0
VERTEX
  5
439
  8
DATA
  6
CONTINUOUS
 62
     7
 10
-79.999999999999957
 20
176.57544266901061
 30
0.0
  0
VERTEX
  5
43A
  8
DATA
  6
CONTINUOUS
 62
     7
 10
-77.499999999999957
 20
175.13206699603651
 30
0.0
  0
VERTEX
  5
43B
  8
DATA
  6
CONTINUOUS
 62
     7
 10
-74.999999999999957
 20
176.57544266901061
 30
0.0
  0
SEQEND
  5
43C
  8
DATA
  6
CONTINUOUS
 62
     7
  0
CIRCLE
  5
DB
  8
DATA
  6
CONTINUOUS
 62
     7
 10
-77.499999999999957
 20
178.0188183419846
 30
0.0
 40
1.200000000000045
  0
LINE
  5
DC
  8
DATA
  6
CONTINUOUS
 62
     7
 10
-69.65000000000002
 20
171.0188183419846
 30
0.0
 11
-85.350000000000009
 21
171.0188183419846
 31
0.0
  0
LINE
  5
DD
  8
DATA
  6
CONTINUOUS
 62
     7
 10
-69.65000000000002
 20
171.0188183419846
 30
0.0
 11
-69.65000000000002
 21
166.71881834198459
 31
0.0
  0
LINE
  5
DE
  8
DATA
  6
CONTINUOUS
 62
     7
 10
-85.350000000000009
 20
171.0188183419846
 30
0.0
 11
-85.350000000000009
 21
166.71881834198459
 31
0.0
  0
LINE
  5
DF
  8
DATA
  6
CONTINUOUS
 62
     7
 10
-69.65000000000002
 20
166.71881834198459
 30
0.0
 11
-72.249999999999986
 21
165.0188183419846
 31
0.0
  0
LINE
  5
E0
  8
DATA
  6
CONTINUOUS
 62
     7
 10
-85.350000000000009
 20
166.71881834198459
 30
0.0
 11
-82.749999999999986
 21
165.0188183419846
 31
0.0
  0
LINE
  5
E1
  8
DATA
  6
CONTINUOUS
 62
     7
 10
-72.249999999999986
 20
165.0188183419846
 30
0.0
 11
-82.749999999999986
 21
165.0188183419846
 31
0.0
  0
POLYLINE
  5
E2
  8
DATA
  6
CONTINUOUS
 62
     7
 66
     1
 10
0.0
 20
0.0
 30
0.0
 70
     1
  0
VERTEX
  5
43D
  8
DATA
  6
CONTINUOUS
 62
     7
 10
-82.499999999999986
 20
168.7326551674918
 30
0.0
  0
VERTEX
  5
43E
  8
DATA
  6
CONTINUOUS
 62
     7
 10
-72.500000000000014
 20
168.7326551674918
 30
0.0
  0
VERTEX
  5
43F
  8
DATA
  6
CONTINUOUS
 62
     7
 10
-72.500000000000014
 20
168.2326551674918
 30
0.0
  0
VERTEX
  5
440
  8
DATA
  6
CONTINUOUS
 62
     7
 10
-82.499999999999986
 20
168.2326551674918
 30
0.0
  0
SEQEND
  5
441
  8
DATA
  6
CONTINUOUS
 62
     7
  0
POLYLINE
  5
E9
  8
DATA
  6
CONTINUOUS
 62
     7
 66
     1
 10
0.0
 20
0.0
 30
0.0
 70
     1
  0
VERTEX
  5
442
  8
DATA
  6
CONTINUOUS
 62
     7
 10
-74.999999999999957
 20
149.4621940149587
 30
0.0
  0
VERTEX
  5
443
  8
DATA
  6
CONTINUOUS
 62
     7
 10
-77.499999999999957
 20
150.90556968793271
 30
0.0
  0
VERTEX
  5
444
  8
DATA
  6
CONTINUOUS
 62
     7
 10
-79.999999999999957
 20
149.4621940149587
 30
0.0
  0
VERTEX
  5
445
  8
DATA
  6
CONTINUOUS
 62
     7
 10
-79.999999999999957
 20
146.57544266901061
 30
0.0
  0
VERTEX
  5
446
  8
DATA
  6
CONTINUOUS
 62
     7
 10
-77.499999999999957
 20
145.13206699603651
 30
0.0
  0
VERTEX
  5
447
  8
DATA
  6
CONTINUOUS
 62
     7
 10
-74.999999999999957
 20
146.57544266901061
 30
0.0
  0
SEQEND
  5
448
  8
DATA
  6
CONTINUOUS
 62
     7
  0
CIRCLE
  5
F2
  8
DATA
  6
CONTINUOUS
 62
     7
 10
-77.499999999999957
 20
148.0188183419846
 30
0.0
 40
1.200000000000045
  0
LINE
  5
F3
  8
DATA
  6
CONTINUOUS
 62
     7
 10
-69.65000000000002
 20
141.0188183419846
 30
0.0
 11
-85.350000000000009
 21
141.0188183419846
 31
0.0
  0
LINE
  5
F4
  8
DATA
  6
CONTINUOUS
 62
     7
 10
-69.65000000000002
 20
141.0188183419846
 30
0.0
 11
-69.65000000000002
 21
136.71881834198459
 31
0.0
  0
LINE
  5
F5
  8
DATA
  6
CONTINUOUS
 62
     7
 10
-85.350000000000009
 20
141.0188183419846
 30
0.0
 11
-85.350000000000009
 21
136.71881834198459
 31
0.0
  0
LINE
  5
F6
  8
DATA
  6
CONTINUOUS
 62
     7
 10
-69.65000000000002
 20
136.71881834198459
 30
0.0
 11
-72.249999999999986
 21
135.0188183419846
 31
0.0
  0
LINE
  5
F7
  8
DATA
  6
CONTINUOUS
 62
     7
 10
-85.350000000000009
 20
136.71881834198459
 30
0.0
 11
-82.749999999999986
 21
135.0188183419846
 31
0.0
  0
LINE
  5
F8
  8
DATA
  6
CONTINUOUS
 62
     7
 10
-72.249999999999986
 20
135.0188183419846
 30
0.0
 11
-82.749999999999986
 21
135.0188183419846
 31
0.0
  0
POLYLINE
  5
F9
  8
DATA
  6
CONTINUOUS
 62
     7
 66
     1
 10
0.0
 20
0.0
 30
0.0
 70
     1
  0
VERTEX
  5
449
  8
DATA
  6
CONTINUOUS
 62
     7
 10
-82.499999999999986
 20
138.7326551674918
 30
0.0
  0
VERTEX
  5
44A
  8
DATA
  6
CONTINUOUS
 62
     7
 10
-72.500000000000014
 20
138.7326551674918
 30
0.0
  0
VERTEX
  5
44B
  8
DATA
  6
CONTINUOUS
 62
     7
 10
-72.500000000000014
 20
138.2326551674918
 30
0.0
  0
VERTEX
  5
44C
  8
DATA
  6
CONTINUOUS
 62
     7
 10
-82.499999999999986
 20
138.2326551674918
 30
0.0
  0
SEQEND
  5
44D
  8
DATA
  6
CONTINUOUS
 62
     7
  0
POLYLINE
  5
100
  8
DATA
  6
CONTINUOUS
 62
     7
 66
     1
 10
0.0
 20
0.0
 30
0.0
 70
     1
  0
VERTEX
  5
44E
  8
DATA
  6
CONTINUOUS
 62
     7
 10
-74.999999999999957
 20
119.4621940149587
 30
0.0
  0
VERTEX
  5
44F
  8
DATA
  6
CONTINUOUS
 62
     7
 10
-77.499999999999957
 20
120.9055696879327
 30
0.0
  0
VERTEX
  5
450
  8
DATA
  6
CONTINUOUS
 62
     7
 10
-79.999999999999957
 20
119.4621940149587
 30
0.0
  0
VERTEX
  5
451
  8
DATA
  6
CONTINUOUS
 62
     7
 10
-79.999999999999957
 20
116.5754426690106
 30
0.0
  0
VERTEX
  5
452
  8
DATA
  6
CONTINUOUS
 62
     7
 10
-77.499999999999957
 20
115.1320669960365
 30
0.0
  0
VERTEX
  5
453
  8
DATA
  6
CONTINUOUS
 62
     7
 10
-74.999999999999957
 20
116.5754426690106
 30
0.0
  0
SEQEND
  5
454
  8
DATA
  6
CONTINUOUS
 62
     7
  0
CIRCLE
  5
109
  8
DATA
  6
CONTINUOUS
 62
     7
 10
-77.499999999999957
 20
118.0188183419846
 30
0.0
 40
1.200000000000045
  0
LINE
  5
10A
  8
DATA
  6
CONTINUOUS
 62
     7
 10
-69.65000000000002
 20
111.0188183419846
 30
0.0
 11
-85.350000000000009
 21
111.0188183419846
 31
0.0
  0
LINE
  5
10B
  8
DATA
  6
CONTINUOUS
 62
     7
 10
-69.65000000000002
 20
111.0188183419846
 30
0.0
 11
-69.65000000000002
 21
106.7188183419846
 31
0.0
  0
LINE
  5
10C
  8
DATA
  6
CONTINUOUS
 62
     7
 10
-85.350000000000009
 20
111.0188183419846
 30
0.0
 11
-85.350000000000009
 21
106.7188183419846
 31
0.0
  0
LINE
  5
10D
  8
DATA
  6
CONTINUOUS
 62
     7
 10
-69.65000000000002
 20
106.7188183419846
 30
0.0
 11
-72.249999999999986
 21
105.0188183419846
 31
0.0
  0
LINE
  5
10E
  8
DATA
  6
CONTINUOUS
 62
     7
 10
-85.350000000000009
 20
106.7188183419846
 30
0.0
 11
-82.749999999999986
 21
105.0188183419846
 31
0.0
  0
LINE
  5
10F
  8
DATA
  6
CONTINUOUS
 62
     7
 10
-72.249999999999986
 20
105.0188183419846
 30
0.0
 11
-82.749999999999986
 21
105.0188183419846
 31
0.0
  0
POLYLINE
  5
110
  8
DATA
  6
CONTINUOUS
 62
     7
 66
     1
 10
0.0
 20
0.0
 30
0.0
 70
     1
  0
VERTEX
  5
455
  8
DATA
  6
CONTINUOUS
 62
     7
 10
-82.499999999999986
 20
108.7326551674918
 30
0.0
  0
VERTEX
  5
456
  8
DATA
  6
CONTINUOUS
 62
     7
 10
-72.500000000000014
 20
108.7326551674918
 30
0.0
  0
VERTEX
  5
457
  8
DATA
  6
CONTINUOUS
 62
     7
 10
-72.500000000000014
 20
108.2326551674918
 30
0.0
  0
VERTEX
  5
458
  8
DATA
  6
CONTINUOUS
 62
     7
 10
-82.499999999999986
 20
108.2326551674918
 30
0.0
  0
SEQEND
  5
459
  8
DATA
  6
CONTINUOUS
 62
     7
  0
POLYLINE
  5
117
  8
DATA
  6
CONTINUOUS
 62
     7
 66
     1
 10
0.0
 20
0.0
 30
0.0
 70
     1
  0
VERTEX
  5
45A
  8
DATA
  6
CONTINUOUS
 62
     7
 10
-74.999999999999957
 20
89.462194014958683
 30
0.0
  0
VERTEX
  5
45B
  8
DATA
  6
CONTINUOUS
 62
     7
 10
-77.499999999999957
 20
90.905569687932726
 30
0.0
  0
VERTEX
  5
45C
  8
DATA
  6
CONTINUOUS
 62
     7
 10
-79.999999999999957
 20
89.462194014958683
 30
0.0
  0
VERTEX
  5
45D
  8
DATA
  6
CONTINUOUS
 62
     7
 10
-79.999999999999957
 20
86.575442669010584
 30
0.0
  0
VERTEX
  5
45E
  8
DATA
  6
CONTINUOUS
 62
     7
 10
-77.499999999999957
 20
85.132066996036514
 30
0.0
  0
VERTEX
  5
45F
  8
DATA
  6
CONTINUOUS
 62
     7
 10
-74.999999999999957
 20
86.575442669010584
 30
0.0
  0
SEQEND
  5
460
  8
DATA
  6
CONTINUOUS
 62
     7
  0
CIRCLE
  5
120
  8
DATA
  6
CONTINUOUS
 62
     7
 10
-77.499999999999957
 20
88.018818341984641
 30
0.0
 40
1.200000000000045
  0
LINE
  5
121
  8
DATA
  6
CONTINUOUS
 62
     7
 10
-69.65000000000002
 20
81.018818341984613
 30
0.0
 11
-85.350000000000009
 21
81.018818341984613
 31
0.0
  0
LINE
  5
122
  8
DATA
  6
CONTINUOUS
 62
     7
 10
-69.65000000000002
 20
81.018818341984613
 30
0.0
 11
-69.65000000000002
 21
76.718818341984601
 31
0.0
  0
LINE
  5
123
  8
DATA
  6
CONTINUOUS
 62
     7
 10
-85.350000000000009
 20
81.018818341984613
 30
0.0
 11
-85.350000000000009
 21
76.718818341984601
 31
0.0
  0
LINE
  5
124
  8
DATA
  6
CONTINUOUS
 62
     7
 10
-69.65000000000002
 20
76.718818341984601
 30
0.0
 11
-72.249999999999986
 21
75.018818341984613
 31
0.0
  0
LINE
  5
125
  8
DATA
  6
CONTINUOUS
 62
     7
 10
-85.350000000000009
 20
76.718818341984601
 30
0.0
 11
-82.749999999999986
 21
75.018818341984613
 31
0.0
  0
LINE
  5
126
  8
DATA
  6
CONTINUOUS
 62
     7
 10
-72.249999999999986
 20
75.018818341984613
 30
0.0
 11
-82.749999999999986
 21
75.018818341984613
 31
0.0
  0
POLYLINE
  5
127
  8
DATA
  6
CONTINUOUS
 62
     7
 66
     1
 10
0.0
 20
0.0
 30
0.0
 70
     1
  0
VERTEX
  5
461
  8
DATA
  6
CONTINUOUS
 62
     7
 10
-82.499999999999986
 20
78.732655167491814
 30
0.0
  0
VERTEX
  5
462
  8
DATA
  6
CONTINUOUS
 62
     7
 10
-72.500000000000014
 20
78.732655167491814
 30
0.0
  0
VERTEX
  5
463
  8
DATA
  6
CONTINUOUS
 62
     7
 10
-72.500000000000014
 20
78.232655167491814
 30
0.0
  0
VERTEX
  5
464
  8
DATA
  6
CONTINUOUS
 62
     7
 10
-82.499999999999986
 20
78.232655167491814
 30
0.0
  0
SEQEND
  5
465
  8
DATA
  6
CONTINUOUS
 62
     7
  0
POLYLINE
  5
12E
  8
DATA
  6
CONTINUOUS
 62
     7
 66
     1
 10
0.0
 20
0.0
 30
0.0
 70
     1
  0
VERTEX
  5
466
  8
DATA
  6
CONTINUOUS
 62
     7
 10
56.000000000000043
 20
179.4621940149587
 30
0.0
  0
VERTEX
  5
467
  8
DATA
  6
CONTINUOUS
 62
     7
 10
53.500000000000043
 20
180.90556968793271
 30
0.0
  0
VERTEX
  5
468
  8
DATA
  6
CONTINUOUS
 62
     7
 10
51.000000000000043
 20
179.4621940149587
 30
0.0
  0
VERTEX
  5
469
  8
DATA
  6
CONTINUOUS
 62
     7
 10
51.000000000000043
 20
176.57544266901061
 30
0.0
  0
VERTEX
  5
46A
  8
DATA
  6
CONTINUOUS
 62
     7
 10
53.500000000000043
 20
175.13206699603651
 30
0.0
  0
VERTEX
  5
46B
  8
DATA
  6
CONTINUOUS
 62
     7
 10
56.000000000000043
 20
176.57544266901061
 30
0.0
  0
SEQEND
  5
46C
  8
DATA
  6
CONTINUOUS
 62
     7
  0
CIRCLE
  5
137
  8
DATA
  6
CONTINUOUS
 62
     7
 10
53.500000000000043
 20
178.0188183419846
 30
0.0
 40
1.200000000000045
  0
LINE
  5
138
  8
DATA
  6
CONTINUOUS
 62
     7
 10
61.34999999999998
 20
171.0188183419846
 30
0.0
 11
45.649999999999991
 21
171.0188183419846
 31
0.0
  0
LINE
  5
139
  8
DATA
  6
CONTINUOUS
 62
     7
 10
61.34999999999998
 20
171.0188183419846
 30
0.0
 11
61.34999999999998
 21
166.71881834198459
 31
0.0
  0
LINE
  5
13A
  8
DATA
  6
CONTINUOUS
 62
     7
 10
45.649999999999991
 20
171.0188183419846
 30
0.0
 11
45.649999999999991
 21
166.71881834198459
 31
0.0
  0
LINE
  5
13B
  8
DATA
  6
CONTINUOUS
 62
     7
 10
61.34999999999998
 20
166.71881834198459
 30
0.0
 11
58.750000000000021
 21
165.0188183419846
 31
0.0
  0
LINE
  5
13C
  8
DATA
  6
CONTINUOUS
 62
     7
 10
45.649999999999991
 20
166.71881834198459
 30
0.0
 11
48.250000000000021
 21
165.0188183419846
 31
0.0
  0
LINE
  5
13D
  8
DATA
  6
CONTINUOUS
 62
     7
 10
58.750000000000021
 20
165.0188183419846
 30
0.0
 11
48.250000000000021
 21
165.0188183419846
 31
0.0
  0
POLYLINE
  5
13E
  8
DATA
  6
CONTINUOUS
 62
     7
 66
     1
 10
0.0
 20
0.0
 30
0.0
 70
     1
  0
VERTEX
  5
46D
  8
DATA
  6
CONTINUOUS
 62
     7
 10
48.500000000000021
 20
168.7326551674918
 30
0.0
  0
VERTEX
  5
46E
  8
DATA
  6
CONTINUOUS
 62
     7
 10
58.499999999999993
 20
168.7326551674918
 30
0.0
  0
VERTEX
  5
46F
  8
DATA
  6
CONTINUOUS
 62
     7
 10
58.499999999999993
 20
168.2326551674918
 30
0.0
  0
VERTEX
  5
470
  8
DATA
  6
CONTINUOUS
 62
     7
 10
48.500000000000021
 20
168.2326551674918
 30
0.0
  0
SEQEND
  5
471
  8
DATA
  6
CONTINUOUS
 62
     7
  0
POLYLINE
  5
145
  8
DATA
  6
CONTINUOUS
 62
     7
 66
     1
 10
0.0
 20
0.0
 30
0.0
 70
     1
  0
VERTEX
  5
472
  8
DATA
  6
CONTINUOUS
 62
     7
 10
56.000000000000043
 20
149.4621940149587
 30
0.0
  0
VERTEX
  5
473
  8
DATA
  6
CONTINUOUS
 62
     7
 10
53.500000000000043
 20
150.90556968793271
 30
0.0
  0
VERTEX
  5
474
  8
DATA
  6
CONTINUOUS
 62
     7
 10
51.000000000000043
 20
149.4621940149587
 30
0.0
  0
VERTEX
  5
475
  8
DATA
  6
CONTINUOUS
 62
     7
 10
51.000000000000043
 20
146.57544266901061
 30
0.0
  0
VERTEX
  5
476
  8
DATA
  6
CONTINUOUS
 62
     7
 10
53.500000000000043
 20
145.13206699603651
 30
0.0
  0
VERTEX
  5
477
  8
DATA
  6
CONTINUOUS
 62
     7
 10
56.000000000000043
 20
146.57544266901061
 30
0.0
  0
SEQEND
  5
478
  8
DATA
  6
CONTINUOUS
 62
     7
  0
CIRCLE
  5
14E
  8
DATA
  6
CONTINUOUS
 62
     7
 10
53.500000000000043
 20
148.0188183419846
 30
0.0
 40
1.200000000000045
  0
LINE
  5
14F
  8
DATA
  6
CONTINUOUS
 62
     7
 10
61.34999999999998
 20
141.0188183419846
 30
0.0
 11
45.649999999999991
 21
141.0188183419846
 31
0.0
  0
LINE
  5
150
  8
DATA
  6
CONTINUOUS
 62
     7
 10
61.34999999999998
 20
141.0188183419846
 30
0.0
 11
61.34999999999998
 21
136.71881834198459
 31
0.0
  0
LINE
  5
151
  8
DATA
  6
CONTINUOUS
 62
     7
 10
45.649999999999991
 20
141.0188183419846
 30
0.0
 11
45.649999999999991
 21
136.71881834198459
 31
0.0
  0
LINE
  5
152
  8
DATA
  6
CONTINUOUS
 62
     7
 10
61.34999999999998
 20
136.71881834198459
 30
0.0
 11
58.750000000000021
 21
135.0188183419846
 31
0.0
  0
LINE
  5
153
  8
DATA
  6
CONTINUOUS
 62
     7
 10
45.649999999999991
 20
136.71881834198459
 30
0.0
 11
48.250000000000021
 21
135.0188183419846
 31
0.0
  0
LINE
  5
154
  8
DATA
  6
CONTINUOUS
 62
     7
 10
58.750000000000021
 20
135.0188183419846
 30
0.0
 11
48.250000000000021
 21
135.0188183419846
 31
0.0
  0
POLYLINE
  5
155
  8
DATA
  6
CONTINUOUS
 62
     7
 66
     1
 10
0.0
 20
0.0
 30
0.0
 70
     1
  0
VERTEX
  5
479
  8
DATA
  6
CONTINUOUS
 62
     7
 10
48.500000000000021
 20
138.7326551674918
 30
0.0
  0
VERTEX
  5
47A
  8
DATA
  6
CONTINUOUS
 62
     7
 10
58.499999999999993
 20
138.7326551674918
 30
0.0
  0
VERTEX
  5
47B
  8
DATA
  6
CONTINUOUS
 62
     7
 10
58.499999999999993
 20
138.2326551674918
 30
0.0
  0
VERTEX
  5
47C
  8
DATA
  6
CONTINUOUS
 62
     7
 10
48.500000000000021
 20
138.2326551674918
 30
0.0
  0
SEQEND
  5
47D
  8
DATA
  6
CONTINUOUS
 62
     7
  0
POLYLINE
  5
15C
  8
DATA
  6
CONTINUOUS
 62
     7
 66
     1
 10
0.0
 20
0.0
 30
0.0
 70
     1
  0
VERTEX
  5
47E
  8
DATA
  6
CONTINUOUS
 62
     7
 10
56.000000000000043
 20
119.4621940149587
 30
0.0
  0
VERTEX
  5
47F
  8
DATA
  6
CONTINUOUS
 62
     7
 10
53.500000000000043
 20
120.9055696879327
 30
0.0
  0
VERTEX
  5
480
  8
DATA
  6
CONTINUOUS
 62
     7
 10
51.000000000000043
 20
119.4621940149587
 30
0.0
  0
VERTEX
  5
481
  8
DATA
  6
CONTINUOUS
 62
     7
 10
51.000000000000043
 20
116.5754426690106
 30
0.0
  0
VERTEX
  5
482
  8
DATA
  6
CONTINUOUS
 62
     7
 10
53.500000000000043
 20
115.1320669960365
 30
0.0
  0
VERTEX
  5
483
  8
DATA
  6
CONTINUOUS
 62
     7
 10
56.000000000000043
 20
116.5754426690106
 30
0.0
  0
SEQEND
  5
484
  8
DATA
  6
CONTINUOUS
 62
     7
  0
CIRCLE
  5
165
  8
DATA
  6
CONTINUOUS
 62
     7
 10
53.500000000000043
 20
118.0188183419846
 30
0.0
 40
1.200000000000045
  0
LINE
  5
166
  8
DATA
  6
CONTINUOUS
 62
     7
 10
61.34999999999998
 20
111.0188183419846
 30
0.0
 11
45.649999999999991
 21
111.0188183419846
 31
0.0
  0
LINE
  5
167
  8
DATA
  6
CONTINUOUS
 62
     7
 10
61.34999999999998
 20
111.0188183419846
 30
0.0
 11
61.34999999999998
 21
106.7188183419846
 31
0.0
  0
LINE
  5
168
  8
DATA
  6
CONTINUOUS
 62
     7
 10
45.649999999999991
 20
111.0188183419846
 30
0.0
 11
45.649999999999991
 21
106.7188183419846
 31
0.0
  0
LINE
  5
169
  8
DATA
  6
CONTINUOUS
 62
     7
 10
61.34999999999998
 20
106.7188183419846
 30
0.0
 11
58.750000000000021
 21
105.0188183419846
 31
0.0
  0
LINE
  5
16A
  8
DATA
  6
CONTINUOUS
 62
     7
 10
45.649999999999991
 20
106.7188183419846
 30
0.0
 11
48.250000000000021
 21
105.0188183419846
 31
0.0
  0
LINE
  5
16B
  8
DATA
  6
CONTINUOUS
 62
     7
 10
58.750000000000021
 20
105.0188183419846
 30
0.0
 11
48.250000000000021
 21
105.0188183419846
 31
0.0
  0
POLYLINE
  5
16C
  8
DATA
  6
CONTINUOUS
 62
     7
 66
     1
 10
0.0
 20
0.0
 30
0.0
 70
     1
  0
VERTEX
  5
485
  8
DATA
  6
CONTINUOUS
 62
     7
 10
48.500000000000021
 20
108.7326551674918
 30
0.0
  0
VERTEX
  5
486
  8
DATA
  6
CONTINUOUS
 62
     7
 10
58.499999999999993
 20
108.7326551674918
 30
0.0
  0
VERTEX
  5
487
  8
DATA
  6
CONTINUOUS
 62
     7
 10
58.499999999999993
 20
108.2326551674918
 30
0.0
  0
VERTEX
  5
488
  8
DATA
  6
CONTINUOUS
 62
     7
 10
48.500000000000021
 20
108.2326551674918
 30
0.0
  0
SEQEND
  5
489
  8
DATA
  6
CONTINUOUS
 62
     7
  0
POLYLINE
  5
173
  8
DATA
  6
CONTINUOUS
 62
     7
 66
     1
 10
0.0
 20
0.0
 30
0.0
 70
     1
  0
VERTEX
  5
48A
  8
DATA
  6
CONTINUOUS
 62
     7
 10
56.000000000000043
 20
89.462194014958683
 30
0.0
  0
VERTEX
  5
48B
  8
DATA
  6
CONTINUOUS
 62
     7
 10
53.500000000000043
 20
90.905569687932726
 30
0.0
  0
VERTEX
  5
48C
  8
DATA
  6
CONTINUOUS
 62
     7
 10
51.000000000000043
 20
89.462194014958683
 30
0.0
  0
VERTEX
  5
48D
  8
DATA
  6
CONTINUOUS
 62
     7
 10
51.000000000000043
 20
86.575442669010584
 30
0.0
  0
VERTEX
  5
48E
  8
DATA
  6
CONTINUOUS
 62
     7
 10
53.500000000000043
 20
85.132066996036514
 30
0.0
  0
VERTEX
  5
48F
  8
DATA
  6
CONTINUOUS
 62
     7
 10
56.000000000000043
 20
86.575442669010584
 30
0.0
  0
SEQEND
  5
490
  8
DATA
  6
CONTINUOUS
 62
     7
  0
CIRCLE
  5
17C
  8
DATA
  6
CONTINUOUS
 62
     7
 10
53.500000000000043
 20
88.018818341984641
 30
0.0
 40
1.200000000000045
  0
LINE
  5
17D
  8
DATA
  6
CONTINUOUS
 62
     7
 10
61.34999999999998
 20
81.018818341984613
 30
0.0
 11
45.649999999999991
 21
81.018818341984613
 31
0.0
  0
LINE
  5
17E
  8
DATA
  6
CONTINUOUS
 62
     7
 10
61.34999999999998
 20
81.018818341984613
 30
0.0
 11
61.34999999999998
 21
76.718818341984601
 31
0.0
  0
LINE
  5
17F
  8
DATA
  6
CONTINUOUS
 62
     7
 10
45.649999999999991
 20
81.018818341984613
 30
0.0
 11
45.649999999999991
 21
76.718818341984601
 31
0.0
  0
LINE
  5
180
  8
DATA
  6
CONTINUOUS
 62
     7
 10
61.34999999999998
 20
76.718818341984601
 30
0.0
 11
58.750000000000021
 21
75.018818341984613
 31
0.0
  0
LINE
  5
181
  8
DATA
  6
CONTINUOUS
 62
     7
 10
45.649999999999991
 20
76.718818341984601
 30
0.0
 11
48.250000000000021
 21
75.018818341984613
 31
0.0
  0
LINE
  5
182
  8
DATA
  6
CONTINUOUS
 62
     7
 10
58.750000000000021
 20
75.018818341984613
 30
0.0
 11
48.250000000000021
 21
75.018818341984613
 31
0.0
  0
POLYLINE
  5
183
  8
DATA
  6
CONTINUOUS
 62
     7
 66
     1
 10
0.0
 20
0.0
 30
0.0
 70
     1
  0
VERTEX
  5
491
  8
DATA
  6
CONTINUOUS
 62
     7
 10
48.500000000000021
 20
78.732655167491814
 30
0.0
  0
VERTEX
  5
492
  8
DATA
  6
CONTINUOUS
 62
     7
 10
58.499999999999993
 20
78.732655167491814
 30
0.0
  0
VERTEX
  5
493
  8
DATA
  6
CONTINUOUS
 62
     7
 10
58.499999999999993
 20
78.232655167491814
 30
0.0
  0
VERTEX
  5
494
  8
DATA
  6
CONTINUOUS
 62
     7
 10
48.500000000000021
 20
78.232655167491814
 30
0.0
  0
SEQEND
  5
495
  8
DATA
  6
CONTINUOUS
 62
     7
  0
LINE
  5
18A
  8
DATA
  6
CONTINUOUS
 62
     7
 10
-80.000000000000014
 20
38.0
 30
0.0
 11
-80.000000000000014
 21
43.5
 31
0.0
  0
LINE
  5
18B
  8
DATA
  6
CONTINUOUS
 62
     7
 10
-80.000000000000014
 20
43.5
 30
0.0
 11
-76.000000000000014
 21
43.5
 31
0.0
  0
LINE
  5
18C
  8
DATA
  6
CONTINUOUS
 62
     7
 10
-80.000000000000014
 20
38.0
 30
0.0
 11
-76.000000000000014
 21
38.0
 31
0.0
  0
LINE
  5
18D
  8
DATA
  6
CONTINUOUS
 62
     7
 10
-80.000000000000014
 20
43.5
 30
0.0
 11
-80.000000000000014
 21
38.0
 31
0.0
  0
LINE
  5
18E
  8
DATA
  6
CONTINUOUS
 62
     7
 10
-76.000000000000014
 20
43.5
 30
0.0
 11
-76.000000000000014
 21
38.0
 31
0.0
  0
LINE
  5
18F
  8
DATA
  6
CONTINUOUS
 62
     7
 10
-80.000000000000014
 20
40.0
 30
0.0
 11
-76.000000000000014
 21
40.0
 31
0.0
  0
LINE
  5
190
  8
DATA
  6
CONTINUOUS
 62
     7
 10
-80.000000000000014
 20
20.0
 30
0.0
 11
-80.000000000000014
 21
25.5
 31
0.0
  0
LINE
  5
191
  8
DATA
  6
CONTINUOUS
 62
     7
 10
-80.000000000000014
 20
25.5
 30
0.0
 11
-76.000000000000014
 21
25.5
 31
0.0
  0
LINE
  5
192
  8
DATA
  6
CONTINUOUS
 62
     7
 10
-80.000000000000014
 20
20.0
 30
0.0
 11
-76.000000000000014
 21
20.0
 31
0.0
  0
LINE
  5
193
  8
DATA
  6
CONTINUOUS
 62
     7
 10
-80.000000000000014
 20
25.5
 30
0.0
 11
-80.000000000000014
 21
20.0
 31
0.0
  0
LINE
  5
194
  8
DATA
  6
CONTINUOUS
 62
     7
 10
-76.000000000000014
 20
25.5
 30
0.0
 11
-76.000000000000014
 21
20.0
 31
0.0
  0
LINE
  5
195
  8
DATA
  6
CONTINUOUS
 62
     7
 10
-80.000000000000014
 20
22.0
 30
0.0
 11
-76.000000000000014
 21
22.0
 31
0.0
  0
LINE
  5
196
  8
DATA
  6
CONTINUOUS
 62
     7
 10
-80.000000000000014
 20
2.0
 30
0.0
 11
-80.000000000000014
 21
7.5
 31
0.0
  0
LINE
  5
197
  8
DATA
  6
CONTINUOUS
 62
     7
 10
-80.000000000000014
 20
7.5
 30
0.0
 11
-76.000000000000014
 21
7.5
 31
0.0
  0
LINE
  5
198
  8
DATA
  6
CONTINUOUS
 62
     7
 10
-80.000000000000014
 20
2.0
 30
0.0
 11
-76.000000000000014
 21
2.0
 31
0.0
  0
LINE
  5
199
  8
DATA
  6
CONTINUOUS
 62
     7
 10
-80.000000000000014
 20
7.5
 30
0.0
 11
-80.000000000000014
 21
2.0
 31
0.0
  0
LINE
  5
19A
  8
DATA
  6
CONTINUOUS
 62
     7
 10
-76.000000000000014
 20
7.5
 30
0.0
 11
-76.000000000000014
 21
2.0
 31
0.0
  0
LINE
  5
19B
  8
DATA
  6
CONTINUOUS
 62
     7
 10
-80.000000000000014
 20
4.0
 30
0.0
 11
-76.000000000000014
 21
4.0
 31
0.0
  0
CIRCLE
  5
19C
  8
DATA
  6
CONTINUOUS
 62
     7
 10
-78.000000000000014
 20
-40.0
 30
0.0
 40
1.5
  0
CIRCLE
  5
19D
  8
DATA
  6
CONTINUOUS
 62
     7
 10
-78.000000000000014
 20
-30.0
 30
0.0
 40
1.5
  0
CIRCLE
  5
19E
  8
DATA
  6
CONTINUOUS
 62
     7
 10
-78.000000000000014
 20
-20.0
 30
0.0
 40
1.5
  0
CIRCLE
  5
19F
  8
DATA
  6
CONTINUOUS
 62
     7
 10
-78.000000000000014
 20
-10.0
 30
0.0
 40
1.5
  0
CIRCLE
  5
1A0
  8
DATA
  6
CONTINUOUS
 62
     7
 10
-68.000000000000014
 20
-40.0
 30
0.0
 40
1.5
  0
CIRCLE
  5
1A1
  8
DATA
  6
CONTINUOUS
 62
     7
 10
-68.000000000000014
 20
-30.0
 30
0.0
 40
1.5
  0
CIRCLE
  5
1A2
  8
DATA
  6
CONTINUOUS
 62
     7
 10
-68.000000000000014
 20
-20.0
 30
0.0
 40
1.5
  0
CIRCLE
  5
1A3
  8
DATA
  6
CONTINUOUS
 62
     7
 10
-68.000000000000014
 20
-10.0
 30
0.0
 40
1.5
  0
CIRCLE
  5
1A4
  8
DATA
  6
CONTINUOUS
 62
     7
 10
-60.500000000000021
 20
-40.0
 30
0.0
 40
1.5
  0
CIRCLE
  5
1A5
  8
DATA
  6
CONTINUOUS
 62
     7
 10
-60.500000000000021
 20
-30.0
 30
0.0
 40
1.5
  0
CIRCLE
  5
1A6
  8
DATA
  6
CONTINUOUS
 62
     7
 10
-60.500000000000021
 20
-20.0
 30
0.0
 40
1.5
  0
CIRCLE
  5
1A7
  8
DATA
  6
CONTINUOUS
 62
     7
 10
-60.500000000000021
 20
-10.0
 30
0.0
 40
1.5
  0
CIRCLE
  5
1A8
  8
DATA
  6
CONTINUOUS
 62
     7
 10
-53.000000000000021
 20
-40.0
 30
0.0
 40
1.5
  0
CIRCLE
  5
1A9
  8
DATA
  6
CONTINUOUS
 62
     7
 10
-53.000000000000021
 20
-30.0
 30
0.0
 40
1.5
  0
CIRCLE
  5
1AA
  8
DATA
  6
CONTINUOUS
 62
     7
 10
-53.000000000000021
 20
-20.0
 30
0.0
 40
1.5
  0
CIRCLE
  5
1AB
  8
DATA
  6
CONTINUOUS
 62
     7
 10
-53.000000000000021
 20
-10.0
 30
0.0
 40
1.5
  0
CIRCLE
  5
1AC
  8
DATA
  6
CONTINUOUS
 62
     7
 10
-45.500000000000021
 20
-40.0
 30
0.0
 40
1.5
  0
CIRCLE
  5
1AD
  8
DATA
  6
CONTINUOUS
 62
     7
 10
-45.500000000000021
 20
-30.0
 30
0.0
 40
1.5
  0
CIRCLE
  5
1AE
  8
DATA
  6
CONTINUOUS
 62
     7
 10
-45.500000000000021
 20
-20.0
 30
0.0
 40
1.5
  0
CIRCLE
  5
1AF
  8
DATA
  6
CONTINUOUS
 62
     7
 10
-45.500000000000021
 20
-10.0
 30
0.0
 40
1.5
  0
LINE
  5
1B0
  8
DATA
  6
CONTINUOUS
 62
     7
 10
-10.000000000000011
 20
-55.5
 30
0.0
 11
0.9999999999999857
 21
-55.5
 31
0.0
  0
LINE
  5
1B1
  8
DATA
  6
CONTINUOUS
 62
     7
 10
-10.000000000000011
 20
-44.5
 30
0.0
 11
0.9999999999999857
 21
-44.5
 31
0.0
  0
LINE
  5
1B2
  8
DATA
  6
CONTINUOUS
 62
     7
 10
0.9999999999999857
 20
-55.5
 30
0.0
 11
0.9999999999999857
 21
-44.5
 31
0.0
  0
LINE
  5
1B3
  8
DATA
  6
CONTINUOUS
 62
     7
 10
-10.000000000000011
 20
-55.5
 30
0.0
 11
-10.000000000000011
 21
-44.5
 31
0.0
  0
CIRCLE
  5
1B4
  8
DATA
  6
CONTINUOUS
 62
     7
 10
64.999999999999986
 20
-41.5
 30
0.0
 40
1.5
  0
CIRCLE
  5
1B5
  8
DATA
  6
CONTINUOUS
 62
     7
 10
50.0
 20
-206.41744683740691
 30
0.0
 40
3.9000000000000048
  0
POLYLINE
  5
1B6
  8
DATA
  6
CONTINUOUS
 62
     7
 66
     1
 10
0.0
 20
0.0
 30
0.0
 70
     1
  0
VERTEX
  5
496
  8
DATA
  6
CONTINUOUS
 62
     7
 10
50.0
 20
-200.91744683740691
 30
0.0
  0
VERTEX
  5
497
  8
DATA
  6
CONTINUOUS
 62
     7
 10
45.236860279185571
 20
-203.66744683740691
 30
0.0
  0
VERTEX
  5
498
  8
DATA
  6
CONTINUOUS
 62
     7
 10
45.236860279185571
 20
-209.16744683740691
 30
0.0
  0
VERTEX
  5
499
  8
DATA
  6
CONTINUOUS
 62
     7
 10
50.0
 20
-211.91744683740691
 30
0.0
  0
VERTEX
  5
49A
  8
DATA
  6
CONTINUOUS
 62
     7
 10
54.763139720814401
 20
-209.16744683740691
 30
0.0
  0
VERTEX
  5
49B
  8
DATA
  6
CONTINUOUS
 62
     7
 10
54.763139720814401
 20
-203.66744683740691
 30
0.0
  0
SEQEND
  5
49C
  8
DATA
  6
CONTINUOUS
 62
     7
  0
CIRCLE
  5
1BF
  8
DATA
  6
CONTINUOUS
 62
     7
 10
50.0
 20
-206.41744683740691
 30
0.0
 40
1.0
  0
LINE
  5
1C0
  8
DATA
  6
CONTINUOUS
 62
     7
 10
46.09999999999998
 20
-75.5
 30
0.0
 11
46.09999999999998
 21
-79.5
 31
0.0
  0
LINE
  5
1C1
  8
DATA
  6
CONTINUOUS
 62
     7
 10
53.899999999999991
 20
-75.5
 30
0.0
 11
53.899999999999991
 21
-79.5
 31
0.0
  0
LINE
  5
1C2
  8
DATA
  6
CONTINUOUS
 62
     7
 10
45.236860279185571
 20
-73.5
 30
0.0
 11
45.236860279185571
 21
-75.5
 31
0.0
  0
LINE
  5
1C3
  8
DATA
  6
CONTINUOUS
 62
     7
 10
54.763139720814401
 20
-73.5
 30
0.0
 11
54.763139720814401
 21
-75.5
 31
0.0
  0
LINE
  5
1C4
  8
DATA
  6
CONTINUOUS
 62
     7
 10
45.236860279185571
 20
-75.5
 30
0.0
 11
54.763139720814401
 21
-75.5
 31
0.0
  0
LINE
  5
1C5
  8
DATA
  6
CONTINUOUS
 62
     7
 10
46.09999999999998
 20
-79.5
 30
0.0
 11
53.899999999999991
 21
-79.5
 31
0.0
  0
CIRCLE
  5
1C6
  8
DATA
  6
CONTINUOUS
 62
     7
 10
-50.993483539548372
 20
-211.25361358661721
 30
0.0
 40
1.1750000000000109
  0
POLYLINE
  5
1C7
  8
DATA
  6
CONTINUOUS
 62
     7
 66
     1
 10
0.0
 20
0.0
 30
0.0
 70
     1
  0
VERTEX
  5
49D
  8
DATA
  6
CONTINUOUS
 62
     7
 10
-50.993483539548372
 20
-208.5536135866175
 30
0.0
  0
VERTEX
  5
49E
  8
DATA
  6
CONTINUOUS
 62
     7
 10
-53.331752129766159
 20
-209.90361358661741
 30
0.0
  0
VERTEX
  5
49F
  8
DATA
  6
CONTINUOUS
 62
     7
 10
-53.331752129766159
 20
-212.60361358661709
 30
0.0
  0
VERTEX
  5
4A0
  8
DATA
  6
CONTINUOUS
 62
     7
 10
-50.993483539548372
 20
-213.953613586617
 30
0.0
  0
VERTEX
  5
4A1
  8
DATA
  6
CONTINUOUS
 62
     7
 10
-48.655214949330379
 20
-212.60361358661709
 30
0.0
  0
VERTEX
  5
4A2
  8
DATA
  6
CONTINUOUS
 62
     7
 10
-48.655214949330379
 20
-209.90361358661741
 30
0.0
  0
SEQEND
  5
4A3
  8
DATA
  6
CONTINUOUS
 62
     7
  0
CIRCLE
  5
1D0
  8
DATA
  6
CONTINUOUS
 62
     7
 10
-75.993483539548478
 20
-211.25361358661721
 30
0.0
 40
1.1750000000000389
  0
POLYLINE
  5
1D1
  8
DATA
  6
CONTINUOUS
 62
     7
 66
     1
 10
0.0
 20
0.0
 30
0.0
 70
     1
  0
VERTEX
  5
4A4
  8
DATA
  6
CONTINUOUS
 62
     7
 10
-75.993483539548478
 20
-208.5536135866175
 30
0.0
  0
VERTEX
  5
4A5
  8
DATA
  6
CONTINUOUS
 62
     7
 10
-78.331752129766372
 20
-209.90361358661741
 30
0.0
  0
VERTEX
  5
4A6
  8
DATA
  6
CONTINUOUS
 62
     7
 10
-78.331752129766372
 20
-212.60361358661709
 30
0.0
  0
VERTEX
  5
4A7
  8
DATA
  6
CONTINUOUS
 62
     7
 10
-75.993483539548478
 20
-213.953613586617
 30
0.0
  0
VERTEX
  5
4A8
  8
DATA
  6
CONTINUOUS
 62
     7
 10
-73.655214949330428
 20
-212.60361358661709
 30
0.0
  0
VERTEX
  5
4A9
  8
DATA
  6
CONTINUOUS
 62
     7
 10
-73.655214949330428
 20
-209.90361358661741
 30
0.0
  0
SEQEND
  5
4AA
  8
DATA
  6
CONTINUOUS
 62
     7
  0
LINE
  5
1DA
  8
DATA
  6
CONTINUOUS
 62
     7
 10
-57.8917203293597
 20
-215.25361358661709
 30
0.0
 11
-69.095246749736916
 21
-215.25361358661709
 31
0.0
  0
LINE
  5
1DB
  8
DATA
  6
CONTINUOUS
 62
     7
 10
-69.907746749736802
 20
-207.2536135866174
 30
0.0
 11
-57.0792203293597
 21
-207.2536135866174
 31
0.0
  0
LINE
  5
1DC
  8
DATA
  6
CONTINUOUS
 62
     7
 10
-70.47846359698849
 20
-214.06974121900009
 30
0.0
 11
-71.290963596988362
 21
-208.8697412190005
 31
0.0
  0
LINE
  5
1DD
  8
DATA
  6
CONTINUOUS
 62
     7
 10
-55.696003482108154
 20
-208.8697412190005
 30
0.0
 11
-56.508503482108139
 21
-214.06974121900009
 31
0.0
  0
CIRCLE
  5
1DE
  8
DATA
  6
CONTINUOUS
 62
     7
 10
-63.52011331002322
 20
-209.6173054154637
 30
0.0
 40
0.5
  0
ARC
  5
1DF
  8
DATA
  6
CONTINUOUS
 62
     7
 10
-69.907746749736802
 20
-208.65361358661741
 30
0.0
 40
1.399999999999977
 50
90.0
 51
188.88065915052059
  0
ARC
  5
1E0
  8
DATA
  6
CONTINUOUS
 62
     7
 10
-57.0792203293597
 20
-208.65361358661741
 30
0.0
 40
1.400000000000019
 50
351.11934084947939
 51
90.0
  0
ARC
  5
1E1
  8
DATA
  6
CONTINUOUS
 62
     7
 10
-69.095246749736916
 20
-213.853613586617
 30
0.0
 40
1.4000000000000281
 50
188.88065915052289
 51
270.0
  0
ARC
  5
1E2
  8
DATA
  6
CONTINUOUS
 62
     7
 10
-57.8917203293597
 20
-213.853613586617
 30
0.0
 40
1.4000000000001469
 50
270.0
 51
351.11934084947723
  0
CIRCLE
  5
1E3
  8
DATA
  6
CONTINUOUS
 62
     7
 10
-66.02011331002322
 20
-209.6173054154637
 30
0.0
 40
0.5
  0
CIRCLE
  5
1E4
  8
DATA
  6
CONTINUOUS
 62
     7
 10
-68.52011331002322
 20
-209.6173054154637
 30
0.0
 40
0.5
  0
CIRCLE
  5
1E5
  8
DATA
  6
CONTINUOUS
 62
     7
 10
-61.02011331002322
 20
-209.6173054154637
 30
0.0
 40
0.5
  0
CIRCLE
  5
1E6
  8
DATA
  6
CONTINUOUS
 62
     7
 10
-58.52011331002322
 20
-209.6173054154637
 30
0.0
 40
0.5
  0
CIRCLE
  5
1E7
  8
DATA
  6
CONTINUOUS
 62
     7
 10
-64.715624486094455
 20
-213.23582583422601
 30
0.0
 40
0.5
  0
CIRCLE
  5
1E8
  8
DATA
  6
CONTINUOUS
 62
     7
 10
-67.215624486094455
 20
-213.23582583422601
 30
0.0
 40
0.5
  0
CIRCLE
  5
1E9
  8
DATA
  6
CONTINUOUS
 62
     7
 10
-62.21562448609447
 20
-213.23582583422601
 30
0.0
 40
0.5
  0
CIRCLE
  5
1EA
  8
DATA
  6
CONTINUOUS
 62
     7
 10
-59.71562448609447
 20
-213.23582583422601
 30
0.0
 40
0.5
  0
LINE
  5
1EB
  8
DATA
  6
CONTINUOUS
 62
     7
 10
-100.0
 20
-223.40000000000001
 30
0.0
 11
75.999999999999986
 21
-223.40000000000001
 31
0.0
  0
CIRCLE
  5
1EC
  8
DATA
  6
CONTINUOUS
 62
     7
 10
-38.000000000000021
 20
-210.90000000000001
 30
0.0
 40
3.0
  0
CIRCLE
  5
1ED
  8
DATA
  6
CONTINUOUS
 62
     7
 10
-38.000000000000021
 20
-210.90000000000001
 30
0.0
 40
1.8000000000000109
  0
ARC
  5
1EE
  8
DATA
  6
CONTINUOUS
 62
     7
 10
-98.0
 20
-201.0
 30
0.0
 40
2.0
 50
90.0
 51
180.0
  0
ARC
  5
1EF
  8
DATA
  6
CONTINUOUS
 62
     7
 10
73.999999999999986
 20
-201.0
 30
0.0
 40
2.0
 50
0.0
 51
90.0
  0
LINE
  5
1F0
  8
DATA
  6
CONTINUOUS
 62
     7
 10
-25.800000000000029
 20
-217.90000000000001
 30
0.0
 11
-20.20000000000001
 21
-217.90000000000001
 31
0.0
  0
LINE
  5
1F1
  8
DATA
  6
CONTINUOUS
 62
     7
 10
-26.875000000000011
 20
-213.90000000000001
 30
0.0
 11
-19.125000000000011
 21
-213.90000000000001
 31
0.0
  0
LINE
  5
1F2
  8
DATA
  6
CONTINUOUS
 62
     7
 10
-26.875000000000011
 20
-215.90000000000001
 30
0.0
 11
-26.875000000000011
 21
-213.90000000000001
 31
0.0
  0
LINE
  5
1F3
  8
DATA
  6
CONTINUOUS
 62
     7
 10
-19.125000000000011
 20
-215.90000000000001
 30
0.0
 11
-19.125000000000011
 21
-213.90000000000001
 31
0.0
  0
LINE
  5
1F4
  8
DATA
  6
CONTINUOUS
 62
     7
 10
-26.875000000000011
 20
-215.90000000000001
 30
0.0
 11
-25.800000000000029
 21
-215.90000000000001
 31
0.0
  0
LINE
  5
1F5
  8
DATA
  6
CONTINUOUS
 62
     7
 10
-20.20000000000001
 20
-215.90000000000001
 30
0.0
 11
-19.125000000000011
 21
-215.90000000000001
 31
0.0
  0
LINE
  5
1F6
  8
DATA
  6
CONTINUOUS
 62
     7
 10
-25.800000000000029
 20
-217.90000000000001
 30
0.0
 11
-25.800000000000029
 21
-215.90000000000001
 31
0.0
  0
LINE
  5
1F7
  8
DATA
  6
CONTINUOUS
 62
     7
 10
-20.20000000000001
 20
-217.90000000000001
 30
0.0
 11
-20.20000000000001
 21
-215.90000000000001
 31
0.0
  0
LINE
  5
1F8
  8
DATA
  6
CONTINUOUS
 62
     7
 10
-79.500000000000014
 20
-197.5
 30
0.0
 11
-76.500000000000014
 21
-197.5
 31
0.0
  0
LINE
  5
1F9
  8
DATA
  6
CONTINUOUS
 62
     7
 10
-79.500000000000014
 20
-197.5
 30
0.0
 11
-79.500000000000014
 21
-199.0
 31
0.0
  0
LINE
  5
1FA
  8
DATA
  6
CONTINUOUS
 62
     7
 10
-76.500000000000014
 20
-197.5
 30
0.0
 11
-76.500000000000014
 21
-199.0
 31
0.0
  0
LINE
  5
1FB
  8
DATA
  6
CONTINUOUS
 62
     7
 10
-91.0
 20
-199.0
 30
0.0
 11
-60.000000000000021
 21
-199.0
 31
0.0
  0
LINE
  5
1FC
  8
DATA
  6
CONTINUOUS
 62
     7
 10
-79.999999999999957
 20
-193.0
 30
0.0
 11
-76.000000000000071
 21
-193.0
 31
0.0
  0
LINE
  5
1FD
  8
DATA
  6
CONTINUOUS
 62
     7
 10
-79.999999999999957
 20
-193.0
 30
0.0
 11
-79.999999999999957
 21
-199.0
 31
0.0
  0
LINE
  5
1FE
  8
DATA
  6
CONTINUOUS
 62
     7
 10
-76.000000000000071
 20
-193.0
 30
0.0
 11
-76.000000000000071
 21
-199.0
 31
0.0
  0
LINE
  5
1FF
  8
DATA
  6
CONTINUOUS
 62
     7
 10
-68.500000000000014
 20
-197.5
 30
0.0
 11
-67.500000000000014
 21
-197.5
 31
0.0
  0
LINE
  5
200
  8
DATA
  6
CONTINUOUS
 62
     7
 10
-69.500000000000014
 20
-198.5
 30
0.0
 11
-69.500000000000014
 21
-199.0
 31
0.0
  0
LINE
  5
201
  8
DATA
  6
CONTINUOUS
 62
     7
 10
-66.500000000000014
 20
-198.5
 30
0.0
 11
-66.500000000000014
 21
-199.0
 31
0.0
  0
ARC
  5
202
  8
DATA
  6
CONTINUOUS
 62
     7
 10
-68.500000000000014
 20
-198.5
 30
0.0
 40
1.0
 50
90.0
 51
180.0
  0
ARC
  5
203
  8
DATA
  6
CONTINUOUS
 62
     7
 10
-67.500000000000014
 20
-198.5
 30
0.0
 40
1.0
 50
0.0
 51
90.0
  0
LINE
  5
204
  8
DATA
  6
CONTINUOUS
 62
     7
 10
-61.000000000000021
 20
-197.5
 30
0.0
 11
-60.000000000000021
 21
-197.5
 31
0.0
  0
LINE
  5
205
  8
DATA
  6
CONTINUOUS
 62
     7
 10
-62.000000000000021
 20
-198.5
 30
0.0
 11
-62.000000000000021
 21
-199.0
 31
0.0
  0
LINE
  5
206
  8
DATA
  6
CONTINUOUS
 62
     7
 10
-59.000000000000021
 20
-198.5
 30
0.0
 11
-59.000000000000021
 21
-199.0
 31
0.0
  0
ARC
  5
207
  8
DATA
  6
CONTINUOUS
 62
     7
 10
-61.000000000000021
 20
-198.5
 30
0.0
 40
1.0
 50
90.0
 51
180.0
  0
ARC
  5
208
  8
DATA
  6
CONTINUOUS
 62
     7
 10
-60.000000000000021
 20
-198.5
 30
0.0
 40
1.0
 50
0.0
 51
90.0
  0
LINE
  5
209
  8
DATA
  6
CONTINUOUS
 62
     7
 10
-53.500000000000021
 20
-197.5
 30
0.0
 11
-52.500000000000021
 21
-197.5
 31
0.0
  0
LINE
  5
20A
  8
DATA
  6
CONTINUOUS
 62
     7
 10
-54.500000000000021
 20
-198.5
 30
0.0
 11
-54.500000000000021
 21
-199.0
 31
0.0
  0
LINE
  5
20B
  8
DATA
  6
CONTINUOUS
 62
     7
 10
-51.500000000000021
 20
-198.5
 30
0.0
 11
-51.500000000000021
 21
-199.0
 31
0.0
  0
ARC
  5
20C
  8
DATA
  6
CONTINUOUS
 62
     7
 10
-53.500000000000021
 20
-198.5
 30
0.0
 40
1.0
 50
90.0
 51
180.0
  0
ARC
  5
20D
  8
DATA
  6
CONTINUOUS
 62
     7
 10
-52.500000000000021
 20
-198.5
 30
0.0
 40
1.0
 50
0.0
 51
90.0
  0
LINE
  5
20E
  8
DATA
  6
CONTINUOUS
 62
     7
 10
-46.000000000000021
 20
-197.5
 30
0.0
 11
-45.000000000000021
 21
-197.5
 31
0.0
  0
LINE
  5
20F
  8
DATA
  6
CONTINUOUS
 62
     7
 10
-47.000000000000007
 20
-198.5
 30
0.0
 11
-47.000000000000007
 21
-199.0
 31
0.0
  0
LINE
  5
210
  8
DATA
  6
CONTINUOUS
 62
     7
 10
-44.000000000000021
 20
-198.5
 30
0.0
 11
-44.000000000000021
 21
-199.0
 31
0.0
  0
ARC
  5
211
  8
DATA
  6
CONTINUOUS
 62
     7
 10
-46.000000000000021
 20
-198.5
 30
0.0
 40
1.0
 50
90.0
 51
180.0
  0
ARC
  5
212
  8
DATA
  6
CONTINUOUS
 62
     7
 10
-45.000000000000021
 20
-198.5
 30
0.0
 40
1.0
 50
0.0
 51
90.0
  0
LINE
  5
213
  8
DATA
  6
CONTINUOUS
 62
     7
 10
51.000000000000043
 20
-193.0
 30
0.0
 11
54.999999999999929
 21
-193.0
 31
0.0
  0
LINE
  5
214
  8
DATA
  6
CONTINUOUS
 62
     7
 10
51.000000000000043
 20
-193.0
 30
0.0
 11
51.000000000000043
 21
-199.0
 31
0.0
  0
LINE
  5
215
  8
DATA
  6
CONTINUOUS
 62
     7
 10
54.999999999999929
 20
-193.0
 30
0.0
 11
54.999999999999929
 21
-199.0
 31
0.0
  0
LINE
  5
216
  8
DATA
  6
CONTINUOUS
 62
     7
 10
64.499999999999986
 20
-197.5
 30
0.0
 11
65.499999999999986
 21
-197.5
 31
0.0
  0
LINE
  5
217
  8
DATA
  6
CONTINUOUS
 62
     7
 10
63.499999999999993
 20
-198.5
 30
0.0
 11
63.499999999999993
 21
-199.0
 31
0.0
  0
LINE
  5
218
  8
DATA
  6
CONTINUOUS
 62
     7
 10
66.499999999999986
 20
-198.5
 30
0.0
 11
66.499999999999986
 21
-199.0
 31
0.0
  0
ARC
  5
219
  8
DATA
  6
CONTINUOUS
 62
     7
 10
64.499999999999986
 20
-198.5
 30
0.0
 40
1.0
 50
90.0
 51
180.0
  0
ARC
  5
21A
  8
DATA
  6
CONTINUOUS
 62
     7
 10
65.499999999999986
 20
-198.5
 30
0.0
 40
1.0
 50
0.0
 51
90.0
  0
TEXT
  5
21B
  8
DATA
 62
     7
 10
41.503926174644249
 20
-71.299373928584998
 30
0.0
 40
5.4294704861111107
  1
5V DC
 41
0.7
 11
41.503926174644249
 21
-65.869903442473884
 31
0.0
 73
     3
  0
TEXT
  5
21C
  8
DATA
 62
     7
 10
-73.124567567655873
 20
-71.299373928584998
 30
0.0
 40
5.4294704861111107
  1
RS-232
 41
0.7
 11
-73.124567567655873
 21
-65.869903442473884
 31
0.0
 73
     3
  0
TEXT
  5
21D
  8
DATA
 62
     7
 10
-50.013692098140268
 20
-71.299373928584998
 30
0.0
 40
5.4294704861111107
  1
IR Ext
 41
0.7
 11
-50.013692098140268
 21
-65.869903442473884
 31
0.0
 73
     3
  0
TEXT
  5
21E
  8
DATA
 62
     7
 10
-26.518857930948609
 20
-71.299373928584998
 30
0.0
 40
5.4294704861111107
  1
USB
 41
0.7
 11
-26.518857930948609
 21
-65.869903442473884
 31
0.0
 73
     3
  0
TEXT
  5
21F
  8
DATA
 62
     7
 10
-8.5531096291056343
 20
-42.031416793442041
 30
0.0
 40
5.4294704861111107
  1
IR
 41
0.7
 11
-8.5531096291056343
 21
-36.601946307330927
 31
0.0
 73
     3
  0
TEXT
  5
220
  8
DATA
 62
     7
 10
-97.224247429239
 20
-11.989355573269609
 30
0.0
 40
4.1806922743055548
  1
Out 1
 41
0.7
 11
-97.224247429239
 21
-7.8086632989640616
 31
0.0
 73
     3
  0
TEXT
  5
221
  8
DATA
 62
     7
 10
-97.224247429239
 20
-21.98935557326962
 30
0.0
 40
4.1806922743055548
  1
Out 2
 41
0.7
 11
-97.224247429239
 21
-17.80866329896406
 31
0.0
 73
     3
  0
TEXT
  5
222
  8
DATA
 62
     7
 10
-97.224247429239
 20
-31.98935557326962
 30
0.0
 40
4.1806922743055548
  1
Out 3
 41
0.7
 11
-97.224247429239
 21
-27.808663298964071
 31
0.0
 73
     3
  0
TEXT
  5
223
  8
DATA
 62
     7
 10
-97.224247429239
 20
-41.989355573269613
 30
0.0
 40
4.1806922743055548
  1
Out 4
 41
0.7
 11
-97.224247429239
 21
-37.808663298964071
 31
0.0
 73
     3
  0
TEXT
  5
224
  8
DATA
 62
     7
 10
-69.471654688917283
 20
-6.3124906221653969
 30
0.0
 40
4.1806922743055548
  1
1
 41
0.7
 11
-69.471654688917283
 21
-2.1317983478598421
 31
0.0
 73
     3
  0
TEXT
  5
225
  8
DATA
 62
     7
 10
-61.97165468891729
 20
-6.3124906221653969
 30
0.0
 40
4.1806922743055548
  1
2
 41
0.7
 11
-61.97165468891729
 21
-2.1317983478598421
 31
0.0
 73
     3
  0
TEXT
  5
226
  8
DATA
 62
     7
 10
-54.47165468891729
 20
-6.3124906221653969
 30
0.0
 40
4.1806922743055548
  1
3
 41
0.7
 11
-54.47165468891729
 21
-2.1317983478598421
 31
0.0
 73
     3
  0
TEXT
  5
227
  8
DATA
 62
     7
 10
-46.97165468891729
 20
-6.3124906221653969
 30
0.0
 40
4.1806922743055548
  1
4
 41
0.7
 11
-46.97165468891729
 21
-2.1317983478598421
 31
0.0
 73
     3
  0
TEXT
  5
228
  8
DATA
 62
     7
 10
-83.518204092235976
 20
9.5732479251782721
 30
0.0
 40
4.5987615017361101
  1
EDID
 41
0.7
 11
-83.518204092235976
 21
14.17200942691438
 31
0.0
 73
     3
  0
TEXT
  5
229
  8
DATA
 62
     7
 10
-85.013537910485013
 20
27.573247925178279
 30
0.0
 40
4.5987615017361101
  1
Audio
 41
0.7
 11
-85.013537910485013
 21
32.172009426914393
 31
0.0
 73
     3
  0
TEXT
  5
22A
  8
DATA
 62
     7
 10
-70.103591604762599
 20
5.9958434906525211
 30
0.0
 40
3.679009201388888
  1
Int
 41
0.7
 11
-70.103591604762599
 21
9.6748526920414104
 31
0.0
 73
     3
  0
TEXT
  5
22B
  8
DATA
 62
     7
 10
-70.103591604762599
 20
0.7635892690163552
 30
0.0
 40
3.679009201388888
  1
Ext
 41
0.7
 11
-70.103591604762599
 21
4.442598470405243
 31
0.0
 73
     3
  0
TEXT
  5
22C
  8
DATA
 62
     7
 10
-70.103591604762599
 20
23.436690896106409
 30
0.0
 40
3.679009201388888
  1
2CH
 41
0.7
 11
-70.103591604762599
 21
27.115700097495299
 31
0.0
 73
     3
  0
TEXT
  5
22D
  8
DATA
 62
     7
 10
-70.103591604762599
 20
18.436690896106409
 30
0.0
 40
3.679009201388888
  1
Multi CH
 41
0.7
 11
-70.103591604762599
 21
22.115700097495299
 31
0.0
 73
     3
  0
TEXT
  5
22E
  8
DATA
 62
     7
 10
-79.950396196633818
 20
62.328339373289758
 30
0.0
 40
4.1806922743055548
  1
In
 41
0.7
 11
-79.950396196633818
 21
66.509031647595322
 31
0.0
 73
     3
  0
TEXT
  5
22F
  8
DATA
 62
     7
 10
50.346427371544593
 20
62.328339373289758
 30
0.0
 40
4.1806922743055548
  1
Out
 41
0.7
 11
50.346427371544593
 21
66.509031647595322
 31
0.0
 73
     3
  0
TEXT
  5
230
  8
DATA
 62
     7
 10
-93.999999999999986
 20
166.4605922222222
 30
0.0
 40
4.5987615017361101
  1
1
 41
0.7
 11
-93.999999999999986
 21
171.05935372395831
 31
0.0
 73
     3
  0
TEXT
  5
231
  8
DATA
 62
     7
 10
-93.999999999999986
 20
136.4605922222222
 30
0.0
 40
4.5987615017361101
  1
2
 41
0.7
 11
-93.999999999999986
 21
141.05935372395831
 31
0.0
 73
     3
  0
TEXT
  5
232
  8
DATA
 62
     7
 10
-93.999999999999986
 20
106.4605922222222
 30
0.0
 40
4.5987615017361101
  1
3
 41
0.7
 11
-93.999999999999986
 21
111.0593537239583
 31
0.0
 73
     3
  0
TEXT
  5
233
  8
DATA
 62
     7
 10
-93.999999999999986
 20
76.460592222222232
 30
0.0
 40
4.5987615017361101
  1
4
 41
0.7
 11
-93.999999999999986
 21
81.059353723958324
 31
0.0
 73
     3
  0
TEXT
  5
234
  8
DATA
 62
     7
 10
65.583125463404954
 20
166.4605922222222
 30
0.0
 40
4.5987615017361101
  1
1
 41
0.7
 11
65.583125463404954
 21
171.05935372395831
 31
0.0
 73
     3
  0
TEXT
  5
235
  8
DATA
 62
     7
 10
65.583125463404954
 20
136.4605922222222
 30
0.0
 40
4.5987615017361101
  1
2
 41
0.7
 11
65.583125463404954
 21
141.05935372395831
 31
0.0
 73
     3
  0
TEXT
  5
236
  8
DATA
 62
     7
 10
65.583125463404954
 20
106.4605922222222
 30
0.0
 40
4.5987615017361101
  1
3
 41
0.7
 11
65.583125463404954
 21
111.0593537239583
 31
0.0
 73
     3
  0
TEXT
  5
237
  8
DATA
 62
     7
 10
65.583125463404954
 20
76.460592222222232
 30
0.0
 40
4.5987615017361101
  1
4
 41
0.7
 11
65.583125463404954
 21
81.059353723958324
 31
0.0
 73
     3
  0
TEXT
  5
238
  8
DATA
 62
     7
 10
-23.961324100236521
 20
99.022217605673731
 30
0.0
 40
8.6871527777777793
  1
4\U+00D74
 41
0.7
 11
-23.961324100236521
 21
107.7093703834515
 31
0.0
 73
     3
  0
TEXT
  5
239
  8
DATA
 62
     7
 10
-29.465092019480789
 20
89.247156583479921
 30
0.0
 40
8.6871527777777793
  1
Matrix
 41
0.7
 11
-29.465092019480789
 21
97.934309361257704
 31
0.0
 73
     3
  0
TEXT
  5
23A
  8
DATA
 62
     7
 10
-21.47929584428827
 20
79.055261377862948
 30
0.0
 40
8.6871527777777793
  1
for
 41
0.7
 11
-21.47929584428827
 21
87.742414155640731
 31
0.0
 73
     3
  0
TEXT
  5
23B
  8
DATA
 62
     7
 10
-23.136725239139551
 20
68.356612176926802
 30
0.0
 40
8.6871527777777793
  1
HDMI
 41
0.7
 11
-23.136725239139551
 21
77.043764954704585
 31
0.0
 73
     3
  0
TEXT
  5
23C
  8
DATA
 62
     7
 10
-43.463656373945902
 20
176.77742694988231
 30
0.0
 40
8.6871527777777793
  1
Gefen
 41
0.7
 11
-43.463656373945902
 21
185.46457972766009
 31
0.0
 73
     3
  0
TEXT
  5
23D
  8
DATA
 62
     7
 10
-43.379489356960711
 20
160.03969684216071
 30
0.0
 40
13.03072916666666
  1
TOOLBOX
 41
0.7
 11
-43.379489356960711
 21
173.07042600882741
 31
0.0
 73
     3
  0
LINE
  5
23E
  8
DATA
  6
CONTINUOUS
 62
     7
 10
-100.0
 20
313.5
 30
0.0
 11
75.999999999999986
 21
313.5
 31
0.0
  0
LINE
  5
23F
  8
DATA
  6
CONTINUOUS
 62
     7
 10
-98.0
 20
287.5
 30
0.0
 11
73.999999999999986
 21
287.5
 31
0.0
  0
LINE
  5
240
  8
DATA
  6
CONTINUOUS
 62
     7
 10
75.999999999999986
 20
289.5
 30
0.0
 11
75.999999999999986
 21
313.5
 31
0.0
  0
LINE
  5
241
  8
DATA
  6
CONTINUOUS
 62
     7
 10
-100.0
 20
313.5
 30
0.0
 11
-100.0
 21
289.5
 31
0.0
  0
LINE
  5
242
  8
DATA
  6
CONTINUOUS
 62
     7
 10
-100.0
 20
311.89999999999998
 30
0.0
 11
75.999999999999986
 21
311.89999999999998
 31
0.0
  0
ARC
  5
243
  8
DATA
  6
CONTINUOUS
 62
     7
 10
-98.0
 20
289.5
 30
0.0
 40
2.0
 50
180.0
 51
270.0
  0
ARC
  5
244
  8
DATA
  6
CONTINUOUS
 62
     7
 10
73.999999999999986
 20
289.5
 30
0.0
 40
2.0
 50
270.0
 51
0.0
  0
LINE
  5
245
  8
DATA
  6
CONTINUOUS
 62
     7
 10
-91.0
 20
287.5
 30
0.0
 11
-60.000000000000021
 21
287.5
 31
0.0
  0
LINE
  5
246
  8
DATA
  6
CONTINUOUS
 62
     7
 10
-79.999999999999957
 20
281.5
 30
0.0
 11
-76.000000000000071
 21
281.5
 31
0.0
  0
LINE
  5
247
  8
DATA
  6
CONTINUOUS
 62
     7
 10
-79.999999999999957
 20
281.5
 30
0.0
 11
-79.999999999999957
 21
287.5
 31
0.0
  0
LINE
  5
248
  8
DATA
  6
CONTINUOUS
 62
     7
 10
-76.000000000000071
 20
281.5
 30
0.0
 11
-76.000000000000071
 21
287.5
 31
0.0
  0
LINE
  5
249
  8
DATA
  6
CONTINUOUS
 62
     7
 10
-68.500000000000014
 20
286.0
 30
0.0
 11
-67.500000000000014
 21
286.0
 31
0.0
  0
LINE
  5
24A
  8
DATA
  6
CONTINUOUS
 62
     7
 10
-69.500000000000014
 20
287.0
 30
0.0
 11
-69.500000000000014
 21
287.5
 31
0.0
  0
LINE
  5
24B
  8
DATA
  6
CONTINUOUS
 62
     7
 10
-66.500000000000014
 20
287.0
 30
0.0
 11
-66.500000000000014
 21
287.5
 31
0.0
  0
ARC
  5
24C
  8
DATA
  6
CONTINUOUS
 62
     7
 10
-68.500000000000014
 20
287.0
 30
0.0
 40
1.0
 50
180.0
 51
270.0
  0
ARC
  5
24D
  8
DATA
  6
CONTINUOUS
 62
     7
 10
-67.500000000000014
 20
287.0
 30
0.0
 40
1.0
 50
270.0
 51
0.0
  0
LINE
  5
24E
  8
DATA
  6
CONTINUOUS
 62
     7
 10
-61.000000000000021
 20
286.0
 30
0.0
 11
-60.000000000000021
 21
286.0
 31
0.0
  0
LINE
  5
24F
  8
DATA
  6
CONTINUOUS
 62
     7
 10
-62.000000000000021
 20
287.0
 30
0.0
 11
-62.000000000000021
 21
287.5
 31
0.0
  0
LINE
  5
250
  8
DATA
  6
CONTINUOUS
 62
     7
 10
-59.000000000000021
 20
287.0
 30
0.0
 11
-59.000000000000021
 21
287.5
 31
0.0
  0
ARC
  5
251
  8
DATA
  6
CONTINUOUS
 62
     7
 10
-61.000000000000021
 20
287.0
 30
0.0
 40
1.0
 50
180.0
 51
270.0
  0
ARC
  5
252
  8
DATA
  6
CONTINUOUS
 62
     7
 10
-60.000000000000021
 20
287.0
 30
0.0
 40
1.0
 50
270.0
 51
0.0
  0
LINE
  5
253
  8
DATA
  6
CONTINUOUS
 62
     7
 10
-53.500000000000021
 20
286.0
 30
0.0
 11
-52.500000000000021
 21
286.0
 31
0.0
  0
LINE
  5
254
  8
DATA
  6
CONTINUOUS
 62
     7
 10
-54.500000000000021
 20
287.0
 30
0.0
 11
-54.500000000000021
 21
287.5
 31
0.0
  0
LINE
  5
255
  8
DATA
  6
CONTINUOUS
 62
     7
 10
-51.500000000000021
 20
287.0
 30
0.0
 11
-51.500000000000021
 21
287.5
 31
0.0
  0
ARC
  5
256
  8
DATA
  6
CONTINUOUS
 62
     7
 10
-53.500000000000021
 20
287.0
 30
0.0
 40
1.0
 50
180.0
 51
270.0
  0
ARC
  5
257
  8
DATA
  6
CONTINUOUS
 62
     7
 10
-52.500000000000021
 20
287.0
 30
0.0
 40
1.0
 50
270.0
 51
0.0
  0
LINE
  5
258
  8
DATA
  6
CONTINUOUS
 62
     7
 10
-46.000000000000021
 20
286.0
 30
0.0
 11
-45.000000000000021
 21
286.0
 31
0.0
  0
LINE
  5
259
  8
DATA
  6
CONTINUOUS
 62
     7
 10
-47.000000000000007
 20
287.0
 30
0.0
 11
-47.000000000000007
 21
287.5
 31
0.0
  0
LINE
  5
25A
  8
DATA
  6
CONTINUOUS
 62
     7
 10
-44.000000000000021
 20
287.0
 30
0.0
 11
-44.000000000000021
 21
287.5
 31
0.0
  0
ARC
  5
25B
  8
DATA
  6
CONTINUOUS
 62
     7
 10
-46.000000000000021
 20
287.0
 30
0.0
 40
1.0
 50
180.0
 51
270.0
  0
ARC
  5
25C
  8
DATA
  6
CONTINUOUS
 62
     7
 10
-45.000000000000021
 20
287.0
 30
0.0
 40
1.0
 50
270.0
 51
0.0
  0
LINE
  5
25D
  8
DATA
  6
CONTINUOUS
 62
     7
 10
51.000000000000043
 20
281.5
 30
0.0
 11
54.999999999999929
 21
281.5
 31
0.0
  0
LINE
  5
25E
  8
DATA
  6
CONTINUOUS
 62
     7
 10
51.000000000000043
 20
281.5
 30
0.0
 11
51.000000000000043
 21
287.5
 31
0.0
  0
LINE
  5
25F
  8
DATA
  6
CONTINUOUS
 62
     7
 10
54.999999999999929
 20
281.5
 30
0.0
 11
54.999999999999929
 21
287.5
 31
0.0
  0
LINE
  5
260
  8
DATA
  6
CONTINUOUS
 62
     7
 10
64.499999999999986
 20
286.0
 30
0.0
 11
65.499999999999986
 21
286.0
 31
0.0
  0
LINE
  5
261
  8
DATA
  6
CONTINUOUS
 62
     7
 10
63.499999999999993
 20
287.0
 30
0.0
 11
63.499999999999993
 21
287.5
 31
0.0
  0
LINE
  5
262
  8
DATA
  6
CONTINUOUS
 62
     7
 10
66.499999999999986
 20
287.0
 30
0.0
 11
66.499999999999986
 21
287.5
 31
0.0
  0
ARC
  5
263
  8
DATA
  6
CONTINUOUS
 62
     7
 10
64.499999999999986
 20
287.0
 30
0.0
 40
1.0
 50
180.0
 51
270.0
  0
ARC
  5
264
  8
DATA
  6
CONTINUOUS
 62
     7
 10
65.499999999999986
 20
287.0
 30
0.0
 40
1.0
 50
270.0
 51
0.0
  0
LINE
  5
265
  8
DATA
  6
CONTINUOUS
 62
     7
 10
162.5
 20
-71.5
 30
0.0
 11
162.5
 21
198.5
 31
0.0
  0
LINE
  5
266
  8
DATA
  6
CONTINUOUS
 62
     7
 10
186.90000000000001
 20
-87.5
 30
0.0
 11
188.5
 21
-87.5
 31
0.0
  0
LINE
  5
267
  8
DATA
  6
CONTINUOUS
 62
     7
 10
186.90000000000001
 20
214.5
 30
0.0
 11
188.5
 21
214.5
 31
0.0
  0
LINE
  5
268
  8
DATA
  6
CONTINUOUS
 62
     7
 10
188.5
 20
-87.5
 30
0.0
 11
188.5
 21
-73.5
 31
0.0
  0
LINE
  5
269
  8
DATA
  6
CONTINUOUS
 62
     7
 10
164.5
 20
-73.5
 30
0.0
 11
185.30000000000001
 21
-73.5
 31
0.0
  0
LINE
  5
26A
  8
DATA
  6
CONTINUOUS
 62
     7
 10
164.5
 20
200.5
 30
0.0
 11
185.30000000000001
 21
200.5
 31
0.0
  0
LINE
  5
26B
  8
DATA
  6
CONTINUOUS
 62
     7
 10
186.90000000000001
 20
-87.5
 30
0.0
 11
186.90000000000001
 21
-75.09999999999998
 31
0.0
  0
LINE
  5
26C
  8
DATA
  6
CONTINUOUS
 62
     7
 10
186.90000000000001
 20
202.09999999999999
 30
0.0
 11
186.90000000000001
 21
214.5
 31
0.0
  0
LINE
  5
26D
  8
DATA
  6
CONTINUOUS
 62
     7
 10
164.5
 20
-71.90000000000002
 30
0.0
 11
188.5
 21
-71.90000000000002
 31
0.0
  0
ARC
  5
26E
  8
DATA
  6
CONTINUOUS
 62
     7
 10
185.30000000000001
 20
-75.09999999999998
 30
0.0
 40
1.5999999999999941
 50
0.0
 51
90.0
  0
ARC
  5
26F
  8
DATA
  6
CONTINUOUS
 62
     7
 10
186.90000000000001
 20
-73.5
 30
0.0
 40
1.5999999999999941
 50
0.0
 51
90.000000000000483
  0
LINE
  5
270
  8
DATA
  6
CONTINUOUS
 62
     7
 10
188.5
 20
214.5
 30
0.0
 11
188.5
 21
200.5
 31
0.0
  0
LINE
  5
271
  8
DATA
  6
CONTINUOUS
 62
     7
 10
188.5
 20
198.90000000000001
 30
0.0
 11
188.5
 21
-71.899999999999963
 31
0.0
  0
LINE
  5
272
  8
DATA
  6
CONTINUOUS
 62
     7
 10
188.5
 20
-73.5
 30
0.0
 11
188.5
 21
-73.649999999999977
 31
0.0
  0
LINE
  5
273
  8
DATA
  6
CONTINUOUS
 62
     7
 10
164.5
 20
198.90000000000001
 30
0.0
 11
188.5
 21
198.90000000000001
 31
0.0
  0
ARC
  5
274
  8
DATA
  6
CONTINUOUS
 62
     7
 10
185.30000000000001
 20
202.09999999999999
 30
0.0
 40
1.5999999999999941
 50
270.0
 51
0.0000000000002274
  0
ARC
  5
275
  8
DATA
  6
CONTINUOUS
 62
     7
 10
186.90000000000001
 20
200.5
 30
0.0
 40
1.6000000000000081
 50
270.0
 51
359.99999999999977
  0
CIRCLE
  5
276
  8
DATA
  6
CONTINUOUS
 62
     7
 10
181.5
 20
63.500000000000021
 30
0.0
 40
3.0
  0
LINE
  5
277
  8
DATA
  6
CONTINUOUS
 62
     7
 10
179.75
 20
63.500000000000021
 30
0.0
 11
183.25
 21
63.500000000000021
 31
0.0
  0
LINE
  5
278
  8
DATA
  6
CONTINUOUS
 62
     7
 10
181.5
 20
61.750000000000021
 30
0.0
 11
181.5
 21
65.250000000000014
 31
0.0
  0
CIRCLE
  5
279
  8
DATA
  6
CONTINUOUS
 62
     7
 10
181.5
 20
159.5
 30
0.0
 40
3.0
  0
LINE
  5
27A
  8
DATA
  6
CONTINUOUS
 62
     7
 10
179.75
 20
159.5
 30
0.0
 11
183.25
 21
159.5
 31
0.0
  0
LINE
  5
27B
  8
DATA
  6
CONTINUOUS
 62
     7
 10
181.5
 20
157.75
 30
0.0
 11
181.5
 21
161.25
 31
0.0
  0
CIRCLE
  5
27C
  8
DATA
  6
CONTINUOUS
 62
     7
 10
181.5
 20
-32.5
 30
0.0
 40
3.0
  0
LINE
  5
27D
  8
DATA
  6
CONTINUOUS
 62
     7
 10
179.75
 20
-32.5
 30
0.0
 11
183.25
 21
-32.5
 31
0.0
  0
LINE
  5
27E
  8
DATA
  6
CONTINUOUS
 62
     7
 10
181.5
 20
-34.25
 30
0.0
 11
181.5
 21
-30.75
 31
0.0
  0
LINE
  5
27F
  8
DATA
  6
CONTINUOUS
 62
     7
 10
171.47499999999999
 20
190.625
 30
0.0
 11
181.62997159091699
 21
190.625
 31
0.0
  0
LINE
  5
280
  8
DATA
  6
CONTINUOUS
 62
     7
 10
171.47499999999999
 20
192.375
 30
0.0
 11
181.62997159091699
 21
192.375
 31
0.0
  0
ARC
  5
281
  8
DATA
  6
CONTINUOUS
 62
     7
 10
171.47499999999999
 20
191.5
 30
0.0
 40
0.875
 50
90.0
 51
270.0
  0
ARC
  5
282
  8
DATA
  6
CONTINUOUS
 62
     7
 10
181.62498579545451
 20
191.5
 30
0.0
 40
0.8750142045454545
 50
269.6735292051622
 51
90.326470794837803
  0
LINE
  5
283
  8
DATA
  6
CONTINUOUS
 62
     7
 10
171.47499999999999
 20
186.625
 30
0.0
 11
181.62997159091699
 21
186.625
 31
0.0
  0
LINE
  5
284
  8
DATA
  6
CONTINUOUS
 62
     7
 10
171.47499999999999
 20
188.375
 30
0.0
 11
181.62997159091699
 21
188.375
 31
0.0
  0
ARC
  5
285
  8
DATA
  6
CONTINUOUS
 62
     7
 10
171.47499999999999
 20
187.5
 30
0.0
 40
0.875
 50
90.0
 51
270.0
  0
ARC
  5
286
  8
DATA
  6
CONTINUOUS
 62
     7
 10
181.62498579545451
 20
187.5
 30
0.0
 40
0.8750142045454545
 50
269.6735292051622
 51
90.326470794837803
  0
LINE
  5
287
  8
DATA
  6
CONTINUOUS
 62
     7
 10
171.47499999999999
 20
182.625
 30
0.0
 11
181.62997159091699
 21
182.625
 31
0.0
  0
LINE
  5
288
  8
DATA
  6
CONTINUOUS
 62
     7
 10
171.47499999999999
 20
184.375
 30
0.0
 11
181.62997159091699
 21
184.375
 31
0.0
  0
ARC
  5
289
  8
DATA
  6
CONTINUOUS
 62
     7
 10
171.47499999999999
 20
183.5
 30
0.0
 40
0.875
 50
90.0
 51
270.0
  0
ARC
  5
28A
  8
DATA
  6
CONTINUOUS
 62
     7
 10
181.62498579545451
 20
183.5
 30
0.0
 40
0.8750142045454545
 50
269.6735292051622
 51
90.326470794837803
  0
LINE
  5
28B
  8
DATA
  6
CONTINUOUS
 62
     7
 10
171.47499999999999
 20
178.625
 30
0.0
 11
181.62997159091699
 21
178.625
 31
0.0
  0
LINE
  5
28C
  8
DATA
  6
CONTINUOUS
 62
     7
 10
171.47499999999999
 20
180.375
 30
0.0
 11
181.62997159091699
 21
180.375
 31
0.0
  0
ARC
  5
28D
  8
DATA
  6
CONTINUOUS
 62
     7
 10
171.47499999999999
 20
179.5
 30
0.0
 40
0.875
 50
90.0
 51
270.0
  0
ARC
  5
28E
  8
DATA
  6
CONTINUOUS
 62
     7
 10
181.62498579545451
 20
179.5
 30
0.0
 40
0.8750142045454545
 50
269.6735292051622
 51
90.326470794837803
  0
LINE
  5
28F
  8
DATA
  6
CONTINUOUS
 62
     7
 10
171.47499999999999
 20
174.625
 30
0.0
 11
181.62997159091699
 21
174.625
 31
0.0
  0
LINE
  5
290
  8
DATA
  6
CONTINUOUS
 62
     7
 10
171.47499999999999
 20
176.375
 30
0.0
 11
181.62997159091699
 21
176.375
 31
0.0
  0
ARC
  5
291
  8
DATA
  6
CONTINUOUS
 62
     7
 10
171.47499999999999
 20
175.5
 30
0.0
 40
0.875
 50
90.0
 51
270.0
  0
ARC
  5
292
  8
DATA
  6
CONTINUOUS
 62
     7
 10
181.62498579545451
 20
175.5
 30
0.0
 40
0.8750142045454545
 50
269.6735292051622
 51
90.326470794837803
  0
LINE
  5
293
  8
DATA
  6
CONTINUOUS
 62
     7
 10
171.47499999999999
 20
170.625
 30
0.0
 11
181.62997159091699
 21
170.625
 31
0.0
  0
LINE
  5
294
  8
DATA
  6
CONTINUOUS
 62
     7
 10
171.47499999999999
 20
172.375
 30
0.0
 11
181.62997159091699
 21
172.375
 31
0.0
  0
ARC
  5
295
  8
DATA
  6
CONTINUOUS
 62
     7
 10
171.47499999999999
 20
171.5
 30
0.0
 40
0.875
 50
90.0
 51
270.0
  0
ARC
  5
296
  8
DATA
  6
CONTINUOUS
 62
     7
 10
181.62498579545451
 20
171.5
 30
0.0
 40
0.8750142045454545
 50
269.6735292051622
 51
90.326470794837803
  0
LINE
  5
297
  8
DATA
  6
CONTINUOUS
 62
     7
 10
171.47499999999999
 20
166.625
 30
0.0
 11
181.62997159091699
 21
166.625
 31
0.0
  0
LINE
  5
298
  8
DATA
  6
CONTINUOUS
 62
     7
 10
171.47499999999999
 20
168.375
 30
0.0
 11
181.62997159091699
 21
168.375
 31
0.0
  0
ARC
  5
299
  8
DATA
  6
CONTINUOUS
 62
     7
 10
171.47499999999999
 20
167.5
 30
0.0
 40
0.875
 50
90.0
 51
270.0
  0
ARC
  5
29A
  8
DATA
  6
CONTINUOUS
 62
     7
 10
181.62498579545451
 20
167.5
 30
0.0
 40
0.8750142045454545
 50
269.6735292051622
 51
90.326470794837803
  0
LINE
  5
29B
  8
DATA
  6
CONTINUOUS
 62
     7
 10
171.47499999999999
 20
150.65134978618369
 30
0.0
 11
181.62997159091699
 21
150.65134978618369
 31
0.0
  0
LINE
  5
29C
  8
DATA
  6
CONTINUOUS
 62
     7
 10
171.47499999999999
 20
152.40134978618369
 30
0.0
 11
181.62997159091699
 21
152.40134978618369
 31
0.0
  0
ARC
  5
29D
  8
DATA
  6
CONTINUOUS
 62
     7
 10
171.47499999999999
 20
151.52634978618369
 30
0.0
 40
0.875
 50
90.0
 51
270.0
  0
ARC
  5
29E
  8
DATA
  6
CONTINUOUS
 62
     7
 10
181.62498579545451
 20
151.52634978618369
 30
0.0
 40
0.8750142045454545
 50
269.6735292051622
 51
90.326470794837803
  0
LINE
  5
29F
  8
DATA
  6
CONTINUOUS
 62
     7
 10
171.47499999999999
 20
146.65134978618369
 30
0.0
 11
181.62997159091699
 21
146.65134978618369
 31
0.0
  0
LINE
  5
2A0
  8
DATA
  6
CONTINUOUS
 62
     7
 10
171.47499999999999
 20
148.40134978618369
 30
0.0
 11
181.62997159091699
 21
148.40134978618369
 31
0.0
  0
ARC
  5
2A1
  8
DATA
  6
CONTINUOUS
 62
     7
 10
171.47499999999999
 20
147.52634978618369
 30
0.0
 40
0.8749999999999928
 50
90.0
 51
270.0
  0
ARC
  5
2A2
  8
DATA
  6
CONTINUOUS
 62
     7
 10
181.62498579545451
 20
147.52634978618369
 30
0.0
 40
0.8750142045454509
 50
269.6735292051622
 51
90.326470794837803
  0
LINE
  5
2A3
  8
DATA
  6
CONTINUOUS
 62
     7
 10
171.47499999999999
 20
142.65134978618369
 30
0.0
 11
181.62997159091699
 21
142.65134978618369
 31
0.0
  0
LINE
  5
2A4
  8
DATA
  6
CONTINUOUS
 62
     7
 10
171.47499999999999
 20
144.40134978618369
 30
0.0
 11
181.62997159091699
 21
144.40134978618369
 31
0.0
  0
ARC
  5
2A5
  8
DATA
  6
CONTINUOUS
 62
     7
 10
171.47499999999999
 20
143.52634978618369
 30
0.0
 40
0.875
 50
90.0
 51
270.0
  0
ARC
  5
2A6
  8
DATA
  6
CONTINUOUS
 62
     7
 10
181.62498579545451
 20
143.52634978618369
 30
0.0
 40
0.8750142045454545
 50
269.6735292051622
 51
90.326470794837803
  0
LINE
  5
2A7
  8
DATA
  6
CONTINUOUS
 62
     7
 10
171.47499999999999
 20
138.65134978618369
 30
0.0
 11
181.62997159091699
 21
138.65134978618369
 31
0.0
  0
LINE
  5
2A8
  8
DATA
  6
CONTINUOUS
 62
     7
 10
171.47499999999999
 20
140.40134978618369
 30
0.0
 11
181.62997159091699
 21
140.40134978618369
 31
0.0
  0
ARC
  5
2A9
  8
DATA
  6
CONTINUOUS
 62
     7
 10
171.47499999999999
 20
139.52634978618369
 30
0.0
 40
0.875
 50
90.0
 51
270.0
  0
ARC
  5
2AA
  8
DATA
  6
CONTINUOUS
 62
     7
 10
181.62498579545451
 20
139.52634978618369
 30
0.0
 40
0.8750142045454545
 50
269.6735292051622
 51
90.326470794837803
  0
LINE
  5
2AB
  8
DATA
  6
CONTINUOUS
 62
     7
 10
171.47499999999999
 20
134.65134978618369
 30
0.0
 11
181.62997159091699
 21
134.65134978618369
 31
0.0
  0
LINE
  5
2AC
  8
DATA
  6
CONTINUOUS
 62
     7
 10
171.47499999999999
 20
136.40134978618369
 30
0.0
 11
181.62997159091699
 21
136.40134978618369
 31
0.0
  0
ARC
  5
2AD
  8
DATA
  6
CONTINUOUS
 62
     7
 10
171.47499999999999
 20
135.52634978618369
 30
0.0
 40
0.875
 50
90.0
 51
270.0
  0
ARC
  5
2AE
  8
DATA
  6
CONTINUOUS
 62
     7
 10
181.62498579545451
 20
135.52634978618369
 30
0.0
 40
0.8750142045454545
 50
269.6735292051622
 51
90.326470794837803
  0
LINE
  5
2AF
  8
DATA
  6
CONTINUOUS
 62
     7
 10
171.47499999999999
 20
130.65134978618369
 30
0.0
 11
181.62997159091699
 21
130.65134978618369
 31
0.0
  0
LINE
  5
2B0
  8
DATA
  6
CONTINUOUS
 62
     7
 10
171.47499999999999
 20
132.40134978618369
 30
0.0
 11
181.62997159091699
 21
132.40134978618369
 31
0.0
  0
ARC
  5
2B1
  8
DATA
  6
CONTINUOUS
 62
     7
 10
171.47499999999999
 20
131.52634978618369
 30
0.0
 40
0.8750000000000142
 50
90.0
 51
270.0
  0
ARC
  5
2B2
  8
DATA
  6
CONTINUOUS
 62
     7
 10
181.62498579545451
 20
131.52634978618369
 30
0.0
 40
0.8750142045454616
 50
269.6735292051622
 51
90.326470794837761
  0
LINE
  5
2B3
  8
DATA
  6
CONTINUOUS
 62
     7
 10
171.47499999999999
 20
126.6513497861837
 30
0.0
 11
181.62997159091699
 21
126.6513497861837
 31
0.0
  0
LINE
  5
2B4
  8
DATA
  6
CONTINUOUS
 62
     7
 10
171.47499999999999
 20
128.40134978618369
 30
0.0
 11
181.62997159091699
 21
128.40134978618369
 31
0.0
  0
ARC
  5
2B5
  8
DATA
  6
CONTINUOUS
 62
     7
 10
171.47499999999999
 20
127.5263497861837
 30
0.0
 40
0.875
 50
90.0
 51
270.0
  0
ARC
  5
2B6
  8
DATA
  6
CONTINUOUS
 62
     7
 10
181.62498579545451
 20
127.5263497861837
 30
0.0
 40
0.8750142045454545
 50
269.6735292051622
 51
90.326470794837803
  0
LINE
  5
2B7
  8
DATA
  6
CONTINUOUS
 62
     7
 10
171.47499999999999
 20
122.6513497861837
 30
0.0
 11
181.62997159091699
 21
122.6513497861837
 31
0.0
  0
LINE
  5
2B8
  8
DATA
  6
CONTINUOUS
 62
     7
 10
171.47499999999999
 20
124.4013497861837
 30
0.0
 11
181.62997159091699
 21
124.4013497861837
 31
0.0
  0
ARC
  5
2B9
  8
DATA
  6
CONTINUOUS
 62
     7
 10
171.47499999999999
 20
123.5263497861837
 30
0.0
 40
0.875
 50
90.0
 51
270.0
  0
ARC
  5
2BA
  8
DATA
  6
CONTINUOUS
 62
     7
 10
181.62498579545451
 20
123.5263497861837
 30
0.0
 40
0.8750142045454545
 50
269.6735292051622
 51
90.326470794837803
  0
LINE
  5
2BB
  8
DATA
  6
CONTINUOUS
 62
     7
 10
171.47499999999999
 20
118.6513497861837
 30
0.0
 11
181.62997159091699
 21
118.6513497861837
 31
0.0
  0
LINE
  5
2BC
  8
DATA
  6
CONTINUOUS
 62
     7
 10
171.47499999999999
 20
120.4013497861837
 30
0.0
 11
181.62997159091699
 21
120.4013497861837
 31
0.0
  0
ARC
  5
2BD
  8
DATA
  6
CONTINUOUS
 62
     7
 10
171.47499999999999
 20
119.5263497861837
 30
0.0
 40
0.875
 50
90.0
 51
270.0
  0
ARC
  5
2BE
  8
DATA
  6
CONTINUOUS
 62
     7
 10
181.62498579545451
 20
119.5263497861837
 30
0.0
 40
0.8750142045454545
 50
269.6735292051622
 51
90.326470794837803
  0
LINE
  5
2BF
  8
DATA
  6
CONTINUOUS
 62
     7
 10
171.47499999999999
 20
114.6513497861837
 30
0.0
 11
181.62997159091699
 21
114.6513497861837
 31
0.0
  0
LINE
  5
2C0
  8
DATA
  6
CONTINUOUS
 62
     7
 10
171.47499999999999
 20
116.4013497861837
 30
0.0
 11
181.62997159091699
 21
116.4013497861837
 31
0.0
  0
ARC
  5
2C1
  8
DATA
  6
CONTINUOUS
 62
     7
 10
171.47499999999999
 20
115.5263497861837
 30
0.0
 40
0.875
 50
90.0
 51
270.0
  0
ARC
  5
2C2
  8
DATA
  6
CONTINUOUS
 62
     7
 10
181.62498579545451
 20
115.5263497861837
 30
0.0
 40
0.8750142045454545
 50
269.6735292051622
 51
90.326470794837803
  0
LINE
  5
2C3
  8
DATA
  6
CONTINUOUS
 62
     7
 10
171.47499999999999
 20
110.6513497861837
 30
0.0
 11
181.62997159091699
 21
110.6513497861837
 31
0.0
  0
LINE
  5
2C4
  8
DATA
  6
CONTINUOUS
 62
     7
 10
171.47499999999999
 20
112.4013497861837
 30
0.0
 11
181.62997159091699
 21
112.4013497861837
 31
0.0
  0
ARC
  5
2C5
  8
DATA
  6
CONTINUOUS
 62
     7
 10
171.47499999999999
 20
111.5263497861837
 30
0.0
 40
0.875
 50
90.0
 51
270.0
  0
ARC
  5
2C6
  8
DATA
  6
CONTINUOUS
 62
     7
 10
181.62498579545451
 20
111.5263497861837
 30
0.0
 40
0.8750142045454545
 50
269.6735292051622
 51
90.326470794837803
  0
LINE
  5
2C7
  8
DATA
  6
CONTINUOUS
 62
     7
 10
171.47499999999999
 20
106.6513497861837
 30
0.0
 11
181.62997159091699
 21
106.6513497861837
 31
0.0
  0
LINE
  5
2C8
  8
DATA
  6
CONTINUOUS
 62
     7
 10
171.47499999999999
 20
108.4013497861837
 30
0.0
 11
181.62997159091699
 21
108.4013497861837
 31
0.0
  0
ARC
  5
2C9
  8
DATA
  6
CONTINUOUS
 62
     7
 10
171.47499999999999
 20
107.5263497861837
 30
0.0
 40
0.875
 50
90.0
 51
270.0
  0
ARC
  5
2CA
  8
DATA
  6
CONTINUOUS
 62
     7
 10
181.62498579545451
 20
107.5263497861837
 30
0.0
 40
0.8750142045454545
 50
269.6735292051622
 51
90.326470794837803
  0
LINE
  5
2CB
  8
DATA
  6
CONTINUOUS
 62
     7
 10
171.47499999999999
 20
102.6513497861837
 30
0.0
 11
181.62997159091699
 21
102.6513497861837
 31
0.0
  0
LINE
  5
2CC
  8
DATA
  6
CONTINUOUS
 62
     7
 10
171.47499999999999
 20
104.4013497861837
 30
0.0
 11
181.62997159091699
 21
104.4013497861837
 31
0.0
  0
ARC
  5
2CD
  8
DATA
  6
CONTINUOUS
 62
     7
 10
171.47499999999999
 20
103.5263497861837
 30
0.0
 40
0.875
 50
90.0
 51
270.0
  0
ARC
  5
2CE
  8
DATA
  6
CONTINUOUS
 62
     7
 10
181.62498579545451
 20
103.5263497861837
 30
0.0
 40
0.8750142045454545
 50
269.6735292051622
 51
90.326470794837803
  0
LINE
  5
2CF
  8
DATA
  6
CONTINUOUS
 62
     7
 10
171.47499999999999
 20
98.651349786183715
 30
0.0
 11
181.62997159091699
 21
98.651349786183715
 31
0.0
  0
LINE
  5
2D0
  8
DATA
  6
CONTINUOUS
 62
     7
 10
171.47499999999999
 20
100.4013497861837
 30
0.0
 11
181.62997159091699
 21
100.4013497861837
 31
0.0
  0
ARC
  5
2D1
  8
DATA
  6
CONTINUOUS
 62
     7
 10
171.47499999999999
 20
99.526349786183715
 30
0.0
 40
0.875
 50
90.0
 51
270.0
  0
ARC
  5
2D2
  8
DATA
  6
CONTINUOUS
 62
     7
 10
181.62498579545451
 20
99.526349786183715
 30
0.0
 40
0.8750142045454545
 50
269.6735292051622
 51
90.326470794837803
  0
LINE
  5
2D3
  8
DATA
  6
CONTINUOUS
 62
     7
 10
171.47499999999999
 20
94.651349786183715
 30
0.0
 11
181.62997159091699
 21
94.651349786183715
 31
0.0
  0
LINE
  5
2D4
  8
DATA
  6
CONTINUOUS
 62
     7
 10
171.47499999999999
 20
96.401349786183715
 30
0.0
 11
181.62997159091699
 21
96.401349786183715
 31
0.0
  0
ARC
  5
2D5
  8
DATA
  6
CONTINUOUS
 62
     7
 10
171.47499999999999
 20
95.526349786183715
 30
0.0
 40
0.875
 50
90.0
 51
270.0
  0
ARC
  5
2D6
  8
DATA
  6
CONTINUOUS
 62
     7
 10
181.62498579545451
 20
95.526349786183715
 30
0.0
 40
0.8750142045454545
 50
269.6735292051622
 51
90.326470794837803
  0
LINE
  5
2D7
  8
DATA
  6
CONTINUOUS
 62
     7
 10
171.47499999999999
 20
90.651349786183715
 30
0.0
 11
181.62997159091699
 21
90.651349786183715
 31
0.0
  0
LINE
  5
2D8
  8
DATA
  6
CONTINUOUS
 62
     7
 10
171.47499999999999
 20
92.401349786183715
 30
0.0
 11
181.62997159091699
 21
92.401349786183715
 31
0.0
  0
ARC
  5
2D9
  8
DATA
  6
CONTINUOUS
 62
     7
 10
171.47499999999999
 20
91.526349786183715
 30
0.0
 40
0.875
 50
90.0
 51
270.0
  0
ARC
  5
2DA
  8
DATA
  6
CONTINUOUS
 62
     7
 10
181.62498579545451
 20
91.526349786183715
 30
0.0
 40
0.8750142045454545
 50
269.6735292051622
 51
90.326470794837803
  0
LINE
  5
2DB
  8
DATA
  6
CONTINUOUS
 62
     7
 10
171.47499999999999
 20
86.651349786183701
 30
0.0
 11
181.62997159091699
 21
86.651349786183701
 31
0.0
  0
LINE
  5
2DC
  8
DATA
  6
CONTINUOUS
 62
     7
 10
171.47499999999999
 20
88.401349786183715
 30
0.0
 11
181.62997159091699
 21
88.401349786183715
 31
0.0
  0
ARC
  5
2DD
  8
DATA
  6
CONTINUOUS
 62
     7
 10
171.47499999999999
 20
87.526349786183701
 30
0.0
 40
0.875
 50
90.0
 51
270.0
  0
ARC
  5
2DE
  8
DATA
  6
CONTINUOUS
 62
     7
 10
181.62498579545451
 20
87.526349786183701
 30
0.0
 40
0.8750142045454545
 50
269.6735292051622
 51
90.326470794837803
  0
LINE
  5
2DF
  8
DATA
  6
CONTINUOUS
 62
     7
 10
171.47499999999999
 20
82.651349786183701
 30
0.0
 11
181.62997159091699
 21
82.651349786183701
 31
0.0
  0
LINE
  5
2E0
  8
DATA
  6
CONTINUOUS
 62
     7
 10
171.47499999999999
 20
84.401349786183701
 30
0.0
 11
181.62997159091699
 21
84.401349786183701
 31
0.0
  0
ARC
  5
2E1
  8
DATA
  6
CONTINUOUS
 62
     7
 10
171.47499999999999
 20
83.526349786183701
 30
0.0
 40
0.875
 50
90.0
 51
270.0
  0
ARC
  5
2E2
  8
DATA
  6
CONTINUOUS
 62
     7
 10
181.62498579545451
 20
83.526349786183701
 30
0.0
 40
0.8750142045454545
 50
269.6735292051622
 51
90.326470794837803
  0
LINE
  5
2E3
  8
DATA
  6
CONTINUOUS
 62
     7
 10
171.47499999999999
 20
78.651349786183701
 30
0.0
 11
181.62997159091699
 21
78.651349786183701
 31
0.0
  0
LINE
  5
2E4
  8
DATA
  6
CONTINUOUS
 62
     7
 10
171.47499999999999
 20
80.401349786183701
 30
0.0
 11
181.62997159091699
 21
80.401349786183701
 31
0.0
  0
ARC
  5
2E5
  8
DATA
  6
CONTINUOUS
 62
     7
 10
171.47499999999999
 20
79.526349786183701
 30
0.0
 40
0.875
 50
90.0
 51
270.0
  0
ARC
  5
2E6
  8
DATA
  6
CONTINUOUS
 62
     7
 10
181.62498579545451
 20
79.526349786183701
 30
0.0
 40
0.8750142045454545
 50
269.6735292051622
 51
90.326470794837803
  0
LINE
  5
2E7
  8
DATA
  6
CONTINUOUS
 62
     7
 10
171.47499999999999
 20
74.651349786183701
 30
0.0
 11
181.62997159091699
 21
74.651349786183701
 31
0.0
  0
LINE
  5
2E8
  8
DATA
  6
CONTINUOUS
 62
     7
 10
171.47499999999999
 20
76.401349786183701
 30
0.0
 11
181.62997159091699
 21
76.401349786183701
 31
0.0
  0
ARC
  5
2E9
  8
DATA
  6
CONTINUOUS
 62
     7
 10
171.47499999999999
 20
75.526349786183701
 30
0.0
 40
0.875
 50
90.0
 51
270.0
  0
ARC
  5
2EA
  8
DATA
  6
CONTINUOUS
 62
     7
 10
181.62498579545451
 20
75.526349786183701
 30
0.0
 40
0.8750142045454545
 50
269.6735292051622
 51
90.326470794837803
  0
LINE
  5
2EB
  8
DATA
  6
CONTINUOUS
 62
     7
 10
171.47499999999999
 20
70.651349786183715
 30
0.0
 11
181.62997159091699
 21
70.651349786183715
 31
0.0
  0
LINE
  5
2EC
  8
DATA
  6
CONTINUOUS
 62
     7
 10
171.47499999999999
 20
72.401349786183701
 30
0.0
 11
181.62997159091699
 21
72.401349786183701
 31
0.0
  0
ARC
  5
2ED
  8
DATA
  6
CONTINUOUS
 62
     7
 10
171.47499999999999
 20
71.526349786183715
 30
0.0
 40
0.875
 50
90.0
 51
270.0
  0
ARC
  5
2EE
  8
DATA
  6
CONTINUOUS
 62
     7
 10
181.62498579545451
 20
71.526349786183715
 30
0.0
 40
0.8750142045454545
 50
269.6735292051622
 51
90.326470794837803
  0
LINE
  5
2EF
  8
DATA
  6
CONTINUOUS
 62
     7
 10
171.47499999999999
 20
-63.624999999999972
 30
0.0
 11
181.62997159091699
 21
-63.624999999999972
 31
0.0
  0
LINE
  5
2F0
  8
DATA
  6
CONTINUOUS
 62
     7
 10
171.47499999999999
 20
-65.374999999999972
 30
0.0
 11
181.62997159091699
 21
-65.374999999999972
 31
0.0
  0
ARC
  5
2F1
  8
DATA
  6
CONTINUOUS
 62
     7
 10
171.47499999999999
 20
-64.499999999999972
 30
0.0
 40
0.875
 50
90.0
 51
270.0
  0
ARC
  5
2F2
  8
DATA
  6
CONTINUOUS
 62
     7
 10
181.62498579545451
 20
-64.499999999999972
 30
0.0
 40
0.8750142045454545
 50
269.6735292051622
 51
90.326470794837803
  0
LINE
  5
2F3
  8
DATA
  6
CONTINUOUS
 62
     7
 10
171.47499999999999
 20
-59.624999999999972
 30
0.0
 11
181.62997159091699
 21
-59.624999999999972
 31
0.0
  0
LINE
  5
2F4
  8
DATA
  6
CONTINUOUS
 62
     7
 10
171.47499999999999
 20
-61.374999999999972
 30
0.0
 11
181.62997159091699
 21
-61.374999999999972
 31
0.0
  0
ARC
  5
2F5
  8
DATA
  6
CONTINUOUS
 62
     7
 10
171.47499999999999
 20
-60.499999999999972
 30
0.0
 40
0.875
 50
90.0
 51
270.0
  0
ARC
  5
2F6
  8
DATA
  6
CONTINUOUS
 62
     7
 10
181.62498579545451
 20
-60.499999999999972
 30
0.0
 40
0.8750142045454545
 50
269.6735292051622
 51
90.326470794837803
  0
LINE
  5
2F7
  8
DATA
  6
CONTINUOUS
 62
     7
 10
171.47499999999999
 20
-55.624999999999972
 30
0.0
 11
181.62997159091699
 21
-55.624999999999972
 31
0.0
  0
LINE
  5
2F8
  8
DATA
  6
CONTINUOUS
 62
     7
 10
171.47499999999999
 20
-57.374999999999972
 30
0.0
 11
181.62997159091699
 21
-57.374999999999972
 31
0.0
  0
ARC
  5
2F9
  8
DATA
  6
CONTINUOUS
 62
     7
 10
171.47499999999999
 20
-56.499999999999972
 30
0.0
 40
0.875
 50
90.0
 51
270.0
  0
ARC
  5
2FA
  8
DATA
  6
CONTINUOUS
 62
     7
 10
181.62498579545451
 20
-56.499999999999972
 30
0.0
 40
0.8750142045454545
 50
269.6735292051622
 51
90.326470794837803
  0
LINE
  5
2FB
  8
DATA
  6
CONTINUOUS
 62
     7
 10
171.47499999999999
 20
-51.624999999999972
 30
0.0
 11
181.62997159091699
 21
-51.624999999999972
 31
0.0
  0
LINE
  5
2FC
  8
DATA
  6
CONTINUOUS
 62
     7
 10
171.47499999999999
 20
-53.374999999999972
 30
0.0
 11
181.62997159091699
 21
-53.374999999999972
 31
0.0
  0
ARC
  5
2FD
  8
DATA
  6
CONTINUOUS
 62
     7
 10
171.47499999999999
 20
-52.499999999999972
 30
0.0
 40
0.875
 50
90.0
 51
270.0
  0
ARC
  5
2FE
  8
DATA
  6
CONTINUOUS
 62
     7
 10
181.62498579545451
 20
-52.499999999999972
 30
0.0
 40
0.8750142045454545
 50
269.6735292051622
 51
90.326470794837803
  0
LINE
  5
2FF
  8
DATA
  6
CONTINUOUS
 62
     7
 10
171.47499999999999
 20
-47.624999999999972
 30
0.0
 11
181.62997159091699
 21
-47.624999999999972
 31
0.0
  0
LINE
  5
300
  8
DATA
  6
CONTINUOUS
 62
     7
 10
171.47499999999999
 20
-49.374999999999972
 30
0.0
 11
181.62997159091699
 21
-49.374999999999972
 31
0.0
  0
ARC
  5
301
  8
DATA
  6
CONTINUOUS
 62
     7
 10
171.47499999999999
 20
-48.499999999999972
 30
0.0
 40
0.875
 50
90.0
 51
270.0
  0
ARC
  5
302
  8
DATA
  6
CONTINUOUS
 62
     7
 10
181.62498579545451
 20
-48.499999999999972
 30
0.0
 40
0.8750142045454545
 50
269.6735292051622
 51
90.326470794837803
  0
LINE
  5
303
  8
DATA
  6
CONTINUOUS
 62
     7
 10
171.47499999999999
 20
-43.624999999999972
 30
0.0
 11
181.62997159091699
 21
-43.624999999999972
 31
0.0
  0
LINE
  5
304
  8
DATA
  6
CONTINUOUS
 62
     7
 10
171.47499999999999
 20
-45.374999999999957
 30
0.0
 11
181.62997159091699
 21
-45.374999999999957
 31
0.0
  0
ARC
  5
305
  8
DATA
  6
CONTINUOUS
 62
     7
 10
171.47499999999999
 20
-44.499999999999972
 30
0.0
 40
0.875
 50
90.0
 51
270.0
  0
ARC
  5
306
  8
DATA
  6
CONTINUOUS
 62
     7
 10
181.62498579545451
 20
-44.499999999999972
 30
0.0
 40
0.8750142045454545
 50
269.6735292051622
 51
90.326470794837803
  0
LINE
  5
307
  8
DATA
  6
CONTINUOUS
 62
     7
 10
171.47499999999999
 20
-39.624999999999972
 30
0.0
 11
181.62997159091699
 21
-39.624999999999972
 31
0.0
  0
LINE
  5
308
  8
DATA
  6
CONTINUOUS
 62
     7
 10
171.47499999999999
 20
-41.374999999999957
 30
0.0
 11
181.62997159091699
 21
-41.374999999999957
 31
0.0
  0
ARC
  5
309
  8
DATA
  6
CONTINUOUS
 62
     7
 10
171.47499999999999
 20
-40.499999999999957
 30
0.0
 40
0.875
 50
90.0
 51
270.0
  0
ARC
  5
30A
  8
DATA
  6
CONTINUOUS
 62
     7
 10
181.62498579545451
 20
-40.499999999999957
 30
0.0
 40
0.8750142045454545
 50
269.6735292051622
 51
90.326470794837803
  0
LINE
  5
30B
  8
DATA
  6
CONTINUOUS
 62
     7
 10
171.47499999999999
 20
-23.65134978618369
 30
0.0
 11
181.62997159091699
 21
-23.65134978618369
 31
0.0
  0
LINE
  5
30C
  8
DATA
  6
CONTINUOUS
 62
     7
 10
171.47499999999999
 20
-25.40134978618369
 30
0.0
 11
181.62997159091699
 21
-25.40134978618369
 31
0.0
  0
ARC
  5
30D
  8
DATA
  6
CONTINUOUS
 62
     7
 10
171.47499999999999
 20
-24.52634978618369
 30
0.0
 40
0.875
 50
90.0
 51
270.0
  0
ARC
  5
30E
  8
DATA
  6
CONTINUOUS
 62
     7
 10
181.62498579545451
 20
-24.52634978618369
 30
0.0
 40
0.8750142045454545
 50
269.6735292051622
 51
90.326470794837803
  0
LINE
  5
30F
  8
DATA
  6
CONTINUOUS
 62
     7
 10
171.47499999999999
 20
-19.651349786183712
 30
0.0
 11
181.62997159091699
 21
-19.651349786183712
 31
0.0
  0
LINE
  5
310
  8
DATA
  6
CONTINUOUS
 62
     7
 10
171.47499999999999
 20
-21.401349786183712
 30
0.0
 11
181.62997159091699
 21
-21.401349786183712
 31
0.0
  0
ARC
  5
311
  8
DATA
  6
CONTINUOUS
 62
     7
 10
171.47499999999999
 20
-20.526349786183712
 30
0.0
 40
0.875
 50
90.0
 51
270.0
  0
ARC
  5
312
  8
DATA
  6
CONTINUOUS
 62
     7
 10
181.62498579545451
 20
-20.526349786183712
 30
0.0
 40
0.8750142045454545
 50
269.6735292051622
 51
90.326470794837803
  0
LINE
  5
313
  8
DATA
  6
CONTINUOUS
 62
     7
 10
171.47499999999999
 20
-15.65134978618371
 30
0.0
 11
181.62997159091699
 21
-15.65134978618371
 31
0.0
  0
LINE
  5
314
  8
DATA
  6
CONTINUOUS
 62
     7
 10
171.47499999999999
 20
-17.401349786183712
 30
0.0
 11
181.62997159091699
 21
-17.401349786183712
 31
0.0
  0
ARC
  5
315
  8
DATA
  6
CONTINUOUS
 62
     7
 10
171.47499999999999
 20
-16.526349786183712
 30
0.0
 40
0.875
 50
90.0
 51
270.0
  0
ARC
  5
316
  8
DATA
  6
CONTINUOUS
 62
     7
 10
181.62498579545451
 20
-16.526349786183712
 30
0.0
 40
0.8750142045454545
 50
269.6735292051622
 51
90.326470794837803
  0
LINE
  5
317
  8
DATA
  6
CONTINUOUS
 62
     7
 10
171.47499999999999
 20
-11.65134978618371
 30
0.0
 11
181.62997159091699
 21
-11.65134978618371
 31
0.0
  0
LINE
  5
318
  8
DATA
  6
CONTINUOUS
 62
     7
 10
171.47499999999999
 20
-13.40134978618371
 30
0.0
 11
181.62997159091699
 21
-13.40134978618371
 31
0.0
  0
ARC
  5
319
  8
DATA
  6
CONTINUOUS
 62
     7
 10
171.47499999999999
 20
-12.52634978618371
 30
0.0
 40
0.875
 50
90.0
 51
270.0
  0
ARC
  5
31A
  8
DATA
  6
CONTINUOUS
 62
     7
 10
181.62498579545451
 20
-12.52634978618371
 30
0.0
 40
0.8750142045454545
 50
269.6735292051622
 51
90.326470794837803
  0
LINE
  5
31B
  8
DATA
  6
CONTINUOUS
 62
     7
 10
171.47499999999999
 20
-7.6513497861837152
 30
0.0
 11
181.62997159091699
 21
-7.6513497861837152
 31
0.0
  0
LINE
  5
31C
  8
DATA
  6
CONTINUOUS
 62
     7
 10
171.47499999999999
 20
-9.4013497861837152
 30
0.0
 11
181.62997159091699
 21
-9.4013497861837152
 31
0.0
  0
ARC
  5
31D
  8
DATA
  6
CONTINUOUS
 62
     7
 10
171.47499999999999
 20
-8.5263497861837152
 30
0.0
 40
0.875
 50
90.0
 51
270.0
  0
ARC
  5
31E
  8
DATA
  6
CONTINUOUS
 62
     7
 10
181.62498579545451
 20
-8.5263497861837152
 30
0.0
 40
0.8750142045454545
 50
269.6735292051622
 51
90.326470794837803
  0
LINE
  5
31F
  8
DATA
  6
CONTINUOUS
 62
     7
 10
171.47499999999999
 20
-3.6513497861836872
 30
0.0
 11
181.62997159091699
 21
-3.6513497861836872
 31
0.0
  0
LINE
  5
320
  8
DATA
  6
CONTINUOUS
 62
     7
 10
171.47499999999999
 20
-5.4013497861837152
 30
0.0
 11
181.62997159091699
 21
-5.4013497861837152
 31
0.0
  0
ARC
  5
321
  8
DATA
  6
CONTINUOUS
 62
     7
 10
171.47499999999999
 20
-4.5263497861836859
 30
0.0
 40
0.875
 50
90.0
 51
270.0
  0
ARC
  5
322
  8
DATA
  6
CONTINUOUS
 62
     7
 10
181.62498579545451
 20
-4.5263497861836859
 30
0.0
 40
0.8750142045454827
 50
269.6735292051622
 51
90.326470794837803
  0
LINE
  5
323
  8
DATA
  6
CONTINUOUS
 62
     7
 10
171.47499999999999
 20
0.3486502138163132
 30
0.0
 11
181.62997159091699
 21
0.3486502138163132
 31
0.0
  0
LINE
  5
324
  8
DATA
  6
CONTINUOUS
 62
     7
 10
171.47499999999999
 20
-1.4013497861836861
 30
0.0
 11
181.62997159091699
 21
-1.4013497861836861
 31
0.0
  0
ARC
  5
325
  8
DATA
  6
CONTINUOUS
 62
     7
 10
171.47499999999999
 20
-0.5263497861836868
 30
0.0
 40
0.875
 50
90.0
 51
270.0
  0
ARC
  5
326
  8
DATA
  6
CONTINUOUS
 62
     7
 10
181.62498579545451
 20
-0.5263497861836868
 30
0.0
 40
0.8750142045454545
 50
269.6735292051622
 51
90.326470794837803
  0
LINE
  5
327
  8
DATA
  6
CONTINUOUS
 62
     7
 10
171.47499999999999
 20
4.3486502138163132
 30
0.0
 11
181.62997159091699
 21
4.3486502138163132
 31
0.0
  0
LINE
  5
328
  8
DATA
  6
CONTINUOUS
 62
     7
 10
171.47499999999999
 20
2.5986502138163119
 30
0.0
 11
181.62997159091699
 21
2.5986502138163119
 31
0.0
  0
ARC
  5
329
  8
DATA
  6
CONTINUOUS
 62
     7
 10
171.47499999999999
 20
3.4736502138163119
 30
0.0
 40
0.875
 50
90.0
 51
270.0
  0
ARC
  5
32A
  8
DATA
  6
CONTINUOUS
 62
     7
 10
181.62498579545451
 20
3.4736502138163119
 30
0.0
 40
0.8750142045454545
 50
269.6735292051622
 51
90.326470794837803
  0
LINE
  5
32B
  8
DATA
  6
CONTINUOUS
 62
     7
 10
171.47499999999999
 20
8.3486502138163132
 30
0.0
 11
181.62997159091699
 21
8.3486502138163132
 31
0.0
  0
LINE
  5
32C
  8
DATA
  6
CONTINUOUS
 62
     7
 10
171.47499999999999
 20
6.5986502138163132
 30
0.0
 11
181.62997159091699
 21
6.5986502138163132
 31
0.0
  0
ARC
  5
32D
  8
DATA
  6
CONTINUOUS
 62
     7
 10
171.47499999999999
 20
7.4736502138163132
 30
0.0
 40
0.875
 50
90.0
 51
270.0
  0
ARC
  5
32E
  8
DATA
  6
CONTINUOUS
 62
     7
 10
181.62498579545451
 20
7.4736502138163132
 30
0.0
 40
0.8750142045454545
 50
269.6735292051622
 51
90.326470794837803
  0
LINE
  5
32F
  8
DATA
  6
CONTINUOUS
 62
     7
 10
171.47499999999999
 20
12.34865021381631
 30
0.0
 11
181.62997159091699
 21
12.34865021381631
 31
0.0
  0
LINE
  5
330
  8
DATA
  6
CONTINUOUS
 62
     7
 10
171.47499999999999
 20
10.59865021381631
 30
0.0
 11
181.62997159091699
 21
10.59865021381631
 31
0.0
  0
ARC
  5
331
  8
DATA
  6
CONTINUOUS
 62
     7
 10
171.47499999999999
 20
11.47365021381631
 30
0.0
 40
0.875
 50
90.0
 51
270.0
  0
ARC
  5
332
  8
DATA
  6
CONTINUOUS
 62
     7
 10
181.62498579545451
 20
11.47365021381631
 30
0.0
 40
0.8750142045454545
 50
269.6735292051622
 51
90.326470794837803
  0
LINE
  5
333
  8
DATA
  6
CONTINUOUS
 62
     7
 10
171.47499999999999
 20
16.34865021381631
 30
0.0
 11
181.62997159091699
 21
16.34865021381631
 31
0.0
  0
LINE
  5
334
  8
DATA
  6
CONTINUOUS
 62
     7
 10
171.47499999999999
 20
14.59865021381631
 30
0.0
 11
181.62997159091699
 21
14.59865021381631
 31
0.0
  0
ARC
  5
335
  8
DATA
  6
CONTINUOUS
 62
     7
 10
171.47499999999999
 20
15.47365021381631
 30
0.0
 40
0.875
 50
90.0
 51
270.0
  0
ARC
  5
336
  8
DATA
  6
CONTINUOUS
 62
     7
 10
181.62498579545451
 20
15.47365021381631
 30
0.0
 40
0.8750142045454545
 50
269.6735292051622
 51
90.326470794837803
  0
LINE
  5
337
  8
DATA
  6
CONTINUOUS
 62
     7
 10
171.47499999999999
 20
20.34865021381632
 30
0.0
 11
181.62997159091699
 21
20.34865021381632
 31
0.0
  0
LINE
  5
338
  8
DATA
  6
CONTINUOUS
 62
     7
 10
171.47499999999999
 20
18.59865021381631
 30
0.0
 11
181.62997159091699
 21
18.59865021381631
 31
0.0
  0
ARC
  5
339
  8
DATA
  6
CONTINUOUS
 62
     7
 10
171.47499999999999
 20
19.47365021381632
 30
0.0
 40
0.875
 50
90.0
 51
270.0
  0
ARC
  5
33A
  8
DATA
  6
CONTINUOUS
 62
     7
 10
181.62498579545451
 20
19.47365021381632
 30
0.0
 40
0.8750142045454545
 50
269.6735292051622
 51
90.326470794837803
  0
LINE
  5
33B
  8
DATA
  6
CONTINUOUS
 62
     7
 10
171.47499999999999
 20
24.34865021381632
 30
0.0
 11
181.62997159091699
 21
24.34865021381632
 31
0.0
  0
LINE
  5
33C
  8
DATA
  6
CONTINUOUS
 62
     7
 10
171.47499999999999
 20
22.59865021381632
 30
0.0
 11
181.62997159091699
 21
22.59865021381632
 31
0.0
  0
ARC
  5
33D
  8
DATA
  6
CONTINUOUS
 62
     7
 10
171.47499999999999
 20
23.47365021381632
 30
0.0
 40
0.875
 50
90.0
 51
270.0
  0
ARC
  5
33E
  8
DATA
  6
CONTINUOUS
 62
     7
 10
181.62498579545451
 20
23.47365021381632
 30
0.0
 40
0.8750142045454545
 50
269.6735292051622
 51
90.326470794837803
  0
LINE
  5
33F
  8
DATA
  6
CONTINUOUS
 62
     7
 10
171.47499999999999
 20
28.34865021381632
 30
0.0
 11
181.62997159091699
 21
28.34865021381632
 31
0.0
  0
LINE
  5
340
  8
DATA
  6
CONTINUOUS
 62
     7
 10
171.47499999999999
 20
26.59865021381632
 30
0.0
 11
181.62997159091699
 21
26.59865021381632
 31
0.0
  0
ARC
  5
341
  8
DATA
  6
CONTINUOUS
 62
     7
 10
171.47499999999999
 20
27.47365021381632
 30
0.0
 40
0.875
 50
90.0
 51
270.0
  0
ARC
  5
342
  8
DATA
  6
CONTINUOUS
 62
     7
 10
181.62498579545451
 20
27.47365021381632
 30
0.0
 40
0.8750142045454545
 50
269.6735292051622
 51
90.326470794837803
  0
LINE
  5
343
  8
DATA
  6
CONTINUOUS
 62
     7
 10
171.47499999999999
 20
32.34865021381632
 30
0.0
 11
181.62997159091699
 21
32.34865021381632
 31
0.0
  0
LINE
  5
344
  8
DATA
  6
CONTINUOUS
 62
     7
 10
171.47499999999999
 20
30.59865021381632
 30
0.0
 11
181.62997159091699
 21
30.59865021381632
 31
0.0
  0
ARC
  5
345
  8
DATA
  6
CONTINUOUS
 62
     7
 10
171.47499999999999
 20
31.47365021381632
 30
0.0
 40
0.875
 50
90.0
 51
270.0
  0
ARC
  5
346
  8
DATA
  6
CONTINUOUS
 62
     7
 10
181.62498579545451
 20
31.47365021381632
 30
0.0
 40
0.8750142045454545
 50
269.6735292051622
 51
90.326470794837803
  0
LINE
  5
347
  8
DATA
  6
CONTINUOUS
 62
     7
 10
171.47499999999999
 20
36.34865021381632
 30
0.0
 11
181.62997159091699
 21
36.34865021381632
 31
0.0
  0
LINE
  5
348
  8
DATA
  6
CONTINUOUS
 62
     7
 10
171.47499999999999
 20
34.59865021381632
 30
0.0
 11
181.62997159091699
 21
34.59865021381632
 31
0.0
  0
ARC
  5
349
  8
DATA
  6
CONTINUOUS
 62
     7
 10
171.47499999999999
 20
35.47365021381632
 30
0.0
 40
0.875
 50
90.0
 51
270.0
  0
ARC
  5
34A
  8
DATA
  6
CONTINUOUS
 62
     7
 10
181.62498579545451
 20
35.47365021381632
 30
0.0
 40
0.8750142045454545
 50
269.6735292051622
 51
90.326470794837803
  0
LINE
  5
34B
  8
DATA
  6
CONTINUOUS
 62
     7
 10
171.47499999999999
 20
40.348650213816313
 30
0.0
 11
181.62997159091699
 21
40.348650213816313
 31
0.0
  0
LINE
  5
34C
  8
DATA
  6
CONTINUOUS
 62
     7
 10
171.47499999999999
 20
38.59865021381632
 30
0.0
 11
181.62997159091699
 21
38.59865021381632
 31
0.0
  0
ARC
  5
34D
  8
DATA
  6
CONTINUOUS
 62
     7
 10
171.47499999999999
 20
39.47365021381632
 30
0.0
 40
0.875
 50
90.0
 51
270.0
  0
ARC
  5
34E
  8
DATA
  6
CONTINUOUS
 62
     7
 10
181.62498579545451
 20
39.47365021381632
 30
0.0
 40
0.8750142045454545
 50
269.6735292051622
 51
90.326470794837803
  0
LINE
  5
34F
  8
DATA
  6
CONTINUOUS
 62
     7
 10
171.47499999999999
 20
44.348650213816299
 30
0.0
 11
181.62997159091699
 21
44.348650213816299
 31
0.0
  0
LINE
  5
350
  8
DATA
  6
CONTINUOUS
 62
     7
 10
171.47499999999999
 20
42.598650213816313
 30
0.0
 11
181.62997159091699
 21
42.598650213816313
 31
0.0
  0
ARC
  5
351
  8
DATA
  6
CONTINUOUS
 62
     7
 10
171.47499999999999
 20
43.473650213816299
 30
0.0
 40
0.875
 50
90.0
 51
270.0
  0
ARC
  5
352
  8
DATA
  6
CONTINUOUS
 62
     7
 10
181.62498579545451
 20
43.473650213816299
 30
0.0
 40
0.8750142045454545
 50
269.6735292051622
 51
90.326470794837803
  0
LINE
  5
353
  8
DATA
  6
CONTINUOUS
 62
     7
 10
171.47499999999999
 20
48.348650213816313
 30
0.0
 11
181.62997159091699
 21
48.348650213816313
 31
0.0
  0
LINE
  5
354
  8
DATA
  6
CONTINUOUS
 62
     7
 10
171.47499999999999
 20
46.598650213816299
 30
0.0
 11
181.62997159091699
 21
46.598650213816299
 31
0.0
  0
ARC
  5
355
  8
DATA
  6
CONTINUOUS
 62
     7
 10
171.47499999999999
 20
47.473650213816299
 30
0.0
 40
0.875
 50
90.0
 51
270.0
  0
ARC
  5
356
  8
DATA
  6
CONTINUOUS
 62
     7
 10
181.62498579545451
 20
47.473650213816299
 30
0.0
 40
0.8750142045454545
 50
269.6735292051622
 51
90.326470794837803
  0
LINE
  5
357
  8
DATA
  6
CONTINUOUS
 62
     7
 10
171.47499999999999
 20
52.348650213816299
 30
0.0
 11
181.62997159091699
 21
52.348650213816299
 31
0.0
  0
LINE
  5
358
  8
DATA
  6
CONTINUOUS
 62
     7
 10
171.47499999999999
 20
50.598650213816299
 30
0.0
 11
181.62997159091699
 21
50.598650213816299
 31
0.0
  0
ARC
  5
359
  8
DATA
  6
CONTINUOUS
 62
     7
 10
171.47499999999999
 20
51.473650213816313
 30
0.0
 40
0.875
 50
90.0
 51
270.0
  0
ARC
  5
35A
  8
DATA
  6
CONTINUOUS
 62
     7
 10
181.62498579545451
 20
51.473650213816313
 30
0.0
 40
0.8750142045454545
 50
269.6735292051622
 51
90.326470794837803
  0
LINE
  5
35B
  8
DATA
  6
CONTINUOUS
 62
     7
 10
171.47499999999999
 20
56.348650213816313
 30
0.0
 11
181.62997159091699
 21
56.348650213816313
 31
0.0
  0
LINE
  5
35C
  8
DATA
  6
CONTINUOUS
 62
     7
 10
171.47499999999999
 20
54.598650213816313
 30
0.0
 11
181.62997159091699
 21
54.598650213816313
 31
0.0
  0
ARC
  5
35D
  8
DATA
  6
CONTINUOUS
 62
     7
 10
171.47499999999999
 20
55.473650213816299
 30
0.0
 40
0.875
 50
90.0
 51
270.0
  0
ARC
  5
35E
  8
DATA
  6
CONTINUOUS
 62
     7
 10
181.62498579545451
 20
55.473650213816299
 30
0.0
 40
0.8750142045454545
 50
269.6735292051622
 51
90.326470794837803
  0
ARC
  5
35F
  8
DATA
  6
CONTINUOUS
 62
     7
 10
164.5
 20
-71.5
 30
0.0
 40
2.0
 50
180.0
 51
270.0
  0
ARC
  5
360
  8
DATA
  6
CONTINUOUS
 62
     7
 10
164.5
 20
198.5
 30
0.0
 40
2.0
 50
90.0
 51
180.0
  0
LINE
  5
361
  8
DATA
  6
CONTINUOUS
 62
     7
 10
166.05000000000001
 20
-79.5
 30
0.0
 11
173.84999999999999
 21
-79.5
 31
0.0
  0
LINE
  5
362
  8
DATA
  6
CONTINUOUS
 62
     7
 10
165.185
 20
-75.5
 30
0.0
 11
174.715
 21
-75.5
 31
0.0
  0
LINE
  5
363
  8
DATA
  6
CONTINUOUS
 62
     7
 10
166.05000000000001
 20
-79.5
 30
0.0
 11
166.05000000000001
 21
-75.5
 31
0.0
  0
LINE
  5
364
  8
DATA
  6
CONTINUOUS
 62
     7
 10
173.84999999999999
 20
-75.5
 30
0.0
 11
173.84999999999999
 21
-79.5
 31
0.0
  0
LINE
  5
365
  8
DATA
  6
CONTINUOUS
 62
     7
 10
165.185
 20
-75.5
 30
0.0
 11
165.185
 21
-73.5
 31
0.0
  0
LINE
  5
366
  8
DATA
  6
CONTINUOUS
 62
     7
 10
174.715
 20
-73.5
 30
0.0
 11
174.715
 21
-75.5
 31
0.0
  0
LINE
  5
367
  8
DATA
  6
CONTINUOUS
 62
     7
 10
170.15000000000001
 20
-75.5
 30
0.0
 11
170.15000000000001
 21
-73.5
 31
0.0
  0
LINE
  5
368
  8
DATA
  6
CONTINUOUS
 62
     7
 10
-78.331752129766372
 20
-77.5
 30
0.0
 11
-73.655214949330428
 21
-77.5
 31
0.0
  0
LINE
  5
369
  8
DATA
  6
CONTINUOUS
 62
     7
 10
-71.290963596988362
 20
-77.5
 30
0.0
 11
-55.696003482108154
 21
-77.5
 31
0.0
  0
LINE
  5
36A
  8
DATA
  6
CONTINUOUS
 62
     7
 10
-53.331752129766159
 20
-77.5
 30
0.0
 11
-48.655214949330379
 21
-77.5
 31
0.0
  0
LINE
  5
36B
  8
DATA
  6
CONTINUOUS
 62
     7
 10
-78.331752129766372
 20
-77.5
 30
0.0
 11
-78.331752129766372
 21
-73.5
 31
0.0
  0
LINE
  5
36C
  8
DATA
  6
CONTINUOUS
 62
     7
 10
-73.655214949330428
 20
-77.5
 30
0.0
 11
-73.655214949330428
 21
-73.5
 31
0.0
  0
LINE
  5
36D
  8
DATA
  6
CONTINUOUS
 62
     7
 10
-53.331752129766159
 20
-77.5
 30
0.0
 11
-53.331752129766159
 21
-73.5
 31
0.0
  0
LINE
  5
36E
  8
DATA
  6
CONTINUOUS
 62
     7
 10
-48.655214949330379
 20
-77.5
 30
0.0
 11
-48.655214949330379
 21
-73.5
 31
0.0
  0
LINE
  5
36F
  8
DATA
  6
CONTINUOUS
 62
     7
 10
-71.290963596988362
 20
-77.5
 30
0.0
 11
-71.290963596988362
 21
-73.5
 31
0.0
  0
LINE
  5
370
  8
DATA
  6
CONTINUOUS
 62
     7
 10
-55.696003482108154
 20
-77.5
 30
0.0
 11
-55.696003482108154
 21
-73.5
 31
0.0
  0
POLYLINE
  5
371
  8
DATA
  6
CONTINUOUS
 62
     7
 66
     1
 10
0.0
 20
0.0
 30
0.0
  0
VERTEX
  5
4AB
  8
DATA
  6
CONTINUOUS
 62
     7
 10
177.19999999999999
 20
-73.5
 30
0.0
  0
VERTEX
  5
4AC
  8
DATA
  6
CONTINUOUS
 62
     7
 10
177.19999999999999
 20
-77.5
 30
0.0
  0
VERTEX
  5
4AD
  8
DATA
  6
CONTINUOUS
 62
     7
 10
173.84999999999999
 20
-77.5
 30
0.0
  0
SEQEND
  5
4AE
  8
DATA
  6
CONTINUOUS
 62
     7
  0
POLYLINE
  5
377
  8
DATA
  6
CONTINUOUS
 62
     7
 66
     1
 10
0.0
 20
0.0
 30
0.0
  0
VERTEX
  5
4AF
  8
DATA
  6
CONTINUOUS
 62
     7
 10
178.89999999999989
 20
-73.5
 30
0.0
  0
VERTEX
  5
4B0
  8
DATA
  6
CONTINUOUS
 62
     7
 10
178.89999999999989
 20
-77.5
 30
0.0
  0
VERTEX
  5
4B1
  8
DATA
  6
CONTINUOUS
 62
     7
 10
173.84999999999999
 20
-77.5
 30
0.0
  0
SEQEND
  5
4B2
  8
DATA
  6
CONTINUOUS
 62
     7
  0
TEXT
  5
37D
  8
DATA
 62
     7
 10
-70.103591604762599
 20
41.740473152813507
 30
0.0
 40
3.679009201388888
  1
Fast
 41
0.7
 11
-70.103591604762599
 21
45.419482354202387
 31
0.0
 73
     3
  0
TEXT
  5
37E
  8
DATA
 62
     7
 10
-70.103591604762599
 20
36.7404731528135
 30
0.0
 40
3.679009201388888
  1
Slow
 41
0.7
 11
-70.103591604762599
 21
40.41948235420238
 31
0.0
 73
     3
  0
TEXT
  5
37F
  8
DATA
 62
     7
 10
252.00354517464689
 20
-307.7479068258346
 30
0.0
 40
6.5153645833333318
  1
4\U+00D74 Matrix For HDMI1.3
 41
0.7
 11
252.00354517464689
 21
-301.23254224250132
 31
0.0
 73
     3
  0
ARC
  5
380
  8
DATA
  6
CONTINUOUS
 62
     7
 10
162.35691190857941
 20
-41.5
 30
0.0
 40
1.4999999999999969
 50
84.526114267760633
 51
275.47388573223941
  0
ARC
  5
381
  8
DATA
  6
CONTINUOUS
 62
     7
 10
162.4597214691417
 20
-39.999999999999943
 30
0.0
 40
1.5000000000000451
 50
88.461288499054874
 51
206.15673466371521
  0
ARC
  5
382
  8
DATA
  6
CONTINUOUS
 62
     7
 10
162.4597214691417
 20
-30.0
 30
0.0
 40
1.499999999999988
 50
88.461288499055385
 51
271.5387115009446
  0
ARC
  5
383
  8
DATA
  6
CONTINUOUS
 62
     7
 10
162.4597214691417
 20
-20.0
 30
0.0
 40
1.499999999999988
 50
88.461288499055385
 51
271.5387115009446
  0
ARC
  5
384
  8
DATA
  6
CONTINUOUS
 62
     7
 10
162.4597214691417
 20
-10.0
 30
0.0
 40
1.499999999999988
 50
88.461288499055385
 51
271.5387115009446
  0
LINE
  5
385
  8
DATA
  6
CONTINUOUS
 62
     7
 10
156.5
 20
85.132066996036514
 30
0.0
 11
156.5
 21
90.905569687932726
 31
0.0
  0
LINE
  5
386
  8
DATA
  6
CONTINUOUS
 62
     7
 10
156.5
 20
115.1320669960365
 30
0.0
 11
156.5
 21
120.9055696879327
 31
0.0
  0
LINE
  5
387
  8
DATA
  6
CONTINUOUS
 62
     7
 10
156.5
 20
145.13206699603651
 30
0.0
 11
156.5
 21
150.90556968793271
 31
0.0
  0
LINE
  5
388
  8
DATA
  6
CONTINUOUS
 62
     7
 10
156.5
 20
175.13206699603651
 30
0.0
 11
156.5
 21
180.90556968793271
 31
0.0
  0
LINE
  5
389
  8
DATA
  6
CONTINUOUS
 62
     7
 10
156.5
 20
180.90556968793271
 30
0.0
 11
162.5
 21
180.90556968793271
 31
0.0
  0
LINE
  5
38A
  8
DATA
  6
CONTINUOUS
 62
     7
 10
156.5
 20
175.13206699603651
 30
0.0
 11
162.5
 21
175.13206699603651
 31
0.0
  0
LINE
  5
38B
  8
DATA
  6
CONTINUOUS
 62
     7
 10
156.5
 20
150.90556968793271
 30
0.0
 11
162.5
 21
150.90556968793271
 31
0.0
  0
LINE
  5
38C
  8
DATA
  6
CONTINUOUS
 62
     7
 10
156.5
 20
145.13206699603651
 30
0.0
 11
162.5
 21
145.13206699603651
 31
0.0
  0
LINE
  5
38D
  8
DATA
  6
CONTINUOUS
 62
     7
 10
156.5
 20
120.9055696879327
 30
0.0
 11
162.5
 21
120.9055696879327
 31
0.0
  0
LINE
  5
38E
  8
DATA
  6
CONTINUOUS
 62
     7
 10
156.5
 20
115.1320669960365
 30
0.0
 11
162.5
 21
115.1320669960365
 31
0.0
  0
LINE
  5
38F
  8
DATA
  6
CONTINUOUS
 62
     7
 10
156.5
 20
90.905569687932726
 30
0.0
 11
162.5
 21
90.905569687932726
 31
0.0
  0
LINE
  5
390
  8
DATA
  6
CONTINUOUS
 62
     7
 10
156.5
 20
85.132066996036514
 30
0.0
 11
162.5
 21
85.132066996036514
 31
0.0
  0
LINE
  5
391
  8
DATA
  6
CONTINUOUS
 62
     7
 10
161.0
 20
2.0
 30
0.0
 11
161.0
 21
4.0
 31
0.0
  0
LINE
  5
392
  8
DATA
  6
CONTINUOUS
 62
     7
 10
161.0
 20
20.0
 30
0.0
 11
161.0
 21
22.0
 31
0.0
  0
LINE
  5
393
  8
DATA
  6
CONTINUOUS
 62
     7
 10
161.0
 20
38.0
 30
0.0
 11
161.0
 21
40.0
 31
0.0
  0
LINE
  5
394
  8
DATA
  6
CONTINUOUS
 62
     7
 10
161.0
 20
40.0
 30
0.0
 11
162.5
 21
40.0
 31
0.0
  0
LINE
  5
395
  8
DATA
  6
CONTINUOUS
 62
     7
 10
161.0
 20
38.0
 30
0.0
 11
162.5
 21
38.0
 31
0.0
  0
LINE
  5
396
  8
DATA
  6
CONTINUOUS
 62
     7
 10
161.0
 20
22.0
 30
0.0
 11
162.5
 21
22.0
 31
0.0
  0
LINE
  5
397
  8
DATA
  6
CONTINUOUS
 62
     7
 10
161.0
 20
20.0
 30
0.0
 11
162.5
 21
20.0
 31
0.0
  0
LINE
  5
398
  8
DATA
  6
CONTINUOUS
 62
     7
 10
161.0
 20
4.0
 30
0.0
 11
162.5
 21
4.0
 31
0.0
  0
LINE
  5
399
  8
DATA
  6
CONTINUOUS
 62
     7
 10
161.0
 20
2.0
 30
0.0
 11
162.5
 21
2.0
 31
0.0
  0
ENDSEC
  0
EOF
