  0
SECTION
  2
HEADER
  9
$ACADVER
  1
AC1009
  9
$INSBASE
 10
0.0
 20
0.0
 30
0.0
  9
$EXTMIN
 10
9.9963383446405487
 20
2.4224859830253531
 30
-0.0015258207003583
  9
$EXTMAX
 10
190.00579878222879
 20
270.00824037474621
 30
0.0000000349246037
  9
$LIMMIN
 10
0.0
 20
0.0
  9
$LIMMAX
 10
0.0
 20
0.0
  9
$ORTHOMODE
 70
     0
  9
$REGENMODE
 70
     1
  9
$FILLMODE
 70
     1
  9
$QTEXTMODE
 70
     0
  9
$MIRRTEXT
 70
     1
  9
$DRAGMODE
 70
     2
  9
$LTSCALE
 40
5.0800000000000001
  9
$OSMODE
 70
   231
  9
$ATTMODE
 70
     1
  9
$TEXTSIZE
 40
0.0
  9
$TRACEWID
 40
1.0
  9
$TEXTSTYLE
  7
STANDARD
  9
$CLAYER
  8
DATA
  9
$CELTYPE
  6
BYLAYER
  9
$CECOLOR
 62
   256
  9
$DIMSCALE
 40
1.0
  9
$DIMASZ
 40
0.18
  9
$DIMEXO
 40
0.0625
  9
$DIMDLI
 40
0.38
  9
$DIMRND
 40
0.0
  9
$DIMDLE
 40
0.0
  9
$DIMEXE
 40
0.18
  9
$DIMTP
 40
0.0
  9
$DIMTM
 40
0.0
  9
$DIMTXT
 40
0.18
  9
$DIMCEN
 40
0.09
  9
$DIMTSZ
 40
0.0
  9
$DIMTOL
 70
     0
  9
$DIMLIM
 70
     0
  9
$DIMTIH
 70
     1
  9
$DIMTOH
 70
     1
  9
$DIMSE1
 70
     0
  9
$DIMSE2
 70
     0
  9
$DIMTAD
 70
     0
  9
$DIMZIN
 70
     0
  9
$DIMBLK
  1

  9
$DIMASO
 70
     1
  9
$DIMSHO
 70
     1
  9
$DIMPOST
  1

  9
$DIMAPOST
  1

  9
$DIMALT
 70
     0
  9
$DIMALTD
 70
     2
  9
$DIMALTF
 40
25.399999999999999
  9
$DIMLFAC
 40
1.0
  9
$DIMTOFL
 70
     0
  9
$DIMTVP
 40
0.0
  9
$DIMTIX
 70
     0
  9
$DIMSOXD
 70
     0
  9
$DIMSAH
 70
     0
  9
$DIMBLK1
  1

  9
$DIMBLK2
  1

  9
$DIMSTYLE
  2
STANDARD
  9
$DIMCLRD
 70
     0
  9
$DIMCLRE
 70
     0
  9
$DIMCLRT
 70
     0
  9
$DIMTFAC
 40
1.0
  9
$DIMGAP
 40
0.09
  9
$LUNITS
 70
     2
  9
$LUPREC
 70
     4
  9
$SKETCHINC
 40
0.1
  9
$FILLETRAD
 40
0.0
  9
$AUNITS
 70
     0
  9
$AUPREC
 70
     0
  9
$MENU
  1
acad
  9
$ELEVATION
 40
0.0
  9
$PELEVATION
 40
0.0
  9
$THICKNESS
 40
0.0
  9
$LIMCHECK
 70
     0
  9
$BLIPMODE
 70
     0
  9
$CHAMFERA
 40
0.0
  9
$CHAMFERB
 40
0.0
  9
$SKPOLY
 70
     0
  9
$TDCREATE
 40
2455202.6972453711
  9
$TDUPDATE
 40
2455202.6976164118
  9
$TDINDWG
 40
0.0002532176
  9
$TDUSRTIMER
 40
0.0002532176
  9
$USRTIMER
 70
     1
  9
$ANGBASE
 50
0.0
  9
$ANGDIR
 70
     0
  9
$PDMODE
 70
     1
  9
$PDSIZE
 40
-2.0
  9
$PLINEWID
 40
0.0
  9
$COORDS
 70
     0
  9
$SPLFRAME
 70
     0
  9
$SPLINETYPE
 70
     6
  9
$SPLINESEGS
 70
     8
  9
$ATTDIA
 70
     0
  9
$ATTREQ
 70
     1
  9
$HANDLING
 70
     1
  9
$HANDSEED
  5
1F1
  9
$SURFTAB1
 70
     6
  9
$SURFTAB2
 70
     6
  9
$SURFTYPE
 70
     6
  9
$SURFU
 70
     6
  9
$SURFV
 70
     6
  9
$UCSNAME
  2

  9
$UCSORG
 10
0.0
 20
0.0
 30
0.0
  9
$UCSXDIR
 10
1.0
 20
0.0
 30
0.0
  9
$UCSYDIR
 10
0.0
 20
1.0
 30
0.0
  9
$PUCSNAME
  2

  9
$PUCSORG
 10
0.0
 20
0.0
 30
0.0
  9
$PUCSXDIR
 10
1.0
 20
0.0
 30
0.0
  9
$PUCSYDIR
 10
0.0
 20
1.0
 30
0.0
  9
$USERI1
 70
     0
  9
$USERI2
 70
     0
  9
$USERI3
 70
     0
  9
$USERI4
 70
     0
  9
$USERI5
 70
     0
  9
$USERR1
 40
0.0
  9
$USERR2
 40
0.0
  9
$USERR3
 40
0.0
  9
$USERR4
 40
0.0
  9
$USERR5
 40
0.0
  9
$WORLDVIEW
 70
     1
  9
$SHADEDGE
 70
     3
  9
$SHADEDIF
 70
    70
  9
$TILEMODE
 70
     1
  9
$MAXACTVP
 70
    64
  9
$PLIMCHECK
 70
     0
  9
$PEXTMIN
 10
1.0000000000000000E+020
 20
1.0000000000000000E+020
 30
1.0000000000000000E+020
  9
$PEXTMAX
 10
-1.0000000000000000E+020
 20
-1.0000000000000000E+020
 30
-1.0000000000000000E+020
  9
$PLIMMIN
 10
0.0
 20
0.0
  9
$PLIMMAX
 10
12.0
 20
9.0
  9
$UNITMODE
 70
     0
  9
$VISRETAIN
 70
     0
  9
$PLINEGEN
 70
     1
  9
$PSLTSCALE
 70
     0
  0
ENDSEC
  0
SECTION
  2
TABLES
  0
TABLE
  2
VPORT
 70
     1
  0
VPORT
  2
*ACTIVE
 70
     0
 10
0.0
 20
0.0
 11
1.0
 21
1.0
 12
100.0010685634347
 22
136.2153631788857
 13
0.0
 23
0.0
 14
1.0
 24
1.0
 15
0.0
 25
0.0
 16
0.0
 26
0.0
 36
1.0
 17
0.0
 27
0.0
 37
0.0
 40
269.55813095971871
 41
1.964329643296433
 42
50.0
 43
0.0
 44
0.0
 50
0.0
 51
0.0
 71
     0
 72
  2000
 73
     1
 74
     1
 75
     0
 76
     0
 77
     0
 78
     0
  0
ENDTAB
  0
TABLE
  2
LTYPE
 70
    11
  0
LTYPE
  2
CONTINUOUS
 70
     0
  3
Solid line
 72
    65
 73
     0
 40
0.0
  0
ENDTAB
  0
TABLE
  2
LAYER
 70
     5
  0
LAYER
  2
0
 70
     0
 62
     7
  6
CONTINUOUS
  0
LAYER
  2
DATA
 70
     0
 62
     7
  6
CONTINUOUS
  0
LAYER
  2
HIBINO-BASE
 70
     0
 62
     7
  6
CONTINUOUS
  0
LAYER
  2
SPEC
 70
     0
 62
     7
  6
CONTINUOUS
  0
LAYER
  2
DIMNSIONS
 70
     0
 62
     7
  6
CONTINUOUS
  0
ENDTAB
  0
TABLE
  2
STYLE
 70
     3
  0
STYLE
  2
STANDARD
 70
     0
 40
0.0
 41
1.0
 50
0.0
 71
     0
 42
0.0
  3
txt
  4
BIGFONT.SHX
  0
ENDTAB
  0
TABLE
  2
VIEW
 70
     0
  0
ENDTAB
  0
TABLE
  2
UCS
 70
     0
  0
ENDTAB
  0
TABLE
  2
APPID
 70
     3
  0
APPID
  2
ACAD
 70
     0
  0
APPID
  2
ACADANNOTATIVE
 70
     0
  0
APPID
  2
ACAD_MLEADERVER
 70
     0
  0
ENDTAB
  0
TABLE
  2
DIMSTYLE
 70
     2
  0
DIMSTYLE
  2
STANDARD
 70
     0
  3

  4

  5

  6

  7

 40
1.0
 41
0.18
 42
0.0625
 43
0.38
 44
0.18
 45
0.0
 46
0.0
 47
0.0
 48
0.0
140
0.18
141
0.09
142
0.0
143
25.399999999999999
144
1.0
145
0.0
146
1.0
147
0.09
 71
     0
 72
     0
 73
     1
 74
     1
 75
     0
 76
     0
 77
     0
 78
     0
170
     0
171
     2
172
     0
173
     0
174
     0
175
     0
176
     0
177
     0
178
     0
  0
ENDTAB
  0
ENDSEC
  0
SECTION
  2
BLOCKS
  0
BLOCK
  8
0
  2
$MODEL_SPACE
 70
     0
 10
0.0
 20
0.0
 30
0.0
  3
$MODEL_SPACE
  1

  0
ENDBLK
  5
17F
  8
0
  0
BLOCK
 67
     1
  8
0
  2
$PAPER_SPACE
 70
     0
 10
0.0
 20
0.0
 30
0.0
  3
$PAPER_SPACE
  1

  0
ENDBLK
  5
17B
 67
     1
  8
0
  0
ENDSEC
  0
SECTION
  2
ENTITIES
  0
LINE
  5
2C
  8
HIBINO-BASE
  6
CONTINUOUS
 62
     7
 10
10.0
 20
270.0
 30
0.0
 11
190.0
 21
270.0
 31
0.0
  0
LINE
  5
2D
  8
HIBINO-BASE
  6
CONTINUOUS
 62
     7
 10
190.0
 20
10.0
 30
0.0
 11
10.0
 21
10.0
 31
0.0
  0
LINE
  5
2E
  8
HIBINO-BASE
  6
CONTINUOUS
 62
     7
 10
10.0
 20
10.0
 30
0.0
 11
10.0
 21
270.0
 31
0.0
  0
LINE
  5
2F
  8
HIBINO-BASE
  6
CONTINUOUS
 62
     7
 10
190.0
 20
270.0
 30
0.0
 11
190.0
 21
10.0
 31
0.0
  0
LINE
  5
30
  8
HIBINO-BASE
  6
CONTINUOUS
 62
     7
 10
100.0
 20
32.500000000000007
 30
0.0
 11
190.0
 21
32.500000000000007
 31
0.0
  0
LINE
  5
31
  8
HIBINO-BASE
  6
CONTINUOUS
 62
     7
 10
100.0
 20
10.0
 30
0.0
 11
100.0
 21
32.500000000000007
 31
0.0
  0
TEXT
  5
32
  8
HIBINO-BASE
 62
     7
 10
100.90000000000001
 20
29.991306666666681
 30
0.0
 40
1.6288411458333329
  1
NOTE
 41
0.7
 11
100.90000000000001
 21
31.620147812500011
 31
0.0
 73
     3
  0
LINE
  5
33
  8
HIBINO-BASE
  6
CONTINUOUS
 62
     7
 10
135.0
 20
10.0
 30
0.0
 11
135.0
 21
32.500000000000007
 31
0.0
  0
TEXT
  5
34
  8
HIBINO-BASE
 62
     7
 10
135.89999999999989
 20
29.991306666666681
 30
0.0
 40
1.6288411458333329
  1
TITLE
 41
0.7
 11
135.89999999999989
 21
31.620147812500011
 31
0.0
 73
     3
  0
LINE
  5
35
  8
HIBINO-BASE
  6
CONTINUOUS
 62
     7
 10
100.0
 20
20.000000000000011
 30
0.0
 11
190.0
 21
20.000000000000011
 31
0.0
  0
TEXT
  5
36
  8
HIBINO-BASE
 62
     7
 10
148.39999999999989
 20
17.54762666666667
 30
0.0
 40
1.6288411458333329
  1
DRAWN
 41
0.7
 11
148.39999999999989
 21
19.176467812500011
 31
0.0
 73
     3
  0
TEXT
  5
37
  8
HIBINO-BASE
 62
     7
 10
123.39999999999991
 20
17.54762666666667
 30
0.0
 40
1.6288411458333329
  1
DATE
 41
0.7
 11
123.39999999999991
 21
19.176467812500011
 31
0.0
 73
     3
  0
TEXT
  5
38
  8
HIBINO-BASE
 62
     7
 10
113.40000000000001
 20
17.54762666666667
 30
0.0
 40
1.6288411458333329
  1
SCALE
 41
0.7
 11
113.40000000000001
 21
19.176467812500011
 31
0.0
 73
     3
  0
TEXT
  5
39
  8
HIBINO-BASE
 62
     7
 10
135.89999999999989
 20
17.54762666666667
 30
0.0
 40
1.6288411458333329
  1
DESIGN
 41
0.7
 11
135.89999999999989
 21
19.176467812500011
 31
0.0
 73
     3
  0
TEXT
  5
3A
  8
HIBINO-BASE
 62
     7
 10
173.39999999999989
 20
17.54762666666667
 30
0.0
 40
1.6288411458333329
  1
DRAWING NO.
 41
0.7
 11
173.39999999999989
 21
19.176467812500011
 31
0.0
 73
     3
  0
TEXT
  5
3B
  8
HIBINO-BASE
 62
     7
 10
160.89999999999989
 20
17.54762666666667
 30
0.0
 40
1.6288411458333329
  1
CHECK
 41
0.7
 11
160.89999999999989
 21
19.176467812500011
 31
0.0
 73
     3
  0
LINE
  5
3C
  8
HIBINO-BASE
  6
CONTINUOUS
 62
     7
 10
114.375
 20
11.25
 30
0.0
 11
118.125
 21
15.000000000000011
 31
0.0
  0
TEXT
  5
3D
  8
HIBINO-BASE
 62
     7
 10
113.75
 20
13.891056666666669
 30
0.0
 40
1.6288411458333329
  1
1
 41
0.7
 11
113.75
 21
15.5198978125
 31
0.0
 73
     3
  0
LINE
  5
3E
  8
HIBINO-BASE
  6
CONTINUOUS
 62
     7
 10
112.5
 20
10.0
 30
0.0
 11
112.5
 21
20.000000000000011
 31
0.0
  0
LINE
  5
3F
  8
HIBINO-BASE
  6
CONTINUOUS
 62
     7
 10
122.5
 20
10.0
 30
0.0
 11
122.5
 21
20.000000000000011
 31
0.0
  0
LINE
  5
40
  8
HIBINO-BASE
  6
CONTINUOUS
 62
     7
 10
147.49999999999989
 20
20.000000000000011
 30
0.0
 11
147.49999999999989
 21
10.0
 31
0.0
  0
LINE
  5
41
  8
HIBINO-BASE
  6
CONTINUOUS
 62
     7
 10
172.5
 20
20.000000000000011
 30
0.0
 11
172.5
 21
10.0
 31
0.0
  0
LINE
  5
42
  8
HIBINO-BASE
  6
CONTINUOUS
 62
     7
 10
159.99999999999989
 20
10.0
 30
0.0
 11
159.99999999999989
 21
20.000000000000011
 31
0.0
  0
TEXT
  5
43
  8
HIBINO-BASE
 62
     7
 10
123.35654
 20
12.86364666666667
 30
0.0
 40
1.6288411458333329
  1
'09.07.
 41
0.7
 11
123.35654
 21
14.4924878125
 31
0.0
 73
     3
  0
TEXT
  5
44
  8
HIBINO-BASE
 62
     7
 10
117.5
 20
12.016056666666669
 30
0.0
 40
1.6288411458333329
  1
1
 41
0.7
 11
117.5
 21
13.6448978125
 31
0.0
 73
     3
  0
TEXT
  5
45
  8
HIBINO-BASE
 62
     7
 10
103.8833333333333
 20
11.97600000000001
 30
0.0
 40
3.2576822916666659
  1
A4
 41
0.7
 11
103.8833333333333
 21
15.23368229166668
 31
0.0
 73
     3
  0
TEXT
  5
46
  8
HIBINO-BASE
 62
     7
 10
100.9583333333333
 20
17.380545000000009
 30
0.0
 40
1.6288411458333329
  1
PAPER SIZE
 41
0.7
 11
100.9583333333333
 21
19.009386145833339
 31
0.0
 73
     3
  0
TEXT
  5
47
  8
HIBINO-BASE
 62
     7
 10
12.914210746798121
 20
3.6055064617452159
 30
0.0
 40
3.5291558159722221
  1
Hibino-Intersound Corporation
 41
0.7
 11
12.914210746798121
 21
7.134662277717438
 31
0.0
 73
     3
  0
TEXT
  5
48
  8
HIBINO-BASE
 62
     7
 10
120.6459666039878
 20
3.9158454622045098
 30
0.0
 40
3.5291558159722221
  1
ヒビノインターサウンド株式会社
 41
0.7
 11
120.6459666039878
 21
7.4450012781767319
 31
0.0
 73
     3
  0
TEXT
  5
49
  8
HIBINO-BASE
 62
     7
 10
149.60022779846969
 20
12.949501375176339
 30
0.0
 40
1.6288411458333329
  1
T.Ootake
 41
0.7
 11
149.60022779846969
 21
14.57834252100967
 31
0.0
 73
     3
  0
LINE
  5
4A
  8
SPEC
  6
CONTINUOUS
 62
     7
 10
17.5
 20
260.0
 30
0.0
 11
165.0
 21
260.0
 31
0.0
  0
LINE
  5
4B
  8
SPEC
  6
CONTINUOUS
 62
     7
 10
17.5
 20
256.25
 30
0.0
 11
165.0
 21
256.25
 31
0.0
  0
LINE
  5
4C
  8
SPEC
  6
CONTINUOUS
 62
     7
 10
17.5
 20
241.25
 30
0.0
 11
165.0
 21
241.25
 31
0.0
  0
LINE
  5
4D
  8
SPEC
  6
CONTINUOUS
 62
     7
 10
17.5
 20
245.0
 30
0.0
 11
165.0
 21
245.0
 31
0.0
  0
LINE
  5
4E
  8
SPEC
  6
CONTINUOUS
 62
     7
 10
17.5
 20
248.75
 30
0.0
 11
165.0
 21
248.75
 31
0.0
  0
LINE
  5
4F
  8
SPEC
  6
CONTINUOUS
 62
     7
 10
165.0
 20
237.5
 30
0.0
 11
17.5
 21
237.5
 31
0.0
  0
LINE
  5
50
  8
SPEC
  6
CONTINUOUS
 62
     7
 10
17.5
 20
252.5
 30
0.0
 11
165.0
 21
252.5
 31
0.0
  0
LINE
  5
51
  8
SPEC
  6
CONTINUOUS
 62
     7
 10
17.5
 20
260.0
 30
0.0
 11
17.5
 21
237.5
 31
0.0
  0
TEXT
  5
52
  8
SPEC
 62
     7
 10
18.75
 20
261.39326999999997
 30
0.0
 40
2.4432617187500001
  1
仕様
 41
0.7
 11
18.75
 21
263.83653171875
 31
0.0
 73
     3
  0
LINE
  5
53
  8
SPEC
  6
CONTINUOUS
 62
     7
 10
50.0
 20
260.0
 30
0.0
 11
50.0
 21
237.5
 31
0.0
  0
LINE
  5
54
  8
SPEC
  6
CONTINUOUS
 62
     7
 10
165.0
 20
260.0
 30
0.0
 11
165.0
 21
237.5
 31
0.0
  0
TEXT
  5
55
  8
SPEC
 62
     7
 10
18.32434978511591
 20
257.24527608238378
 30
0.0
 40
1.900311249999999
  1
形式
 41
0.7
 11
18.32434978511591
 21
259.1455873323838
 31
0.0
 73
     3
  0
LINE
  5
56
  8
SPEC
  6
CONTINUOUS
 62
     7
 10
50.0
 20
260.0
 30
0.0
 11
50.0
 21
237.5
 31
0.0
  0
TEXT
  5
57
  8
SPEC
 62
     7
 10
18.288803047631259
 20
242.25765757640539
 30
0.0
 40
1.900314670138888
  1
寸法
 41
0.7
 11
18.288803047631259
 21
244.1579722465442
 31
0.0
 73
     3
  0
TEXT
  5
58
  8
SPEC
 62
     7
 10
18.350636777250671
 20
238.4760925381311
 30
0.0
 40
1.900314670138888
  1
重量
 41
0.7
 11
18.350636777250671
 21
240.37640720827
 31
0.0
 73
     3
  0
TEXT
  5
59
  8
SPEC
 62
     7
 10
18.3541995908936
 20
245.93739019547471
 30
0.0
 40
1.900314670138888
  1
電源
 41
0.7
 11
18.3541995908936
 21
247.8377048656136
 31
0.0
 73
     3
  0
TEXT
  5
5A
  8
SPEC
 62
     7
 10
50.921571605587943
 20
245.9692645464844
 30
0.0
 40
1.900314670138888
  1
5V DC
 41
0.7
 11
50.921571605587943
 21
247.86957921662329
 31
0.0
 73
     3
  0
TEXT
  5
5B
  8
SPEC
 62
     7
 10
50.958825643204861
 20
242.1470590350352
 30
0.0
 40
1.900314670138888
  1
46(W)\U+00D724(H)\U+00D746(D)mm(突起部含まず)
 41
0.7
 11
50.958825643204861
 21
244.0473737051741
 31
0.0
 73
     3
  0
TEXT
  5
5C
  8
SPEC
 62
     7
 10
50.862721810047638
 20
238.59795664411519
 30
0.0
 40
1.900314670138888
  1
約30g
 41
0.7
 11
50.862721810047638
 21
240.49827131425411
 31
0.0
 73
     3
  0
TEXT
  5
5D
  8
SPEC
 62
     7
 10
50.900397518551877
 20
257.12650558946751
 30
0.0
 40
1.900314670138888
  1
変換機
 41
0.7
 11
50.900397518551877
 21
259.02682025960632
 31
0.0
 73
     3
  0
TEXT
  5
5E
  8
SPEC
 62
     7
 10
18.345433030951622
 20
253.479463648007
 30
0.0
 40
1.900311249999999
  1
入力端子
 41
0.7
 11
18.345433030951622
 21
255.37977489800701
 31
0.0
 73
     3
  0
TEXT
  5
5F
  8
SPEC
 62
     7
 10
50.931626308033287
 20
253.4233487736895
 30
0.0
 40
1.900314670138888
  1
Optical(Toslink),Coaxial(S/PDIF)
 41
0.7
 11
50.931626308033287
 21
255.32366344382839
 31
0.0
 73
     3
  0
TEXT
  5
60
  8
SPEC
 62
     7
 10
18.274389088760891
 20
249.74527608238381
 30
0.0
 40
1.900311249999999
  1
出力端子
 41
0.7
 11
18.274389088760891
 21
251.6455873323838
 31
0.0
 73
     3
  0
TEXT
  5
61
  8
SPEC
 62
     7
 10
50.931626308033287
 20
249.55625925533269
 30
0.0
 40
1.900314670138888
  1
Steroe L/R(RCA)
 41
0.7
 11
50.931626308033287
 21
251.45657392547159
 31
0.0
 73
     3
  0
TEXT
  5
62
  8
DIMNSIONS
 62
     7
 10
79.999999999999986
 20
22.269490000000012
 30
0.0
 40
2.4432617187500001
  1
(単位：mm)
 41
0.7
 11
79.999999999999986
 21
24.71275171875001
 31
0.0
 73
     3
  0
LINE
  5
63
  8
DIMNSIONS
  6
CONTINUOUS
 62
     7
 10
90.625
 20
60.375
 30
0.0
 11
90.625
 21
48.0
 31
0.0
  0
LINE
  5
64
  8
DIMNSIONS
  6
CONTINUOUS
 62
     7
 10
136.625
 20
60.375
 30
0.0
 11
136.625
 21
48.0
 31
0.0
  0
LINE
  5
65
  8
DIMNSIONS
  6
CONTINUOUS
 62
     7
 10
90.625
 20
50.0
 30
0.0
 11
136.625
 21
50.0
 31
0.0
  0
LINE
  5
66
  8
DIMNSIONS
  6
CONTINUOUS
 62
     7
 10
90.625
 20
50.0
 30
0.0
 11
93.125622558593733
 21
50.670039795150252
 31
0.0
  0
LINE
  5
67
  8
DIMNSIONS
  6
CONTINUOUS
 62
     7
 10
90.625
 20
50.0
 30
0.0
 11
93.125622558593733
 21
49.329960204849748
 31
0.0
  0
LINE
  5
68
  8
DIMNSIONS
  6
CONTINUOUS
 62
     7
 10
136.625
 20
50.0
 30
0.0
 11
134.12437744140621
 21
49.329960204849748
 31
0.0
  0
LINE
  5
69
  8
DIMNSIONS
  6
CONTINUOUS
 62
     7
 10
136.625
 20
50.0
 30
0.0
 11
134.12437744140621
 21
50.670039795150252
 31
0.0
  0
TEXT
  5
6A
  8
DIMNSIONS
 62
     7
 10
111.8611111111111
 20
50.993888888888868
 30
0.0
 40
2.7147352430555549
  1
46
 41
0.7
 11
111.8611111111111
 21
53.708624131944418
 31
0.0
 73
     3
  0
LINE
  5
6B
  8
DIMNSIONS
  6
CONTINUOUS
 62
     7
 10
91.624999999999986
 20
59.375
 30
0.0
 11
79.25
 21
59.375
 31
0.0
  0
LINE
  5
6C
  8
DIMNSIONS
  6
CONTINUOUS
 62
     7
 10
88.625
 20
83.375
 30
0.0
 11
79.25
 21
83.375
 31
0.0
  0
LINE
  5
6D
  8
DIMNSIONS
  6
CONTINUOUS
 62
     7
 10
81.25
 20
59.375
 30
0.0
 11
81.25
 21
83.375
 31
0.0
  0
LINE
  5
6E
  8
DIMNSIONS
  6
CONTINUOUS
 62
     7
 10
81.25
 20
59.375
 30
0.0
 11
80.579960204849741
 21
61.875622558593747
 31
0.0
  0
LINE
  5
6F
  8
DIMNSIONS
  6
CONTINUOUS
 62
     7
 10
81.25
 20
59.375
 30
0.0
 11
81.920039795150231
 21
61.875622558593747
 31
0.0
  0
LINE
  5
70
  8
DIMNSIONS
  6
CONTINUOUS
 62
     7
 10
81.25
 20
83.375
 30
0.0
 11
81.920039795150231
 21
80.874377441406267
 31
0.0
  0
LINE
  5
71
  8
DIMNSIONS
  6
CONTINUOUS
 62
     7
 10
81.25
 20
83.375
 30
0.0
 11
80.579960204849741
 21
80.874377441406267
 31
0.0
  0
TEXT
  5
72
  8
DIMNSIONS
 62
     7
 10
80.256111111111096
 20
69.611111111111114
 30
0.0
 40
2.7147352430555549
  1
24
 50
90.0
 41
0.7
 11
77.541375868055539
 21
69.611111111111114
 31
0.0
 73
     3
  0
LINE
  5
73
  8
DIMNSIONS
  6
CONTINUOUS
 62
     7
 10
92.625000000000014
 20
103.125
 30
0.0
 11
79.25
 21
103.125
 31
0.0
  0
LINE
  5
74
  8
DIMNSIONS
  6
CONTINUOUS
 62
     7
 10
92.625000000000014
 20
149.125
 30
0.0
 11
79.25
 21
149.125
 31
0.0
  0
LINE
  5
75
  8
DIMNSIONS
  6
CONTINUOUS
 62
     7
 10
81.25
 20
103.125
 30
0.0
 11
81.25
 21
149.125
 31
0.0
  0
LINE
  5
76
  8
DIMNSIONS
  6
CONTINUOUS
 62
     7
 10
81.25
 20
103.125
 30
0.0
 11
80.579960204849741
 21
105.6256225585938
 31
0.0
  0
LINE
  5
77
  8
DIMNSIONS
  6
CONTINUOUS
 62
     7
 10
81.25
 20
103.125
 30
0.0
 11
81.920039795150231
 21
105.6256225585938
 31
0.0
  0
LINE
  5
78
  8
DIMNSIONS
  6
CONTINUOUS
 62
     7
 10
81.25
 20
149.125
 30
0.0
 11
81.920039795150231
 21
146.62437744140621
 31
0.0
  0
LINE
  5
79
  8
DIMNSIONS
  6
CONTINUOUS
 62
     7
 10
81.25
 20
149.125
 30
0.0
 11
80.579960204849741
 21
146.62437744140621
 31
0.0
  0
TEXT
  5
7A
  8
DIMNSIONS
 62
     7
 10
80.256111111111096
 20
124.3611111111111
 30
0.0
 40
2.7147352430555549
  1
46
 50
90.0
 41
0.7
 11
77.541375868055539
 21
124.3611111111111
 31
0.0
 73
     3
  0
LINE
  5
7B
  8
DIMNSIONS
  6
CONTINUOUS
 62
     7
 10
92.625000000000014
 20
149.125
 30
0.0
 11
79.25
 21
149.125
 31
0.0
  0
LINE
  5
7C
  8
DIMNSIONS
  6
CONTINUOUS
 62
     7
 10
113.066428193441
 20
154.125
 30
0.0
 11
79.25
 21
154.125
 31
0.0
  0
LINE
  5
7D
  8
DIMNSIONS
  6
CONTINUOUS
 62
     7
 10
81.25
 20
154.125
 30
0.0
 11
81.25
 21
149.125
 31
0.0
  0
LINE
  5
7E
  8
DIMNSIONS
  6
CONTINUOUS
 62
     7
 10
81.25
 20
149.125
 30
0.0
 11
81.25
 21
144.125
 31
0.0
  0
LINE
  5
7F
  8
DIMNSIONS
  6
CONTINUOUS
 62
     7
 10
81.25
 20
149.125
 30
0.0
 11
81.920039795150231
 21
146.62437744140621
 31
0.0
  0
LINE
  5
80
  8
DIMNSIONS
  6
CONTINUOUS
 62
     7
 10
81.25
 20
149.125
 30
0.0
 11
80.579960204849741
 21
146.62437744140621
 31
0.0
  0
LINE
  5
81
  8
DIMNSIONS
  6
CONTINUOUS
 62
     7
 10
81.25
 20
154.125
 30
0.0
 11
81.25
 21
159.125
 31
0.0
  0
LINE
  5
82
  8
DIMNSIONS
  6
CONTINUOUS
 62
     7
 10
81.25
 20
154.125
 30
0.0
 11
80.579960204849741
 21
156.6256225585937
 31
0.0
  0
LINE
  5
83
  8
DIMNSIONS
  6
CONTINUOUS
 62
     7
 10
81.25
 20
154.125
 30
0.0
 11
81.920039795150231
 21
156.6256225585937
 31
0.0
  0
TEXT
  5
84
  8
DIMNSIONS
 62
     7
 10
80.256111111111096
 20
150.74305555555549
 30
0.0
 40
2.7147352430555549
  1
5
 50
90.0
 41
0.7
 11
77.541375868055539
 21
150.74305555555549
 31
0.0
 73
     3
  0
LINE
  5
85
  8
DIMNSIONS
  6
CONTINUOUS
 62
     7
 10
102.925
 20
98.125
 30
0.0
 11
79.25
 21
98.125
 31
0.0
  0
LINE
  5
86
  8
DIMNSIONS
  6
CONTINUOUS
 62
     7
 10
92.625000000000014
 20
103.125
 30
0.0
 11
79.25
 21
103.125
 31
0.0
  0
LINE
  5
87
  8
DIMNSIONS
  6
CONTINUOUS
 62
     7
 10
81.25
 20
103.125
 30
0.0
 11
81.25
 21
98.125
 31
0.0
  0
LINE
  5
88
  8
DIMNSIONS
  6
CONTINUOUS
 62
     7
 10
81.25
 20
98.125
 30
0.0
 11
81.25
 21
93.125
 31
0.0
  0
LINE
  5
89
  8
DIMNSIONS
  6
CONTINUOUS
 62
     7
 10
81.25
 20
98.125
 30
0.0
 11
81.920039795150231
 21
95.624377441406224
 31
0.0
  0
LINE
  5
8A
  8
DIMNSIONS
  6
CONTINUOUS
 62
     7
 10
81.25
 20
98.125
 30
0.0
 11
80.579960204849741
 21
95.624377441406224
 31
0.0
  0
LINE
  5
8B
  8
DIMNSIONS
  6
CONTINUOUS
 62
     7
 10
81.25
 20
103.125
 30
0.0
 11
81.25
 21
108.125
 31
0.0
  0
LINE
  5
8C
  8
DIMNSIONS
  6
CONTINUOUS
 62
     7
 10
81.25
 20
103.125
 30
0.0
 11
80.579960204849741
 21
105.6256225585938
 31
0.0
  0
LINE
  5
8D
  8
DIMNSIONS
  6
CONTINUOUS
 62
     7
 10
81.25
 20
103.125
 30
0.0
 11
81.920039795150231
 21
105.6256225585938
 31
0.0
  0
TEXT
  5
8E
  8
DIMNSIONS
 62
     7
 10
80.256111111111096
 20
99.743055555555557
 30
0.0
 40
2.7147352430555549
  1
5
 50
90.0
 41
0.7
 11
77.541375868055539
 21
99.743055555555557
 31
0.0
 73
     3
  0
TEXT
  5
8F
  8
DATA
 62
     7
 10
20.0
 20
14.238
 30
0.0
 40
1.6288411458333329
  1
仕様および外観は予告なく変更されることがありますので、ご了承ください。
 41
0.7
 11
20.0
 21
15.86684114583333
 31
0.0
 73
     3
  0
LINE
  5
90
  8
DATA
  6
CONTINUOUS
 62
     7
 10
90.625
 20
62.375
 30
0.0
 11
90.625
 21
83.375
 31
0.0
  0
LINE
  5
91
  8
DATA
  6
CONTINUOUS
 62
     7
 10
133.625
 20
59.375
 30
0.0
 11
93.625
 21
59.375
 31
0.0
  0
LINE
  5
92
  8
DATA
  6
CONTINUOUS
 62
     7
 10
136.625
 20
83.375
 30
0.0
 11
136.625
 21
62.375
 31
0.0
  0
LINE
  5
93
  8
DATA
  6
CONTINUOUS
 62
     7
 10
90.625
 20
83.375
 30
0.0
 11
136.625
 21
83.375
 31
0.0
  0
LINE
  5
94
  8
DATA
  6
CONTINUOUS
 62
     7
 10
90.625
 20
107.125
 30
0.0
 11
90.625
 21
145.125
 31
0.0
  0
LINE
  5
95
  8
DATA
  6
CONTINUOUS
 62
     7
 10
132.625
 20
103.125
 30
0.0
 11
94.625
 21
103.125
 31
0.0
  0
LINE
  5
96
  8
DATA
  6
CONTINUOUS
 62
     7
 10
136.625
 20
145.125
 30
0.0
 11
136.625
 21
107.125
 31
0.0
  0
LINE
  5
97
  8
DATA
  6
CONTINUOUS
 62
     7
 10
94.625
 20
149.125
 30
0.0
 11
132.625
 21
149.125
 31
0.0
  0
LINE
  5
98
  8
DATA
  6
CONTINUOUS
 62
     7
 10
90.625
 20
81.375000000000014
 30
0.0
 11
136.625
 21
81.375000000000014
 31
0.0
  0
CIRCLE
  5
99
  8
DATA
  6
CONTINUOUS
 62
     7
 10
122.125
 20
73.146523440619561
 30
0.0
 40
4.1999999999999993
  0
CIRCLE
  5
9A
  8
DATA
  6
CONTINUOUS
 62
     7
 10
109.125
 20
73.146523440619561
 30
0.0
 40
4.1999999999999993
  0
CIRCLE
  5
9B
  8
DATA
  6
CONTINUOUS
 62
     7
 10
109.125
 20
73.146523440619561
 30
0.0
 40
1.7999999999999969
  0
CIRCLE
  5
9C
  8
DATA
  6
CONTINUOUS
 62
     7
 10
122.125
 20
73.146523440619561
 30
0.0
 40
1.8
  0
LINE
  5
9D
  8
DATA
  6
CONTINUOUS
 62
     7
 10
90.625
 20
66.609377788173148
 30
0.0
 11
136.625
 21
66.609377788173148
 31
0.0
  0
ARC
  5
9E
  8
DATA
  6
CONTINUOUS
 62
     7
 10
109.125
 20
73.364158354088033
 30
0.0
 40
5.0
 50
0.0
 51
180.0
  0
LINE
  5
9F
  8
DATA
  6
CONTINUOUS
 62
     7
 10
104.125
 20
73.364158354088033
 30
0.0
 11
104.125
 21
66.609377788173148
 31
0.0
  0
LINE
  5
A0
  8
DATA
  6
CONTINUOUS
 62
     7
 10
114.125
 20
73.364158354088033
 30
0.0
 11
114.125
 21
66.609377788173148
 31
0.0
  0
ARC
  5
A1
  8
DATA
  6
CONTINUOUS
 62
     7
 10
122.125
 20
73.364158354088033
 30
0.0
 40
5.0
 50
0.0
 51
180.0
  0
LINE
  5
A2
  8
DATA
  6
CONTINUOUS
 62
     7
 10
117.125
 20
73.364158354088033
 30
0.0
 11
117.125
 21
66.609377788173148
 31
0.0
  0
LINE
  5
A3
  8
DATA
  6
CONTINUOUS
 62
     7
 10
127.125
 20
73.364158354088033
 30
0.0
 11
127.125
 21
66.609377788173148
 31
0.0
  0
TEXT
  5
A4
  8
DATA
 62
     7
 10
108.6458510266487
 20
63.807196744354108
 30
0.0
 40
1.6288411458333329
  1
L
 41
0.7
 11
108.6458510266487
 21
65.43603789018745
 31
0.0
 73
     3
  0
TEXT
  5
A5
  8
DATA
 62
     7
 10
121.72844125971091
 20
63.84045988212057
 30
0.0
 40
1.6288411458333329
  1
R
 41
0.7
 11
121.72844125971091
 21
65.469301027953904
 31
0.0
 73
     3
  0
TEXT
  5
A6
  8
DATA
 62
     7
 10
100.88755339204781
 20
63.807196744354108
 30
0.0
 40
1.6288411458333329
  1
Out
 41
0.7
 11
100.88755339204781
 21
65.43603789018745
 31
0.0
 73
     3
  0
ARC
  5
A7
  8
DATA
  6
CONTINUOUS
 62
     7
 10
94.625
 20
145.125
 30
0.0
 40
4.0
 50
90.0
 51
180.0
  0
ARC
  5
A8
  8
DATA
  6
CONTINUOUS
 62
     7
 10
132.625
 20
145.125
 30
0.0
 40
4.0
 50
0.0
 51
90.0
  0
ARC
  5
A9
  8
DATA
  6
CONTINUOUS
 62
     7
 10
94.625
 20
107.125
 30
0.0
 40
4.0
 50
180.0
 51
270.0
  0
ARC
  5
AA
  8
DATA
  6
CONTINUOUS
 62
     7
 10
132.625
 20
107.125
 30
0.0
 40
4.0
 50
270.0
 51
0.0
  0
LINE
  5
AB
  8
DATA
  6
CONTINUOUS
 62
     7
 10
104.925
 20
98.125
 30
0.0
 11
104.925
 21
103.125
 31
0.0
  0
LINE
  5
AC
  8
DATA
  6
CONTINUOUS
 62
     7
 10
113.325
 20
98.125
 30
0.0
 11
113.325
 21
103.125
 31
0.0
  0
LINE
  5
AD
  8
DATA
  6
CONTINUOUS
 62
     7
 10
113.325
 20
98.125
 30
0.0
 11
104.925
 21
98.125
 31
0.0
  0
LINE
  5
AE
  8
DATA
  6
CONTINUOUS
 62
     7
 10
117.925
 20
98.125
 30
0.0
 11
117.925
 21
103.125
 31
0.0
  0
LINE
  5
AF
  8
DATA
  6
CONTINUOUS
 62
     7
 10
126.325
 20
98.125
 30
0.0
 11
126.325
 21
103.125
 31
0.0
  0
LINE
  5
B0
  8
DATA
  6
CONTINUOUS
 62
     7
 10
126.325
 20
98.125
 30
0.0
 11
117.925
 21
98.125
 31
0.0
  0
LINE
  5
B1
  8
DATA
  6
CONTINUOUS
 62
     7
 10
115.066428193441
 20
154.125
 30
0.0
 11
115.066428193441
 21
149.125
 31
0.0
  0
LINE
  5
B2
  8
DATA
  6
CONTINUOUS
 62
     7
 10
123.466428193441
 20
154.125
 30
0.0
 11
123.466428193441
 21
149.125
 31
0.0
  0
LINE
  5
B3
  8
DATA
  6
CONTINUOUS
 62
     7
 10
123.466428193441
 20
154.125
 30
0.0
 11
115.066428193441
 21
154.125
 31
0.0
  0
POLYLINE
  5
B4
  8
DATA
  6
CONTINUOUS
 62
     7
 66
     1
 10
0.0
 20
0.0
 30
0.0
 70
     1
  0
VERTEX
  5
1AC
  8
DATA
  6
CONTINUOUS
 62
     7
 10
95.611447669813103
 20
118.10449180488951
 30
0.0
  0
VERTEX
  5
1AD
  8
DATA
  6
CONTINUOUS
 62
     7
 10
97.111447669813117
 20
118.10449180488951
 30
0.0
  0
VERTEX
  5
1AE
  8
DATA
  6
CONTINUOUS
 62
     7
 10
97.111447669813117
 20
113.10449180488951
 30
0.0
  0
VERTEX
  5
1AF
  8
DATA
  6
CONTINUOUS
 62
     7
 10
95.611447669813103
 20
113.10449180488951
 30
0.0
  0
SEQEND
  5
1B0
  8
DATA
  6
CONTINUOUS
 62
     7
  0
TEXT
  5
BB
  8
DATA
 62
     7
 10
110.34999999999999
 20
106.6195
 30
0.0
 40
2.4432617187500001
  1
AUDIO
 41
0.7
 11
110.34999999999999
 21
109.06276171875
 31
0.0
 73
     3
  0
TEXT
  5
BC
  8
DATA
 62
     7
 10
121.7947253638806
 20
106.6195
 30
0.0
 40
2.4432617187500001
  1
D to A
 41
0.7
 11
121.7947253638806
 21
109.06276171875
 31
0.0
 73
     3
  0
LINE
  5
BD
  8
DATA
  6
CONTINUOUS
 62
     7
 10
136.625
 20
186.625
 30
0.0
 11
136.625
 21
165.625
 31
0.0
  0
LINE
  5
BE
  8
DATA
  6
CONTINUOUS
 62
     7
 10
93.625
 20
189.625
 30
0.0
 11
133.625
 21
189.625
 31
0.0
  0
LINE
  5
BF
  8
DATA
  6
CONTINUOUS
 62
     7
 10
90.625
 20
165.625
 30
0.0
 11
90.625
 21
186.625
 31
0.0
  0
LINE
  5
C0
  8
DATA
  6
CONTINUOUS
 62
     7
 10
136.625
 20
165.625
 30
0.0
 11
90.625
 21
165.625
 31
0.0
  0
CIRCLE
  5
C1
  8
DATA
  6
CONTINUOUS
 62
     7
 10
119.3260722069746
 20
175.8534765593804
 30
0.0
 40
4.2000000000000108
  0
CIRCLE
  5
C2
  8
DATA
  6
CONTINUOUS
 62
     7
 10
119.3260722069746
 20
175.8534765593804
 30
0.0
 40
1.800000000000004
  0
LINE
  5
C3
  8
DATA
  6
CONTINUOUS
 62
     7
 10
136.625
 20
182.39062221182681
 30
0.0
 11
112.4510722069747
 21
182.39062221182681
 31
0.0
  0
LINE
  5
C4
  8
DATA
  6
CONTINUOUS
 62
     7
 10
102.4510722069747
 20
182.39062221182681
 30
0.0
 11
90.625
 21
182.39062221182681
 31
0.0
  0
ARC
  5
C5
  8
DATA
  6
CONTINUOUS
 62
     7
 10
119.3260722069746
 20
175.63584164591191
 30
0.0
 40
5.0000000000000124
 50
180.0
 51
0.0
  0
LINE
  5
C6
  8
DATA
  6
CONTINUOUS
 62
     7
 10
124.3260722069746
 20
175.63584164591191
 30
0.0
 11
124.3260722069746
 21
182.39062221182681
 31
0.0
  0
LINE
  5
C7
  8
DATA
  6
CONTINUOUS
 62
     7
 10
114.3260722069747
 20
175.63584164591191
 30
0.0
 11
114.3260722069747
 21
182.39062221182681
 31
0.0
  0
TEXT
  5
C8
  8
DATA
 62
     7
 10
123.6856083105518
 20
185.1928032556458
 30
0.0
 40
1.6288411458333329
  1
In Coax
 50
180.0
 41
0.7
 11
123.6856083105518
 21
183.56396210981251
 31
0.0
 73
     3
  0
TEXT
  5
C9
  8
DATA
 62
     7
 10
111.20095194959769
 20
185.1595401178794
 30
0.0
 40
1.6288411458333329
  1
Optical
 50
180.0
 41
0.7
 11
111.20095194959769
 21
183.53069897204611
 31
0.0
 73
     3
  0
POLYLINE
  5
CA
  8
DATA
  6
CONTINUOUS
 62
     7
 66
     1
 10
0.0
 20
0.0
 30
0.0
 70
     1
  0
VERTEX
  5
1B1
  8
DATA
  6
CONTINUOUS
 62
     7
 10
102.4510722069747
 20
182.9292888278988
 30
0.0
  0
VERTEX
  5
1B2
  8
DATA
  6
CONTINUOUS
 62
     7
 10
112.4510722069747
 20
182.9292888278988
 30
0.0
  0
VERTEX
  5
1B3
  8
DATA
  6
CONTINUOUS
 62
     7
 10
112.4510722069747
 20
172.9292888278988
 30
0.0
  0
VERTEX
  5
1B4
  8
DATA
  6
CONTINUOUS
 62
     7
 10
102.4510722069747
 20
172.9292888278988
 30
0.0
  0
SEQEND
  5
1B5
  8
DATA
  6
CONTINUOUS
 62
     7
  0
LINE
  5
D1
  8
DATA
  6
CONTINUOUS
 62
     7
 10
64.625
 20
149.125
 30
0.0
 11
43.624999999999993
 21
149.125
 31
0.0
  0
LINE
  5
D2
  8
DATA
  6
CONTINUOUS
 62
     7
 10
64.625
 20
103.125
 30
0.0
 11
43.624999999999993
 21
103.125
 31
0.0
  0
LINE
  5
D3
  8
DATA
  6
CONTINUOUS
 62
     7
 10
40.625
 20
106.125
 30
0.0
 11
40.625
 21
146.125
 31
0.0
  0
LINE
  5
D4
  8
DATA
  6
CONTINUOUS
 62
     7
 10
64.625
 20
103.125
 30
0.0
 11
64.625
 21
149.125
 31
0.0
  0
LINE
  5
D5
  8
DATA
  6
CONTINUOUS
 62
     7
 10
47.85499999999999
 20
103.125
 30
0.0
 11
47.85499999999999
 21
121.625
 31
0.0
  0
LINE
  5
D6
  8
DATA
  6
CONTINUOUS
 62
     7
 10
47.85499999999999
 20
130.625
 30
0.0
 11
47.85499999999999
 21
149.125
 31
0.0
  0
POLYLINE
  5
D7
  8
DATA
  6
CONTINUOUS
 62
     7
 66
     1
 10
0.0
 20
0.0
 30
0.0
 70
     1
  0
VERTEX
  5
1B6
  8
DATA
  6
CONTINUOUS
 62
     7
 10
46.852199775754841
 20
130.625
 30
0.0
  0
VERTEX
  5
1B7
  8
DATA
  6
CONTINUOUS
 62
     7
 10
56.852199775754812
 20
130.625
 30
0.0
  0
VERTEX
  5
1B8
  8
DATA
  6
CONTINUOUS
 62
     7
 10
56.852199775754812
 20
121.625
 30
0.0
  0
VERTEX
  5
1B9
  8
DATA
  6
CONTINUOUS
 62
     7
 10
46.852199775754841
 20
121.625
 30
0.0
  0
SEQEND
  5
1BA
  8
DATA
  6
CONTINUOUS
 62
     7
  0
CIRCLE
  5
DE
  8
DATA
  6
CONTINUOUS
 62
     7
 10
52.856040403641337
 20
126.125
 30
0.0
 40
3.100000000000001
  0
CIRCLE
  5
DF
  8
DATA
  6
CONTINUOUS
 62
     7
 10
52.856040403641337
 20
126.125
 30
0.0
 40
0.7999999999999972
  0
TEXT
  5
E0
  8
DATA
 62
     7
 10
54.85904564813746
 20
118.5700751077852
 30
0.0
 40
2.4432617187500001
  1
5V
 50
270.0
 41
0.7
 11
57.302307366887462
 21
118.5700751077852
 31
0.0
 73
     3
  0
TEXT
  5
E1
  8
DATA
 62
     7
 10
51.651721312069057
 20
118.5700751077852
 30
0.0
 40
2.4432617187500001
  1
DC
 50
270.0
 41
0.7
 11
54.094983030819073
 21
118.5700751077852
 31
0.0
 73
     3
  0
CIRCLE
  5
E2
  8
DATA
  6
CONTINUOUS
 62
     7
 10
49.708515901962173
 20
116.7
 30
0.0
 40
0.1999999999999993
  0
ARC
  5
E3
  8
DATA
  6
CONTINUOUS
 62
     7
 10
49.708515901962173
 20
116.7
 30
0.0
 40
0.6399999999999958
 50
308.68218745348872
 51
231.31781254650889
  0
TEXT
  5
E4
  8
DATA
 62
     7
 10
49.223854288162279
 20
119.33537176637751
 30
0.0
 40
1.085894097222222
  1
-
 50
270.0
 41
0.7
 11
50.309748385384502
 21
119.33537176637751
 31
0.0
 73
     3
  0
TEXT
  5
E5
  8
DATA
 62
     7
 10
49.364877450663812
 20
114.0704712936452
 30
0.0
 40
1.085894097222222
  1
+
 41
0.7
 11
49.364877450663812
 21
115.15636539086741
 31
0.0
 73
     3
  0
CIRCLE
  5
E6
  8
DATA
  6
CONTINUOUS
 62
     7
 10
49.717655228441593
 20
114.57847129364509
 30
0.0
 40
0.5475674073059639
  0
CIRCLE
  5
E7
  8
DATA
  6
CONTINUOUS
 62
     7
 10
49.717655228441593
 20
118.9921381677368
 30
0.0
 40
0.5475674073059639
  0
LINE
  5
E8
  8
DATA
  6
CONTINUOUS
 62
     7
 10
49.708515901962173
 20
115.1259624244
 30
0.0
 11
49.708515901962173
 21
116.5000000000001
 31
0.0
  0
LINE
  5
E9
  8
DATA
  6
CONTINUOUS
 62
     7
 10
49.708515901962173
 20
118.44464703698191
 30
0.0
 11
49.708515901962173
 21
117.3399999999999
 31
0.0
  0
TEXT
  5
EA
  8
DATA
 62
     7
 10
54.842166666666706
 20
140.53685144316421
 30
0.0
 40
1.6288411458333329
  1
Optical
 50
270.0
 41
0.7
 11
56.471007812500041
 21
140.53685144316421
 31
0.0
 73
     3
  0
LINE
  5
EB
  8
DATA
  6
CONTINUOUS
 62
     7
 10
50.555000000000007
 20
135.57644112131439
 30
0.0
 11
47.85499999999999
 21
135.57644112131439
 31
0.0
  0
LINE
  5
EC
  8
DATA
  6
CONTINUOUS
 62
     7
 10
50.555000000000007
 20
141.17644112131441
 30
0.0
 11
50.555000000000007
 21
135.57644112131439
 31
0.0
  0
LINE
  5
ED
  8
DATA
  6
CONTINUOUS
 62
     7
 10
47.85499999999999
 20
141.17644112131441
 30
0.0
 11
50.555000000000007
 21
141.17644112131441
 31
0.0
  0
TEXT
  5
EE
  8
DATA
 62
     7
 10
52.102876893982852
 20
137.9043205491881
 30
0.0
 40
1.6288411458333329
  1
Coax
 50
270.0
 41
0.7
 11
53.73171803981618
 21
137.9043205491881
 31
0.0
 73
     3
  0
LINE
  5
EF
  8
DATA
  6
CONTINUOUS
 62
     7
 10
50.555000000000007
 20
136.7803693180515
 30
0.0
 11
51.350000000000001
 21
136.7803693180515
 31
0.0
  0
LINE
  5
F0
  8
DATA
  6
CONTINUOUS
 62
     7
 10
50.555000000000007
 20
140.05000000000001
 30
0.0
 11
54.200000000000003
 21
140.05000000000001
 31
0.0
  0
POLYLINE
  5
F1
  8
DATA
  6
CONTINUOUS
 62
     7
 66
     1
 10
0.0
 20
0.0
 30
0.0
 70
   129
  0
VERTEX
  5
1BB
  8
DATA
  6
CONTINUOUS
 62
     7
 10
100.0
 20
140.0
 30
0.0
  0
VERTEX
  5
1BC
  8
DATA
  6
CONTINUOUS
 62
     7
 10
100.0
 20
140.0
 30
0.0
  0
SEQEND
  5
1BD
  8
DATA
  6
CONTINUOUS
 62
     7
  0
LINE
  5
F4
  8
DATA
  6
CONTINUOUS
 62
     7
 10
49.854999999999997
 20
138.9871021842047
 30
0.0
 11
47.85499999999999
 21
138.9871021842047
 31
0.0
  0
LINE
  5
F5
  8
DATA
  6
CONTINUOUS
 62
     7
 10
49.854999999999997
 20
140.9871021842047
 30
0.0
 11
49.854999999999997
 21
138.9871021842047
 31
0.0
  0
LINE
  5
F6
  8
DATA
  6
CONTINUOUS
 62
     7
 10
47.85499999999999
 20
140.9871021842047
 30
0.0
 11
49.854999999999997
 21
140.9871021842047
 31
0.0
  0
LINE
  5
F7
  8
DATA
  6
CONTINUOUS
 62
     7
 10
50.246039871696937
 20
98.125
 30
0.0
 11
50.246039871696937
 21
103.125
 31
0.0
  0
LINE
  5
F8
  8
DATA
  6
CONTINUOUS
 62
     7
 10
58.646039871696942
 20
98.125
 30
0.0
 11
58.646039871696942
 21
103.125
 31
0.0
  0
LINE
  5
F9
  8
DATA
  6
CONTINUOUS
 62
     7
 10
58.646039871696942
 20
98.125
 30
0.0
 11
50.246039871696937
 21
98.125
 31
0.0
  0
LINE
  5
FA
  8
DATA
  6
CONTINUOUS
 62
     7
 10
50.202369865459318
 20
154.125
 30
0.0
 11
50.202369865459318
 21
149.125
 31
0.0
  0
LINE
  5
FB
  8
DATA
  6
CONTINUOUS
 62
     7
 10
58.602369865459352
 20
154.125
 30
0.0
 11
58.602369865459352
 21
149.125
 31
0.0
  0
LINE
  5
FC
  8
DATA
  6
CONTINUOUS
 62
     7
 10
58.602369865459352
 20
154.125
 30
0.0
 11
50.202369865459318
 21
154.125
 31
0.0
  0
TEXT
  5
FD
  8
DATA
 62
     7
 10
149.84999999999999
 20
21.07108871003971
 30
0.0
 40
2.4432617187500001
  1
GTV-DIGAUD-2-AAUD
 41
0.7
 11
149.84999999999999
 21
23.514350428789712
 31
0.0
 73
     3
  0
TEXT
  5
FE
  8
DATA
 62
     7
 10
149.8880433769427
 20
29.011005544377479
 30
0.0
 40
2.4432617187500001
  1
Gefen
 41
0.7
 11
149.8880433769427
 21
31.454267263127491
 31
0.0
 73
     3
  0
TEXT
  5
FF
  8
DATA
 62
     7
 10
147.90000000000001
 20
25.32210547730903
 30
0.0
 40
1.6288411458333329
  1
変換機
 41
0.7
 11
147.90000000000001
 21
26.950946623142361
 31
0.0
 73
     3
  0
ARC
  5
100
  8
DATA
  6
CONTINUOUS
 62
     7
 10
93.625
 20
186.625
 30
0.0
 40
3.0
 50
90.0
 51
180.0
  0
ARC
  5
101
  8
DATA
  6
CONTINUOUS
 62
     7
 10
133.625
 20
186.625
 30
0.0
 40
3.0
 50
0.0
 51
90.0
  0
ARC
  5
102
  8
DATA
  6
CONTINUOUS
 62
     7
 10
93.625
 20
62.375
 30
0.0
 40
3.0
 50
180.0
 51
270.0
  0
ARC
  5
103
  8
DATA
  6
CONTINUOUS
 62
     7
 10
133.625
 20
62.375
 30
0.0
 40
3.0
 50
270.0
 51
0.0
  0
ARC
  5
104
  8
DATA
  6
CONTINUOUS
 62
     7
 10
43.624999999999993
 20
146.125
 30
0.0
 40
3.0
 50
90.0
 51
180.0
  0
ARC
  5
105
  8
DATA
  6
CONTINUOUS
 62
     7
 10
43.624999999999993
 20
106.125
 30
0.0
 40
3.0
 50
180.0
 51
270.0
  0
ENDSEC
  0
EOF
