  0
SECTION
  2
HEADER
  9
$ACADVER
  1
AC1009
  9
$INSBASE
 10
0.0
 20
0.0
 30
0.0
  9
$EXTMIN
 10
-170.0164782349211
 20
-265.74833863455001
 30
-0.0015258207003583
  9
$EXTMAX
 10
370.0164807494923
 20
537.09174839639525
 30
0.0000000349246037
  9
$LIMMIN
 10
0.0
 20
0.0
  9
$LIMMAX
 10
0.0
 20
0.0
  9
$ORTHOMODE
 70
     0
  9
$REGENMODE
 70
     1
  9
$FILLMODE
 70
     1
  9
$QTEXTMODE
 70
     0
  9
$MIRRTEXT
 70
     1
  9
$DRAGMODE
 70
     2
  9
$LTSCALE
 40
15.24
  9
$OSMODE
 70
   231
  9
$ATTMODE
 70
     1
  9
$TEXTSIZE
 40
0.0
  9
$TRACEWID
 40
1.0
  9
$TEXTSTYLE
  7
STANDARD
  9
$CLAYER
  8
DATA
  9
$CELTYPE
  6
BYLAYER
  9
$CECOLOR
 62
   256
  9
$DIMSCALE
 40
1.0
  9
$DIMASZ
 40
0.18
  9
$DIMEXO
 40
0.0625
  9
$DIMDLI
 40
0.38
  9
$DIMRND
 40
0.0
  9
$DIMDLE
 40
0.0
  9
$DIMEXE
 40
0.18
  9
$DIMTP
 40
0.0
  9
$DIMTM
 40
0.0
  9
$DIMTXT
 40
0.18
  9
$DIMCEN
 40
0.09
  9
$DIMTSZ
 40
0.0
  9
$DIMTOL
 70
     0
  9
$DIMLIM
 70
     0
  9
$DIMTIH
 70
     1
  9
$DIMTOH
 70
     1
  9
$DIMSE1
 70
     0
  9
$DIMSE2
 70
     0
  9
$DIMTAD
 70
     0
  9
$DIMZIN
 70
     0
  9
$DIMBLK
  1

  9
$DIMASO
 70
     1
  9
$DIMSHO
 70
     1
  9
$DIMPOST
  1

  9
$DIMAPOST
  1

  9
$DIMALT
 70
     0
  9
$DIMALTD
 70
     2
  9
$DIMALTF
 40
25.399999999999999
  9
$DIMLFAC
 40
1.0
  9
$DIMTOFL
 70
     0
  9
$DIMTVP
 40
0.0
  9
$DIMTIX
 70
     0
  9
$DIMSOXD
 70
     0
  9
$DIMSAH
 70
     0
  9
$DIMBLK1
  1

  9
$DIMBLK2
  1

  9
$DIMSTYLE
  2
STANDARD
  9
$DIMCLRD
 70
     0
  9
$DIMCLRE
 70
     0
  9
$DIMCLRT
 70
     0
  9
$DIMTFAC
 40
1.0
  9
$DIMGAP
 40
0.09
  9
$LUNITS
 70
     2
  9
$LUPREC
 70
     4
  9
$SKETCHINC
 40
0.1
  9
$FILLETRAD
 40
0.0
  9
$AUNITS
 70
     0
  9
$AUPREC
 70
     0
  9
$MENU
  1
acad
  9
$ELEVATION
 40
0.0
  9
$PELEVATION
 40
0.0
  9
$THICKNESS
 40
0.0
  9
$LIMCHECK
 70
     0
  9
$BLIPMODE
 70
     0
  9
$CHAMFERA
 40
0.0
  9
$CHAMFERB
 40
0.0
  9
$SKPOLY
 70
     0
  9
$TDCREATE
 40
2455615.6599189821
  9
$TDUPDATE
 40
2455615.6630996182
  9
$TDINDWG
 40
0.0002508449
  9
$TDUSRTIMER
 40
0.0002508449
  9
$USRTIMER
 70
     1
  9
$ANGBASE
 50
0.0
  9
$ANGDIR
 70
     0
  9
$PDMODE
 70
     1
  9
$PDSIZE
 40
-2.0
  9
$PLINEWID
 40
0.0
  9
$COORDS
 70
     1
  9
$SPLFRAME
 70
     0
  9
$SPLINETYPE
 70
     6
  9
$SPLINESEGS
 70
     8
  9
$ATTDIA
 70
     0
  9
$ATTREQ
 70
     1
  9
$HANDLING
 70
     1
  9
$HANDSEED
  5
2CF
  9
$SURFTAB1
 70
     6
  9
$SURFTAB2
 70
     6
  9
$SURFTYPE
 70
     6
  9
$SURFU
 70
     6
  9
$SURFV
 70
     6
  9
$UCSNAME
  2

  9
$UCSORG
 10
0.0
 20
0.0
 30
0.0
  9
$UCSXDIR
 10
1.0
 20
0.0
 30
0.0
  9
$UCSYDIR
 10
0.0
 20
1.0
 30
0.0
  9
$PUCSNAME
  2

  9
$PUCSORG
 10
0.0
 20
0.0
 30
0.0
  9
$PUCSXDIR
 10
1.0
 20
0.0
 30
0.0
  9
$PUCSYDIR
 10
0.0
 20
1.0
 30
0.0
  9
$USERI1
 70
     0
  9
$USERI2
 70
     0
  9
$USERI3
 70
     0
  9
$USERI4
 70
     0
  9
$USERI5
 70
     0
  9
$USERR1
 40
0.0
  9
$USERR2
 40
0.0
  9
$USERR3
 40
0.0
  9
$USERR4
 40
0.0
  9
$USERR5
 40
0.0
  9
$WORLDVIEW
 70
     1
  9
$SHADEDGE
 70
     3
  9
$SHADEDIF
 70
    70
  9
$TILEMODE
 70
     1
  9
$MAXACTVP
 70
    64
  9
$PLIMCHECK
 70
     0
  9
$PEXTMIN
 10
1.0000000000000000E+020
 20
1.0000000000000000E+020
 30
1.0000000000000000E+020
  9
$PEXTMAX
 10
-1.0000000000000000E+020
 20
-1.0000000000000000E+020
 30
-1.0000000000000000E+020
  9
$PLIMMIN
 10
0.0
 20
0.0
  9
$PLIMMAX
 10
12.0
 20
9.0
  9
$UNITMODE
 70
     0
  9
$VISRETAIN
 70
     0
  9
$PLINEGEN
 70
     1
  9
$PSLTSCALE
 70
     0
  0
ENDSEC
  0
SECTION
  2
TABLES
  0
TABLE
  2
VPORT
 70
     1
  0
VPORT
  2
*ACTIVE
 70
     0
 10
0.0
 20
0.0
 11
1.0
 21
1.0
 12
100.0000012572856
 22
135.6717048809227
 13
0.0
 23
0.0
 14
1.0
 24
1.0
 15
0.0
 25
0.0
 16
0.0
 26
0.0
 36
1.0
 17
0.0
 27
0.0
 37
0.0
 40
808.75056619927125
 41
1.9619164619164611
 42
50.0
 43
0.0
 44
0.0
 50
0.0
 51
0.0
 71
     0
 72
  2000
 73
     1
 74
     1
 75
     0
 76
     0
 77
     0
 78
     0
  0
ENDTAB
  0
TABLE
  2
LTYPE
 70
    11
  0
LTYPE
  2
CONTINUOUS
 70
     0
  3
Solid line
 72
    65
 73
     0
 40
0.0
  0
ENDTAB
  0
TABLE
  2
LAYER
 70
     6
  0
LAYER
  2
0
 70
     0
 62
     7
  6
CONTINUOUS
  0
LAYER
  2
DATA
 70
     0
 62
     7
  6
CONTINUOUS
  0
LAYER
  2
HIBINO-BASE
 70
     0
 62
     7
  6
CONTINUOUS
  0
LAYER
  2
SPEC
 70
     0
 62
     7
  6
CONTINUOUS
  0
LAYER
  2
DIMNSIONS
 70
     0
 62
     7
  6
CONTINUOUS
  0
ENDTAB
  0
TABLE
  2
STYLE
 70
     3
  0
STYLE
  2
STANDARD
 70
     0
 40
0.0
 41
1.0
 50
0.0
 71
     0
 42
0.0
  3
txt
  4
BIGFONT.SHX
  0
ENDTAB
  0
TABLE
  2
VIEW
 70
     0
  0
ENDTAB
  0
TABLE
  2
UCS
 70
     0
  0
ENDTAB
  0
TABLE
  2
APPID
 70
     3
  0
APPID
  2
ACAD
 70
     0
  0
APPID
  2
ACADANNOTATIVE
 70
     0
  0
APPID
  2
ACAD_MLEADERVER
 70
     0
  0
ENDTAB
  0
TABLE
  2
DIMSTYLE
 70
     2
  0
DIMSTYLE
  2
STANDARD
 70
     0
  3

  4

  5

  6

  7

 40
1.0
 41
0.18
 42
0.0625
 43
0.38
 44
0.18
 45
0.0
 46
0.0
 47
0.0
 48
0.0
140
0.18
141
0.09
142
0.0
143
25.399999999999999
144
1.0
145
0.0
146
1.0
147
0.09
 71
     0
 72
     0
 73
     1
 74
     1
 75
     0
 76
     0
 77
     0
 78
     0
170
     0
171
     2
172
     0
173
     0
174
     0
175
     0
176
     0
177
     0
178
     0
  0
ENDTAB
  0
ENDSEC
  0
SECTION
  2
BLOCKS
  0
BLOCK
  8
0
  2
$MODEL_SPACE
 70
     0
 10
0.0
 20
0.0
 30
0.0
  3
$MODEL_SPACE
  1

  0
ENDBLK
  5
216
  8
0
  0
BLOCK
 67
     1
  8
0
  2
$PAPER_SPACE
 70
     0
 10
0.0
 20
0.0
 30
0.0
  3
$PAPER_SPACE
  1

  0
ENDBLK
  5
212
 67
     1
  8
0
  0
ENDSEC
  0
SECTION
  2
ENTITIES
  0
LINE
  5
2D
  8
HIBINO-BASE
  6
CONTINUOUS
 62
     7
 10
-169.99999999999989
 20
537.06729578973182
 30
0.0
 11
370.0
 21
537.06729578973182
 31
0.0
  0
LINE
  5
2E
  8
HIBINO-BASE
  6
CONTINUOUS
 62
     7
 10
370.0
 20
-242.93270421026821
 30
0.0
 11
-169.99999999999989
 21
-242.93270421026821
 31
0.0
  0
LINE
  5
2F
  8
HIBINO-BASE
  6
CONTINUOUS
 62
     7
 10
-169.99999999999989
 20
-242.93270421026821
 30
0.0
 11
-169.99999999999989
 21
537.06729578973182
 31
0.0
  0
LINE
  5
30
  8
HIBINO-BASE
  6
CONTINUOUS
 62
     7
 10
370.0
 20
537.06729578973182
 30
0.0
 11
370.0
 21
-242.93270421026821
 31
0.0
  0
LINE
  5
31
  8
HIBINO-BASE
  6
CONTINUOUS
 62
     7
 10
100.0
 20
-175.4327042102681
 30
0.0
 11
370.0
 21
-175.4327042102681
 31
0.0
  0
LINE
  5
32
  8
HIBINO-BASE
  6
CONTINUOUS
 62
     7
 10
100.0
 20
-242.93270421026821
 30
0.0
 11
100.0
 21
-175.4327042102681
 31
0.0
  0
TEXT
  5
33
  8
HIBINO-BASE
 62
     7
 10
102.7
 20
-182.95878421026811
 30
0.0
 40
4.8865234374999993
  1
NOTE
 41
0.7
 11
102.7
 21
-178.0722607727682
 31
0.0
 73
     3
  0
LINE
  5
34
  8
HIBINO-BASE
  6
CONTINUOUS
 62
     7
 10
205.0
 20
-242.93270421026821
 30
0.0
 11
205.0
 21
-175.4327042102681
 31
0.0
  0
TEXT
  5
35
  8
HIBINO-BASE
 62
     7
 10
207.69999999999999
 20
-182.95878421026811
 30
0.0
 40
4.8865234374999993
  1
TITLE
 41
0.7
 11
207.69999999999999
 21
-178.0722607727682
 31
0.0
 73
     3
  0
LINE
  5
36
  8
HIBINO-BASE
  6
CONTINUOUS
 62
     7
 10
100.0
 20
-212.9327042102681
 30
0.0
 11
370.0
 21
-212.9327042102681
 31
0.0
  0
TEXT
  5
37
  8
HIBINO-BASE
 62
     7
 10
245.19999999999999
 20
-220.28982421026819
 30
0.0
 40
4.8865234374999993
  1
DRAWN
 41
0.7
 11
245.19999999999999
 21
-215.4033007727682
 31
0.0
 73
     3
  0
TEXT
  5
38
  8
HIBINO-BASE
 62
     7
 10
170.19999999999999
 20
-220.28982421026819
 30
0.0
 40
4.8865234374999993
  1
DATE
 41
0.7
 11
170.19999999999999
 21
-215.4033007727682
 31
0.0
 73
     3
  0
TEXT
  5
39
  8
HIBINO-BASE
 62
     7
 10
140.19999999999999
 20
-220.28982421026819
 30
0.0
 40
4.8865234374999993
  1
SCALE
 41
0.7
 11
140.19999999999999
 21
-215.4033007727682
 31
0.0
 73
     3
  0
TEXT
  5
3A
  8
HIBINO-BASE
 62
     7
 10
207.69999999999999
 20
-220.28982421026819
 30
0.0
 40
4.8865234374999993
  1
DESIGN
 41
0.7
 11
207.69999999999999
 21
-215.4033007727682
 31
0.0
 73
     3
  0
TEXT
  5
3B
  8
HIBINO-BASE
 62
     7
 10
320.19999999999999
 20
-220.28982421026819
 30
0.0
 40
4.8865234374999993
  1
DRAWING NO.
 41
0.7
 11
320.19999999999999
 21
-215.4033007727682
 31
0.0
 73
     3
  0
TEXT
  5
3C
  8
HIBINO-BASE
 62
     7
 10
282.69999999999999
 20
-220.28982421026819
 30
0.0
 40
4.8865234374999993
  1
CHECK
 41
0.7
 11
282.69999999999999
 21
-215.4033007727682
 31
0.0
 73
     3
  0
LINE
  5
3D
  8
HIBINO-BASE
  6
CONTINUOUS
 62
     7
 10
143.12499999999989
 20
-239.18270421026821
 30
0.0
 11
154.375
 21
-227.9327042102681
 31
0.0
  0
TEXT
  5
3E
  8
HIBINO-BASE
 62
     7
 10
141.24999999999989
 20
-231.25953421026821
 30
0.0
 40
4.8865234374999993
  1
1
 41
0.7
 11
141.24999999999989
 21
-226.3730107727682
 31
0.0
 73
     3
  0
LINE
  5
3F
  8
HIBINO-BASE
  6
CONTINUOUS
 62
     7
 10
137.5
 20
-242.93270421026821
 30
0.0
 11
137.5
 21
-212.9327042102681
 31
0.0
  0
LINE
  5
40
  8
HIBINO-BASE
  6
CONTINUOUS
 62
     7
 10
167.5
 20
-242.93270421026821
 30
0.0
 11
167.5
 21
-212.9327042102681
 31
0.0
  0
LINE
  5
41
  8
HIBINO-BASE
  6
CONTINUOUS
 62
     7
 10
242.5
 20
-212.9327042102681
 30
0.0
 11
242.5
 21
-242.93270421026821
 31
0.0
  0
LINE
  5
42
  8
HIBINO-BASE
  6
CONTINUOUS
 62
     7
 10
317.5
 20
-212.9327042102681
 30
0.0
 11
317.5
 21
-242.93270421026821
 31
0.0
  0
LINE
  5
43
  8
HIBINO-BASE
  6
CONTINUOUS
 62
     7
 10
279.99999999999989
 20
-242.93270421026821
 30
0.0
 11
279.99999999999989
 21
-212.9327042102681
 31
0.0
  0
TEXT
  5
44
  8
HIBINO-BASE
 62
     7
 10
170.06961999999999
 20
-234.3417642102682
 30
0.0
 40
4.8865234374999993
  1
'11.02.
 41
0.7
 11
170.06961999999999
 21
-229.45524077276821
 31
0.0
 73
     3
  0
TEXT
  5
45
  8
HIBINO-BASE
 62
     7
 10
152.5
 20
-236.88453421026821
 30
0.0
 40
4.8865234374999993
  1
3
 41
0.7
 11
152.5
 21
-231.9980107727682
 31
0.0
 73
     3
  0
TEXT
  5
46
  8
HIBINO-BASE
 62
     7
 10
247.01743003310389
 20
-234.3417642102682
 30
0.0
 40
4.8865234374999993
  1
T.Ootake
 41
0.7
 11
247.01743003310389
 21
-229.45524077276821
 31
0.0
 73
     3
  0
TEXT
  5
47
  8
HIBINO-BASE
 62
     7
 10
111.65000000000001
 20
-237.0047042102681
 30
0.0
 40
9.7730468749999986
  1
A4
 41
0.7
 11
111.65000000000001
 21
-227.2316573352681
 31
0.0
 73
     3
  0
TEXT
  5
48
  8
HIBINO-BASE
 62
     7
 10
102.875
 20
-220.79106921026809
 30
0.0
 40
4.8865234374999993
  1
PAPER SIZE
 41
0.7
 11
102.875
 21
-215.9045457727681
 31
0.0
 73
     3
  0
TEXT
  5
49
  8
HIBINO-BASE
 62
     7
 10
-161.7210942293294
 20
-262.20842491279689
 30
0.0
 40
10.58746744791666
  1
Hibino-Intersound Corporation
 41
0.7
 11
-161.7210942293294
 21
-251.62095746488029
 31
0.0
 73
     3
  0
TEXT
  5
4A
  8
HIBINO-BASE
 62
     7
 10
160.54182904064169
 20
-261.15516015292872
 30
0.0
 40
10.58746744791666
  1
ヒビノインターサウンド株式会社
 41
0.7
 11
160.54182904064169
 21
-250.56769270501201
 31
0.0
 73
     3
  0
LINE
  5
4B
  8
SPEC
  6
CONTINUOUS
 62
     7
 10
-147.49999999999989
 20
507.0672957897317
 30
0.0
 11
295.0
 21
507.0672957897317
 31
0.0
  0
LINE
  5
4C
  8
SPEC
  6
CONTINUOUS
 62
     7
 10
-147.49999999999989
 20
495.8172957897317
 30
0.0
 11
295.0
 21
495.8172957897317
 31
0.0
  0
LINE
  5
4D
  8
SPEC
  6
CONTINUOUS
 62
     7
 10
-147.49999999999989
 20
473.3172957897317
 30
0.0
 11
295.0
 21
473.3172957897317
 31
0.0
  0
LINE
  5
4E
  8
SPEC
  6
CONTINUOUS
 62
     7
 10
-147.49999999999989
 20
484.5672957897317
 30
0.0
 11
295.0
 21
484.5672957897317
 31
0.0
  0
LINE
  5
4F
  8
SPEC
  6
CONTINUOUS
 62
     7
 10
-147.49999999999989
 20
507.0672957897317
 30
0.0
 11
-147.49999999999989
 21
383.31729578973182
 31
0.0
  0
TEXT
  5
50
  8
SPEC
 62
     7
 10
-143.74999999999989
 20
511.24710578973179
 30
0.0
 40
7.3297851562499989
  1
仕様
 41
0.7
 11
-143.74999999999989
 21
518.57689094598175
 31
0.0
 73
     3
  0
LINE
  5
51
  8
SPEC
  6
CONTINUOUS
 62
     7
 10
-50.0
 20
507.0672957897317
 30
0.0
 11
-50.000000000000021
 21
383.31729578973182
 31
0.0
  0
LINE
  5
52
  8
SPEC
  6
CONTINUOUS
 62
     7
 10
295.0
 20
507.0672957897317
 30
0.0
 11
295.0
 21
383.31729578973182
 31
0.0
  0
LINE
  5
53
  8
SPEC
  6
CONTINUOUS
 62
     7
 10
-147.49999999999989
 20
462.0672957897317
 30
0.0
 11
295.0
 21
462.0672957897317
 31
0.0
  0
LINE
  5
54
  8
SPEC
  6
CONTINUOUS
 62
     7
 10
-147.49999999999989
 20
450.8172957897317
 30
0.0
 11
295.0
 21
450.8172957897317
 31
0.0
  0
LINE
  5
55
  8
SPEC
  6
CONTINUOUS
 62
     7
 10
-147.49999999999989
 20
439.5672957897317
 30
0.0
 11
295.0
 21
439.5672957897317
 31
0.0
  0
LINE
  5
56
  8
SPEC
  6
CONTINUOUS
 62
     7
 10
-147.49999999999989
 20
428.3172957897317
 30
0.0
 11
295.0
 21
428.3172957897317
 31
0.0
  0
LINE
  5
57
  8
SPEC
  6
CONTINUOUS
 62
     7
 10
-147.49999999999989
 20
417.0672957897317
 30
0.0
 11
295.0
 21
417.0672957897317
 31
0.0
  0
LINE
  5
58
  8
SPEC
  6
CONTINUOUS
 62
     7
 10
-147.49999999999989
 20
405.8172957897317
 30
0.0
 11
295.0
 21
405.8172957897317
 31
0.0
  0
LINE
  5
59
  8
SPEC
  6
CONTINUOUS
 62
     7
 10
-147.49999999999989
 20
394.5672957897317
 30
0.0
 11
295.0
 21
394.5672957897317
 31
0.0
  0
LINE
  5
5A
  8
SPEC
  6
CONTINUOUS
 62
     7
 10
-147.49999999999989
 20
383.31729578973182
 30
0.0
 11
295.0
 21
383.31729578973182
 31
0.0
  0
TEXT
  5
5B
  8
SPEC
 62
     7
 10
-145.12748910027
 20
397.5268140361037
 30
0.0
 40
5.7009440104166673
  1
寸法
 41
0.7
 11
-145.12748910027
 21
403.22775804652031
 31
0.0
 73
     3
  0
TEXT
  5
5C
  8
SPEC
 62
     7
 10
-47.805041162025987
 20
397.340433991444
 30
0.0
 40
5.7009440104166673
  1
175(W)\U+00D753(H)\U+00D7175(D)mm(突起部含まず）
 41
0.7
 11
-47.805041162025987
 21
403.04137800186072
 31
0.0
 73
     3
  0
TEXT
  5
5D
  8
SPEC
 62
     7
 10
-47.458601513423197
 20
386.37258375666812
 30
0.0
 40
5.7009440104166673
  1
約700g
 41
0.7
 11
-47.458601513423197
 21
392.07352776708473
 31
0.0
 73
     3
  0
TEXT
  5
5E
  8
SPEC
 62
     7
 10
-144.98943747151219
 20
386.31859208160103
 30
0.0
 40
5.7009440104166673
  1
重量
 41
0.7
 11
-144.98943747151219
 21
392.01953609201769
 31
0.0
 73
     3
  0
TEXT
  5
5F
  8
SPEC
 62
     7
 10
-144.95524442782531
 20
408.85454643844071
 30
0.0
 40
5.7009440104166673
  1
消費電力
 41
0.7
 11
-144.95524442782531
 21
414.55549044885731
 31
0.0
 73
     3
  0
TEXT
  5
60
  8
SPEC
 62
     7
 10
-47.690943325654459
 20
408.76187231937422
 30
0.0
 40
5.7009440104166673
  1
10W(最大)
 41
0.7
 11
-47.690943325654459
 21
414.46281632979083
 31
0.0
 73
     3
  0
TEXT
  5
61
  8
SPEC
 62
     7
 10
-144.92796388909221
 20
420.1966166345685
 30
0.0
 40
5.7009440104166673
  1
電源
 41
0.7
 11
-144.92796388909221
 21
425.89756064498522
 31
0.0
 73
     3
  0
TEXT
  5
62
  8
SPEC
 62
     7
 10
-47.356648803816583
 20
419.8568544782425
 30
0.0
 40
5.7009440104166673
  1
5V DC
 41
0.7
 11
-47.356648803816583
 21
425.5577984886591
 31
0.0
 73
     3
  0
TEXT
  5
63
  8
SPEC
 62
     7
 10
-145.0283905147902
 20
431.34475605664079
 30
0.0
 40
5.7009440104166673
  1
動作温度
 41
0.7
 11
-145.0283905147902
 21
437.04570006705751
 31
0.0
 73
     3
  0
TEXT
  5
64
  8
SPEC
 62
     7
 10
-47.12224369574006
 20
431.04191291498933
 30
0.0
 40
5.7009440104166673
  1
0～40℃
 41
0.7
 11
-47.12224369574006
 21
436.74285692540599
 31
0.0
 73
     3
  0
TEXT
  5
65
  8
SPEC
 62
     7
 10
-144.72736606581171
 20
442.59439653902871
 30
0.0
 40
5.7009440104166673
  1
RS232端子
 41
0.7
 11
-144.72736606581171
 21
448.29534054944543
 31
0.0
 73
     3
  0
TEXT
  5
66
  8
SPEC
 62
     7
 10
-47.333823009382733
 20
442.29191291498933
 30
0.0
 40
5.7009440104166673
  1
DB-9 female
 41
0.7
 11
-47.333823009382733
 21
447.99285692540599
 31
0.0
 73
     3
  0
TEXT
  5
67
  8
SPEC
 62
     7
 10
-144.84075905166009
 20
464.78481274952452
 30
0.0
 40
5.7009440104166673
  1
HDMI入力端子
 41
0.7
 11
-144.84075905166009
 21
470.48575675994113
 31
0.0
 73
     3
  0
TEXT
  5
68
  8
SPEC
 62
     7
 10
-48.687150044013507
 20
464.790524785917
 30
0.0
 40
5.7009440104166673
  1
(4)Type A 19pin female
 41
0.7
 11
-48.687150044013507
 21
470.49146879633372
 31
0.0
 73
     3
  0
TEXT
  5
69
  8
SPEC
 62
     7
 10
-145.0283905147902
 20
476.23854671413642
 30
0.0
 40
5.7009440104166673
  1
入力ビデオ信号
 41
0.7
 11
-145.0283905147902
 21
481.93949072455308
 31
0.0
 73
     3
  0
TEXT
  5
6A
  8
SPEC
 62
     7
 10
-47.615488709810371
 20
476.03998225677259
 30
0.0
 40
5.7009440104166673
  1
1.2Vp-p
 41
0.7
 11
-47.615488709810371
 21
481.7409262671892
 31
0.0
 73
     3
  0
TEXT
  5
6B
  8
SPEC
 62
     7
 10
-144.84623662840389
 20
487.4566675713408
 30
0.0
 40
5.7009440104166673
  1
入力DDC信号
 41
0.7
 11
-144.84623662840389
 21
493.15761158175752
 31
0.0
 73
     3
  0
TEXT
  5
6C
  8
SPEC
 62
     7
 10
-47.128995204926682
 20
487.09384125537719
 30
0.0
 40
5.7009440104166673
  1
5Vp-p(TTL)
 41
0.7
 11
-47.128995204926682
 21
492.79478526579379
 31
0.0
 73
     3
  0
TEXT
  5
6D
  8
SPEC
 62
     7
 10
-145.9626598186137
 20
498.53165328419999
 30
0.0
 40
5.7009440104166673
  1
ビデオアンプ帯域
 41
0.7
 11
-145.9626598186137
 21
504.23259729461682
 31
0.0
 73
     3
  0
TEXT
  5
6E
  8
SPEC
 62
     7
 10
-47.21890376567795
 20
498.27791737961121
 30
0.0
 40
5.7009440104166673
  1
225MHz
 41
0.7
 11
-47.21890376567795
 21
503.97886139002787
 31
0.0
 73
     3
  0
TEXT
  5
6F
  8
SPEC
 62
     7
 10
-144.72629261081639
 20
453.93554509545493
 30
0.0
 40
5.7009440104166673
  1
HDMI出力端子
 41
0.7
 11
-144.72629261081639
 21
459.63648910587159
 31
0.0
 73
     3
  0
TEXT
  5
70
  8
SPEC
 62
     7
 10
-47.175486379401526
 20
453.42670830992762
 30
0.0
 40
5.7009440104166673
  1
Type A 19pin female
 41
0.7
 11
-47.175486379401526
 21
459.12765232034428
 31
0.0
 73
     3
  0
TEXT
  5
71
  8
DIMNSIONS
 62
     7
 10
40.0
 20
-206.12423421026821
 30
0.0
 40
7.3297851562499989
  1
(単位：mm)
 41
0.7
 11
40.0
 21
-198.79444905401809
 31
0.0
 73
     3
  0
LINE
  5
72
  8
DIMNSIONS
  6
CONTINUOUS
 62
     7
 10
-81.000000000000014
 20
-106.2499999999999
 30
0.0
 11
-99.750000000000014
 21
-106.2499999999999
 31
0.0
  0
LINE
  5
73
  8
DIMNSIONS
  6
CONTINUOUS
 62
     7
 10
-81.000000000000014
 20
-53.249999999999972
 30
0.0
 11
-99.750000000000014
 21
-53.249999999999972
 31
0.0
  0
LINE
  5
74
  8
DIMNSIONS
  6
CONTINUOUS
 62
     7
 10
-93.75
 20
-106.2499999999999
 30
0.0
 11
-93.75
 21
-53.249999999999972
 31
0.0
  0
LINE
  5
75
  8
DIMNSIONS
  6
CONTINUOUS
 62
     7
 10
-93.75
 20
-106.2499999999999
 30
0.0
 11
-95.760119385450764
 21
-98.748132324218716
 31
0.0
  0
LINE
  5
76
  8
DIMNSIONS
  6
CONTINUOUS
 62
     7
 10
-93.75
 20
-106.2499999999999
 30
0.0
 11
-91.739880614549264
 21
-98.748132324218716
 31
0.0
  0
LINE
  5
77
  8
DIMNSIONS
  6
CONTINUOUS
 62
     7
 10
-93.75
 20
-53.249999999999972
 30
0.0
 11
-91.739880614549264
 21
-60.75186767578122
 31
0.0
  0
LINE
  5
78
  8
DIMNSIONS
  6
CONTINUOUS
 62
     7
 10
-93.75
 20
-53.249999999999972
 30
0.0
 11
-95.760119385450764
 21
-60.75186767578122
 31
0.0
  0
TEXT
  5
79
  8
DIMNSIONS
 62
     7
 10
-96.731666666666655
 20
-85.041666666666643
 30
0.0
 40
8.1442057291666661
  1
53
 50
90.0
 41
0.7
 11
-104.8758723958333
 21
-85.041666666666643
 31
0.0
 73
     3
  0
LINE
  5
7A
  8
DIMNSIONS
  6
CONTINUOUS
 62
     7
 10
-75.000000000000014
 20
-112.2499999999999
 30
0.0
 11
-75.000000000000014
 21
-131.0
 31
0.0
  0
LINE
  5
7B
  8
DIMNSIONS
  6
CONTINUOUS
 62
     7
 10
100.0
 20
-112.2499999999999
 30
0.0
 11
100.0
 21
-131.0
 31
0.0
  0
LINE
  5
7C
  8
DIMNSIONS
  6
CONTINUOUS
 62
     7
 10
-75.000000000000014
 20
-125.0
 30
0.0
 11
100.0
 21
-125.0
 31
0.0
  0
LINE
  5
7D
  8
DIMNSIONS
  6
CONTINUOUS
 62
     7
 10
-75.000000000000014
 20
-125.0
 30
0.0
 11
-67.498132324218759
 21
-122.98988061454919
 31
0.0
  0
LINE
  5
7E
  8
DIMNSIONS
  6
CONTINUOUS
 62
     7
 10
-75.000000000000014
 20
-125.0
 30
0.0
 11
-67.498132324218759
 21
-127.01011938545069
 31
0.0
  0
LINE
  5
7F
  8
DIMNSIONS
  6
CONTINUOUS
 62
     7
 10
100.0
 20
-125.0
 30
0.0
 11
92.49813232421873
 21
-127.01011938545069
 31
0.0
  0
LINE
  5
80
  8
DIMNSIONS
  6
CONTINUOUS
 62
     7
 10
100.0
 20
-125.0
 30
0.0
 11
92.49813232421873
 21
-122.98988061454919
 31
0.0
  0
TEXT
  5
81
  8
DIMNSIONS
 62
     7
 10
4.562499999999984
 20
-122.0183333333333
 30
0.0
 40
8.1442057291666661
  1
175
 41
0.7
 11
4.5624999999999849
 21
-113.8741276041666
 31
0.0
 73
     3
  0
LINE
  5
82
  8
DIMNSIONS
  6
CONTINUOUS
 62
     7
 10
-81.000000000000014
 20
-25.0
 30
0.0
 11
-99.750000000000014
 21
-25.0
 31
0.0
  0
LINE
  5
83
  8
DIMNSIONS
  6
CONTINUOUS
 62
     7
 10
-81.000000000000014
 20
150.0
 30
0.0
 11
-99.750000000000014
 21
150.0
 31
0.0
  0
LINE
  5
84
  8
DIMNSIONS
  6
CONTINUOUS
 62
     7
 10
-93.75
 20
-25.0
 30
0.0
 11
-93.75
 21
150.0
 31
0.0
  0
LINE
  5
85
  8
DIMNSIONS
  6
CONTINUOUS
 62
     7
 10
-93.75
 20
-25.0
 30
0.0
 11
-95.760119385450764
 21
-17.498132324218741
 31
0.0
  0
LINE
  5
86
  8
DIMNSIONS
  6
CONTINUOUS
 62
     7
 10
-93.75
 20
-25.0
 30
0.0
 11
-91.739880614549264
 21
-17.498132324218741
 31
0.0
  0
LINE
  5
87
  8
DIMNSIONS
  6
CONTINUOUS
 62
     7
 10
-93.75
 20
150.0
 30
0.0
 11
-91.739880614549264
 21
142.49813232421869
 31
0.0
  0
LINE
  5
88
  8
DIMNSIONS
  6
CONTINUOUS
 62
     7
 10
-93.75
 20
150.0
 30
0.0
 11
-95.760119385450764
 21
142.49813232421869
 31
0.0
  0
TEXT
  5
89
  8
DIMNSIONS
 62
     7
 10
-96.731666666666655
 20
54.5625
 30
0.0
 40
8.1442057291666661
  1
175
 50
90.0
 41
0.7
 11
-104.8758723958333
 21
54.5625
 31
0.0
 73
     3
  0
LINE
  5
8A
  8
DIMNSIONS
  6
CONTINUOUS
 62
     7
 10
-72.561900098241992
 20
150.0
 30
0.0
 11
-99.750000000000014
 21
150.0
 31
0.0
  0
LINE
  5
8B
  8
DIMNSIONS
  6
CONTINUOUS
 62
     7
 10
-42.290204759510857
 20
153.0
 30
0.0
 11
-99.750000000000014
 21
153.0
 31
0.0
  0
LINE
  5
8C
  8
DIMNSIONS
  6
CONTINUOUS
 62
     7
 10
-93.75
 20
153.0
 30
0.0
 11
-93.75
 21
150.0
 31
0.0
  0
LINE
  5
8D
  8
DIMNSIONS
  6
CONTINUOUS
 62
     7
 10
-93.75
 20
150.0
 30
0.0
 11
-93.75
 21
135.0
 31
0.0
  0
LINE
  5
8E
  8
DIMNSIONS
  6
CONTINUOUS
 62
     7
 10
-93.75
 20
150.0
 30
0.0
 11
-91.739880614549264
 21
142.49813232421869
 31
0.0
  0
LINE
  5
8F
  8
DIMNSIONS
  6
CONTINUOUS
 62
     7
 10
-93.75
 20
150.0
 30
0.0
 11
-95.760119385450764
 21
142.49813232421869
 31
0.0
  0
LINE
  5
90
  8
DIMNSIONS
  6
CONTINUOUS
 62
     7
 10
-93.75
 20
153.0
 30
0.0
 11
-93.75
 21
167.7916666666666
 31
0.0
  0
LINE
  5
91
  8
DIMNSIONS
  6
CONTINUOUS
 62
     7
 10
-93.75
 20
153.0
 30
0.0
 11
-95.760119385450764
 21
160.5018676757812
 31
0.0
  0
LINE
  5
92
  8
DIMNSIONS
  6
CONTINUOUS
 62
     7
 10
-93.75
 20
153.0
 30
0.0
 11
-91.739880614549264
 21
160.5018676757812
 31
0.0
  0
TEXT
  5
93
  8
DIMNSIONS
 62
     7
 10
-96.731666666666683
 20
162.5
 30
0.0
 40
8.1442057291666661
  1
3
 50
90.0
 41
0.7
 11
-104.8758723958333
 21
162.5
 31
0.0
 73
     3
  0
LINE
  5
94
  8
DIMNSIONS
  6
CONTINUOUS
 62
     7
 10
-73.500000000000014
 20
-111.2499999999999
 30
0.0
 11
-99.750000000000014
 21
-111.2499999999999
 31
0.0
  0
LINE
  5
95
  8
DIMNSIONS
  6
CONTINUOUS
 62
     7
 10
-81.000000000000014
 20
-106.2499999999999
 30
0.0
 11
-99.750000000000014
 21
-106.2499999999999
 31
0.0
  0
LINE
  5
96
  8
DIMNSIONS
  6
CONTINUOUS
 62
     7
 10
-93.75
 20
-106.2499999999999
 30
0.0
 11
-93.75
 21
-111.2499999999999
 31
0.0
  0
LINE
  5
97
  8
DIMNSIONS
  6
CONTINUOUS
 62
     7
 10
-93.75
 20
-111.2499999999999
 30
0.0
 11
-93.75
 21
-124.0416666666667
 31
0.0
  0
LINE
  5
98
  8
DIMNSIONS
  6
CONTINUOUS
 62
     7
 10
-93.75
 20
-111.2499999999999
 30
0.0
 11
-91.739880614549264
 21
-118.7518676757812
 31
0.0
  0
LINE
  5
99
  8
DIMNSIONS
  6
CONTINUOUS
 62
     7
 10
-93.75
 20
-111.2499999999999
 30
0.0
 11
-95.760119385450764
 21
-118.7518676757812
 31
0.0
  0
LINE
  5
9A
  8
DIMNSIONS
  6
CONTINUOUS
 62
     7
 10
-93.75
 20
-106.2499999999999
 30
0.0
 11
-93.75
 21
-91.249999999999957
 31
0.0
  0
LINE
  5
9B
  8
DIMNSIONS
  6
CONTINUOUS
 62
     7
 10
-93.75
 20
-106.2499999999999
 30
0.0
 11
-95.760119385450764
 21
-98.748132324218716
 31
0.0
  0
LINE
  5
9C
  8
DIMNSIONS
  6
CONTINUOUS
 62
     7
 10
-93.75
 20
-106.2499999999999
 30
0.0
 11
-91.739880614549264
 21
-98.748132324218716
 31
0.0
  0
TEXT
  5
9D
  8
DIMNSIONS
 62
     7
 10
-96.731666666666683
 20
-124.0416666666667
 30
0.0
 40
8.1442057291666661
  1
5
 50
90.0
 41
0.7
 11
-104.8758723958333
 21
-124.0416666666667
 31
0.0
 73
     3
  0
TEXT
  5
9E
  8
DATA
 62
     7
 10
250.0
 20
-210.288246439261
 30
0.0
 40
7.3297851562499989
  1
GTV-HDMI1.3-441N
 41
0.7
 11
250.0
 21
-202.95846128301099
 31
0.0
 73
     3
  0
TEXT
  5
9F
  8
DATA
 62
     7
 10
250.0
 20
-187.7900342102682
 30
0.0
 40
7.3297851562499989
  1
Gefen
 41
0.7
 11
250.0
 21
-180.46024905401811
 31
0.0
 73
     3
  0
TEXT
  5
A0
  8
DATA
 62
     7
 10
244.22905720941159
 20
-197.90853777416021
 30
0.0
 40
4.8865311328124994
  1
4\U+00D71HDMI TV切替機
 41
0.7
 11
244.22905720941159
 21
-193.0220066413477
 31
0.0
 73
     3
  0
TEXT
  5
A1
  8
DATA
 62
     7
 10
-139.99999999999989
 20
-230.21870421026821
 30
0.0
 40
4.8865234374999993
  1
仕様および外観は予告なく変更されることがありますので、ご了承ください。
 41
0.7
 11
-139.99999999999989
 21
-225.3321807727682
 31
0.0
 73
     3
  0
LINE
  5
A2
  8
DATA
  6
CONTINUOUS
 62
     7
 10
-75.000000000000014
 20
-106.2499999999999
 30
0.0
 11
-75.000000000000014
 21
-53.249999999999972
 31
0.0
  0
LINE
  5
A3
  8
DATA
  6
CONTINUOUS
 62
     7
 10
100.0
 20
-106.2499999999999
 30
0.0
 11
-75.000000000000014
 21
-106.2499999999999
 31
0.0
  0
LINE
  5
A4
  8
DATA
  6
CONTINUOUS
 62
     7
 10
100.0
 20
-53.249999999999972
 30
0.0
 11
100.0
 21
-106.2499999999999
 31
0.0
  0
LINE
  5
A5
  8
DATA
  6
CONTINUOUS
 62
     7
 10
-75.000000000000014
 20
-53.249999999999972
 30
0.0
 11
100.0
 21
-53.249999999999972
 31
0.0
  0
LINE
  5
A6
  8
DATA
  6
CONTINUOUS
 62
     7
 10
-67.500000000000014
 20
-111.2499999999999
 30
0.0
 11
-47.500000000000021
 21
-111.2499999999999
 31
0.0
  0
LINE
  5
A7
  8
DATA
  6
CONTINUOUS
 62
     7
 10
72.499999999999986
 20
-111.2499999999999
 30
0.0
 11
92.499999999999986
 21
-111.2499999999999
 31
0.0
  0
LINE
  5
A8
  8
DATA
  6
CONTINUOUS
 62
     7
 10
-67.500000000000014
 20
-111.2499999999999
 30
0.0
 11
-67.500000000000014
 21
-106.2499999999999
 31
0.0
  0
LINE
  5
A9
  8
DATA
  6
CONTINUOUS
 62
     7
 10
-47.500000000000021
 20
-106.2499999999999
 30
0.0
 11
-47.500000000000021
 21
-111.2499999999999
 31
0.0
  0
LINE
  5
AA
  8
DATA
  6
CONTINUOUS
 62
     7
 10
72.499999999999986
 20
-111.2499999999999
 30
0.0
 11
72.499999999999986
 21
-106.2499999999999
 31
0.0
  0
LINE
  5
AB
  8
DATA
  6
CONTINUOUS
 62
     7
 10
92.499999999999986
 20
-106.2499999999999
 30
0.0
 11
92.499999999999986
 21
-111.2499999999999
 31
0.0
  0
POLYLINE
  5
AC
  8
DATA
  6
CONTINUOUS
 62
     7
 66
     1
 10
0.0
 20
0.0
 30
0.0
 70
     1
  0
VERTEX
  5
243
  8
DATA
  6
CONTINUOUS
 62
     7
 10
-62.000000000000021
 20
-70.886590138686955
 30
0.0
  0
VERTEX
  5
244
  8
DATA
  6
CONTINUOUS
 62
     7
 10
86.999999999999986
 20
-70.886590138686955
 30
0.0
  0
VERTEX
  5
245
  8
DATA
  6
CONTINUOUS
 62
     7
 10
86.999999999999986
 20
-74.086590138686915
 30
0.0
  0
VERTEX
  5
246
  8
DATA
  6
CONTINUOUS
 62
     7
 10
-62.000000000000021
 20
-74.086590138686915
 30
0.0
  0
SEQEND
  5
247
  8
DATA
  6
CONTINUOUS
 62
     7
  0
LINE
  5
B3
  8
DATA
  6
CONTINUOUS
 62
     7
 10
-25.0
 20
-106.2499999999999
 30
0.0
 11
-62.500000000000021
 21
-106.2499999999999
 31
0.0
  0
CIRCLE
  5
B4
  8
DATA
  6
CONTINUOUS
 62
     7
 10
-44.000000000000021
 20
-91.249999999999957
 30
0.0
 40
5.0
  0
TEXT
  5
B5
  8
DATA
 62
     7
 10
62.096600916179341
 20
-103.2892208299595
 30
0.0
 40
5.7009440104166647
  1
Switcher
 41
0.7
 11
62.096600916179341
 21
-97.588276819542855
 31
0.0
 73
     3
  0
TEXT
  5
B6
  8
DATA
 62
     7
 10
0.0983524871732441
 20
-69.115316532541414
 30
0.0
 40
2.4432617187500001
  1
In 2
 41
0.7
 11
0.0983524871732442
 21
-66.672054813791405
 31
0.0
 73
     3
  0
TEXT
  5
B7
  8
DATA
 62
     7
 10
-14.90164751282675
 20
-69.115316532541414
 30
0.0
 40
2.4432617187500001
  1
In 1
 41
0.7
 11
-14.90164751282675
 21
-66.672054813791405
 31
0.0
 73
     3
  0
TEXT
  5
B8
  8
DATA
 62
     7
 10
15.098352487173241
 20
-69.115316532541414
 30
0.0
 40
2.4432617187500001
  1
In 3
 41
0.7
 11
15.098352487173241
 21
-66.672054813791405
 31
0.0
 73
     3
  0
TEXT
  5
B9
  8
DATA
 62
     7
 10
30.098352487173251
 20
-69.115316532541414
 30
0.0
 40
2.4432617187500001
  1
In 4
 41
0.7
 11
30.098352487173251
 21
-66.672054813791405
 31
0.0
 73
     3
  0
TEXT
  5
BA
  8
DATA
 62
     7
 10
45.098352487173251
 20
-69.115316532541414
 30
0.0
 40
2.4432617187500001
  1
ENH
 41
0.7
 11
45.098352487173251
 21
-66.672054813791405
 31
0.0
 73
     3
  0
LINE
  5
BB
  8
DATA
  6
CONTINUOUS
 62
     7
 10
-67.000000000000014
 20
-25.0
 30
0.0
 11
91.999999999999986
 21
-25.0
 31
0.0
  0
LINE
  5
BC
  8
DATA
  6
CONTINUOUS
 62
     7
 10
-75.000000000000014
 20
-17.0
 30
0.0
 11
-75.000000000000014
 21
142.0
 31
0.0
  0
LINE
  5
BD
  8
DATA
  6
CONTINUOUS
 62
     7
 10
100.0
 20
-17.0
 30
0.0
 11
100.0
 21
142.0
 31
0.0
  0
LINE
  5
BE
  8
DATA
  6
CONTINUOUS
 62
     7
 10
-67.000000000000014
 20
150.0
 30
0.0
 11
91.999999999999986
 21
150.0
 31
0.0
  0
ARC
  5
BF
  8
DATA
  6
CONTINUOUS
 62
     7
 10
-67.000000000000014
 20
-17.0
 30
0.0
 40
8.0
 50
180.0
 51
270.0
  0
ARC
  5
C0
  8
DATA
  6
CONTINUOUS
 62
     7
 10
91.999999999999986
 20
-17.0
 30
0.0
 40
8.0
 50
270.0
 51
0.0
  0
ARC
  5
C1
  8
DATA
  6
CONTINUOUS
 62
     7
 10
91.999999999999986
 20
142.0
 30
0.0
 40
7.9999999999999982
 50
0.0
 51
90.0
  0
ARC
  5
C2
  8
DATA
  6
CONTINUOUS
 62
     7
 10
-67.000000000000014
 20
142.0
 30
0.0
 40
7.9999999999999982
 50
90.0
 51
180.0
  0
LINE
  5
C3
  8
DATA
  6
CONTINUOUS
 62
     7
 10
100.0
 20
234.25
 30
0.0
 11
100.0
 21
181.25
 31
0.0
  0
LINE
  5
C4
  8
DATA
  6
CONTINUOUS
 62
     7
 10
-75.000000000000014
 20
234.25
 30
0.0
 11
100.0
 21
234.25
 31
0.0
  0
LINE
  5
C5
  8
DATA
  6
CONTINUOUS
 62
     7
 10
-75.000000000000014
 20
181.25
 30
0.0
 11
-75.000000000000014
 21
234.25
 31
0.0
  0
LINE
  5
C6
  8
DATA
  6
CONTINUOUS
 62
     7
 10
100.0
 20
181.25
 30
0.0
 11
-75.000000000000014
 21
181.25
 31
0.0
  0
LINE
  5
C7
  8
DATA
  6
CONTINUOUS
 62
     7
 10
92.499999999999986
 20
239.25
 30
0.0
 11
72.499999999999986
 21
239.25
 31
0.0
  0
LINE
  5
C8
  8
DATA
  6
CONTINUOUS
 62
     7
 10
-47.500000000000021
 20
239.25
 30
0.0
 11
-67.500000000000014
 21
239.25
 31
0.0
  0
LINE
  5
C9
  8
DATA
  6
CONTINUOUS
 62
     7
 10
92.499999999999986
 20
239.25
 30
0.0
 11
92.499999999999986
 21
234.25
 31
0.0
  0
LINE
  5
CA
  8
DATA
  6
CONTINUOUS
 62
     7
 10
72.499999999999986
 20
234.25
 30
0.0
 11
72.499999999999986
 21
239.25
 31
0.0
  0
LINE
  5
CB
  8
DATA
  6
CONTINUOUS
 62
     7
 10
-47.500000000000021
 20
239.25
 30
0.0
 11
-47.500000000000021
 21
234.25
 31
0.0
  0
LINE
  5
CC
  8
DATA
  6
CONTINUOUS
 62
     7
 10
-67.500000000000014
 20
234.25
 30
0.0
 11
-67.500000000000014
 21
239.25
 31
0.0
  0
LINE
  5
CD
  8
DATA
  6
CONTINUOUS
 62
     7
 10
49.999999999999972
 20
234.25
 30
0.0
 11
87.499999999999986
 21
234.25
 31
0.0
  0
LINE
  5
CE
  8
DATA
  6
CONTINUOUS
 62
     7
 10
84.999999999999986
 20
191.25
 30
0.0
 11
-60.000000000000021
 21
191.25
 31
0.0
  0
LINE
  5
CF
  8
DATA
  6
CONTINUOUS
 62
     7
 10
86.999999999999986
 20
234.25
 30
0.0
 11
86.999999999999986
 21
193.25
 31
0.0
  0
LINE
  5
D0
  8
DATA
  6
CONTINUOUS
 62
     7
 10
-62.000000000000021
 20
193.25
 30
0.0
 11
-62.000000000000021
 21
234.25
 31
0.0
  0
ARC
  5
D1
  8
DATA
  6
CONTINUOUS
 62
     7
 10
84.999999999999986
 20
193.25
 30
0.0
 40
2.0
 50
270.0
 51
0.0
  0
ARC
  5
D2
  8
DATA
  6
CONTINUOUS
 62
     7
 10
-60.000000000000021
 20
193.25
 30
0.0
 40
2.0
 50
180.0
 51
270.0
  0
POLYLINE
  5
D3
  8
DATA
  6
CONTINUOUS
 62
     7
 66
     1
 10
0.0
 20
0.0
 30
0.0
 70
     1
  0
VERTEX
  5
248
  8
DATA
  6
CONTINUOUS
 62
     7
 10
13.24532914642182
 20
215.5382088118192
 30
0.0
  0
VERTEX
  5
249
  8
DATA
  6
CONTINUOUS
 62
     7
 10
10.45694146729582
 20
214.7910625850125
 30
0.0
  0
VERTEX
  5
24A
  8
DATA
  6
CONTINUOUS
 62
     7
 10
9.7097952404891128
 20
212.00267490588641
 30
0.0
  0
VERTEX
  5
24B
  8
DATA
  6
CONTINUOUS
 62
     7
 10
11.751036692808411
 20
209.96143345356711
 30
0.0
  0
VERTEX
  5
24C
  8
DATA
  6
CONTINUOUS
 62
     7
 10
14.539424371934411
 20
210.70857968037379
 30
0.0
  0
VERTEX
  5
24D
  8
DATA
  6
CONTINUOUS
 62
     7
 10
15.28657059874118
 20
213.49696735949979
 30
0.0
  0
SEQEND
  5
24E
  8
DATA
  6
CONTINUOUS
 62
     7
  0
CIRCLE
  5
DC
  8
DATA
  6
CONTINUOUS
 62
     7
 10
12.498182919615109
 20
212.74982113269311
 30
0.0
 40
1.2750000000000341
  0
LINE
  5
DD
  8
DATA
  6
CONTINUOUS
 62
     7
 10
4.6481829196151523
 20
219.81267180145761
 30
0.0
 11
20.348182919615081
 21
219.81267180145761
 31
0.0
  0
LINE
  5
DE
  8
DATA
  6
CONTINUOUS
 62
     7
 10
4.6481829196151523
 20
219.81267180145761
 30
0.0
 11
4.6481829196151523
 21
224.11267180145771
 31
0.0
  0
LINE
  5
DF
  8
DATA
  6
CONTINUOUS
 62
     7
 10
20.348182919615081
 20
219.81267180145761
 30
0.0
 11
20.348182919615081
 21
224.11267180145771
 31
0.0
  0
LINE
  5
E0
  8
DATA
  6
CONTINUOUS
 62
     7
 10
4.6481829196151523
 20
224.11267180145771
 30
0.0
 11
7.2481829196151182
 21
225.81267180145761
 31
0.0
  0
LINE
  5
E1
  8
DATA
  6
CONTINUOUS
 62
     7
 10
20.348182919615081
 20
224.11267180145771
 30
0.0
 11
17.748182919615111
 21
225.81267180145761
 31
0.0
  0
LINE
  5
E2
  8
DATA
  6
CONTINUOUS
 62
     7
 10
7.2481829196151182
 20
225.81267180145761
 30
0.0
 11
17.748182919615111
 21
225.81267180145761
 31
0.0
  0
POLYLINE
  5
E3
  8
DATA
  6
CONTINUOUS
 62
     7
 66
     1
 10
0.0
 20
0.0
 30
0.0
 70
     1
  0
VERTEX
  5
24F
  8
DATA
  6
CONTINUOUS
 62
     7
 10
7.4981829196151182
 20
222.59883497595041
 30
0.0
  0
VERTEX
  5
250
  8
DATA
  6
CONTINUOUS
 62
     7
 10
17.498182919615111
 20
222.59883497595041
 30
0.0
  0
VERTEX
  5
251
  8
DATA
  6
CONTINUOUS
 62
     7
 10
17.498182919615111
 20
222.0988349759505
 30
0.0
  0
VERTEX
  5
252
  8
DATA
  6
CONTINUOUS
 62
     7
 10
7.4981829196151182
 20
222.0988349759505
 30
0.0
  0
SEQEND
  5
253
  8
DATA
  6
CONTINUOUS
 62
     7
  0
POLYLINE
  5
EA
  8
DATA
  6
CONTINUOUS
 62
     7
 66
     1
 10
0.0
 20
0.0
 30
0.0
 70
     1
  0
VERTEX
  5
254
  8
DATA
  6
CONTINUOUS
 62
     7
 10
-9.7546708535781761
 20
215.5382088118192
 30
0.0
  0
VERTEX
  5
255
  8
DATA
  6
CONTINUOUS
 62
     7
 10
-12.54305853270418
 20
214.7910625850125
 30
0.0
  0
VERTEX
  5
256
  8
DATA
  6
CONTINUOUS
 62
     7
 10
-13.29020475951088
 20
212.00267490588641
 30
0.0
  0
VERTEX
  5
257
  8
DATA
  6
CONTINUOUS
 62
     7
 10
-11.248963307191589
 20
209.96143345356711
 30
0.0
  0
VERTEX
  5
258
  8
DATA
  6
CONTINUOUS
 62
     7
 10
-8.4605756280655822
 20
210.70857968037379
 30
0.0
  0
VERTEX
  5
259
  8
DATA
  6
CONTINUOUS
 62
     7
 10
-7.7134294012588196
 20
213.49696735949979
 30
0.0
  0
SEQEND
  5
25A
  8
DATA
  6
CONTINUOUS
 62
     7
  0
CIRCLE
  5
F3
  8
DATA
  6
CONTINUOUS
 62
     7
 10
-10.50181708038488
 20
212.74982113269311
 30
0.0
 40
1.2750000000000341
  0
LINE
  5
F4
  8
DATA
  6
CONTINUOUS
 62
     7
 10
-18.351817080384851
 20
219.81267180145761
 30
0.0
 11
-2.651817080384915
 21
219.81267180145761
 31
0.0
  0
LINE
  5
F5
  8
DATA
  6
CONTINUOUS
 62
     7
 10
-18.351817080384851
 20
219.81267180145761
 30
0.0
 11
-18.351817080384851
 21
224.11267180145771
 31
0.0
  0
LINE
  5
F6
  8
DATA
  6
CONTINUOUS
 62
     7
 10
-2.651817080384915
 20
219.81267180145761
 30
0.0
 11
-2.651817080384915
 21
224.11267180145771
 31
0.0
  0
LINE
  5
F7
  8
DATA
  6
CONTINUOUS
 62
     7
 10
-18.351817080384851
 20
224.11267180145771
 30
0.0
 11
-15.75181708038488
 21
225.81267180145761
 31
0.0
  0
LINE
  5
F8
  8
DATA
  6
CONTINUOUS
 62
     7
 10
-2.651817080384915
 20
224.11267180145771
 30
0.0
 11
-5.2518170803848809
 21
225.81267180145761
 31
0.0
  0
LINE
  5
F9
  8
DATA
  6
CONTINUOUS
 62
     7
 10
-15.75181708038488
 20
225.81267180145761
 30
0.0
 11
-5.2518170803848809
 21
225.81267180145761
 31
0.0
  0
POLYLINE
  5
FA
  8
DATA
  6
CONTINUOUS
 62
     7
 66
     1
 10
0.0
 20
0.0
 30
0.0
 70
     1
  0
VERTEX
  5
25B
  8
DATA
  6
CONTINUOUS
 62
     7
 10
-15.50181708038488
 20
222.59883497595041
 30
0.0
  0
VERTEX
  5
25C
  8
DATA
  6
CONTINUOUS
 62
     7
 10
-5.5018170803848809
 20
222.59883497595041
 30
0.0
  0
VERTEX
  5
25D
  8
DATA
  6
CONTINUOUS
 62
     7
 10
-5.5018170803848809
 20
222.0988349759505
 30
0.0
  0
VERTEX
  5
25E
  8
DATA
  6
CONTINUOUS
 62
     7
 10
-15.50181708038488
 20
222.0988349759505
 30
0.0
  0
SEQEND
  5
25F
  8
DATA
  6
CONTINUOUS
 62
     7
  0
POLYLINE
  5
101
  8
DATA
  6
CONTINUOUS
 62
     7
 66
     1
 10
0.0
 20
0.0
 30
0.0
 70
     1
  0
VERTEX
  5
260
  8
DATA
  6
CONTINUOUS
 62
     7
 10
-32.754670853578162
 20
215.5382088118192
 30
0.0
  0
VERTEX
  5
261
  8
DATA
  6
CONTINUOUS
 62
     7
 10
-35.543058532704173
 20
214.7910625850125
 30
0.0
  0
VERTEX
  5
262
  8
DATA
  6
CONTINUOUS
 62
     7
 10
-36.290204759510871
 20
212.00267490588641
 30
0.0
  0
VERTEX
  5
263
  8
DATA
  6
CONTINUOUS
 62
     7
 10
-34.248963307191573
 20
209.96143345356711
 30
0.0
  0
VERTEX
  5
264
  8
DATA
  6
CONTINUOUS
 62
     7
 10
-31.46057562806558
 20
210.70857968037379
 30
0.0
  0
VERTEX
  5
265
  8
DATA
  6
CONTINUOUS
 62
     7
 10
-30.713429401258811
 20
213.49696735949979
 30
0.0
  0
SEQEND
  5
266
  8
DATA
  6
CONTINUOUS
 62
     7
  0
CIRCLE
  5
10A
  8
DATA
  6
CONTINUOUS
 62
     7
 10
-33.501817080384868
 20
212.74982113269311
 30
0.0
 40
1.2750000000000341
  0
LINE
  5
10B
  8
DATA
  6
CONTINUOUS
 62
     7
 10
-41.351817080384834
 20
219.81267180145761
 30
0.0
 11
-25.65181708038493
 21
219.81267180145761
 31
0.0
  0
LINE
  5
10C
  8
DATA
  6
CONTINUOUS
 62
     7
 10
-41.351817080384834
 20
219.81267180145761
 30
0.0
 11
-41.351817080384834
 21
224.11267180145771
 31
0.0
  0
LINE
  5
10D
  8
DATA
  6
CONTINUOUS
 62
     7
 10
-25.65181708038493
 20
219.81267180145761
 30
0.0
 11
-25.65181708038493
 21
224.11267180145771
 31
0.0
  0
LINE
  5
10E
  8
DATA
  6
CONTINUOUS
 62
     7
 10
-41.351817080384834
 20
224.11267180145771
 30
0.0
 11
-38.751817080384868
 21
225.81267180145761
 31
0.0
  0
LINE
  5
10F
  8
DATA
  6
CONTINUOUS
 62
     7
 10
-25.65181708038493
 20
224.11267180145771
 30
0.0
 11
-28.251817080384871
 21
225.81267180145761
 31
0.0
  0
LINE
  5
110
  8
DATA
  6
CONTINUOUS
 62
     7
 10
-38.751817080384868
 20
225.81267180145761
 30
0.0
 11
-28.251817080384871
 21
225.81267180145761
 31
0.0
  0
POLYLINE
  5
111
  8
DATA
  6
CONTINUOUS
 62
     7
 66
     1
 10
0.0
 20
0.0
 30
0.0
 70
     1
  0
VERTEX
  5
267
  8
DATA
  6
CONTINUOUS
 62
     7
 10
-38.501817080384868
 20
222.59883497595041
 30
0.0
  0
VERTEX
  5
268
  8
DATA
  6
CONTINUOUS
 62
     7
 10
-28.501817080384871
 20
222.59883497595041
 30
0.0
  0
VERTEX
  5
269
  8
DATA
  6
CONTINUOUS
 62
     7
 10
-28.501817080384871
 20
222.0988349759505
 30
0.0
  0
VERTEX
  5
26A
  8
DATA
  6
CONTINUOUS
 62
     7
 10
-38.501817080384868
 20
222.0988349759505
 30
0.0
  0
SEQEND
  5
26B
  8
DATA
  6
CONTINUOUS
 62
     7
  0
POLYLINE
  5
118
  8
DATA
  6
CONTINUOUS
 62
     7
 66
     1
 10
0.0
 20
0.0
 30
0.0
 70
     1
  0
VERTEX
  5
26C
  8
DATA
  6
CONTINUOUS
 62
     7
 10
36.245329146421831
 20
215.5382088118192
 30
0.0
  0
VERTEX
  5
26D
  8
DATA
  6
CONTINUOUS
 62
     7
 10
33.45694146729582
 20
214.7910625850125
 30
0.0
  0
VERTEX
  5
26E
  8
DATA
  6
CONTINUOUS
 62
     7
 10
32.709795240489107
 20
212.00267490588641
 30
0.0
  0
VERTEX
  5
26F
  8
DATA
  6
CONTINUOUS
 62
     7
 10
34.751036692808412
 20
209.96143345356711
 30
0.0
  0
VERTEX
  5
270
  8
DATA
  6
CONTINUOUS
 62
     7
 10
37.539424371934423
 20
210.70857968037379
 30
0.0
  0
VERTEX
  5
271
  8
DATA
  6
CONTINUOUS
 62
     7
 10
38.286570598741172
 20
213.49696735949979
 30
0.0
  0
SEQEND
  5
272
  8
DATA
  6
CONTINUOUS
 62
     7
  0
CIRCLE
  5
121
  8
DATA
  6
CONTINUOUS
 62
     7
 10
35.498182919615118
 20
212.74982113269311
 30
0.0
 40
1.2750000000000341
  0
LINE
  5
122
  8
DATA
  6
CONTINUOUS
 62
     7
 10
27.648182919615149
 20
219.81267180145761
 30
0.0
 11
43.348182919615098
 21
219.81267180145761
 31
0.0
  0
LINE
  5
123
  8
DATA
  6
CONTINUOUS
 62
     7
 10
27.648182919615149
 20
219.81267180145761
 30
0.0
 11
27.648182919615149
 21
224.11267180145771
 31
0.0
  0
LINE
  5
124
  8
DATA
  6
CONTINUOUS
 62
     7
 10
43.348182919615098
 20
219.81267180145761
 30
0.0
 11
43.348182919615098
 21
224.11267180145771
 31
0.0
  0
LINE
  5
125
  8
DATA
  6
CONTINUOUS
 62
     7
 10
27.648182919615149
 20
224.11267180145771
 30
0.0
 11
30.248182919615122
 21
225.81267180145761
 31
0.0
  0
LINE
  5
126
  8
DATA
  6
CONTINUOUS
 62
     7
 10
43.348182919615098
 20
224.11267180145771
 30
0.0
 11
40.748182919615118
 21
225.81267180145761
 31
0.0
  0
LINE
  5
127
  8
DATA
  6
CONTINUOUS
 62
     7
 10
30.248182919615122
 20
225.81267180145761
 30
0.0
 11
40.748182919615118
 21
225.81267180145761
 31
0.0
  0
POLYLINE
  5
128
  8
DATA
  6
CONTINUOUS
 62
     7
 66
     1
 10
0.0
 20
0.0
 30
0.0
 70
     1
  0
VERTEX
  5
273
  8
DATA
  6
CONTINUOUS
 62
     7
 10
30.498182919615122
 20
222.59883497595041
 30
0.0
  0
VERTEX
  5
274
  8
DATA
  6
CONTINUOUS
 62
     7
 10
40.498182919615111
 20
222.59883497595041
 30
0.0
  0
VERTEX
  5
275
  8
DATA
  6
CONTINUOUS
 62
     7
 10
40.498182919615111
 20
222.0988349759505
 30
0.0
  0
VERTEX
  5
276
  8
DATA
  6
CONTINUOUS
 62
     7
 10
30.498182919615122
 20
222.0988349759505
 30
0.0
  0
SEQEND
  5
277
  8
DATA
  6
CONTINUOUS
 62
     7
  0
POLYLINE
  5
12F
  8
DATA
  6
CONTINUOUS
 62
     7
 66
     1
 10
0.0
 20
0.0
 30
0.0
 70
     1
  0
VERTEX
  5
278
  8
DATA
  6
CONTINUOUS
 62
     7
 10
59.245329146421852
 20
215.5382088118192
 30
0.0
  0
VERTEX
  5
279
  8
DATA
  6
CONTINUOUS
 62
     7
 10
56.456941467295849
 20
214.7910625850125
 30
0.0
  0
VERTEX
  5
27A
  8
DATA
  6
CONTINUOUS
 62
     7
 10
55.709795240489129
 20
212.00267490588641
 30
0.0
  0
VERTEX
  5
27B
  8
DATA
  6
CONTINUOUS
 62
     7
 10
57.751036692808412
 20
209.96143345356711
 30
0.0
  0
VERTEX
  5
27C
  8
DATA
  6
CONTINUOUS
 62
     7
 10
60.53942437193443
 20
210.70857968037379
 30
0.0
  0
VERTEX
  5
27D
  8
DATA
  6
CONTINUOUS
 62
     7
 10
61.286570598741179
 20
213.49696735949979
 30
0.0
  0
SEQEND
  5
27E
  8
DATA
  6
CONTINUOUS
 62
     7
  0
CIRCLE
  5
138
  8
DATA
  6
CONTINUOUS
 62
     7
 10
58.498182919615132
 20
212.74982113269311
 30
0.0
 40
1.2750000000000341
  0
LINE
  5
139
  8
DATA
  6
CONTINUOUS
 62
     7
 10
50.648182919615152
 20
219.81267180145761
 30
0.0
 11
66.348182919615098
 21
219.81267180145761
 31
0.0
  0
LINE
  5
13A
  8
DATA
  6
CONTINUOUS
 62
     7
 10
50.648182919615152
 20
219.81267180145761
 30
0.0
 11
50.648182919615152
 21
224.11267180145771
 31
0.0
  0
LINE
  5
13B
  8
DATA
  6
CONTINUOUS
 62
     7
 10
66.348182919615098
 20
219.81267180145761
 30
0.0
 11
66.348182919615098
 21
224.11267180145771
 31
0.0
  0
LINE
  5
13C
  8
DATA
  6
CONTINUOUS
 62
     7
 10
50.648182919615152
 20
224.11267180145771
 30
0.0
 11
53.248182919615132
 21
225.81267180145761
 31
0.0
  0
LINE
  5
13D
  8
DATA
  6
CONTINUOUS
 62
     7
 10
66.348182919615098
 20
224.11267180145771
 30
0.0
 11
63.748182919615132
 21
225.81267180145761
 31
0.0
  0
LINE
  5
13E
  8
DATA
  6
CONTINUOUS
 62
     7
 10
53.248182919615132
 20
225.81267180145761
 30
0.0
 11
63.748182919615132
 21
225.81267180145761
 31
0.0
  0
POLYLINE
  5
13F
  8
DATA
  6
CONTINUOUS
 62
     7
 66
     1
 10
0.0
 20
0.0
 30
0.0
 70
     1
  0
VERTEX
  5
27F
  8
DATA
  6
CONTINUOUS
 62
     7
 10
53.498182919615132
 20
222.59883497595041
 30
0.0
  0
VERTEX
  5
280
  8
DATA
  6
CONTINUOUS
 62
     7
 10
63.498182919615132
 20
222.59883497595041
 30
0.0
  0
VERTEX
  5
281
  8
DATA
  6
CONTINUOUS
 62
     7
 10
63.498182919615132
 20
222.0988349759505
 30
0.0
  0
VERTEX
  5
282
  8
DATA
  6
CONTINUOUS
 62
     7
 10
53.498182919615132
 20
222.0988349759505
 30
0.0
  0
SEQEND
  5
283
  8
DATA
  6
CONTINUOUS
 62
     7
  0
CIRCLE
  5
146
  8
DATA
  6
CONTINUOUS
 62
     7
 10
81.499999999999986
 20
221.25000000000011
 30
0.0
 40
2.1500000000000048
  0
CIRCLE
  5
147
  8
DATA
  6
CONTINUOUS
 62
     7
 10
71.499999999999986
 20
221.25000000000011
 30
0.0
 40
2.1500000000000048
  0
TEXT
  5
148
  8
DATA
 62
     7
 10
39.36008782278121
 20
231.8279780443047
 30
0.0
 40
2.4432617187500001
  1
In 1
 50
180.0
 41
0.7
 11
39.36008782278121
 21
229.38471632555471
 31
0.0
 73
     3
  0
TEXT
  5
149
  8
DATA
 62
     7
 10
16.360087822781189
 20
231.8279780443047
 30
0.0
 40
2.4432617187500001
  1
In 2
 50
180.0
 41
0.7
 11
16.360087822781189
 21
229.38471632555471
 31
0.0
 73
     3
  0
TEXT
  5
14A
  8
DATA
 62
     7
 10
-6.639912177218803
 20
231.8279780443047
 30
0.0
 40
2.4432617187500001
  1
In 3
 50
180.0
 41
0.7
 11
-6.639912177218803
 21
229.38471632555471
 31
0.0
 73
     3
  0
TEXT
  5
14B
  8
DATA
 62
     7
 10
-29.63991217721879
 20
231.8279780443047
 30
0.0
 40
2.4432617187500001
  1
In 4
 50
180.0
 41
0.7
 11
-29.63991217721879
 21
229.38471632555471
 31
0.0
 73
     3
  0
TEXT
  5
14C
  8
DATA
 62
     7
 10
64.829413422467027
 20
231.8279780443047
 30
0.0
 40
2.4432617187500001
  1
HDMI Out
 50
180.0
 41
0.7
 11
64.829413422467027
 21
229.38471632555471
 31
0.0
 73
     3
  0
TEXT
  5
14D
  8
DATA
 62
     7
 10
83.625425022938302
 20
231.8279780443047
 30
0.0
 40
2.4432617187500001
  1
EQ
 50
180.0
 41
0.7
 11
83.625425022938302
 21
229.38471632555471
 31
0.0
 73
     3
  0
TEXT
  5
14E
  8
DATA
 62
     7
 10
77.253577467557292
 20
231.8279780443047
 30
0.0
 40
2.4432617187500001
  1
Swlect
 50
180.0
 41
0.7
 11
77.253577467557292
 21
229.38471632555471
 31
0.0
 73
     3
  0
CIRCLE
  5
14F
  8
DATA
  6
CONTINUOUS
 62
     7
 10
-55.513002230221453
 20
219.98286032888771
 30
0.0
 40
4.4000000000000048
  0
CIRCLE
  5
150
  8
DATA
  6
CONTINUOUS
 62
     7
 10
-55.513002230221453
 20
219.98286032888771
 30
0.0
 40
3.1500000000000048
  0
CIRCLE
  5
151
  8
DATA
  6
CONTINUOUS
 62
     7
 10
-55.513002230221453
 20
219.98286032888771
 30
0.0
 40
0.6000000000000229
  0
TEXT
  5
152
  8
DATA
 62
     7
 10
-51.085291065462037
 20
231.8279780443047
 30
0.0
 40
2.4432617187500001
  1
5V DC
 50
180.0
 41
0.7
 11
-51.085291065462037
 21
229.38471632555471
 31
0.0
 73
     3
  0
CIRCLE
  5
153
  8
DATA
  6
CONTINUOUS
 62
     7
 10
58.571121937923387
 20
200.38157625615591
 30
0.0
 40
1.1750000000000109
  0
POLYLINE
  5
154
  8
DATA
  6
CONTINUOUS
 62
     7
 66
     1
 10
0.0
 20
0.0
 30
0.0
 70
     1
  0
VERTEX
  5
284
  8
DATA
  6
CONTINUOUS
 62
     7
 10
58.571121937923387
 20
197.68157625615601
 30
0.0
  0
VERTEX
  5
285
  8
DATA
  6
CONTINUOUS
 62
     7
 10
60.909390528141202
 20
199.031576256156
 30
0.0
  0
VERTEX
  5
286
  8
DATA
  6
CONTINUOUS
 62
     7
 10
60.909390528141202
 20
201.73157625615559
 30
0.0
  0
VERTEX
  5
287
  8
DATA
  6
CONTINUOUS
 62
     7
 10
58.571121937923387
 20
203.08157625615561
 30
0.0
  0
VERTEX
  5
288
  8
DATA
  6
CONTINUOUS
 62
     7
 10
56.232853347705422
 20
201.73157625615559
 30
0.0
  0
VERTEX
  5
289
  8
DATA
  6
CONTINUOUS
 62
     7
 10
56.232853347705422
 20
199.031576256156
 30
0.0
  0
SEQEND
  5
28A
  8
DATA
  6
CONTINUOUS
 62
     7
  0
CIRCLE
  5
15D
  8
DATA
  6
CONTINUOUS
 62
     7
 10
83.571121937923493
 20
200.38157625615591
 30
0.0
 40
1.1750000000000389
  0
POLYLINE
  5
15E
  8
DATA
  6
CONTINUOUS
 62
     7
 66
     1
 10
0.0
 20
0.0
 30
0.0
 70
     1
  0
VERTEX
  5
28B
  8
DATA
  6
CONTINUOUS
 62
     7
 10
83.571121937923493
 20
197.68157625615601
 30
0.0
  0
VERTEX
  5
28C
  8
DATA
  6
CONTINUOUS
 62
     7
 10
85.909390528141387
 20
199.031576256156
 30
0.0
  0
VERTEX
  5
28D
  8
DATA
  6
CONTINUOUS
 62
     7
 10
85.909390528141387
 20
201.73157625615559
 30
0.0
  0
VERTEX
  5
28E
  8
DATA
  6
CONTINUOUS
 62
     7
 10
83.571121937923493
 20
203.08157625615561
 30
0.0
  0
VERTEX
  5
28F
  8
DATA
  6
CONTINUOUS
 62
     7
 10
81.232853347705486
 20
201.73157625615559
 30
0.0
  0
VERTEX
  5
290
  8
DATA
  6
CONTINUOUS
 62
     7
 10
81.232853347705486
 20
199.031576256156
 30
0.0
  0
SEQEND
  5
291
  8
DATA
  6
CONTINUOUS
 62
     7
  0
LINE
  5
167
  8
DATA
  6
CONTINUOUS
 62
     7
 10
65.469358727734729
 20
204.38157625615571
 30
0.0
 11
76.672885148111931
 21
204.38157625615571
 31
0.0
  0
LINE
  5
168
  8
DATA
  6
CONTINUOUS
 62
     7
 10
77.485385148111817
 20
196.38157625615599
 30
0.0
 11
64.656858727734729
 21
196.38157625615599
 31
0.0
  0
LINE
  5
169
  8
DATA
  6
CONTINUOUS
 62
     7
 10
78.056101995363505
 20
203.19770388853871
 30
0.0
 11
78.868601995363392
 21
197.99770388853901
 31
0.0
  0
LINE
  5
16A
  8
DATA
  6
CONTINUOUS
 62
     7
 10
63.273641880483169
 20
197.99770388853901
 30
0.0
 11
64.086141880483169
 21
203.19770388853871
 31
0.0
  0
CIRCLE
  5
16B
  8
DATA
  6
CONTINUOUS
 62
     7
 10
71.097751708398263
 20
198.74526808500229
 30
0.0
 40
0.5
  0
ARC
  5
16C
  8
DATA
  6
CONTINUOUS
 62
     7
 10
77.485385148111817
 20
197.781576256156
 30
0.0
 40
1.399999999999977
 50
270.0
 51
8.8806591505205574
  0
ARC
  5
16D
  8
DATA
  6
CONTINUOUS
 62
     7
 10
64.656858727734729
 20
197.781576256156
 30
0.0
 40
1.400000000000019
 50
171.1193408494795
 51
270.0
  0
ARC
  5
16E
  8
DATA
  6
CONTINUOUS
 62
     7
 10
76.672885148111931
 20
202.98157625615559
 30
0.0
 40
1.4000000000000281
 50
8.8806591505228312
 51
90.0
  0
ARC
  5
16F
  8
DATA
  6
CONTINUOUS
 62
     7
 10
65.469358727734729
 20
202.98157625615559
 30
0.0
 40
1.4000000000001469
 50
90.0
 51
171.11934084947711
  0
CIRCLE
  5
170
  8
DATA
  6
CONTINUOUS
 62
     7
 10
73.597751708398263
 20
198.74526808500229
 30
0.0
 40
0.5
  0
CIRCLE
  5
171
  8
DATA
  6
CONTINUOUS
 62
     7
 10
76.097751708398263
 20
198.74526808500229
 30
0.0
 40
0.5
  0
CIRCLE
  5
172
  8
DATA
  6
CONTINUOUS
 62
     7
 10
68.597751708398263
 20
198.74526808500229
 30
0.0
 40
0.5
  0
CIRCLE
  5
173
  8
DATA
  6
CONTINUOUS
 62
     7
 10
66.097751708398263
 20
198.74526808500229
 30
0.0
 40
0.5
  0
CIRCLE
  5
174
  8
DATA
  6
CONTINUOUS
 62
     7
 10
72.293262884469499
 20
202.3637885037646
 30
0.0
 40
0.5
  0
CIRCLE
  5
175
  8
DATA
  6
CONTINUOUS
 62
     7
 10
74.793262884469499
 20
202.3637885037646
 30
0.0
 40
0.5
  0
CIRCLE
  5
176
  8
DATA
  6
CONTINUOUS
 62
     7
 10
69.793262884469513
 20
202.3637885037646
 30
0.0
 40
0.5
  0
CIRCLE
  5
177
  8
DATA
  6
CONTINUOUS
 62
     7
 10
67.293262884469513
 20
202.3637885037646
 30
0.0
 40
0.5
  0
TEXT
  5
178
  8
DATA
 62
     7
 10
75.759666336377293
 20
208.1434209485804
 30
0.0
 40
2.4432617187500001
  1
RS-232
 50
180.0
 41
0.7
 11
75.759666336377293
 21
205.70015922983049
 31
0.0
 73
     3
  0
LINE
  5
179
  8
DATA
  6
CONTINUOUS
 62
     7
 10
-36.290204759510871
 20
153.0
 30
0.0
 11
-30.713429401258811
 21
153.0
 31
0.0
  0
LINE
  5
17A
  8
DATA
  6
CONTINUOUS
 62
     7
 10
-13.29020475951088
 20
153.0
 30
0.0
 11
-7.7134294012588196
 21
153.0
 31
0.0
  0
LINE
  5
17B
  8
DATA
  6
CONTINUOUS
 62
     7
 10
9.7097952404891128
 20
153.0
 30
0.0
 11
15.28657059874118
 21
153.0
 31
0.0
  0
LINE
  5
17C
  8
DATA
  6
CONTINUOUS
 62
     7
 10
32.709795240489107
 20
153.0
 30
0.0
 11
38.286570598741172
 21
153.0
 31
0.0
  0
LINE
  5
17D
  8
DATA
  6
CONTINUOUS
 62
     7
 10
56.232853347705422
 20
153.0
 30
0.0
 11
60.909390528141202
 21
153.0
 31
0.0
  0
LINE
  5
17E
  8
DATA
  6
CONTINUOUS
 62
     7
 10
63.259237421932681
 20
153.0
 30
0.0
 11
78.868601995363392
 21
153.0
 31
0.0
  0
LINE
  5
17F
  8
DATA
  6
CONTINUOUS
 62
     7
 10
81.232853347705486
 20
153.0
 30
0.0
 11
85.909390528141387
 21
153.0
 31
0.0
  0
LINE
  5
180
  8
DATA
  6
CONTINUOUS
 62
     7
 10
-36.290204759510871
 20
153.0
 30
0.0
 11
-36.290204759510871
 21
150.0
 31
0.0
  0
LINE
  5
181
  8
DATA
  6
CONTINUOUS
 62
     7
 10
-30.713429401258811
 20
153.0
 30
0.0
 11
-30.713429401258811
 21
150.0
 31
0.0
  0
LINE
  5
182
  8
DATA
  6
CONTINUOUS
 62
     7
 10
-13.29020475951088
 20
153.0
 30
0.0
 11
-13.29020475951088
 21
150.0
 31
0.0
  0
LINE
  5
183
  8
DATA
  6
CONTINUOUS
 62
     7
 10
-7.7134294012588196
 20
153.0
 30
0.0
 11
-7.7134294012588196
 21
150.0
 31
0.0
  0
LINE
  5
184
  8
DATA
  6
CONTINUOUS
 62
     7
 10
9.7097952404891128
 20
153.0
 30
0.0
 11
9.7097952404891128
 21
150.0
 31
0.0
  0
LINE
  5
185
  8
DATA
  6
CONTINUOUS
 62
     7
 10
15.28657059874118
 20
153.0
 30
0.0
 11
15.28657059874118
 21
150.0
 31
0.0
  0
LINE
  5
186
  8
DATA
  6
CONTINUOUS
 62
     7
 10
32.709795240489107
 20
153.0
 30
0.0
 11
32.709795240489107
 21
150.0
 31
0.0
  0
LINE
  5
187
  8
DATA
  6
CONTINUOUS
 62
     7
 10
38.286570598741172
 20
153.0
 30
0.0
 11
38.286570598741172
 21
150.0
 31
0.0
  0
LINE
  5
188
  8
DATA
  6
CONTINUOUS
 62
     7
 10
56.232853347705422
 20
153.0
 30
0.0
 11
56.232853347705422
 21
150.0
 31
0.0
  0
LINE
  5
189
  8
DATA
  6
CONTINUOUS
 62
     7
 10
60.909390528141202
 20
153.0
 30
0.0
 11
60.909390528141202
 21
150.0
 31
0.0
  0
LINE
  5
18A
  8
DATA
  6
CONTINUOUS
 62
     7
 10
63.259237421932681
 20
153.0
 30
0.0
 11
63.259237421932681
 21
150.0
 31
0.0
  0
LINE
  5
18B
  8
DATA
  6
CONTINUOUS
 62
     7
 10
78.868601995363392
 20
153.0
 30
0.0
 11
78.868601995363392
 21
150.0
 31
0.0
  0
LINE
  5
18C
  8
DATA
  6
CONTINUOUS
 62
     7
 10
81.232853347705486
 20
153.0
 30
0.0
 11
81.232853347705486
 21
150.0
 31
0.0
  0
LINE
  5
18D
  8
DATA
  6
CONTINUOUS
 62
     7
 10
85.909390528141387
 20
153.0
 30
0.0
 11
85.909390528141387
 21
150.0
 31
0.0
  0
LINE
  5
18E
  8
DATA
  6
CONTINUOUS
 62
     7
 10
137.5
 20
-53.249999999999972
 30
0.0
 11
312.5
 21
-53.249999999999972
 31
0.0
  0
LINE
  5
18F
  8
DATA
  6
CONTINUOUS
 62
     7
 10
137.5
 20
-106.2499999999999
 30
0.0
 11
312.5
 21
-106.2499999999999
 31
0.0
  0
LINE
  5
190
  8
DATA
  6
CONTINUOUS
 62
     7
 10
137.5
 20
-106.2499999999999
 30
0.0
 11
137.5
 21
-53.249999999999972
 31
0.0
  0
LINE
  5
191
  8
DATA
  6
CONTINUOUS
 62
     7
 10
312.5
 20
-106.2499999999999
 30
0.0
 11
312.5
 21
-53.249999999999972
 31
0.0
  0
LINE
  5
192
  8
DATA
  6
CONTINUOUS
 62
     7
 10
145.15135225583509
 20
-111.2499999999999
 30
0.0
 11
165.15135225583501
 21
-111.2499999999999
 31
0.0
  0
LINE
  5
193
  8
DATA
  6
CONTINUOUS
 62
     7
 10
145.15135225583509
 20
-111.2499999999999
 30
0.0
 11
145.15135225583509
 21
-106.2499999999999
 31
0.0
  0
LINE
  5
194
  8
DATA
  6
CONTINUOUS
 62
     7
 10
165.15135225583501
 20
-106.2499999999999
 30
0.0
 11
165.15135225583501
 21
-111.2499999999999
 31
0.0
  0
LINE
  5
195
  8
DATA
  6
CONTINUOUS
 62
     7
 10
285.15135225583509
 20
-111.2499999999999
 30
0.0
 11
305.15135225583509
 21
-111.2499999999999
 31
0.0
  0
LINE
  5
196
  8
DATA
  6
CONTINUOUS
 62
     7
 10
285.15135225583509
 20
-111.2499999999999
 30
0.0
 11
285.15135225583509
 21
-106.2499999999999
 31
0.0
  0
LINE
  5
197
  8
DATA
  6
CONTINUOUS
 62
     7
 10
305.15135225583509
 20
-106.2499999999999
 30
0.0
 11
305.15135225583509
 21
-111.2499999999999
 31
0.0
  0
LINE
  5
198
  8
DATA
  6
CONTINUOUS
 62
     7
 10
315.5
 20
-86.999999999999943
 30
0.0
 11
312.5
 21
-86.999999999999943
 31
0.0
  0
LINE
  5
199
  8
DATA
  6
CONTINUOUS
 62
     7
 10
315.5
 20
-81.499999999999957
 30
0.0
 11
315.5
 21
-86.999999999999943
 31
0.0
  0
LINE
  5
19A
  8
DATA
  6
CONTINUOUS
 62
     7
 10
312.5
 20
-81.499999999999957
 30
0.0
 11
315.5
 21
-81.499999999999957
 31
0.0
  0
LINE
  5
19B
  8
DATA
  6
CONTINUOUS
 62
     7
 10
315.5
 20
-75.118154336498407
 30
0.0
 11
312.5
 21
-75.118154336498407
 31
0.0
  0
LINE
  5
19C
  8
DATA
  6
CONTINUOUS
 62
     7
 10
312.5
 20
-69.618154336498407
 30
0.0
 11
315.5
 21
-69.618154336498407
 31
0.0
  0
LINE
  5
19D
  8
DATA
  6
CONTINUOUS
 62
     7
 10
315.5
 20
-76.249999999999972
 30
0.0
 11
312.5
 21
-76.249999999999972
 31
0.0
  0
LINE
  5
19E
  8
DATA
  6
CONTINUOUS
 62
     7
 10
312.5
 20
-68.249999999999972
 30
0.0
 11
315.5
 21
-68.249999999999972
 31
0.0
  0
LINE
  5
19F
  8
DATA
  6
CONTINUOUS
 62
     7
 10
315.5
 20
-76.249999999999972
 30
0.0
 11
315.5
 21
-68.249999999999972
 31
0.0
  0
LINE
  5
1A0
  8
DATA
  6
CONTINUOUS
 62
     7
 10
-65.000000000000014
 20
148.0
 30
0.0
 11
89.999999999999957
 21
148.0
 31
0.0
  0
LINE
  5
1A1
  8
DATA
  6
CONTINUOUS
 62
     7
 10
-65.000000000000014
 20
-23.0
 30
0.0
 11
89.999999999999957
 21
-23.0
 31
0.0
  0
LINE
  5
1A2
  8
DATA
  6
CONTINUOUS
 62
     7
 10
97.999999999999972
 20
-15.0
 30
0.0
 11
97.999999999999972
 21
140.0
 31
0.0
  0
LINE
  5
1A3
  8
DATA
  6
CONTINUOUS
 62
     7
 10
-73.000000000000014
 20
-15.0
 30
0.0
 11
-73.000000000000014
 21
140.0
 31
0.0
  0
ARC
  5
1A4
  8
DATA
  6
CONTINUOUS
 62
     7
 10
-65.000000000000014
 20
140.0
 30
0.0
 40
7.9999999999999982
 50
90.0
 51
180.0
  0
ARC
  5
1A5
  8
DATA
  6
CONTINUOUS
 62
     7
 10
89.999999999999957
 20
140.0
 30
0.0
 40
8.0
 50
0.0
 51
90.0
  0
ARC
  5
1A6
  8
DATA
  6
CONTINUOUS
 62
     7
 10
-65.000000000000014
 20
-15.0
 30
0.0
 40
8.0
 50
180.0
 51
270.0
  0
ARC
  5
1A7
  8
DATA
  6
CONTINUOUS
 62
     7
 10
89.999999999999957
 20
-15.0
 30
0.0
 40
8.0
 50
270.0
 51
0.0
  0
ENDSEC
  0
EOF
