  0
SECTION
  2
HEADER
  9
$ACADVER
  1
AC1009
  9
$INSBASE
 10
0.0
 20
0.0
 30
0.0
  9
$EXTMIN
 10
-170.0164782349211
 20
-265.74833863455001
 30
-0.0015258207003583
  9
$EXTMAX
 10
370.0164807494923
 20
537.09174839639525
 30
0.0000000349246037
  9
$LIMMIN
 10
0.0
 20
0.0
  9
$LIMMAX
 10
0.0
 20
0.0
  9
$ORTHOMODE
 70
     0
  9
$REGENMODE
 70
     1
  9
$FILLMODE
 70
     1
  9
$QTEXTMODE
 70
     0
  9
$MIRRTEXT
 70
     1
  9
$DRAGMODE
 70
     2
  9
$LTSCALE
 40
15.24
  9
$OSMODE
 70
   231
  9
$ATTMODE
 70
     1
  9
$TEXTSIZE
 40
0.0
  9
$TRACEWID
 40
1.0
  9
$TEXTSTYLE
  7
STANDARD
  9
$CLAYER
  8
DATA
  9
$CELTYPE
  6
BYLAYER
  9
$CECOLOR
 62
   256
  9
$DIMSCALE
 40
1.0
  9
$DIMASZ
 40
0.18
  9
$DIMEXO
 40
0.0625
  9
$DIMDLI
 40
0.38
  9
$DIMRND
 40
0.0
  9
$DIMDLE
 40
0.0
  9
$DIMEXE
 40
0.18
  9
$DIMTP
 40
0.0
  9
$DIMTM
 40
0.0
  9
$DIMTXT
 40
0.18
  9
$DIMCEN
 40
0.09
  9
$DIMTSZ
 40
0.0
  9
$DIMTOL
 70
     0
  9
$DIMLIM
 70
     0
  9
$DIMTIH
 70
     1
  9
$DIMTOH
 70
     1
  9
$DIMSE1
 70
     0
  9
$DIMSE2
 70
     0
  9
$DIMTAD
 70
     0
  9
$DIMZIN
 70
     0
  9
$DIMBLK
  1

  9
$DIMASO
 70
     1
  9
$DIMSHO
 70
     1
  9
$DIMPOST
  1

  9
$DIMAPOST
  1

  9
$DIMALT
 70
     0
  9
$DIMALTD
 70
     2
  9
$DIMALTF
 40
25.399999999999999
  9
$DIMLFAC
 40
1.0
  9
$DIMTOFL
 70
     0
  9
$DIMTVP
 40
0.0
  9
$DIMTIX
 70
     0
  9
$DIMSOXD
 70
     0
  9
$DIMSAH
 70
     0
  9
$DIMBLK1
  1

  9
$DIMBLK2
  1

  9
$DIMSTYLE
  2
STANDARD
  9
$DIMCLRD
 70
     0
  9
$DIMCLRE
 70
     0
  9
$DIMCLRT
 70
     0
  9
$DIMTFAC
 40
1.0
  9
$DIMGAP
 40
0.09
  9
$LUNITS
 70
     2
  9
$LUPREC
 70
     4
  9
$SKETCHINC
 40
0.1
  9
$FILLETRAD
 40
0.0
  9
$AUNITS
 70
     0
  9
$AUPREC
 70
     0
  9
$MENU
  1
acad
  9
$ELEVATION
 40
0.0
  9
$PELEVATION
 40
0.0
  9
$THICKNESS
 40
0.0
  9
$LIMCHECK
 70
     0
  9
$BLIPMODE
 70
     0
  9
$CHAMFERA
 40
0.0
  9
$CHAMFERB
 40
0.0
  9
$SKPOLY
 70
     0
  9
$TDCREATE
 40
2455583.7901736111
  9
$TDUPDATE
 40
2455583.7923194561
  9
$TDINDWG
 40
0.0002807523
  9
$TDUSRTIMER
 40
0.0002807523
  9
$USRTIMER
 70
     1
  9
$ANGBASE
 50
0.0
  9
$ANGDIR
 70
     0
  9
$PDMODE
 70
     1
  9
$PDSIZE
 40
-2.0
  9
$PLINEWID
 40
0.0
  9
$COORDS
 70
     0
  9
$SPLFRAME
 70
     0
  9
$SPLINETYPE
 70
     6
  9
$SPLINESEGS
 70
     8
  9
$ATTDIA
 70
     0
  9
$ATTREQ
 70
     1
  9
$HANDLING
 70
     1
  9
$HANDSEED
  5
246
  9
$SURFTAB1
 70
     6
  9
$SURFTAB2
 70
     6
  9
$SURFTYPE
 70
     6
  9
$SURFU
 70
     6
  9
$SURFV
 70
     6
  9
$UCSNAME
  2

  9
$UCSORG
 10
0.0
 20
0.0
 30
0.0
  9
$UCSXDIR
 10
1.0
 20
0.0
 30
0.0
  9
$UCSYDIR
 10
0.0
 20
1.0
 30
0.0
  9
$PUCSNAME
  2

  9
$PUCSORG
 10
0.0
 20
0.0
 30
0.0
  9
$PUCSXDIR
 10
1.0
 20
0.0
 30
0.0
  9
$PUCSYDIR
 10
0.0
 20
1.0
 30
0.0
  9
$USERI1
 70
     0
  9
$USERI2
 70
     0
  9
$USERI3
 70
     0
  9
$USERI4
 70
     0
  9
$USERI5
 70
     0
  9
$USERR1
 40
0.0
  9
$USERR2
 40
0.0
  9
$USERR3
 40
0.0
  9
$USERR4
 40
0.0
  9
$USERR5
 40
0.0
  9
$WORLDVIEW
 70
     1
  9
$SHADEDGE
 70
     3
  9
$SHADEDIF
 70
    70
  9
$TILEMODE
 70
     1
  9
$MAXACTVP
 70
    64
  9
$PLIMCHECK
 70
     0
  9
$PEXTMIN
 10
1.0000000000000000E+020
 20
1.0000000000000000E+020
 30
1.0000000000000000E+020
  9
$PEXTMAX
 10
-1.0000000000000000E+020
 20
-1.0000000000000000E+020
 30
-1.0000000000000000E+020
  9
$PLIMMIN
 10
0.0
 20
0.0
  9
$PLIMMAX
 10
12.0
 20
9.0
  9
$UNITMODE
 70
     0
  9
$VISRETAIN
 70
     0
  9
$PLINEGEN
 70
     1
  9
$PSLTSCALE
 70
     0
  0
ENDSEC
  0
SECTION
  2
TABLES
  0
TABLE
  2
VPORT
 70
     1
  0
VPORT
  2
*ACTIVE
 70
     0
 10
0.0
 20
0.0
 11
1.0
 21
1.0
 12
100.0000012572856
 22
135.6717048809227
 13
0.0
 23
0.0
 14
1.0
 24
1.0
 15
0.0
 25
0.0
 16
0.0
 26
0.0
 36
1.0
 17
0.0
 27
0.0
 37
0.0
 40
808.75056619927125
 41
1.9619164619164611
 42
50.0
 43
0.0
 44
0.0
 50
0.0
 51
0.0
 71
     0
 72
  2000
 73
     1
 74
     1
 75
     0
 76
     0
 77
     0
 78
     0
  0
ENDTAB
  0
TABLE
  2
LTYPE
 70
    11
  0
LTYPE
  2
CONTINUOUS
 70
     0
  3
Solid line
 72
    65
 73
     0
 40
0.0
  0
ENDTAB
  0
TABLE
  2
LAYER
 70
     6
  0
LAYER
  2
0
 70
     0
 62
     7
  6
CONTINUOUS
  0
LAYER
  2
DATA
 70
     0
 62
     7
  6
CONTINUOUS
  0
LAYER
  2
HIBINO-BASE
 70
     0
 62
     7
  6
CONTINUOUS
  0
LAYER
  2
SPEC
 70
     0
 62
     7
  6
CONTINUOUS
  0
LAYER
  2
DIMNSIONS
 70
     0
 62
     7
  6
CONTINUOUS
  0
ENDTAB
  0
TABLE
  2
STYLE
 70
     3
  0
STYLE
  2
STANDARD
 70
     0
 40
0.0
 41
1.0
 50
0.0
 71
     0
 42
0.0
  3
txt
  4
BIGFONT.SHX
  0
ENDTAB
  0
TABLE
  2
VIEW
 70
     0
  0
ENDTAB
  0
TABLE
  2
UCS
 70
     0
  0
ENDTAB
  0
TABLE
  2
APPID
 70
     3
  0
APPID
  2
ACAD
 70
     0
  0
APPID
  2
ACADANNOTATIVE
 70
     0
  0
APPID
  2
ACAD_MLEADERVER
 70
     0
  0
ENDTAB
  0
TABLE
  2
DIMSTYLE
 70
     2
  0
DIMSTYLE
  2
STANDARD
 70
     0
  3

  4

  5

  6

  7

 40
1.0
 41
0.18
 42
0.0625
 43
0.38
 44
0.18
 45
0.0
 46
0.0
 47
0.0
 48
0.0
140
0.18
141
0.09
142
0.0
143
25.399999999999999
144
1.0
145
0.0
146
1.0
147
0.09
 71
     0
 72
     0
 73
     1
 74
     1
 75
     0
 76
     0
 77
     0
 78
     0
170
     0
171
     2
172
     0
173
     0
174
     0
175
     0
176
     0
177
     0
178
     0
  0
ENDTAB
  0
ENDSEC
  0
SECTION
  2
BLOCKS
  0
BLOCK
  8
0
  2
$MODEL_SPACE
 70
     0
 10
0.0
 20
0.0
 30
0.0
  3
$MODEL_SPACE
  1

  0
ENDBLK
  5
1C6
  8
0
  0
BLOCK
 67
     1
  8
0
  2
$PAPER_SPACE
 70
     0
 10
0.0
 20
0.0
 30
0.0
  3
$PAPER_SPACE
  1

  0
ENDBLK
  5
1C2
 67
     1
  8
0
  0
ENDSEC
  0
SECTION
  2
ENTITIES
  0
LINE
  5
2D
  8
HIBINO-BASE
  6
CONTINUOUS
 62
     7
 10
-169.99999999999989
 20
537.06729578973182
 30
0.0
 11
370.0
 21
537.06729578973182
 31
0.0
  0
LINE
  5
2E
  8
HIBINO-BASE
  6
CONTINUOUS
 62
     7
 10
370.0
 20
-242.93270421026821
 30
0.0
 11
-169.99999999999989
 21
-242.93270421026821
 31
0.0
  0
LINE
  5
2F
  8
HIBINO-BASE
  6
CONTINUOUS
 62
     7
 10
-169.99999999999989
 20
-242.93270421026821
 30
0.0
 11
-169.99999999999989
 21
537.06729578973182
 31
0.0
  0
LINE
  5
30
  8
HIBINO-BASE
  6
CONTINUOUS
 62
     7
 10
370.0
 20
537.06729578973182
 30
0.0
 11
370.0
 21
-242.93270421026821
 31
0.0
  0
LINE
  5
31
  8
HIBINO-BASE
  6
CONTINUOUS
 62
     7
 10
100.0
 20
-175.4327042102681
 30
0.0
 11
370.0
 21
-175.4327042102681
 31
0.0
  0
LINE
  5
32
  8
HIBINO-BASE
  6
CONTINUOUS
 62
     7
 10
100.0
 20
-242.93270421026821
 30
0.0
 11
100.0
 21
-175.4327042102681
 31
0.0
  0
TEXT
  5
33
  8
HIBINO-BASE
 62
     7
 10
102.7
 20
-182.95878421026811
 30
0.0
 40
4.8865234374999993
  1
NOTE
 41
0.75
 11
102.7
 21
-178.0722607727682
 31
0.0
 73
     3
  0
LINE
  5
34
  8
HIBINO-BASE
  6
CONTINUOUS
 62
     7
 10
205.0
 20
-242.93270421026821
 30
0.0
 11
205.0
 21
-175.4327042102681
 31
0.0
  0
TEXT
  5
35
  8
HIBINO-BASE
 62
     7
 10
207.69999999999999
 20
-182.95878421026811
 30
0.0
 40
4.8865234374999993
  1
TITLE
 41
0.75
 11
207.69999999999999
 21
-178.0722607727682
 31
0.0
 73
     3
  0
LINE
  5
36
  8
HIBINO-BASE
  6
CONTINUOUS
 62
     7
 10
100.0
 20
-212.9327042102681
 30
0.0
 11
370.0
 21
-212.9327042102681
 31
0.0
  0
TEXT
  5
37
  8
HIBINO-BASE
 62
     7
 10
245.19999999999999
 20
-220.28982421026819
 30
0.0
 40
4.8865234374999993
  1
DRAWN
 41
0.75
 11
245.19999999999999
 21
-215.4033007727682
 31
0.0
 73
     3
  0
TEXT
  5
38
  8
HIBINO-BASE
 62
     7
 10
170.19999999999999
 20
-220.28982421026819
 30
0.0
 40
4.8865234374999993
  1
DATE
 41
0.75
 11
170.19999999999999
 21
-215.4033007727682
 31
0.0
 73
     3
  0
TEXT
  5
39
  8
HIBINO-BASE
 62
     7
 10
140.19999999999999
 20
-220.28982421026819
 30
0.0
 40
4.8865234374999993
  1
SCALE
 41
0.75
 11
140.19999999999999
 21
-215.4033007727682
 31
0.0
 73
     3
  0
TEXT
  5
3A
  8
HIBINO-BASE
 62
     7
 10
207.69999999999999
 20
-220.28982421026819
 30
0.0
 40
4.8865234374999993
  1
DESIGN
 41
0.75
 11
207.69999999999999
 21
-215.4033007727682
 31
0.0
 73
     3
  0
TEXT
  5
3B
  8
HIBINO-BASE
 62
     7
 10
320.19999999999999
 20
-220.28982421026819
 30
0.0
 40
4.8865234374999993
  1
DRAWING NO.
 41
0.75
 11
320.19999999999999
 21
-215.4033007727682
 31
0.0
 73
     3
  0
TEXT
  5
3C
  8
HIBINO-BASE
 62
     7
 10
282.69999999999999
 20
-220.28982421026819
 30
0.0
 40
4.8865234374999993
  1
CHECK
 41
0.75
 11
282.69999999999999
 21
-215.4033007727682
 31
0.0
 73
     3
  0
LINE
  5
3D
  8
HIBINO-BASE
  6
CONTINUOUS
 62
     7
 10
143.12499999999989
 20
-239.18270421026821
 30
0.0
 11
154.375
 21
-227.9327042102681
 31
0.0
  0
TEXT
  5
3E
  8
HIBINO-BASE
 62
     7
 10
141.24999999999989
 20
-231.25953421026821
 30
0.0
 40
4.8865234374999993
  1
1
 41
0.75
 11
141.24999999999989
 21
-226.3730107727682
 31
0.0
 73
     3
  0
LINE
  5
3F
  8
HIBINO-BASE
  6
CONTINUOUS
 62
     7
 10
137.5
 20
-242.93270421026821
 30
0.0
 11
137.5
 21
-212.9327042102681
 31
0.0
  0
LINE
  5
40
  8
HIBINO-BASE
  6
CONTINUOUS
 62
     7
 10
167.5
 20
-242.93270421026821
 30
0.0
 11
167.5
 21
-212.9327042102681
 31
0.0
  0
LINE
  5
41
  8
HIBINO-BASE
  6
CONTINUOUS
 62
     7
 10
242.5
 20
-212.9327042102681
 30
0.0
 11
242.5
 21
-242.93270421026821
 31
0.0
  0
LINE
  5
42
  8
HIBINO-BASE
  6
CONTINUOUS
 62
     7
 10
317.5
 20
-212.9327042102681
 30
0.0
 11
317.5
 21
-242.93270421026821
 31
0.0
  0
LINE
  5
43
  8
HIBINO-BASE
  6
CONTINUOUS
 62
     7
 10
279.99999999999989
 20
-242.93270421026821
 30
0.0
 11
279.99999999999989
 21
-212.9327042102681
 31
0.0
  0
TEXT
  5
44
  8
HIBINO-BASE
 62
     7
 10
170.06961999999999
 20
-234.3417642102682
 30
0.0
 40
4.8865234374999993
  1
'11.01.
 41
0.75
 11
170.06961999999999
 21
-229.45524077276821
 31
0.0
 73
     3
  0
TEXT
  5
45
  8
HIBINO-BASE
 62
     7
 10
152.5
 20
-236.88453421026821
 30
0.0
 40
4.8865234374999993
  1
3
 41
0.75
 11
152.5
 21
-231.9980107727682
 31
0.0
 73
     3
  0
TEXT
  5
46
  8
HIBINO-BASE
 62
     7
 10
247.01743003310389
 20
-234.3417642102682
 30
0.0
 40
4.8865234374999993
  1
T.Ootake
 41
0.75
 11
247.01743003310389
 21
-229.45524077276821
 31
0.0
 73
     3
  0
TEXT
  5
47
  8
HIBINO-BASE
 62
     7
 10
111.65000000000001
 20
-237.0047042102681
 30
0.0
 40
9.7730468749999986
  1
A4
 41
0.75
 11
111.65000000000001
 21
-227.2316573352681
 31
0.0
 73
     3
  0
TEXT
  5
48
  8
HIBINO-BASE
 62
     7
 10
102.875
 20
-220.79106921026809
 30
0.0
 40
4.8865234374999993
  1
PAPER SIZE
 41
0.75
 11
102.875
 21
-215.9045457727681
 31
0.0
 73
     3
  0
TEXT
  5
49
  8
HIBINO-BASE
 62
     7
 10
-161.7210942293294
 20
-262.20842491279689
 30
0.0
 40
10.58746744791666
  1
Hibino-Intersound Corporation
 41
0.75
 11
-161.7210942293294
 21
-251.62095746488029
 31
0.0
 73
     3
  0
TEXT
  5
4A
  8
HIBINO-BASE
 62
     7
 10
160.54182904064169
 20
-261.15516015292872
 30
0.0
 40
10.58746744791666
  1
ヒビノインターサウンド株式会社
 41
0.75
 11
160.54182904064169
 21
-250.56769270501201
 31
0.0
 73
     3
  0
LINE
  5
4B
  8
SPEC
  6
CONTINUOUS
 62
     7
 10
-147.49999999999989
 20
507.0672957897317
 30
0.0
 11
295.0
 21
507.0672957897317
 31
0.0
  0
LINE
  5
4C
  8
SPEC
  6
CONTINUOUS
 62
     7
 10
-147.49999999999989
 20
495.8172957897317
 30
0.0
 11
295.0
 21
495.8172957897317
 31
0.0
  0
LINE
  5
4D
  8
SPEC
  6
CONTINUOUS
 62
     7
 10
-147.49999999999989
 20
473.3172957897317
 30
0.0
 11
295.0
 21
473.3172957897317
 31
0.0
  0
LINE
  5
4E
  8
SPEC
  6
CONTINUOUS
 62
     7
 10
-147.49999999999989
 20
484.5672957897317
 30
0.0
 11
295.0
 21
484.5672957897317
 31
0.0
  0
LINE
  5
4F
  8
SPEC
  6
CONTINUOUS
 62
     7
 10
-147.49999999999989
 20
507.0672957897317
 30
0.0
 11
-147.49999999999989
 21
383.31729578973182
 31
0.0
  0
TEXT
  5
50
  8
SPEC
 62
     7
 10
-143.74999999999989
 20
511.24710578973179
 30
0.0
 40
7.3297851562499989
  1
仕様
 41
0.75
 11
-143.74999999999989
 21
518.57689094598175
 31
0.0
 73
     3
  0
LINE
  5
51
  8
SPEC
  6
CONTINUOUS
 62
     7
 10
-50.0
 20
507.0672957897317
 30
0.0
 11
-50.000000000000021
 21
383.31729578973182
 31
0.0
  0
LINE
  5
52
  8
SPEC
  6
CONTINUOUS
 62
     7
 10
295.0
 20
507.0672957897317
 30
0.0
 11
295.0
 21
383.31729578973182
 31
0.0
  0
LINE
  5
53
  8
SPEC
  6
CONTINUOUS
 62
     7
 10
-147.49999999999989
 20
462.0672957897317
 30
0.0
 11
295.0
 21
462.0672957897317
 31
0.0
  0
LINE
  5
54
  8
SPEC
  6
CONTINUOUS
 62
     7
 10
-147.49999999999989
 20
450.8172957897317
 30
0.0
 11
295.0
 21
450.8172957897317
 31
0.0
  0
LINE
  5
55
  8
SPEC
  6
CONTINUOUS
 62
     7
 10
-147.49999999999989
 20
439.5672957897317
 30
0.0
 11
295.0
 21
439.5672957897317
 31
0.0
  0
LINE
  5
56
  8
SPEC
  6
CONTINUOUS
 62
     7
 10
-147.49999999999989
 20
428.3172957897317
 30
0.0
 11
295.0
 21
428.3172957897317
 31
0.0
  0
LINE
  5
57
  8
SPEC
  6
CONTINUOUS
 62
     7
 10
-147.49999999999989
 20
417.0672957897317
 30
0.0
 11
295.0
 21
417.0672957897317
 31
0.0
  0
LINE
  5
58
  8
SPEC
  6
CONTINUOUS
 62
     7
 10
-147.49999999999989
 20
405.8172957897317
 30
0.0
 11
295.0
 21
405.8172957897317
 31
0.0
  0
LINE
  5
59
  8
SPEC
  6
CONTINUOUS
 62
     7
 10
-147.49999999999989
 20
394.5672957897317
 30
0.0
 11
295.0
 21
394.5672957897317
 31
0.0
  0
LINE
  5
5A
  8
SPEC
  6
CONTINUOUS
 62
     7
 10
-147.49999999999989
 20
383.31729578973182
 30
0.0
 11
295.0
 21
383.31729578973182
 31
0.0
  0
TEXT
  5
5B
  8
SPEC
 62
     7
 10
-145.04050621317879
 20
397.72008200313149
 30
0.0
 40
5.7009440104166673
  1
寸法
 41
0.75
 11
-145.04050621317879
 21
403.4210260135481
 31
0.0
 73
     3
  0
TEXT
  5
5C
  8
SPEC
 62
     7
 10
-47.576709665628393
 20
397.20112317053253
 30
0.0
 40
5.7009440104166673
  1
105(W)\U+00D730(H)\U+00D7180(D)mm(突起部含まず）
 41
0.75
 11
-47.576709665628393
 21
402.90206718094908
 31
0.0
 73
     3
  0
TEXT
  5
5D
  8
SPEC
 62
     7
 10
-47.446563848459768
 20
386.64695677239939
 30
0.0
 40
5.7009440104166673
  1
約330g
 41
0.75
 11
-47.446563848459768
 21
392.347900782816
 31
0.0
 73
     3
  0
TEXT
  5
5E
  8
SPEC
 62
     7
 10
-144.87817843306181
 20
386.52718335165792
 30
0.0
 40
5.7009440104166673
  1
重量
 41
0.75
 11
-144.87817843306181
 21
392.22812736207447
 31
0.0
 73
     3
  0
TEXT
  5
5F
  8
SPEC
 62
     7
 10
-144.94093324174889
 20
409.11923050253631
 30
0.0
 40
5.7009440104166673
  1
消費電力
 41
0.75
 11
-144.94093324174889
 21
414.82017451295292
 31
0.0
 73
     3
  0
TEXT
  5
60
  8
SPEC
 62
     7
 10
-47.384723465847699
 20
408.86679700555692
 30
0.0
 40
5.7009440104166673
  1
7.5W(最大)
 41
0.75
 11
-47.384723465847699
 21
414.56774101597352
 31
0.0
 73
     3
  0
TEXT
  5
61
  8
SPEC
 62
     7
 10
-144.88354688678291
 20
498.44080960140951
 30
0.0
 40
5.7009440104166673
  1
入力Sync信号
 41
0.75
 11
-144.88354688678291
 21
504.14175361182612
 31
0.0
 73
     3
  0
TEXT
  5
62
  8
SPEC
 62
     7
 10
-47.225432458098538
 20
498.03906107925991
 30
0.0
 40
5.7009440104166673
  1
5V p-p(TTL)
 41
0.75
 11
-47.225432458098538
 21
503.74000508967652
 31
0.0
 73
     3
  0
TEXT
  5
63
  8
SPEC
 62
     7
 10
-144.88354688678291
 20
487.1908096014094
 30
0.0
 40
5.7009440104166673
  1
入力ビデオ信号
 41
0.75
 11
-144.88354688678291
 21
492.89175361182612
 31
0.0
 73
     3
  0
TEXT
  5
64
  8
SPEC
 62
     7
 10
-47.670449986223041
 20
487.24701630910329
 30
0.0
 40
5.7009440104166673
  1
1.2V p-p
 41
0.75
 11
-47.670449986223041
 21
492.94796031952001
 31
0.0
 73
     3
  0
TEXT
  5
65
  8
SPEC
 62
     7
 10
-144.82162779022309
 20
476.0147762308867
 30
0.0
 40
5.7009440104166673
  1
周波数帯域
 41
0.75
 11
-144.82162779022309
 21
481.71572024130342
 31
0.0
 73
     3
  0
TEXT
  5
66
  8
SPEC
 62
     7
 10
-47.186280942015237
 20
475.99762492969069
 30
0.0
 40
5.7009440104166673
  1
31-70kHz
 41
0.75
 11
-47.186280942015237
 21
481.69856894010729
 31
0.0
 73
     3
  0
TEXT
  5
67
  8
SPEC
 62
     7
 10
-144.92481040376609
 20
465.03046418008728
 30
0.0
 40
5.7009440104166673
  1
垂直周波数帯域
 41
0.75
 11
-144.92481040376609
 21
470.731408190504
 31
0.0
 73
     3
  0
TEXT
  5
68
  8
SPEC
 62
     7
 10
-47.195351891751429
 20
464.68748257690902
 30
0.0
 40
5.7009440104166673
  1
50-60kHz
 41
0.75
 11
-47.195351891751429
 21
470.38842658732568
 31
0.0
 73
     3
  0
TEXT
  5
69
  8
SPEC
 62
     7
 10
-146.12163970168569
 20
454.01697548926347
 30
0.0
 40
5.7009440104166673
  1
ビデオ入力/出力
 41
0.75
 11
-146.12163970168569
 21
459.71791949968019
 31
0.0
 73
     3
  0
TEXT
  5
6A
  8
SPEC
 62
     7
 10
-48.585844863902892
 20
453.50262020340642
 30
0.0
 40
5.7009440104166673
  1
(1)HDMI 19-pin Female、Type"A"
 41
0.75
 11
-48.585844863902892
 21
459.20356421382297
 31
0.0
 73
     3
  0
TEXT
  5
6B
  8
SPEC
 62
     7
 10
-145.04193274963001
 20
420.15671604344038
 30
0.0
 40
5.7009440104166673
  1
電源
 41
0.75
 11
-145.04193274963001
 21
425.85766005385699
 31
0.0
 73
     3
  0
TEXT
  5
6C
  8
SPEC
 62
     7
 10
-47.198147164179993
 20
419.4600834643382
 30
0.0
 40
5.7009440104166673
  1
5V DC
 41
0.75
 11
-47.198147164179993
 21
425.16102747475492
 31
0.0
 73
     3
  0
TEXT
  5
6D
  8
SPEC
 62
     7
 10
-48.578108859481468
 20
442.08193683333758
 30
0.0
 40
5.7009440104166673
  1
(1)Composite RCA female jack/(1)S-Video female Mini-DIN connector
 41
0.75
 11
-48.578108859481468
 21
447.7828808437543
 31
0.0
 73
     3
  0
TEXT
  5
6E
  8
SPEC
 62
     7
 10
-146.07894189462399
 20
442.72267151686611
 30
0.0
 40
5.7009440104166673
  1
ビデオ入力/出力
 41
0.75
 11
-146.07894189462399
 21
448.42361552728272
 31
0.0
 73
     3
  0
TEXT
  5
6F
  8
SPEC
 62
     7
 10
-144.9130736857341
 20
431.4027438595221
 30
0.0
 40
5.7009440104166673
  1
オーディオ入力/出力
 41
0.75
 11
-144.9130736857341
 21
437.10368786993882
 31
0.0
 73
     3
  0
TEXT
  5
70
  8
SPEC
 62
     7
 10
-48.616489923422961
 20
431.21726875101331
 30
0.0
 40
5.7009440104166673
  1
(2)L/R RCA audio、(1)S/PDIF digital audio jack、female coaxial
 41
0.75
 11
-48.616489923422961
 21
436.91821276143003
 31
0.0
 73
     3
  0
TEXT
  5
71
  8
DIMNSIONS
 62
     7
 10
40.0
 20
-206.12423421026821
 30
0.0
 40
7.3297851562499989
  1
(単位：mm)
 41
0.75
 11
40.0
 21
-198.79444905401809
 31
0.0
 73
     3
  0
LINE
  5
72
  8
DIMNSIONS
  6
CONTINUOUS
 62
     7
 10
-43.500000000000021
 20
-75.0
 30
0.0
 11
-68.500000000000014
 21
-75.0
 31
0.0
  0
LINE
  5
73
  8
DIMNSIONS
  6
CONTINUOUS
 62
     7
 10
-43.500000000000021
 20
-45.0
 30
0.0
 11
-68.500000000000014
 21
-45.0
 31
0.0
  0
LINE
  5
74
  8
DIMNSIONS
  6
CONTINUOUS
 62
     7
 10
-62.500000000000021
 20
-75.0
 30
0.0
 11
-62.500000000000021
 21
-45.0
 31
0.0
  0
LINE
  5
75
  8
DIMNSIONS
  6
CONTINUOUS
 62
     7
 10
-62.500000000000021
 20
-75.0
 30
0.0
 11
-64.51011938545075
 21
-67.498132324218744
 31
0.0
  0
LINE
  5
76
  8
DIMNSIONS
  6
CONTINUOUS
 62
     7
 10
-62.500000000000021
 20
-75.0
 30
0.0
 11
-60.489880614549278
 21
-67.498132324218744
 31
0.0
  0
LINE
  5
77
  8
DIMNSIONS
  6
CONTINUOUS
 62
     7
 10
-62.500000000000021
 20
-45.0
 30
0.0
 11
-60.489880614549278
 21
-52.501867675781263
 31
0.0
  0
LINE
  5
78
  8
DIMNSIONS
  6
CONTINUOUS
 62
     7
 10
-62.500000000000021
 20
-45.0
 30
0.0
 11
-64.51011938545075
 21
-52.501867675781263
 31
0.0
  0
TEXT
  5
79
  8
DIMNSIONS
 62
     7
 10
-65.481666666666641
 20
-65.291666666666643
 30
0.0
 40
8.1442057291666661
  1
30
 50
90.0
 41
0.75
 11
-73.625872395833312
 21
-65.291666666666643
 31
0.0
 73
     3
  0
LINE
  5
7A
  8
DIMNSIONS
  6
CONTINUOUS
 62
     7
 10
-43.500000000000021
 20
-5.75
 30
0.0
 11
-68.500000000000014
 21
-5.75
 31
0.0
  0
LINE
  5
7B
  8
DIMNSIONS
  6
CONTINUOUS
 62
     7
 10
-43.500000000000021
 20
174.25
 30
0.0
 11
-68.500000000000014
 21
174.25
 31
0.0
  0
LINE
  5
7C
  8
DIMNSIONS
  6
CONTINUOUS
 62
     7
 10
-62.500000000000021
 20
-5.75
 30
0.0
 11
-62.500000000000021
 21
174.25
 31
0.0
  0
LINE
  5
7D
  8
DIMNSIONS
  6
CONTINUOUS
 62
     7
 10
-62.500000000000021
 20
-5.75
 30
0.0
 11
-64.51011938545075
 21
1.751867675781255
 31
0.0
  0
LINE
  5
7E
  8
DIMNSIONS
  6
CONTINUOUS
 62
     7
 10
-62.500000000000021
 20
-5.75
 30
0.0
 11
-60.489880614549278
 21
1.751867675781255
 31
0.0
  0
LINE
  5
7F
  8
DIMNSIONS
  6
CONTINUOUS
 62
     7
 10
-62.500000000000021
 20
174.25
 30
0.0
 11
-60.489880614549278
 21
166.74813232421869
 31
0.0
  0
LINE
  5
80
  8
DIMNSIONS
  6
CONTINUOUS
 62
     7
 10
-62.500000000000021
 20
174.25
 30
0.0
 11
-64.51011938545075
 21
166.74813232421869
 31
0.0
  0
TEXT
  5
81
  8
DIMNSIONS
 62
     7
 10
-65.481666666666641
 20
76.3125
 30
0.0
 40
8.1442057291666661
  1
180
 50
90.0
 41
0.75
 11
-73.625872395833312
 21
76.3125
 31
0.0
 73
     3
  0
LINE
  5
82
  8
DIMNSIONS
  6
CONTINUOUS
 62
     7
 10
-37.500000000000021
 20
-81.0
 30
0.0
 11
-37.500000000000021
 21
-106.0
 31
0.0
  0
LINE
  5
83
  8
DIMNSIONS
  6
CONTINUOUS
 62
     7
 10
67.499999999999986
 20
-81.0
 30
0.0
 11
67.499999999999986
 21
-106.0
 31
0.0
  0
LINE
  5
84
  8
DIMNSIONS
  6
CONTINUOUS
 62
     7
 10
-37.500000000000021
 20
-100.0
 30
0.0
 11
67.499999999999986
 21
-100.0
 31
0.0
  0
LINE
  5
85
  8
DIMNSIONS
  6
CONTINUOUS
 62
     7
 10
-37.500000000000021
 20
-100.0
 30
0.0
 11
-29.998132324218759
 21
-97.989880614549264
 31
0.0
  0
LINE
  5
86
  8
DIMNSIONS
  6
CONTINUOUS
 62
     7
 10
-37.500000000000021
 20
-100.0
 30
0.0
 11
-29.998132324218759
 21
-102.01011938545069
 31
0.0
  0
LINE
  5
87
  8
DIMNSIONS
  6
CONTINUOUS
 62
     7
 10
67.499999999999986
 20
-100.0
 30
0.0
 11
59.998132324218737
 21
-102.01011938545069
 31
0.0
  0
LINE
  5
88
  8
DIMNSIONS
  6
CONTINUOUS
 62
     7
 10
67.499999999999986
 20
-100.0
 30
0.0
 11
59.998132324218737
 21
-97.989880614549264
 31
0.0
  0
TEXT
  5
89
  8
DIMNSIONS
 62
     7
 10
7.062499999999984
 20
-97.018333333333345
 30
0.0
 40
8.1442057291666661
  1
105
 41
0.75
 11
7.0624999999999849
 21
-88.874127604166674
 31
0.0
 73
     3
  0
LINE
  5
8A
  8
DIMNSIONS
  6
CONTINUOUS
 62
     7
 10
-36.000000000000007
 20
-79.0
 30
0.0
 11
-68.500000000000014
 21
-79.0
 31
0.0
  0
LINE
  5
8B
  8
DIMNSIONS
  6
CONTINUOUS
 62
     7
 10
-42.000000000000007
 20
-75.0
 30
0.0
 11
-68.500000000000014
 21
-75.0
 31
0.0
  0
LINE
  5
8C
  8
DIMNSIONS
  6
CONTINUOUS
 62
     7
 10
-62.500000000000021
 20
-75.0
 30
0.0
 11
-62.500000000000021
 21
-79.0
 31
0.0
  0
LINE
  5
8D
  8
DIMNSIONS
  6
CONTINUOUS
 62
     7
 10
-62.500000000000021
 20
-79.0
 30
0.0
 11
-62.500000000000021
 21
-94.891666666666666
 31
0.0
  0
LINE
  5
8E
  8
DIMNSIONS
  6
CONTINUOUS
 62
     7
 10
-62.500000000000021
 20
-79.0
 30
0.0
 11
-60.489880614549278
 21
-86.501867675781256
 31
0.0
  0
LINE
  5
8F
  8
DIMNSIONS
  6
CONTINUOUS
 62
     7
 10
-62.500000000000021
 20
-79.0
 30
0.0
 11
-64.51011938545075
 21
-86.501867675781256
 31
0.0
  0
LINE
  5
90
  8
DIMNSIONS
  6
CONTINUOUS
 62
     7
 10
-62.500000000000021
 20
-75.0
 30
0.0
 11
-62.500000000000021
 21
-60.0
 31
0.0
  0
LINE
  5
91
  8
DIMNSIONS
  6
CONTINUOUS
 62
     7
 10
-62.500000000000021
 20
-75.0
 30
0.0
 11
-64.51011938545075
 21
-67.498132324218744
 31
0.0
  0
LINE
  5
92
  8
DIMNSIONS
  6
CONTINUOUS
 62
     7
 10
-62.500000000000021
 20
-75.0
 30
0.0
 11
-60.489880614549278
 21
-67.498132324218744
 31
0.0
  0
TEXT
  5
93
  8
DIMNSIONS
 62
     7
 10
-65.481666666666655
 20
-94.891666666666666
 30
0.0
 40
8.1442057291666661
  1
4
 50
90.0
 41
0.75
 11
-73.625872395833341
 21
-94.891666666666666
 31
0.0
 73
     3
  0
LINE
  5
94
  8
DIMNSIONS
  6
CONTINUOUS
 62
     7
 10
4.0056810024201184
 20
-10.75
 30
0.0
 11
-68.500000000000014
 21
-10.75
 31
0.0
  0
LINE
  5
95
  8
DIMNSIONS
  6
CONTINUOUS
 62
     7
 10
-43.500000000000021
 20
-5.75
 30
0.0
 11
-68.500000000000014
 21
-5.75
 31
0.0
  0
LINE
  5
96
  8
DIMNSIONS
  6
CONTINUOUS
 62
     7
 10
-62.500000000000021
 20
-5.75
 30
0.0
 11
-62.500000000000021
 21
-10.75
 31
0.0
  0
LINE
  5
97
  8
DIMNSIONS
  6
CONTINUOUS
 62
     7
 10
-62.500000000000021
 20
-10.75
 30
0.0
 11
-62.500000000000021
 21
-25.791666666666661
 31
0.0
  0
LINE
  5
98
  8
DIMNSIONS
  6
CONTINUOUS
 62
     7
 10
-62.500000000000021
 20
-10.75
 30
0.0
 11
-60.489880614549278
 21
-18.251867675781249
 31
0.0
  0
LINE
  5
99
  8
DIMNSIONS
  6
CONTINUOUS
 62
     7
 10
-62.500000000000021
 20
-10.75
 30
0.0
 11
-64.51011938545075
 21
-18.251867675781249
 31
0.0
  0
LINE
  5
9A
  8
DIMNSIONS
  6
CONTINUOUS
 62
     7
 10
-62.500000000000021
 20
-5.75
 30
0.0
 11
-62.500000000000021
 21
9.25
 31
0.0
  0
LINE
  5
9B
  8
DIMNSIONS
  6
CONTINUOUS
 62
     7
 10
-62.500000000000021
 20
-5.75
 30
0.0
 11
-64.51011938545075
 21
1.751867675781255
 31
0.0
  0
LINE
  5
9C
  8
DIMNSIONS
  6
CONTINUOUS
 62
     7
 10
-62.500000000000021
 20
-5.75
 30
0.0
 11
-60.489880614549278
 21
1.751867675781255
 31
0.0
  0
TEXT
  5
9D
  8
DIMNSIONS
 62
     7
 10
-65.481666666666655
 20
-25.791666666666661
 30
0.0
 40
8.1442057291666661
  1
5
 50
90.0
 41
0.75
 11
-73.625872395833341
 21
-25.791666666666661
 31
0.0
 73
     3
  0
LINE
  5
9E
  8
DIMNSIONS
  6
CONTINUOUS
 62
     7
 10
-43.500000000000021
 20
174.25
 30
0.0
 11
-68.500000000000014
 21
174.25
 31
0.0
  0
LINE
  5
9F
  8
DIMNSIONS
  6
CONTINUOUS
 62
     7
 10
-27.65000000000002
 20
180.25
 30
0.0
 11
-68.500000000000014
 21
180.25
 31
0.0
  0
LINE
  5
A0
  8
DIMNSIONS
  6
CONTINUOUS
 62
     7
 10
-62.500000000000021
 20
180.25
 30
0.0
 11
-62.500000000000021
 21
174.25
 31
0.0
  0
LINE
  5
A1
  8
DIMNSIONS
  6
CONTINUOUS
 62
     7
 10
-62.500000000000021
 20
174.25
 30
0.0
 11
-62.500000000000021
 21
159.25
 31
0.0
  0
LINE
  5
A2
  8
DIMNSIONS
  6
CONTINUOUS
 62
     7
 10
-62.500000000000021
 20
174.25
 30
0.0
 11
-60.489880614549278
 21
166.74813232421869
 31
0.0
  0
LINE
  5
A3
  8
DIMNSIONS
  6
CONTINUOUS
 62
     7
 10
-62.500000000000021
 20
174.25
 30
0.0
 11
-64.51011938545075
 21
166.74813232421869
 31
0.0
  0
LINE
  5
A4
  8
DIMNSIONS
  6
CONTINUOUS
 62
     7
 10
-62.500000000000021
 20
180.25
 30
0.0
 11
-62.500000000000021
 21
194.69166666666661
 31
0.0
  0
LINE
  5
A5
  8
DIMNSIONS
  6
CONTINUOUS
 62
     7
 10
-62.500000000000021
 20
180.25
 30
0.0
 11
-64.51011938545075
 21
187.75186767578131
 31
0.0
  0
LINE
  5
A6
  8
DIMNSIONS
  6
CONTINUOUS
 62
     7
 10
-62.500000000000021
 20
180.25
 30
0.0
 11
-60.489880614549278
 21
187.75186767578131
 31
0.0
  0
TEXT
  5
A7
  8
DIMNSIONS
 62
     7
 10
-65.481666666666655
 20
189.40000000000001
 30
0.0
 40
8.1442057291666661
  1
6
 50
90.0
 41
0.75
 11
-73.625872395833341
 21
189.40000000000001
 31
0.0
 73
     3
  0
TEXT
  5
A8
  8
DATA
 62
     7
 10
250.0
 20
-210.288246439261
 30
0.0
 40
7.3297851562499989
  1
GTV-HDMI-2-COMPSVIDS
 41
0.75
 11
250.0
 21
-202.95846128301099
 31
0.0
 73
     3
  0
TEXT
  5
A9
  8
DATA
 62
     7
 10
250.0
 20
-187.7900342102682
 30
0.0
 40
7.3297851562499989
  1
Gefen
 41
0.75
 11
250.0
 21
-180.46024905401811
 31
0.0
 73
     3
  0
TEXT
  5
AA
  8
DATA
 62
     7
 10
234.30424445891609
 20
-197.62233302707381
 30
0.0
 40
4.8865311328124994
  1
HDMItoコンポジットコンバーター/スケーラー
 41
0.75
 11
234.30424445891609
 21
-192.7358018942613
 31
0.0
 73
     3
  0
TEXT
  5
AB
  8
DATA
 62
     7
 10
-139.99999999999989
 20
-230.21870421026821
 30
0.0
 40
4.8865234374999993
  1
仕様および外観は予告なく変更されることがありますので、ご了承ください。
 41
0.75
 11
-139.99999999999989
 21
-225.3321807727682
 31
0.0
 73
     3
  0
LINE
  5
AC
  8
DATA
  6
CONTINUOUS
 62
     7
 10
-37.500000000000021
 20
-73.5
 30
0.0
 11
-37.500000000000021
 21
-46.5
 31
0.0
  0
LINE
  5
AD
  8
DATA
  6
CONTINUOUS
 62
     7
 10
65.999999999999986
 20
-75.0
 30
0.0
 11
56.499999999999993
 21
-75.0
 31
0.0
  0
LINE
  5
AE
  8
DATA
  6
CONTINUOUS
 62
     7
 10
-26.500000000000011
 20
-75.0
 30
0.0
 11
-36.000000000000007
 21
-75.0
 31
0.0
  0
LINE
  5
AF
  8
DATA
  6
CONTINUOUS
 62
     7
 10
67.499999999999986
 20
-46.5
 30
0.0
 11
67.499999999999986
 21
-73.5
 31
0.0
  0
LINE
  5
B0
  8
DATA
  6
CONTINUOUS
 62
     7
 10
-36.000000000000007
 20
-45.0
 30
0.0
 11
65.999999999999986
 21
-45.0
 31
0.0
  0
LINE
  5
B1
  8
DATA
  6
CONTINUOUS
 62
     7
 10
-37.500000000000021
 20
-5.75
 30
0.0
 11
-37.500000000000021
 21
174.25
 31
0.0
  0
LINE
  5
B2
  8
DATA
  6
CONTINUOUS
 62
     7
 10
67.5
 20
-5.75
 30
0.0
 11
-37.500000000000021
 21
-5.75
 31
0.0
  0
LINE
  5
B3
  8
DATA
  6
CONTINUOUS
 62
     7
 10
67.5
 20
174.25
 30
0.0
 11
67.5
 21
-5.75
 31
0.0
  0
LINE
  5
B4
  8
DATA
  6
CONTINUOUS
 62
     7
 10
-37.500000000000021
 20
174.25
 30
0.0
 11
67.5
 21
174.25
 31
0.0
  0
LINE
  5
B5
  8
DATA
  6
CONTINUOUS
 62
     7
 10
65.999999999999986
 20
-73.5
 30
0.0
 11
-36.000000000000007
 21
-73.5
 31
0.0
  0
LINE
  5
B6
  8
DATA
  6
CONTINUOUS
 62
     7
 10
-26.500000000000011
 20
-75.0
 30
0.0
 11
-26.500000000000011
 21
-73.5
 31
0.0
  0
LINE
  5
B7
  8
DATA
  6
CONTINUOUS
 62
     7
 10
56.499999999999993
 20
-75.0
 30
0.0
 11
56.499999999999993
 21
-73.5
 31
0.0
  0
LINE
  5
B8
  8
DATA
  6
CONTINUOUS
 62
     7
 10
-34.500000000000007
 20
-46.5
 30
0.0
 11
64.499999999999986
 21
-46.5
 31
0.0
  0
LINE
  5
B9
  8
DATA
  6
CONTINUOUS
 62
     7
 10
-36.000000000000007
 20
-73.5
 30
0.0
 11
-36.000000000000007
 21
-48.0
 31
0.0
  0
LINE
  5
BA
  8
DATA
  6
CONTINUOUS
 62
     7
 10
65.999999999999986
 20
-48.0
 30
0.0
 11
65.999999999999986
 21
-73.5
 31
0.0
  0
ARC
  5
BB
  8
DATA
  6
CONTINUOUS
 62
     7
 10
-36.000000000000007
 20
-73.5
 30
0.0
 40
1.5
 50
180.0
 51
270.0
  0
ARC
  5
BC
  8
DATA
  6
CONTINUOUS
 62
     7
 10
-34.500000000000007
 20
-48.0
 30
0.0
 40
1.5
 50
90.0
 51
180.0
  0
ARC
  5
BD
  8
DATA
  6
CONTINUOUS
 62
     7
 10
-36.000000000000007
 20
-46.5
 30
0.0
 40
1.5
 50
90.0
 51
180.0
  0
ARC
  5
BE
  8
DATA
  6
CONTINUOUS
 62
     7
 10
65.999999999999986
 20
-73.5
 30
0.0
 40
1.5
 50
270.0
 51
0.0
  0
ARC
  5
BF
  8
DATA
  6
CONTINUOUS
 62
     7
 10
64.499999999999986
 20
-48.0
 30
0.0
 40
1.5
 50
0.0
 51
90.0
  0
ARC
  5
C0
  8
DATA
  6
CONTINUOUS
 62
     7
 10
65.999999999999986
 20
-46.5
 30
0.0
 40
1.5
 50
0.0
 51
90.0
  0
TEXT
  5
C1
  8
DATA
 62
     7
 10
6.1249336209600083
 20
-70.702843764098489
 30
0.0
 40
2.7703125000000002
  1
MDMI In
 41
0.75
 11
6.1249336209600083
 21
-67.932531264098486
 31
0.0
 73
     3
  0
POLYLINE
  5
C2
  8
DATA
  6
CONTINUOUS
 62
     7
 66
     1
 10
0.0
 20
0.0
 30
0.0
 70
     1
  0
VERTEX
  5
1F3
  8
DATA
  6
CONTINUOUS
 62
     7
 10
15.00568100242012
 20
-50.305320316826887
 30
0.0
  0
VERTEX
  5
1F4
  8
DATA
  6
CONTINUOUS
 62
     7
 10
12.50568100242012
 20
-48.861944643852837
 30
0.0
  0
VERTEX
  5
1F5
  8
DATA
  6
CONTINUOUS
 62
     7
 10
10.005681002420109
 20
-50.305320316826887
 30
0.0
  0
VERTEX
  5
1F6
  8
DATA
  6
CONTINUOUS
 62
     7
 10
10.005681002420109
 20
-53.192071662775021
 30
0.0
  0
VERTEX
  5
1F7
  8
DATA
  6
CONTINUOUS
 62
     7
 10
12.50568100242012
 20
-54.635447335749092
 30
0.0
  0
VERTEX
  5
1F8
  8
DATA
  6
CONTINUOUS
 62
     7
 10
15.00568100242012
 20
-53.192071662775021
 30
0.0
  0
SEQEND
  5
1F9
  8
DATA
  6
CONTINUOUS
 62
     7
  0
CIRCLE
  5
CB
  8
DATA
  6
CONTINUOUS
 62
     7
 10
12.50568100242012
 20
-51.74869598980095
 30
0.0
 40
1.200000000000045
  0
LINE
  5
CC
  8
DATA
  6
CONTINUOUS
 62
     7
 10
20.35568100242007
 20
-58.748695989801007
 30
0.0
 11
4.6556810024200814
 21
-58.748695989801007
 31
0.0
  0
LINE
  5
CD
  8
DATA
  6
CONTINUOUS
 62
     7
 10
20.35568100242007
 20
-58.748695989801007
 30
0.0
 11
20.35568100242007
 21
-63.048695989800997
 31
0.0
  0
LINE
  5
CE
  8
DATA
  6
CONTINUOUS
 62
     7
 10
4.6556810024200814
 20
-58.748695989801007
 30
0.0
 11
4.6556810024200814
 21
-63.048695989800997
 31
0.0
  0
LINE
  5
CF
  8
DATA
  6
CONTINUOUS
 62
     7
 10
20.35568100242007
 20
-63.048695989800997
 30
0.0
 11
17.755681002420101
 21
-64.748695989801007
 31
0.0
  0
LINE
  5
D0
  8
DATA
  6
CONTINUOUS
 62
     7
 10
4.6556810024200814
 20
-63.048695989800997
 30
0.0
 11
7.2556810024201042
 21
-64.748695989801007
 31
0.0
  0
LINE
  5
D1
  8
DATA
  6
CONTINUOUS
 62
     7
 10
17.755681002420101
 20
-64.748695989801007
 30
0.0
 11
7.2556810024201042
 21
-64.748695989801007
 31
0.0
  0
POLYLINE
  5
D2
  8
DATA
  6
CONTINUOUS
 62
     7
 66
     1
 10
0.0
 20
0.0
 30
0.0
 70
     1
  0
VERTEX
  5
1FA
  8
DATA
  6
CONTINUOUS
 62
     7
 10
7.5056810024201042
 20
-61.034859164293813
 30
0.0
  0
VERTEX
  5
1FB
  8
DATA
  6
CONTINUOUS
 62
     7
 10
17.50568100242009
 20
-61.034859164293813
 30
0.0
  0
VERTEX
  5
1FC
  8
DATA
  6
CONTINUOUS
 62
     7
 10
17.50568100242009
 20
-61.53485916429382
 30
0.0
  0
VERTEX
  5
1FD
  8
DATA
  6
CONTINUOUS
 62
     7
 10
7.5056810024201042
 20
-61.53485916429382
 30
0.0
  0
SEQEND
  5
1FE
  8
DATA
  6
CONTINUOUS
 62
     7
  0
ARC
  5
D9
  8
DATA
  6
CONTINUOUS
 62
     7
 10
-30.000000000000011
 20
-75.75
 30
0.0
 40
3.25
 50
180.0
 51
0.0
  0
LINE
  5
DA
  8
DATA
  6
CONTINUOUS
 62
     7
 10
-33.250000000000007
 20
-75.75
 30
0.0
 11
-33.250000000000007
 21
-75.0
 31
0.0
  0
LINE
  5
DB
  8
DATA
  6
CONTINUOUS
 62
     7
 10
-26.750000000000011
 20
-75.75
 30
0.0
 11
-26.750000000000011
 21
-75.0
 31
0.0
  0
ARC
  5
DC
  8
DATA
  6
CONTINUOUS
 62
     7
 10
60.0
 20
-75.75
 30
0.0
 40
3.25
 50
180.0
 51
0.0
  0
LINE
  5
DD
  8
DATA
  6
CONTINUOUS
 62
     7
 10
63.249999999999993
 20
-75.75
 30
0.0
 11
63.249999999999993
 21
-75.0
 31
0.0
  0
LINE
  5
DE
  8
DATA
  6
CONTINUOUS
 62
     7
 10
56.749999999999993
 20
-75.75
 30
0.0
 11
56.749999999999993
 21
-75.0
 31
0.0
  0
LINE
  5
DF
  8
DATA
  6
CONTINUOUS
 62
     7
 10
-24.500000000000011
 20
-61.5
 30
0.0
 11
-24.500000000000011
 21
-55.0
 31
0.0
  0
LINE
  5
E0
  8
DATA
  6
CONTINUOUS
 62
     7
 10
-20.600000000000009
 20
-61.5
 30
0.0
 11
-20.600000000000009
 21
-55.0
 31
0.0
  0
LINE
  5
E1
  8
DATA
  6
CONTINUOUS
 62
     7
 10
-14.500000000000011
 20
-61.5
 30
0.0
 11
-14.500000000000011
 21
-55.0
 31
0.0
  0
LINE
  5
E2
  8
DATA
  6
CONTINUOUS
 62
     7
 10
-10.60000000000001
 20
-61.5
 30
0.0
 11
-10.60000000000001
 21
-55.0
 31
0.0
  0
LINE
  5
E3
  8
DATA
  6
CONTINUOUS
 62
     7
 10
-24.500000000000011
 20
-55.0
 30
0.0
 11
-20.600000000000009
 21
-55.0
 31
0.0
  0
LINE
  5
E4
  8
DATA
  6
CONTINUOUS
 62
     7
 10
-14.500000000000011
 20
-55.0
 30
0.0
 11
-10.60000000000001
 21
-55.0
 31
0.0
  0
LINE
  5
E5
  8
DATA
  6
CONTINUOUS
 62
     7
 10
-24.500000000000011
 20
-61.5
 30
0.0
 11
-20.600000000000009
 21
-61.5
 31
0.0
  0
LINE
  5
E6
  8
DATA
  6
CONTINUOUS
 62
     7
 10
-14.500000000000011
 20
-61.5
 30
0.0
 11
-10.60000000000001
 21
-61.5
 31
0.0
  0
LINE
  5
E7
  8
DATA
  6
CONTINUOUS
 62
     7
 10
-24.500000000000011
 20
-58.300000000000011
 30
0.0
 11
-20.600000000000009
 21
-58.300000000000011
 31
0.0
  0
LINE
  5
E8
  8
DATA
  6
CONTINUOUS
 62
     7
 10
-14.500000000000011
 20
-58.300000000000011
 30
0.0
 11
-10.60000000000001
 21
-58.300000000000011
 31
0.0
  0
CIRCLE
  5
E9
  8
DATA
  6
CONTINUOUS
 62
     7
 10
47.499999999999993
 20
-58.0
 30
0.0
 40
3.3499999999999939
  0
CIRCLE
  5
EA
  8
DATA
  6
CONTINUOUS
 62
     7
 10
47.499999999999993
 20
-58.0
 30
0.0
 40
0.5999999999999944
  0
CIRCLE
  5
EB
  8
DATA
  6
CONTINUOUS
 62
     7
 10
57.5
 20
-60.0
 30
0.0
 40
1.400000000000005
  0
TEXT
  5
EC
  8
DATA
 62
     7
 10
42.979288313362247
 20
-53.275288313362239
 30
0.0
 40
2.7703125000000002
  1
5V DC
 41
0.75
 11
42.979288313362247
 21
-50.504975813362243
 31
0.0
 73
     3
  0
TEXT
  5
ED
  8
DATA
 62
     7
 10
-26.300000000000001
 20
-66.813121855000418
 30
0.0
 40
2.7703125000000002
  1
NTSC
 41
0.75
 11
-26.300000000000001
 21
-64.042809355000415
 31
0.0
 73
     3
  0
TEXT
  5
EE
  8
DATA
 62
     7
 10
-16.24389801318177
 20
-66.813121855000418
 30
0.0
 40
2.7703125000000002
  1
Over
 41
0.75
 11
-16.24389801318177
 21
-64.042809355000415
 31
0.0
 73
     3
  0
TEXT
  5
EF
  8
DATA
 62
     7
 10
-16.52440794727287
 20
-70.170407947272892
 30
0.0
 40
2.7703125000000002
  1
Scan
 41
0.75
 11
-16.52440794727287
 21
-67.400095447272889
 31
0.0
 73
     3
  0
TEXT
  5
F0
  8
DATA
 62
     7
 10
-25.291362144463889
 20
-53.114783051368029
 30
0.0
 40
2.7703125000000002
  1
PAL
 41
0.75
 11
-25.291362144463889
 21
-50.344470551368019
 31
0.0
 73
     3
  0
TEXT
  5
F1
  8
DATA
 62
     7
 10
-16.24389801318177
 20
-50.479068700372423
 30
0.0
 40
2.7703125000000002
  1
Under
 41
0.75
 11
-16.24389801318177
 21
-47.70875620037242
 31
0.0
 73
     3
  0
TEXT
  5
F2
  8
DATA
 62
     7
 10
-16.52440794727287
 20
-53.836354792644883
 30
0.0
 40
2.7703125000000002
  1
Scan
 41
0.75
 11
-16.52440794727287
 21
-51.06604229264488
 31
0.0
 73
     3
  0
TEXT
  5
F3
  8
DATA
 62
     7
 10
54.105242908570347
 20
-70.170407947272892
 30
0.0
 40
2.7703125000000002
  1
Power
 41
0.75
 11
54.105242908570347
 21
-67.400095447272889
 31
0.0
 73
     3
  0
ARC
  5
F4
  8
DATA
  6
CONTINUOUS
 62
     7
 10
57.5
 20
-5.6848083823898028
 30
0.0
 40
1.400000000000003
 50
182.66896838092811
 51
357.33103161907297
  0
LINE
  5
F5
  8
DATA
  6
CONTINUOUS
 62
     7
 10
-24.500000000000011
 20
-6.25
 30
0.0
 11
-24.500000000000011
 21
-5.75
 31
0.0
  0
LINE
  5
F6
  8
DATA
  6
CONTINUOUS
 62
     7
 10
-10.60000000000001
 20
-6.25
 30
0.0
 11
-10.60000000000001
 21
-5.75
 31
0.0
  0
LINE
  5
F7
  8
DATA
  6
CONTINUOUS
 62
     7
 10
-20.600000000000009
 20
-6.25
 30
0.0
 11
-20.600000000000009
 21
-5.75
 31
0.0
  0
LINE
  5
F8
  8
DATA
  6
CONTINUOUS
 62
     7
 10
-14.500000000000011
 20
-6.25
 30
0.0
 11
-14.500000000000011
 21
-5.75
 31
0.0
  0
LINE
  5
F9
  8
DATA
  6
CONTINUOUS
 62
     7
 10
10.005681002420109
 20
-10.75
 30
0.0
 11
10.005681002420109
 21
-5.75
 31
0.0
  0
LINE
  5
FA
  8
DATA
  6
CONTINUOUS
 62
     7
 10
15.00568100242012
 20
-10.75
 30
0.0
 11
15.00568100242012
 21
-5.75
 31
0.0
  0
LINE
  5
FB
  8
DATA
  6
CONTINUOUS
 62
     7
 10
10.005681002420109
 20
-10.75
 30
0.0
 11
15.00568100242012
 21
-10.75
 31
0.0
  0
LINE
  5
FC
  8
DATA
  6
CONTINUOUS
 62
     7
 10
-24.500000000000011
 20
-6.25
 30
0.0
 11
-20.600000000000009
 21
-6.25
 31
0.0
  0
LINE
  5
FD
  8
DATA
  6
CONTINUOUS
 62
     7
 10
-14.500000000000011
 20
-6.25
 30
0.0
 11
-10.60000000000001
 21
-6.25
 31
0.0
  0
LINE
  5
FE
  8
DATA
  6
CONTINUOUS
 62
     7
 10
-37.500000000000021
 20
241.0000000000081
 30
0.0
 11
-37.500000000000021
 21
214.00000000000821
 31
0.0
  0
LINE
  5
FF
  8
DATA
  6
CONTINUOUS
 62
     7
 10
65.999999999999986
 20
242.5000000000081
 30
0.0
 11
56.499999999999993
 21
242.5000000000081
 31
0.0
  0
LINE
  5
100
  8
DATA
  6
CONTINUOUS
 62
     7
 10
-26.500000000000011
 20
242.5000000000081
 30
0.0
 11
-36.000000000000007
 21
242.5000000000081
 31
0.0
  0
LINE
  5
101
  8
DATA
  6
CONTINUOUS
 62
     7
 10
67.499999999999986
 20
214.00000000000821
 30
0.0
 11
67.499999999999986
 21
241.0000000000081
 31
0.0
  0
LINE
  5
102
  8
DATA
  6
CONTINUOUS
 62
     7
 10
-36.000000000000007
 20
212.50000000000821
 30
0.0
 11
65.999999999999986
 21
212.50000000000821
 31
0.0
  0
LINE
  5
103
  8
DATA
  6
CONTINUOUS
 62
     7
 10
65.999999999999986
 20
241.0000000000081
 30
0.0
 11
-36.000000000000007
 21
241.0000000000081
 31
0.0
  0
LINE
  5
104
  8
DATA
  6
CONTINUOUS
 62
     7
 10
-26.500000000000011
 20
242.5000000000081
 30
0.0
 11
-26.500000000000011
 21
241.0000000000081
 31
0.0
  0
LINE
  5
105
  8
DATA
  6
CONTINUOUS
 62
     7
 10
56.499999999999993
 20
242.5000000000081
 30
0.0
 11
56.499999999999993
 21
241.0000000000081
 31
0.0
  0
LINE
  5
106
  8
DATA
  6
CONTINUOUS
 62
     7
 10
-36.000000000000007
 20
241.0000000000081
 30
0.0
 11
-36.000000000000007
 21
214.00000000000821
 31
0.0
  0
LINE
  5
107
  8
DATA
  6
CONTINUOUS
 62
     7
 10
65.999999999999986
 20
214.00000000000821
 30
0.0
 11
65.999999999999986
 21
241.0000000000081
 31
0.0
  0
ARC
  5
108
  8
DATA
  6
CONTINUOUS
 62
     7
 10
-36.000000000000007
 20
241.0000000000081
 30
0.0
 40
1.5
 50
90.0
 51
180.0
  0
ARC
  5
109
  8
DATA
  6
CONTINUOUS
 62
     7
 10
-36.000000000000007
 20
214.00000000000821
 30
0.0
 40
1.5
 50
180.0
 51
270.0
  0
ARC
  5
10A
  8
DATA
  6
CONTINUOUS
 62
     7
 10
65.999999999999986
 20
241.0000000000081
 30
0.0
 40
1.5
 50
0.0
 51
90.0
  0
ARC
  5
10B
  8
DATA
  6
CONTINUOUS
 62
     7
 10
65.999999999999986
 20
214.00000000000821
 30
0.0
 40
1.5
 50
270.0
 51
0.0
  0
ARC
  5
10C
  8
DATA
  6
CONTINUOUS
 62
     7
 10
-30.000000000000011
 20
243.25000000000821
 30
0.0
 40
3.25
 50
0.0
 51
180.0
  0
LINE
  5
10D
  8
DATA
  6
CONTINUOUS
 62
     7
 10
-33.250000000000007
 20
243.25000000000821
 30
0.0
 11
-33.250000000000007
 21
242.5000000000081
 31
0.0
  0
LINE
  5
10E
  8
DATA
  6
CONTINUOUS
 62
     7
 10
-26.750000000000011
 20
243.25000000000821
 30
0.0
 11
-26.750000000000011
 21
242.5000000000081
 31
0.0
  0
ARC
  5
10F
  8
DATA
  6
CONTINUOUS
 62
     7
 10
60.0
 20
243.25000000000821
 30
0.0
 40
3.25
 50
0.0
 51
180.0
  0
LINE
  5
110
  8
DATA
  6
CONTINUOUS
 62
     7
 10
63.249999999999993
 20
243.25000000000821
 30
0.0
 11
63.249999999999993
 21
242.5000000000081
 31
0.0
  0
LINE
  5
111
  8
DATA
  6
CONTINUOUS
 62
     7
 10
56.749999999999993
 20
243.25000000000821
 30
0.0
 11
56.749999999999993
 21
242.5000000000081
 31
0.0
  0
CIRCLE
  5
112
  8
DATA
  6
CONTINUOUS
 62
     7
 10
48.999999999999993
 20
226.50000000000821
 30
0.0
 40
4.1500000000000048
  0
CIRCLE
  5
113
  8
DATA
  6
CONTINUOUS
 62
     7
 10
36.999999999999993
 20
226.50000000000821
 30
0.0
 40
4.1500000000000048
  0
CIRCLE
  5
114
  8
DATA
  6
CONTINUOUS
 62
     7
 10
24.999999999999989
 20
226.50000000000821
 30
0.0
 40
4.1500000000000048
  0
CIRCLE
  5
115
  8
DATA
  6
CONTINUOUS
 62
     7
 10
-17.500000000000011
 20
226.50000000000821
 30
0.0
 40
4.1500000000000048
  0
CIRCLE
  5
116
  8
DATA
  6
CONTINUOUS
 62
     7
 10
48.999999999999993
 20
226.50000000000821
 30
0.0
 40
1.650000000000005
  0
CIRCLE
  5
117
  8
DATA
  6
CONTINUOUS
 62
     7
 10
36.999999999999993
 20
226.50000000000821
 30
0.0
 40
1.650000000000005
  0
CIRCLE
  5
118
  8
DATA
  6
CONTINUOUS
 62
     7
 10
24.999999999999989
 20
226.50000000000821
 30
0.0
 40
1.650000000000005
  0
CIRCLE
  5
119
  8
DATA
  6
CONTINUOUS
 62
     7
 10
-17.500000000000011
 20
226.50000000000821
 30
0.0
 40
1.650000000000005
  0
CIRCLE
  5
11A
  8
DATA
  6
CONTINUOUS
 62
     7
 10
2.4999999999999849
 20
226.50000000000821
 30
0.0
 40
6.0
  0
ARC
  5
11B
  8
DATA
  6
CONTINUOUS
 62
     7
 10
2.4999999999999849
 20
226.50000000000821
 30
0.0
 40
5.1499999998398449
 50
278.37382463726408
 51
261.62617536273592
  0
LINE
  5
11C
  8
DATA
  6
CONTINUOUS
 62
     7
 10
1.6599999999999819
 20
228.63000000016839
 30
0.0
 11
3.3399999999999879
 21
228.63000000016839
 31
0.0
  0
LINE
  5
11D
  8
DATA
  6
CONTINUOUS
 62
     7
 10
1.6599999999999819
 20
227.63000000016839
 30
0.0
 11
3.3399999999999879
 21
227.63000000016839
 31
0.0
  0
LINE
  5
11E
  8
DATA
  6
CONTINUOUS
 62
     7
 10
1.6599999999999819
 20
228.63000000016839
 30
0.0
 11
1.6599999999999819
 21
227.63000000016839
 31
0.0
  0
LINE
  5
11F
  8
DATA
  6
CONTINUOUS
 62
     7
 10
3.3399999999999879
 20
228.63000000016839
 30
0.0
 11
3.3399999999999879
 21
227.63000000016839
 31
0.0
  0
CIRCLE
  5
120
  8
DATA
  6
CONTINUOUS
 62
     7
 10
5.2015534430261852
 20
225.0614235996816
 30
0.0
 40
0.25
  0
CIRCLE
  5
121
  8
DATA
  6
CONTINUOUS
 62
     7
 10
-0.2015534430262136
 20
225.0614235996816
 30
0.0
 40
0.25
  0
CIRCLE
  5
122
  8
DATA
  6
CONTINUOUS
 62
     7
 10
5.2015534430261852
 20
227.93857640033491
 30
0.0
 40
0.25
  0
CIRCLE
  5
123
  8
DATA
  6
CONTINUOUS
 62
     7
 10
-0.2015534430262136
 20
227.93857640033491
 30
0.0
 40
0.25
  0
POLYLINE
  5
124
  8
DATA
  6
CONTINUOUS
 62
     7
 66
     1
 10
0.0
 20
0.0
 30
0.0
  0
VERTEX
  5
1FF
  8
DATA
  6
CONTINUOUS
 62
     7
 10
1.7499999999999849
 20
221.40490431902731
 30
0.0
  0
VERTEX
  5
200
  8
DATA
  6
CONTINUOUS
 62
     7
 10
1.7499999999999849
 20
222.14124403367819
 30
0.0
  0
VERTEX
  5
201
  8
DATA
  6
CONTINUOUS
 62
     7
 10
3.2499999999999849
 20
222.14124403367819
 30
0.0
  0
VERTEX
  5
202
  8
DATA
  6
CONTINUOUS
 62
     7
 10
3.2499999999999849
 20
221.40490431902731
 30
0.0
  0
SEQEND
  5
203
  8
DATA
  6
CONTINUOUS
 62
     7
  0
ARC
  5
12B
  8
DATA
  6
CONTINUOUS
 62
     7
 10
2.5000000000002549
 20
226.50000000000799
 30
0.0
 40
3.874999999999976
 50
133.7320436364335
 51
46.267956363570462
  0
ARC
  5
12C
  8
DATA
  6
CONTINUOUS
 62
     7
 10
2.5000000000002549
 20
226.50000000000799
 30
0.0
 40
3.8749999999999769
 50
66.42182152179555
 51
113.57817847820669
  0
LINE
  5
12D
  8
DATA
  6
CONTINUOUS
 62
     7
 10
-0.1787357092559461
 20
229.30000000000001
 30
0.0
 11
0.9499999999999886
 21
229.30000000000001
 31
0.0
  0
LINE
  5
12E
  8
DATA
  6
CONTINUOUS
 62
     7
 10
0.9499999999999886
 20
229.30000000000001
 30
0.0
 11
0.9499999999999886
 21
230.0514961635987
 31
0.0
  0
LINE
  5
12F
  8
DATA
  6
CONTINUOUS
 62
     7
 10
5.1787357092563724
 20
229.30000000000001
 30
0.0
 11
4.0500000000004368
 21
229.30000000000001
 31
0.0
  0
LINE
  5
130
  8
DATA
  6
CONTINUOUS
 62
     7
 10
4.0500000000004368
 20
229.30000000000001
 30
0.0
 11
4.0500000000004368
 21
230.0514961635987
 31
0.0
  0
TEXT
  5
131
  8
DATA
 62
     7
 10
49.584587416235102
 20
238.53765151266251
 30
0.0
 40
1.9392187499999991
  1
R
 50
180.0
 41
0.75
 11
49.584587416235102
 21
236.5984327626625
 31
0.0
 73
     3
  0
TEXT
  5
132
  8
DATA
 62
     7
 10
37.584893235148527
 20
238.57789944913529
 30
0.0
 40
1.9392187499999991
  1
L
 50
180.0
 41
0.75
 11
37.584893235148527
 21
236.63868069913531
 31
0.0
 73
     3
  0
TEXT
  5
133
  8
DATA
 62
     7
 10
7.2425717176614333
 20
238.5262009422764
 30
0.0
 40
1.9392187499999991
  1
S・Video
 50
180.0
 41
0.75
 11
7.2425717176614333
 21
236.58698219227639
 31
0.0
 73
     3
  0
TEXT
  5
134
  8
DATA
 62
     7
 10
30.279999836285899
 20
238.5312598031052
 30
0.0
 40
1.9392187499999991
  1
Composite
 50
180.0
 41
0.75
 11
30.279999836285899
 21
236.59204105310519
 31
0.0
 73
     3
  0
TEXT
  5
135
  8
DATA
 62
     7
 10
-14.947859246961549
 20
236.01169125348531
 30
0.0
 40
1.9392187499999991
  1
Coax
 50
180.0
 41
0.75
 11
-14.947859246961549
 21
234.0724725034853
 31
0.0
 73
     3
  0
TEXT
  5
136
  8
DATA
 62
     7
 10
-15.682456349282839
 20
238.48720000000009
 30
0.0
 40
1.9392187499999991
  1
Out
 50
180.0
 41
0.75
 11
-15.682456349282839
 21
236.54798125000011
 31
0.0
 73
     3
  0
LINE
  5
137
  8
DATA
  6
CONTINUOUS
 62
     7
 10
-21.65000000000002
 20
180.25
 30
0.0
 11
-21.65000000000002
 21
174.25
 31
0.0
  0
LINE
  5
138
  8
DATA
  6
CONTINUOUS
 62
     7
 10
-13.35000000000001
 20
180.25
 30
0.0
 11
-13.35000000000001
 21
174.25
 31
0.0
  0
LINE
  5
139
  8
DATA
  6
CONTINUOUS
 62
     7
 10
20.84999999999998
 20
180.25
 30
0.0
 11
20.84999999999998
 21
174.25
 31
0.0
  0
LINE
  5
13A
  8
DATA
  6
CONTINUOUS
 62
     7
 10
29.149999999999991
 20
180.25
 30
0.0
 11
29.149999999999991
 21
174.25
 31
0.0
  0
LINE
  5
13B
  8
DATA
  6
CONTINUOUS
 62
     7
 10
32.84999999999998
 20
180.25
 30
0.0
 11
32.84999999999998
 21
174.25
 31
0.0
  0
LINE
  5
13C
  8
DATA
  6
CONTINUOUS
 62
     7
 10
41.149999999999991
 20
180.25
 30
0.0
 11
41.149999999999991
 21
174.25
 31
0.0
  0
LINE
  5
13D
  8
DATA
  6
CONTINUOUS
 62
     7
 10
44.84999999999998
 20
180.25
 30
0.0
 11
44.84999999999998
 21
174.25
 31
0.0
  0
LINE
  5
13E
  8
DATA
  6
CONTINUOUS
 62
     7
 10
53.149999999999991
 20
180.25
 30
0.0
 11
53.149999999999991
 21
174.25
 31
0.0
  0
LINE
  5
13F
  8
DATA
  6
CONTINUOUS
 62
     7
 10
-21.65000000000002
 20
180.25
 30
0.0
 11
-13.35000000000001
 21
180.25
 31
0.0
  0
LINE
  5
140
  8
DATA
  6
CONTINUOUS
 62
     7
 10
20.84999999999998
 20
180.25
 30
0.0
 11
29.149999999999991
 21
180.25
 31
0.0
  0
LINE
  5
141
  8
DATA
  6
CONTINUOUS
 62
     7
 10
32.84999999999998
 20
180.25
 30
0.0
 11
41.149999999999991
 21
180.25
 31
0.0
  0
LINE
  5
142
  8
DATA
  6
CONTINUOUS
 62
     7
 10
44.84999999999998
 20
180.25
 30
0.0
 11
53.149999999999991
 21
180.25
 31
0.0
  0
LINE
  5
143
  8
DATA
  6
CONTINUOUS
 62
     7
 10
118.75
 20
-45.0
 30
0.0
 11
298.75
 21
-45.0
 31
0.0
  0
LINE
  5
144
  8
DATA
  6
CONTINUOUS
 62
     7
 10
118.75
 20
-75.0
 30
0.0
 11
298.75
 21
-75.0
 31
0.0
  0
LINE
  5
145
  8
DATA
  6
CONTINUOUS
 62
     7
 10
118.75
 20
-75.0
 30
0.0
 11
118.75
 21
-45.0
 31
0.0
  0
LINE
  5
146
  8
DATA
  6
CONTINUOUS
 62
     7
 10
298.75
 20
-75.0
 30
0.0
 11
298.75
 21
-45.0
 31
0.0
  0
ARC
  5
147
  8
DATA
  6
CONTINUOUS
 62
     7
 10
118.83399921992461
 20
-60.0
 30
0.0
 40
1.400000000000011
 50
93.439780784876831
 51
266.5602192151232
  0
LINE
  5
148
  8
DATA
  6
CONTINUOUS
 62
     7
 10
113.75
 20
-54.635447335749092
 30
0.0
 11
113.75
 21
-48.861944643852837
 31
0.0
  0
LINE
  5
149
  8
DATA
  6
CONTINUOUS
 62
     7
 10
113.75
 20
-48.861944643852837
 30
0.0
 11
118.75
 21
-48.861944643852837
 31
0.0
  0
LINE
  5
14A
  8
DATA
  6
CONTINUOUS
 62
     7
 10
113.75
 20
-54.635447335749092
 30
0.0
 11
118.75
 21
-54.635447335749092
 31
0.0
  0
ARC
  5
14B
  8
DATA
  6
CONTINUOUS
 62
     7
 10
136.83119475367161
 20
-75.75
 30
0.0
 40
3.2499999999999849
 50
180.0
 51
0.0
  0
LINE
  5
14C
  8
DATA
  6
CONTINUOUS
 62
     7
 10
140.0811947536715
 20
-75.75
 30
0.0
 11
140.0811947536715
 21
-75.0
 31
0.0
  0
LINE
  5
14D
  8
DATA
  6
CONTINUOUS
 62
     7
 10
133.58119475367161
 20
-75.75
 30
0.0
 11
133.58119475367161
 21
-75.0
 31
0.0
  0
ARC
  5
14E
  8
DATA
  6
CONTINUOUS
 62
     7
 10
278.83119475367158
 20
-75.75
 30
0.0
 40
3.25
 50
180.0
 51
0.0
  0
LINE
  5
14F
  8
DATA
  6
CONTINUOUS
 62
     7
 10
282.08119475367158
 20
-75.75
 30
0.0
 11
282.08119475367158
 21
-75.0
 31
0.0
  0
LINE
  5
150
  8
DATA
  6
CONTINUOUS
 62
     7
 10
275.58119475367158
 20
-75.75
 30
0.0
 11
275.58119475367158
 21
-75.0
 31
0.0
  0
POLYLINE
  5
151
  8
DATA
  6
CONTINUOUS
 62
     7
 66
     1
 10
0.0
 20
0.0
 30
0.0
  0
VERTEX
  5
204
  8
DATA
  6
CONTINUOUS
 62
     7
 10
298.75
 20
-54.850000000000001
 30
0.0
  0
VERTEX
  5
205
  8
DATA
  6
CONTINUOUS
 62
     7
 10
304.75
 20
-54.850000000000001
 30
0.0
  0
VERTEX
  5
206
  8
DATA
  6
CONTINUOUS
 62
     7
 10
304.75
 20
-63.150000000000013
 30
0.0
  0
VERTEX
  5
207
  8
DATA
  6
CONTINUOUS
 62
     7
 10
298.75
 20
-63.150000000000013
 30
0.0
  0
SEQEND
  5
208
  8
DATA
  6
CONTINUOUS
 62
     7
  0
ENDSEC
  0
EOF
