  0
SECTION
  2
HEADER
  9
$ACADVER
  1
AC1015
  9
$ACADMAINTVER
 70
    20
  9
$DWGCODEPAGE
  3
ANSI_932
  9
$INSBASE
 10
0.0
 20
0.0
 30
0.0
  9
$EXTMIN
 10
-35.00823911746056
 20
-64.60246700175867
 30
-0.0015258207003583
  9
$EXTMAX
 10
235.0082403747462
 20
336.7713621692049
 30
0.0000000349246037
  9
$LIMMIN
 10
0.0
 20
0.0
  9
$LIMMAX
 10
0.0
 20
0.0
  9
$ORTHOMODE
 70
     0
  9
$REGENMODE
 70
     1
  9
$FILLMODE
 70
     1
  9
$QTEXTMODE
 70
     0
  9
$MIRRTEXT
 70
     1
  9
$LTSCALE
 40
7.619999999999998
  9
$ATTMODE
 70
     1
  9
$TEXTSIZE
 40
0.0
  9
$TRACEWID
 40
1.0
  9
$TEXTSTYLE
  7
STANDARD
  9
$CLAYER
  8
DATA
  9
$CELTYPE
  6
ByLayer
  9
$CECOLOR
 62
   256
  9
$CELTSCALE
 40
1.0
  9
$DISPSILH
 70
     0
  9
$DIMSCALE
 40
1.0
  9
$DIMASZ
 40
0.18
  9
$DIMEXO
 40
0.0625
  9
$DIMDLI
 40
0.38
  9
$DIMRND
 40
0.0
  9
$DIMDLE
 40
0.0
  9
$DIMEXE
 40
0.18
  9
$DIMTP
 40
0.0
  9
$DIMTM
 40
0.0
  9
$DIMTXT
 40
0.18
  9
$DIMCEN
 40
0.09
  9
$DIMTSZ
 40
0.0
  9
$DIMTOL
 70
     0
  9
$DIMLIM
 70
     0
  9
$DIMTIH
 70
     1
  9
$DIMTOH
 70
     1
  9
$DIMSE1
 70
     0
  9
$DIMSE2
 70
     0
  9
$DIMTAD
 70
     0
  9
$DIMZIN
 70
     0
  9
$DIMBLK
  1

  9
$DIMASO
 70
     1
  9
$DIMSHO
 70
     1
  9
$DIMPOST
  1

  9
$DIMAPOST
  1

  9
$DIMALT
 70
     0
  9
$DIMALTD
 70
     2
  9
$DIMALTF
 40
25.4
  9
$DIMLFAC
 40
1.0
  9
$DIMTOFL
 70
     0
  9
$DIMTVP
 40
0.0
  9
$DIMTIX
 70
     0
  9
$DIMSOXD
 70
     0
  9
$DIMSAH
 70
     0
  9
$DIMBLK1
  1

  9
$DIMBLK2
  1

  9
$DIMSTYLE
  2
STANDARD
  9
$DIMCLRD
 70
     0
  9
$DIMCLRE
 70
     0
  9
$DIMCLRT
 70
     0
  9
$DIMTFAC
 40
1.0
  9
$DIMGAP
 40
0.09
  9
$DIMJUST
 70
     0
  9
$DIMSD1
 70
     0
  9
$DIMSD2
 70
     0
  9
$DIMTOLJ
 70
     1
  9
$DIMTZIN
 70
     0
  9
$DIMALTZ
 70
     0
  9
$DIMALTTZ
 70
     0
  9
$DIMUPT
 70
     0
  9
$DIMDEC
 70
     4
  9
$DIMTDEC
 70
     4
  9
$DIMALTU
 70
     2
  9
$DIMALTTD
 70
     2
  9
$DIMTXSTY
  7
STANDARD
  9
$DIMAUNIT
 70
     0
  9
$DIMADEC
 70
     0
  9
$DIMALTRND
 40
0.0
  9
$DIMAZIN
 70
     0
  9
$DIMDSEP
 70
    46
  9
$DIMATFIT
 70
     3
  9
$DIMFRAC
 70
     0
  9
$DIMLDRBLK
  1

  9
$DIMLUNIT
 70
     2
  9
$DIMLWD
 70
    -2
  9
$DIMLWE
 70
    -2
  9
$DIMTMOVE
 70
     0
  9
$LUNITS
 70
     2
  9
$LUPREC
 70
     4
  9
$SKETCHINC
 40
0.1
  9
$FILLETRAD
 40
0.0
  9
$AUNITS
 70
     0
  9
$AUPREC
 70
     0
  9
$MENU
  1
acad
  9
$ELEVATION
 40
0.0
  9
$PELEVATION
 40
0.0
  9
$THICKNESS
 40
0.0
  9
$LIMCHECK
 70
     0
  9
$CHAMFERA
 40
0.0
  9
$CHAMFERB
 40
0.0
  9
$CHAMFERC
 40
0.0
  9
$CHAMFERD
 40
0.0
  9
$SKPOLY
 70
     0
  9
$TDCREATE
 40
2455281.428495371
  9
$TDUCREATE
 40
2455281.053495371
  9
$TDUPDATE
 40
2455281.430684085
  9
$TDUUPDATE
 40
2455281.055684086
  9
$TDINDWG
 40
0.0004513426
  9
$TDUSRTIMER
 40
0.0004453704
  9
$USRTIMER
 70
     1
  9
$ANGBASE
 50
0.0
  9
$ANGDIR
 70
     0
  9
$PDMODE
 70
     1
  9
$PDSIZE
 40
-2.0
  9
$PLINEWID
 40
0.0
  9
$SPLFRAME
 70
     0
  9
$SPLINETYPE
 70
     6
  9
$SPLINESEGS
 70
     8
  9
$HANDSEED
  5
3B8
  9
$SURFTAB1
 70
     6
  9
$SURFTAB2
 70
     6
  9
$SURFTYPE
 70
     6
  9
$SURFU
 70
     6
  9
$SURFV
 70
     6
  9
$UCSBASE
  2

  9
$UCSNAME
  2

  9
$UCSORG
 10
0.0
 20
0.0
 30
0.0
  9
$UCSXDIR
 10
1.0
 20
0.0
 30
0.0
  9
$UCSYDIR
 10
0.0
 20
1.0
 30
0.0
  9
$UCSORTHOREF
  2

  9
$UCSORTHOVIEW
 70
     0
  9
$UCSORGTOP
 10
0.0
 20
0.0
 30
0.0
  9
$UCSORGBOTTOM
 10
0.0
 20
0.0
 30
0.0
  9
$UCSORGLEFT
 10
0.0
 20
0.0
 30
0.0
  9
$UCSORGRIGHT
 10
0.0
 20
0.0
 30
0.0
  9
$UCSORGFRONT
 10
0.0
 20
0.0
 30
0.0
  9
$UCSORGBACK
 10
0.0
 20
0.0
 30
0.0
  9
$PUCSBASE
  2

  9
$PUCSNAME
  2

  9
$PUCSORG
 10
0.0
 20
0.0
 30
0.0
  9
$PUCSXDIR
 10
1.0
 20
0.0
 30
0.0
  9
$PUCSYDIR
 10
0.0
 20
1.0
 30
0.0
  9
$PUCSORTHOREF
  2

  9
$PUCSORTHOVIEW
 70
     0
  9
$PUCSORGTOP
 10
0.0
 20
0.0
 30
0.0
  9
$PUCSORGBOTTOM
 10
0.0
 20
0.0
 30
0.0
  9
$PUCSORGLEFT
 10
0.0
 20
0.0
 30
0.0
  9
$PUCSORGRIGHT
 10
0.0
 20
0.0
 30
0.0
  9
$PUCSORGFRONT
 10
0.0
 20
0.0
 30
0.0
  9
$PUCSORGBACK
 10
0.0
 20
0.0
 30
0.0
  9
$USERI1
 70
     0
  9
$USERI2
 70
     0
  9
$USERI3
 70
     0
  9
$USERI4
 70
     0
  9
$USERI5
 70
     0
  9
$USERR1
 40
0.0
  9
$USERR2
 40
0.0
  9
$USERR3
 40
0.0
  9
$USERR4
 40
0.0
  9
$USERR5
 40
0.0
  9
$WORLDVIEW
 70
     1
  9
$SHADEDGE
 70
     3
  9
$SHADEDIF
 70
    70
  9
$TILEMODE
 70
     1
  9
$MAXACTVP
 70
    64
  9
$PINSBASE
 10
0.0
 20
0.0
 30
0.0
  9
$PLIMCHECK
 70
     0
  9
$PEXTMIN
 10
1.000000000000000E+20
 20
1.000000000000000E+20
 30
1.000000000000000E+20
  9
$PEXTMAX
 10
-1.000000000000000E+20
 20
-1.000000000000000E+20
 30
-1.000000000000000E+20
  9
$PLIMMIN
 10
0.0
 20
0.0
  9
$PLIMMAX
 10
12.0
 20
9.0
  9
$UNITMODE
 70
     0
  9
$VISRETAIN
 70
     0
  9
$PLINEGEN
 70
     1
  9
$PSLTSCALE
 70
     0
  9
$TREEDEPTH
 70
  3020
  9
$CMLSTYLE
  2
Standard
  9
$CMLJUST
 70
     0
  9
$CMLSCALE
 40
1.0
  9
$PROXYGRAPHICS
 70
     1
  9
$MEASUREMENT
 70
     0
  9
$CELWEIGHT
370
    -1
  9
$ENDCAPS
280
     0
  9
$JOINSTYLE
280
     0
  9
$LWDISPLAY
290
     0
  9
$INSUNITS
 70
     0
  9
$HYPERLINKBASE
  1

  9
$STYLESHEET
  1

  9
$XEDIT
290
     1
  9
$CEPSNTYPE
380
     0
  9
$PSTYLEMODE
290
     1
  9
$FINGERPRINTGUID
  2
{E804614F-9943-43DC-BACF-0A7D4E71B52D}
  9
$VERSIONGUID
  2
{0F820916-B7D9-4A51-836C-09B938502DA8}
  9
$EXTNAMES
290
     1
  9
$PSVPSCALE
 40
0.0
  9
$OLESTARTUP
290
     0
  0
ENDSEC
  0
SECTION
  2
CLASSES
  0
CLASS
  1
ACDBDICTIONARYWDFLT
  2
AcDbDictionaryWithDefault
  3
ObjectDBX Classes
 90
        0
280
     0
281
     0
  0
CLASS
  1
MATERIAL
  2
AcDbMaterial
  3
ObjectDBX Classes
 90
     1153
280
     0
281
     0
  0
CLASS
  1
VISUALSTYLE
  2
AcDbVisualStyle
  3
ObjectDBX Classes
 90
     4095
280
     0
281
     0
  0
CLASS
  1
SCALE
  2
AcDbScale
  3
ObjectDBX Classes
 90
     1153
280
     0
281
     0
  0
CLASS
  1
TABLESTYLE
  2
AcDbTableStyle
  3
ObjectDBX Classes
 90
     4095
280
     0
281
     0
  0
CLASS
  1
MLEADERSTYLE
  2
AcDbMLeaderStyle
  3
ACDB_MLEADERSTYLE_CLASS
 90
     4095
280
     0
281
     0
  0
CLASS
  1
DICTIONARYVAR
  2
AcDbDictionaryVar
  3
ObjectDBX Classes
 90
        0
280
     0
281
     0
  0
CLASS
  1
CELLSTYLEMAP
  2
AcDbCellStyleMap
  3
ObjectDBX Classes
 90
     1152
280
     0
281
     0
  0
CLASS
  1
ACDBPLACEHOLDER
  2
AcDbPlaceHolder
  3
ObjectDBX Classes
 90
        0
280
     0
281
     0
  0
CLASS
  1
LAYOUT
  2
AcDbLayout
  3
ObjectDBX Classes
 90
        0
280
     0
281
     0
  0
ENDSEC
  0
SECTION
  2
TABLES
  0
TABLE
  2
VPORT
  5
2EC
330
0
100
AcDbSymbolTable
 70
     1
  0
VPORT
  5
35F
330
2EC
100
AcDbSymbolTableRecord
100
AcDbViewportTableRecord
  2
*ACTIVE
 70
     0
 10
0.0
 20
0.0
 11
1.0
 21
1.0
 12
100.0000006286427
 22
136.0844475837231
 13
0.0
 23
0.0
 14
1.0
 24
1.0
 15
0.0
 25
0.0
 16
0.0
 26
0.0
 36
1.0
 17
0.0
 27
0.0
 37
0.0
 40
404.33599765193
 41
1.966748768472906
 42
50.0
 43
0.0
 44
0.0
 50
0.0
 51
0.0
 71
     0
 72
  2000
 73
     1
 74
     1
 75
     0
 76
     0
 77
     0
 78
     0
281
     0
 65
     1
110
0.0
120
0.0
130
0.0
111
1.0
121
0.0
131
0.0
112
0.0
122
1.0
132
0.0
 79
     0
146
0.0
  0
ENDTAB
  0
TABLE
  2
LTYPE
  5
2E9
330
0
100
AcDbSymbolTable
 70
    11
  0
LTYPE
  5
349
330
2E9
100
AcDbSymbolTableRecord
100
AcDbLinetypeTableRecord
  2
ByBlock
 70
     0
  3

 72
    65
 73
     0
 40
0.0
  0
LTYPE
  5
34A
330
2E9
100
AcDbSymbolTableRecord
100
AcDbLinetypeTableRecord
  2
ByLayer
 70
     0
  3

 72
    65
 73
     0
 40
0.0
  0
LTYPE
  5
34B
330
2E9
100
AcDbSymbolTableRecord
100
AcDbLinetypeTableRecord
  2
CONTINUOUS
 70
     0
  3
Solid line
 72
    65
 73
     0
 40
0.0
  0
ENDTAB
  0
TABLE
  2
LAYER
  5
2E6
330
0
100
AcDbSymbolTable
 70
     6
  0
LAYER
  5
343
102
{ACAD_XDICTIONARY
360
373
102
}
330
2E6
100
AcDbSymbolTableRecord
100
AcDbLayerTableRecord
  2
0
 70
     0
 62
     7
  6
CONTINUOUS
370
    -3
390
2F3
  0
LAYER
  5
35E
102
{ACAD_XDICTIONARY
360
375
102
}
330
2E6
100
AcDbSymbolTableRecord
100
AcDbLayerTableRecord
  2
DATA
 70
     0
 62
     7
  6
CONTINUOUS
370
    -3
390
2F3
  0
LAYER
  5
36A
102
{ACAD_XDICTIONARY
360
377
102
}
330
2E6
100
AcDbSymbolTableRecord
100
AcDbLayerTableRecord
  2
HIBINO-BASE
 70
     0
 62
     7
  6
CONTINUOUS
370
    -3
390
2F3
  0
LAYER
  5
36C
102
{ACAD_XDICTIONARY
360
379
102
}
330
2E6
100
AcDbSymbolTableRecord
100
AcDbLayerTableRecord
  2
SPEC
 70
     0
 62
     7
  6
CONTINUOUS
370
    -3
390
2F3
  0
LAYER
  5
36D
102
{ACAD_XDICTIONARY
360
37B
102
}
330
2E6
100
AcDbSymbolTableRecord
100
AcDbLayerTableRecord
  2
DIMNSIONS
 70
     0
 62
     7
  6
CONTINUOUS
370
    -3
390
2F3
  0
ENDTAB
  0
TABLE
  2
STYLE
  5
2E7
330
0
100
AcDbSymbolTable
 70
     3
  0
STYLE
  5
344
330
2E7
100
AcDbSymbolTableRecord
100
AcDbTextStyleTableRecord
  2
STANDARD
 70
     0
 40
0.0
 41
1.0
 50
0.0
 71
     0
 42
0.0
  3
txt
  4
BIGFONT.SHX
  0
ENDTAB
  0
TABLE
  2
VIEW
  5
2EA
330
0
100
AcDbSymbolTable
 70
     0
  0
ENDTAB
  0
TABLE
  2
UCS
  5
2EB
330
0
100
AcDbSymbolTable
 70
     0
  0
ENDTAB
  0
TABLE
  2
APPID
  5
2ED
330
0
100
AcDbSymbolTable
 70
     3
  0
APPID
  5
345
330
2ED
100
AcDbSymbolTableRecord
100
AcDbRegAppTableRecord
  2
ACAD
 70
     0
  0
APPID
  5
34C
330
2ED
100
AcDbSymbolTableRecord
100
AcDbRegAppTableRecord
  2
AcadAnnotative
 70
     0
  0
APPID
  5
3B3
330
2ED
100
AcDbSymbolTableRecord
100
AcDbRegAppTableRecord
  2
ACAD_MLEADERVER
 70
     0
  0
ENDTAB
  0
TABLE
  2
DIMSTYLE
  5
2EE
330
0
100
AcDbSymbolTable
 70
     2
100
AcDbDimStyleTable
 71
     0
  0
DIMSTYLE
105
346
330
2EE
100
AcDbSymbolTableRecord
100
AcDbDimStyleTableRecord
  2
STANDARD
 70
     0
279
     2
340
344
  0
ENDTAB
  0
TABLE
  2
BLOCK_RECORD
  5
2E5
330
0
100
AcDbSymbolTable
 70
     0
  0
BLOCK_RECORD
  5
35A
330
2E5
100
AcDbSymbolTableRecord
100
AcDbBlockTableRecord
  2
*Model_Space
340
35D
  0
BLOCK_RECORD
  5
356
330
2E5
100
AcDbSymbolTableRecord
100
AcDbBlockTableRecord
  2
*Paper_Space
340
359
  0
ENDTAB
  0
ENDSEC
  0
SECTION
  2
BLOCKS
  0
BLOCK
  5
35B
330
35A
100
AcDbEntity
  8
0
100
AcDbBlockBegin
  2
*Model_Space
 70
     0
 10
0.0
 20
0.0
 30
0.0
  3
*Model_Space
  1

  0
ENDBLK
  5
35C
330
35A
100
AcDbEntity
  8
0
100
AcDbBlockEnd
  0
BLOCK
  5
357
330
356
100
AcDbEntity
 67
     1
  8
0
100
AcDbBlockBegin
  2
*Paper_Space
 70
     0
 10
0.0
 20
0.0
 30
0.0
  3
*Paper_Space
  1

  0
ENDBLK
  5
358
330
356
100
AcDbEntity
 67
     1
  8
0
100
AcDbBlockEnd
  0
ENDSEC
  0
SECTION
  2
ENTITIES
  0
LINE
  5
2D
330
35A
100
AcDbEntity
  8
HIBINO-BASE
  6
Continuous
 62
     7
100
AcDbLine
 10
-34.99999999999999
 20
336.7591372734525
 30
0.0
 11
235.0
 21
336.7591372734525
 31
0.0
  0
LINE
  5
2E
330
35A
100
AcDbEntity
  8
HIBINO-BASE
  6
Continuous
 62
     7
100
AcDbLine
 10
235.0
 20
-53.24086272654742
 30
0.0
 11
-34.99999999999999
 21
-53.24086272654742
 31
0.0
  0
LINE
  5
2F
330
35A
100
AcDbEntity
  8
HIBINO-BASE
  6
Continuous
 62
     7
100
AcDbLine
 10
-34.99999999999999
 20
-53.24086272654742
 30
0.0
 11
-34.99999999999999
 21
336.7591372734525
 31
0.0
  0
LINE
  5
30
330
35A
100
AcDbEntity
  8
HIBINO-BASE
  6
Continuous
 62
     7
100
AcDbLine
 10
235.0
 20
336.7591372734525
 30
0.0
 11
235.0
 21
-53.24086272654742
 31
0.0
  0
LINE
  5
31
330
35A
100
AcDbEntity
  8
HIBINO-BASE
  6
Continuous
 62
     7
100
AcDbLine
 10
100.0
 20
-19.49086272654739
 30
0.0
 11
235.0
 21
-19.49086272654739
 31
0.0
  0
LINE
  5
32
330
35A
100
AcDbEntity
  8
HIBINO-BASE
  6
Continuous
 62
     7
100
AcDbLine
 10
100.0
 20
-53.24086272654742
 30
0.0
 11
100.0
 21
-19.49086272654739
 31
0.0
  0
TEXT
  5
33
330
35A
100
AcDbEntity
  8
HIBINO-BASE
 62
     7
100
AcDbText
 10
101.35
 20
-23.25390272654741
 30
0.0
 40
2.44326171875
  1
NOTE
 41
0.7
 11
101.35
 21
-20.81064100779741
 31
0.0
100
AcDbText
 73
     3
  0
LINE
  5
34
330
35A
100
AcDbEntity
  8
HIBINO-BASE
  6
Continuous
 62
     7
100
AcDbLine
 10
152.5
 20
-53.24086272654742
 30
0.0
 11
152.5
 21
-19.49086272654739
 31
0.0
  0
TEXT
  5
35
330
35A
100
AcDbEntity
  8
HIBINO-BASE
 62
     7
100
AcDbText
 10
153.8499999999999
 20
-23.25390272654741
 30
0.0
 40
2.44326171875
  1
TITLE
 41
0.7
 11
153.8499999999999
 21
-20.81064100779741
 31
0.0
100
AcDbText
 73
     3
  0
LINE
  5
36
330
35A
100
AcDbEntity
  8
HIBINO-BASE
  6
Continuous
 62
     7
100
AcDbLine
 10
100.0
 20
-38.24086272654739
 30
0.0
 11
235.0
 21
-38.24086272654739
 31
0.0
  0
TEXT
  5
37
330
35A
100
AcDbEntity
  8
HIBINO-BASE
 62
     7
100
AcDbText
 10
172.5999999999999
 20
-41.9194227265474
 30
0.0
 40
2.44326171875
  1
DRAWN
 41
0.7
 11
172.5999999999999
 21
-39.4761610077974
 31
0.0
100
AcDbText
 73
     3
  0
TEXT
  5
38
330
35A
100
AcDbEntity
  8
HIBINO-BASE
 62
     7
100
AcDbText
 10
135.0999999999999
 20
-41.9194227265474
 30
0.0
 40
2.44326171875
  1
DATE
 41
0.7
 11
135.0999999999999
 21
-39.4761610077974
 31
0.0
100
AcDbText
 73
     3
  0
TEXT
  5
39
330
35A
100
AcDbEntity
  8
HIBINO-BASE
 62
     7
100
AcDbText
 10
120.1
 20
-41.9194227265474
 30
0.0
 40
2.44326171875
  1
SCALE
 41
0.7
 11
120.1
 21
-39.4761610077974
 31
0.0
100
AcDbText
 73
     3
  0
TEXT
  5
3A
330
35A
100
AcDbEntity
  8
HIBINO-BASE
 62
     7
100
AcDbText
 10
153.8499999999999
 20
-41.9194227265474
 30
0.0
 40
2.44326171875
  1
DESIGN
 41
0.7
 11
153.8499999999999
 21
-39.4761610077974
 31
0.0
100
AcDbText
 73
     3
  0
TEXT
  5
3B
330
35A
100
AcDbEntity
  8
HIBINO-BASE
 62
     7
100
AcDbText
 10
210.1
 20
-41.9194227265474
 30
0.0
 40
2.44326171875
  1
DRAWING NO.
 41
0.7
 11
210.1
 21
-39.4761610077974
 31
0.0
100
AcDbText
 73
     3
  0
TEXT
  5
3C
330
35A
100
AcDbEntity
  8
HIBINO-BASE
 62
     7
100
AcDbText
 10
191.35
 20
-41.9194227265474
 30
0.0
 40
2.44326171875
  1
CHECK
 41
0.7
 11
191.35
 21
-39.4761610077974
 31
0.0
100
AcDbText
 73
     3
  0
LINE
  5
3D
330
35A
100
AcDbEntity
  8
HIBINO-BASE
  6
Continuous
 62
     7
100
AcDbLine
 10
121.5625
 20
-51.36586272654742
 30
0.0
 11
127.1875
 21
-45.74086272654739
 31
0.0
  0
TEXT
  5
3E
330
35A
100
AcDbEntity
  8
HIBINO-BASE
 62
     7
100
AcDbText
 10
120.625
 20
-47.40427772654737
 30
0.0
 40
2.44326171875
  1
1
 41
0.7
 11
120.625
 21
-44.96101600779737
 31
0.0
100
AcDbText
 73
     3
  0
LINE
  5
3F
330
35A
100
AcDbEntity
  8
HIBINO-BASE
  6
Continuous
 62
     7
100
AcDbLine
 10
118.75
 20
-53.24086272654742
 30
0.0
 11
118.75
 21
-38.24086272654739
 31
0.0
  0
LINE
  5
40
330
35A
100
AcDbEntity
  8
HIBINO-BASE
  6
Continuous
 62
     7
100
AcDbLine
 10
133.7499999999999
 20
-53.24086272654742
 30
0.0
 11
133.7499999999999
 21
-38.24086272654739
 31
0.0
  0
LINE
  5
41
330
35A
100
AcDbEntity
  8
HIBINO-BASE
  6
Continuous
 62
     7
100
AcDbLine
 10
171.2499999999999
 20
-38.24086272654739
 30
0.0
 11
171.2499999999999
 21
-53.24086272654742
 31
0.0
  0
LINE
  5
42
330
35A
100
AcDbEntity
  8
HIBINO-BASE
  6
Continuous
 62
     7
100
AcDbLine
 10
208.75
 20
-38.24086272654739
 30
0.0
 11
208.75
 21
-53.24086272654742
 31
0.0
  0
LINE
  5
43
330
35A
100
AcDbEntity
  8
HIBINO-BASE
  6
Continuous
 62
     7
100
AcDbLine
 10
190.0
 20
-53.24086272654742
 30
0.0
 11
190.0
 21
-38.24086272654739
 31
0.0
  0
TEXT
  5
44
330
35A
100
AcDbEntity
  8
HIBINO-BASE
 62
     7
100
AcDbText
 10
135.03481
 20
-48.94539272654739
 30
0.0
 40
2.44326171875
  1
'10.03.
 41
0.7
 11
135.03481
 21
-46.5021310077974
 31
0.0
100
AcDbText
 73
     3
  0
TEXT
  5
45
330
35A
100
AcDbEntity
  8
HIBINO-BASE
 62
     7
100
AcDbText
 10
126.25
 20
-50.21677772654738
 30
0.0
 40
2.44326171875
  1
1.5
 41
0.7
 11
126.25
 21
-47.77351600779738
 31
0.0
100
AcDbText
 73
     3
  0
TEXT
  5
46
330
35A
100
AcDbEntity
  8
HIBINO-BASE
 62
     7
100
AcDbText
 10
105.825
 20
-50.2768627265474
 30
0.0
 40
4.886523437499999
  1
A4
 41
0.7
 11
105.825
 21
-45.3903392890474
 31
0.0
100
AcDbText
 73
     3
  0
TEXT
  5
47
330
35A
100
AcDbEntity
  8
HIBINO-BASE
 62
     7
100
AcDbText
 10
101.4375
 20
-42.17004522654742
 30
0.0
 40
2.44326171875
  1
PAPER SIZE
 41
0.7
 11
101.4375
 21
-39.72678350779742
 31
0.0
100
AcDbText
 73
     3
  0
TEXT
  5
48
330
35A
100
AcDbEntity
  8
HIBINO-BASE
 62
     7
100
AcDbText
 10
-30.62868387980281
 20
-62.83260303392956
 30
0.0
 40
5.293733723958332
  1
Hibino-Intersound Corporation
 41
0.7
 11
-30.62868387980281
 21
-57.53886930997122
 31
0.0
100
AcDbText
 73
     3
  0
TEXT
  5
49
330
35A
100
AcDbEntity
  8
HIBINO-BASE
 62
     7
100
AcDbText
 10
130.9689499059817
 20
-62.36709453324063
 30
0.0
 40
5.293733723958332
  1
ヒビノインターサウンド株式会社
 41
0.7
 11
130.9689499059817
 21
-57.07336080928229
 31
0.0
100
AcDbText
 73
     3
  0
TEXT
  5
4A
330
35A
100
AcDbEntity
  8
HIBINO-BASE
 62
     7
100
AcDbText
 10
172.9396339498101
 20
-48.87637897360889
 30
0.0
 40
2.44326171875
  1
T.Ootake
 41
0.7
 11
172.9396339498101
 21
-46.43311725485889
 31
0.0
100
AcDbText
 73
     3
  0
LINE
  5
4B
330
35A
100
AcDbEntity
  8
SPEC
  6
Continuous
 62
     7
100
AcDbLine
 10
-23.74999999999999
 20
321.7591372734525
 30
0.0
 11
197.5
 21
321.7591372734525
 31
0.0
  0
LINE
  5
4C
330
35A
100
AcDbEntity
  8
SPEC
  6
Continuous
 62
     7
100
AcDbLine
 10
-23.74999999999999
 20
316.1341372734525
 30
0.0
 11
197.5
 21
316.1341372734525
 31
0.0
  0
LINE
  5
4D
330
35A
100
AcDbEntity
  8
SPEC
  6
Continuous
 62
     7
100
AcDbLine
 10
-23.74999999999999
 20
304.8841372734525
 30
0.0
 11
197.5
 21
304.8841372734525
 31
0.0
  0
LINE
  5
4E
330
35A
100
AcDbEntity
  8
SPEC
  6
Continuous
 62
     7
100
AcDbLine
 10
-23.74999999999999
 20
310.5091372734525
 30
0.0
 11
197.5
 21
310.5091372734525
 31
0.0
  0
LINE
  5
4F
330
35A
100
AcDbEntity
  8
SPEC
  6
Continuous
 62
     7
100
AcDbLine
 10
-23.74999999999999
 20
321.7591372734525
 30
0.0
 11
-23.74999999999999
 21
304.8841372734525
 31
0.0
  0
TEXT
  5
50
330
35A
100
AcDbEntity
  8
SPEC
 62
     7
100
AcDbText
 10
-21.87499999999999
 20
323.8490422734527
 30
0.0
 40
3.664892578124999
  1
仕様
 41
0.7
 11
-21.87499999999999
 21
327.5139348515776
 31
0.0
100
AcDbText
 73
     3
  0
LINE
  5
51
330
35A
100
AcDbEntity
  8
SPEC
  6
Continuous
 62
     7
100
AcDbLine
 10
25.0
 20
321.7591372734525
 30
0.0
 11
25.0
 21
304.8841372734525
 31
0.0
  0
LINE
  5
52
330
35A
100
AcDbEntity
  8
SPEC
  6
Continuous
 62
     7
100
AcDbLine
 10
197.5
 20
321.7591372734525
 30
0.0
 11
197.5
 21
304.8841372734525
 31
0.0
  0
TEXT
  5
53
330
35A
100
AcDbEntity
  8
SPEC
 62
     7
100
AcDbText
 10
-22.41726833107644
 20
312.0509384441937
 30
0.0
 40
2.850472005208333
  1
寸法
 41
0.7
 11
-22.41726833107644
 21
314.901410449402
 31
0.0
100
AcDbText
 73
     3
  0
TEXT
  5
54
330
35A
100
AcDbEntity
  8
SPEC
 62
     7
100
AcDbText
 10
-22.38656082088635
 20
306.3774630518214
 30
0.0
 40
2.850472005208333
  1
重量
 41
0.7
 11
-22.38656082088635
 21
309.2279350570297
 31
0.0
100
AcDbText
 73
     3
  0
TEXT
  5
55
330
35A
100
AcDbEntity
  8
SPEC
 62
     7
100
AcDbText
 10
26.39968051268045
 20
311.9456987328707
 30
0.0
 40
2.850472005208333
  1
71(W)\U+00D7115(H)\U+00D720(D)mm(突起部含まず)
 41
0.7
 11
26.39968051268045
 21
314.796170738079
 31
0.0
100
AcDbText
 73
     3
  0
TEXT
  5
56
330
35A
100
AcDbEntity
  8
SPEC
 62
     7
100
AcDbText
 10
26.34423344892804
 20
306.5306430515595
 30
0.0
 40
2.850472005208333
  1
約85g
 41
0.7
 11
26.34423344892804
 21
309.3811150567679
 31
0.0
100
AcDbText
 73
     3
  0
TEXT
  5
57
330
35A
100
AcDbEntity
  8
SPEC
 62
     7
100
AcDbText
 10
-22.40000000000001
 20
317.3160139401193
 30
0.0
 40
2.850472005208333
  1
DVI入出力端子
 41
0.7
 11
-22.40000000000001
 21
320.1664859453276
 31
0.0
100
AcDbText
 73
     3
  0
TEXT
  5
58
330
35A
100
AcDbEntity
  8
SPEC
 62
     7
100
AcDbText
 10
26.5008834961228
 20
317.3704361019229
 30
0.0
 40
2.850472005208333
  1
DVI-I 29pin female
 41
0.7
 11
26.5008834961228
 21
320.2209081071312
 31
0.0
100
AcDbText
 73
     3
  0
TEXT
  5
59
330
35A
100
AcDbEntity
  8
DIMNSIONS
 62
     7
100
AcDbText
 10
69.99999999999999
 20
-34.83662772654739
 30
0.0
 40
3.664892578124999
  1
(単位：mm)
 41
0.7
 11
69.99999999999999
 21
-31.17173514842239
 31
0.0
100
AcDbText
 73
     3
  0
LINE
  5
5A
330
35A
100
AcDbEntity
  8
DIMNSIONS
  6
Continuous
 62
     7
100
AcDbLine
 10
6.375
 20
31.25
 30
0.0
 11
-15.5
 21
31.25
 31
0.0
  0
LINE
  5
5B
330
35A
100
AcDbEntity
  8
DIMNSIONS
  6
Continuous
 62
     7
100
AcDbLine
 10
6.375
 20
146.25
 30
0.0
 11
-15.5
 21
146.25
 31
0.0
  0
LINE
  5
5C
330
35A
100
AcDbEntity
  8
DIMNSIONS
  6
Continuous
 62
     7
100
AcDbLine
 10
-12.5
 20
31.25
 30
0.0
 11
-12.5
 21
146.25
 31
0.0
  0
LINE
  5
5D
330
35A
100
AcDbEntity
  8
DIMNSIONS
  6
Continuous
 62
     7
100
AcDbLine
 10
-12.5
 20
31.25
 30
0.0
 11
-13.50505969272537
 21
35.00093383789063
 31
0.0
  0
LINE
  5
5E
330
35A
100
AcDbEntity
  8
DIMNSIONS
  6
Continuous
 62
     7
100
AcDbLine
 10
-12.5
 20
31.25
 30
0.0
 11
-11.49494030727463
 21
35.00093383789063
 31
0.0
  0
LINE
  5
5F
330
35A
100
AcDbEntity
  8
DIMNSIONS
  6
Continuous
 62
     7
100
AcDbLine
 10
-12.5
 20
146.25
 30
0.0
 11
-11.49494030727463
 21
142.4990661621094
 31
0.0
  0
LINE
  5
60
330
35A
100
AcDbEntity
  8
DIMNSIONS
  6
Continuous
 62
     7
100
AcDbLine
 10
-12.5
 20
146.25
 30
0.0
 11
-13.50505969272537
 21
142.4990661621094
 31
0.0
  0
TEXT
  5
61
330
35A
100
AcDbEntity
  8
DIMNSIONS
 62
     7
100
AcDbText
 10
-13.99083333333332
 20
84.78125
 30
0.0
 40
4.072102864583333
  1
115
 50
90.0
 41
0.7
 11
-18.06293619791665
 21
84.78125
 31
0.0
100
AcDbText
 73
     3
  0
LINE
  5
62
330
35A
100
AcDbEntity
  8
DIMNSIONS
  6
Continuous
 62
     7
100
AcDbLine
 10
9.375
 20
31.25
 30
0.0
 11
9.375
 21
6.375
 31
0.0
  0
LINE
  5
63
330
35A
100
AcDbEntity
  8
DIMNSIONS
  6
Continuous
 62
     7
100
AcDbLine
 10
80.37499999999999
 20
31.25
 30
0.0
 11
80.37499999999999
 21
6.375
 31
0.0
  0
LINE
  5
64
330
35A
100
AcDbEntity
  8
DIMNSIONS
  6
Continuous
 62
     7
100
AcDbLine
 10
9.375
 20
9.375
 30
0.0
 11
80.37499999999999
 21
9.375
 31
0.0
  0
LINE
  5
65
330
35A
100
AcDbEntity
  8
DIMNSIONS
  6
Continuous
 62
     7
100
AcDbLine
 10
9.375
 20
9.375
 30
0.0
 11
13.12593383789063
 21
10.38005969272535
 31
0.0
  0
LINE
  5
66
330
35A
100
AcDbEntity
  8
DIMNSIONS
  6
Continuous
 62
     7
100
AcDbLine
 10
9.375
 20
9.375
 30
0.0
 11
13.12593383789063
 21
8.369940307274646
 31
0.0
  0
LINE
  5
67
330
35A
100
AcDbEntity
  8
DIMNSIONS
  6
Continuous
 62
     7
100
AcDbLine
 10
80.37499999999999
 20
9.375
 30
0.0
 11
76.62406616210937
 21
8.369940307274646
 31
0.0
  0
LINE
  5
68
330
35A
100
AcDbEntity
  8
DIMNSIONS
  6
Continuous
 62
     7
100
AcDbLine
 10
80.37499999999999
 20
9.375
 30
0.0
 11
76.62406616210937
 21
10.38005969272535
 31
0.0
  0
TEXT
  5
69
330
35A
100
AcDbEntity
  8
DIMNSIONS
 62
     7
100
AcDbText
 10
42.22916666666665
 20
10.86583333333334
 30
0.0
 40
4.072102864583333
  1
71
 41
0.7
 11
42.22916666666665
 21
14.93793619791667
 31
0.0
100
AcDbText
 73
     3
  0
LINE
  5
6A
330
35A
100
AcDbEntity
  8
DIMNSIONS
  6
Continuous
 62
     7
100
AcDbLine
 10
36.875
 20
47.0
 30
0.0
 11
-6.125
 21
47.0
 31
0.0
  0
LINE
  5
6B
330
35A
100
AcDbEntity
  8
DIMNSIONS
  6
Continuous
 62
     7
100
AcDbLine
 10
36.875
 20
130.5
 30
0.0
 11
-6.125
 21
130.5
 31
0.0
  0
LINE
  5
6C
330
35A
100
AcDbEntity
  8
DIMNSIONS
  6
Continuous
 62
     7
100
AcDbLine
 10
-3.125
 20
47.0
 30
0.0
 11
-3.125
 21
130.5
 31
0.0
  0
LINE
  5
6D
330
35A
100
AcDbEntity
  8
DIMNSIONS
  6
Continuous
 62
     7
100
AcDbLine
 10
-3.125
 20
47.0
 30
0.0
 11
-4.130059692725367
 21
50.75093383789063
 31
0.0
  0
LINE
  5
6E
330
35A
100
AcDbEntity
  8
DIMNSIONS
  6
Continuous
 62
     7
100
AcDbLine
 10
-3.125
 20
47.0
 30
0.0
 11
-2.119940307274632
 21
50.75093383789063
 31
0.0
  0
LINE
  5
6F
330
35A
100
AcDbEntity
  8
DIMNSIONS
  6
Continuous
 62
     7
100
AcDbLine
 10
-3.125
 20
130.5
 30
0.0
 11
-2.119940307274632
 21
126.7490661621093
 31
0.0
  0
LINE
  5
70
330
35A
100
AcDbEntity
  8
DIMNSIONS
  6
Continuous
 62
     7
100
AcDbLine
 10
-3.125
 20
130.5
 30
0.0
 11
-4.130059692725367
 21
126.7490661621093
 31
0.0
  0
TEXT
  5
71
330
35A
100
AcDbEntity
  8
DIMNSIONS
 62
     7
100
AcDbText
 10
-4.615833333333337
 20
83.45833333333333
 30
0.0
 40
4.072102864583333
  1
83.5
 50
90.0
 41
0.7
 11
-8.68793619791667
 21
83.45833333333333
 31
0.0
100
AcDbText
 73
     3
  0
LINE
  5
72
330
35A
100
AcDbEntity
  8
DIMNSIONS
  6
Continuous
 62
     7
100
AcDbLine
 10
9.900400362541134
 20
178.125
 30
0.0
 11
-6.125
 21
178.125
 31
0.0
  0
LINE
  5
73
330
35A
100
AcDbEntity
  8
DIMNSIONS
  6
Continuous
 62
     7
100
AcDbLine
 10
6.375000000000014
 20
183.725
 30
0.0
 11
-6.125
 21
183.725
 31
0.0
  0
LINE
  5
74
330
35A
100
AcDbEntity
  8
DIMNSIONS
  6
Continuous
 62
     7
100
AcDbLine
 10
-3.125
 20
183.725
 30
0.0
 11
-3.125
 21
178.125
 31
0.0
  0
LINE
  5
75
330
35A
100
AcDbEntity
  8
DIMNSIONS
  6
Continuous
 62
     7
100
AcDbLine
 10
-3.125
 20
178.125
 30
0.0
 11
-3.125
 21
170.625
 31
0.0
  0
LINE
  5
76
330
35A
100
AcDbEntity
  8
DIMNSIONS
  6
Continuous
 62
     7
100
AcDbLine
 10
-3.125
 20
178.125
 30
0.0
 11
-2.119940307274632
 21
174.3740661621094
 31
0.0
  0
LINE
  5
77
330
35A
100
AcDbEntity
  8
DIMNSIONS
  6
Continuous
 62
     7
100
AcDbLine
 10
-3.125
 20
178.125
 30
0.0
 11
-4.130059692725367
 21
174.3740661621094
 31
0.0
  0
LINE
  5
78
330
35A
100
AcDbEntity
  8
DIMNSIONS
  6
Continuous
 62
     7
100
AcDbLine
 10
-3.125
 20
183.725
 30
0.0
 11
-3.125
 21
195.4375
 31
0.0
  0
LINE
  5
79
330
35A
100
AcDbEntity
  8
DIMNSIONS
  6
Continuous
 62
     7
100
AcDbLine
 10
-3.125
 20
183.725
 30
0.0
 11
-4.130059692725367
 21
187.4759338378906
 31
0.0
  0
LINE
  5
7A
330
35A
100
AcDbEntity
  8
DIMNSIONS
  6
Continuous
 62
     7
100
AcDbLine
 10
-3.125
 20
183.725
 30
0.0
 11
-2.119940307274632
 21
187.4759338378906
 31
0.0
  0
TEXT
  5
7B
330
35A
100
AcDbEntity
  8
DIMNSIONS
 62
     7
100
AcDbText
 10
-4.615833333333323
 20
187.5
 30
0.0
 40
4.072102864583333
  1
5.6
 50
90.0
 41
0.7
 11
-8.687936197916656
 21
187.5
 31
0.0
100
AcDbText
 73
     3
  0
LINE
  5
7C
330
35A
100
AcDbEntity
  8
DIMNSIONS
  6
Continuous
 62
     7
100
AcDbLine
 10
6.900400362541134
 20
178.125
 30
0.0
 11
-15.5
 21
178.125
 31
0.0
  0
LINE
  5
7D
330
35A
100
AcDbEntity
  8
DIMNSIONS
  6
Continuous
 62
     7
100
AcDbLine
 10
45.31804128923584
 20
198.125
 30
0.0
 11
-15.5
 21
198.125
 31
0.0
  0
LINE
  5
7E
330
35A
100
AcDbEntity
  8
DIMNSIONS
  6
Continuous
 62
     7
100
AcDbLine
 10
-12.5
 20
178.125
 30
0.0
 11
-12.5
 21
198.125
 31
0.0
  0
LINE
  5
7F
330
35A
100
AcDbEntity
  8
DIMNSIONS
  6
Continuous
 62
     7
100
AcDbLine
 10
-12.5
 20
178.125
 30
0.0
 11
-13.50505969272537
 21
181.8759338378906
 31
0.0
  0
LINE
  5
80
330
35A
100
AcDbEntity
  8
DIMNSIONS
  6
Continuous
 62
     7
100
AcDbLine
 10
-12.5
 20
178.125
 30
0.0
 11
-11.49494030727463
 21
181.8759338378906
 31
0.0
  0
LINE
  5
81
330
35A
100
AcDbEntity
  8
DIMNSIONS
  6
Continuous
 62
     7
100
AcDbLine
 10
-12.5
 20
198.125
 30
0.0
 11
-11.49494030727463
 21
194.3740661621094
 31
0.0
  0
LINE
  5
82
330
35A
100
AcDbEntity
  8
DIMNSIONS
  6
Continuous
 62
     7
100
AcDbLine
 10
-12.5
 20
198.125
 30
0.0
 11
-13.50505969272537
 21
194.3740661621094
 31
0.0
  0
TEXT
  5
83
330
35A
100
AcDbEntity
  8
DIMNSIONS
 62
     7
100
AcDbText
 10
-13.99083333333332
 20
185.4791666666666
 30
0.0
 40
4.072102864583333
  1
20
 50
90.0
 41
0.7
 11
-18.06293619791665
 21
185.4791666666666
 31
0.0
100
AcDbText
 73
     3
  0
LINE
  5
84
330
35A
100
AcDbEntity
  8
DIMNSIONS
  6
Continuous
 62
     7
100
AcDbLine
 10
37.95356871036434
 20
173.125
 30
0.0
 11
-15.5
 21
173.125
 31
0.0
  0
LINE
  5
85
330
35A
100
AcDbEntity
  8
DIMNSIONS
  6
Continuous
 62
     7
100
AcDbLine
 10
6.375
 20
178.125
 30
0.0
 11
-15.5
 21
178.125
 31
0.0
  0
LINE
  5
86
330
35A
100
AcDbEntity
  8
DIMNSIONS
  6
Continuous
 62
     7
100
AcDbLine
 10
-12.5
 20
178.125
 30
0.0
 11
-12.5
 21
173.125
 31
0.0
  0
LINE
  5
87
330
35A
100
AcDbEntity
  8
DIMNSIONS
  6
Continuous
 62
     7
100
AcDbLine
 10
-12.5
 20
173.125
 30
0.0
 11
-12.5
 21
166.1041666666666
 31
0.0
  0
LINE
  5
88
330
35A
100
AcDbEntity
  8
DIMNSIONS
  6
Continuous
 62
     7
100
AcDbLine
 10
-12.5
 20
173.125
 30
0.0
 11
-11.49494030727463
 21
169.3740661621094
 31
0.0
  0
LINE
  5
89
330
35A
100
AcDbEntity
  8
DIMNSIONS
  6
Continuous
 62
     7
100
AcDbLine
 10
-12.5
 20
173.125
 30
0.0
 11
-13.50505969272537
 21
169.3740661621094
 31
0.0
  0
LINE
  5
8A
330
35A
100
AcDbEntity
  8
DIMNSIONS
  6
Continuous
 62
     7
100
AcDbLine
 10
-12.5
 20
178.125
 30
0.0
 11
-12.5
 21
185.625
 31
0.0
  0
LINE
  5
8B
330
35A
100
AcDbEntity
  8
DIMNSIONS
  6
Continuous
 62
     7
100
AcDbLine
 10
-12.5
 20
178.125
 30
0.0
 11
-13.50505969272537
 21
181.8759338378906
 31
0.0
  0
LINE
  5
8C
330
35A
100
AcDbEntity
  8
DIMNSIONS
  6
Continuous
 62
     7
100
AcDbLine
 10
-12.5
 20
178.125
 30
0.0
 11
-11.49494030727463
 21
181.8759338378906
 31
0.0
  0
TEXT
  5
8D
330
35A
100
AcDbEntity
  8
DIMNSIONS
 62
     7
100
AcDbText
 10
-13.99083333333334
 20
166.1041666666667
 30
0.0
 40
4.072102864583333
  1
5
 50
90.0
 41
0.7
 11
-18.06293619791667
 21
166.1041666666667
 31
0.0
100
AcDbText
 73
     3
  0
TEXT
  5
8E
330
35A
100
AcDbEntity
  8
DATA
 62
     7
100
AcDbText
 10
-19.99999999999998
 20
-46.88386272654743
 30
0.0
 40
2.44326171875
  1
仕様および外観は予告なく変更されることがありますので、ご了承ください。
 41
0.7
 11
-19.99999999999998
 21
-44.44060100779743
 31
0.0
100
AcDbText
 73
     3
  0
TEXT
  5
8F
330
35A
100
AcDbEntity
  8
DATA
 62
     7
100
AcDbText
 10
174.775
 20
-36.63422966148786
 30
0.0
 40
3.664892578124999
  1
WP-DVI
 41
0.7
 11
174.775
 21
-32.96933708336286
 31
0.0
100
AcDbText
 73
     3
  0
TEXT
  5
90
330
35A
100
AcDbEntity
  8
DATA
 62
     7
100
AcDbText
 10
174.8320650654141
 20
-24.72435440998117
 30
0.0
 40
3.664892578124999
  1
Gefen
 41
0.7
 11
174.8320650654141
 21
-21.05946183185617
 31
0.0
100
AcDbText
 73
     3
  0
TEXT
  5
91
330
35A
100
AcDbEntity
  8
DATA
 62
     7
100
AcDbText
 10
171.85
 20
-30.25770451058388
 30
0.0
 40
2.44326171875
  1
DVIウォールプレート
 41
0.7
 11
171.85
 21
-27.81444279183387
 31
0.0
100
AcDbText
 73
     3
  0
LINE
  5
92
330
35A
100
AcDbEntity
  8
DATA
  6
Continuous
 62
     7
100
AcDbLine
 10
9.375
 20
34.25
 30
0.0
 11
9.375
 21
143.25
 31
0.0
  0
ARC
  5
93
330
35A
100
AcDbEntity
  8
DATA
  6
Continuous
 62
     7
100
AcDbCircle
 10
12.375
 20
34.25
 30
0.0
 40
3.0
100
AcDbArc
 50
180.0
 51
270.0
  0
LINE
  5
94
330
35A
100
AcDbEntity
  8
DATA
  6
Continuous
 62
     7
100
AcDbLine
 10
77.375
 20
31.25
 30
0.0
 11
12.375
 21
31.25
 31
0.0
  0
ARC
  5
95
330
35A
100
AcDbEntity
  8
DATA
  6
Continuous
 62
     7
100
AcDbCircle
 10
77.375
 20
34.24999999999999
 30
0.0
 40
2.999999999999985
100
AcDbArc
 50
270.0
 51
0.0000000000002274
  0
LINE
  5
96
330
35A
100
AcDbEntity
  8
DATA
  6
Continuous
 62
     7
100
AcDbLine
 10
80.37499999999999
 20
143.25
 30
0.0
 11
80.37499999999999
 21
34.25
 31
0.0
  0
ARC
  5
97
330
35A
100
AcDbEntity
  8
DATA
  6
Continuous
 62
     7
100
AcDbCircle
 10
77.375
 20
143.25
 30
0.0
 40
3.0
100
AcDbArc
 50
0.0
 51
90.0
  0
LINE
  5
98
330
35A
100
AcDbEntity
  8
DATA
  6
Continuous
 62
     7
100
AcDbLine
 10
12.375
 20
146.25
 30
0.0
 11
77.375
 21
146.25
 31
0.0
  0
ARC
  5
99
330
35A
100
AcDbEntity
  8
DATA
  6
Continuous
 62
     7
100
AcDbCircle
 10
12.375
 20
143.25
 30
0.0
 40
3.0
100
AcDbArc
 50
90.0
 51
180.0
  0
CIRCLE
  5
9A
330
35A
100
AcDbEntity
  8
DATA
  6
Continuous
 62
     7
100
AcDbCircle
 10
44.87499999999999
 20
130.5
 30
0.0
 40
2.600000000000001
  0
CIRCLE
  5
9B
330
35A
100
AcDbEntity
  8
DATA
  6
Continuous
 62
     7
100
AcDbCircle
 10
44.87499999999999
 20
47.0
 30
0.0
 40
2.600000000000001
  0
CIRCLE
  5
9C
330
35A
100
AcDbEntity
  8
DATA
  6
Continuous
 62
     7
100
AcDbCircle
 10
44.87499999999999
 20
130.5
 30
0.0
 40
5.0
  0
CIRCLE
  5
9D
330
35A
100
AcDbEntity
  8
DATA
  6
Continuous
 62
     7
100
AcDbCircle
 10
44.87499999999999
 20
47.0
 30
0.0
 40
5.0
  0
LINE
  5
9E
330
35A
100
AcDbEntity
  8
DATA
  6
Continuous
 62
     7
100
AcDbLine
 10
143.75
 20
34.25
 30
0.0
 11
143.75
 21
143.25
 31
0.0
  0
ARC
  5
9F
330
35A
100
AcDbEntity
  8
DATA
  6
Continuous
 62
     7
100
AcDbCircle
 10
146.75
 20
34.25
 30
0.0
 40
2.999999999999985
100
AcDbArc
 50
180.0
 51
270.0000000000003
  0
LINE
  5
A0
330
35A
100
AcDbEntity
  8
DATA
  6
Continuous
 62
     7
100
AcDbLine
 10
211.75
 20
31.25
 30
0.0
 11
146.75
 21
31.25
 31
0.0
  0
ARC
  5
A1
330
35A
100
AcDbEntity
  8
DATA
  6
Continuous
 62
     7
100
AcDbCircle
 10
211.75
 20
34.25
 30
0.0
 40
3.0
100
AcDbArc
 50
270.0
 51
0.0
  0
LINE
  5
A2
330
35A
100
AcDbEntity
  8
DATA
  6
Continuous
 62
     7
100
AcDbLine
 10
214.75
 20
143.25
 30
0.0
 11
214.75
 21
34.25
 31
0.0
  0
ARC
  5
A3
330
35A
100
AcDbEntity
  8
DATA
  6
Continuous
 62
     7
100
AcDbCircle
 10
211.75
 20
143.25
 30
0.0
 40
3.0
100
AcDbArc
 50
0.0
 51
90.0
  0
LINE
  5
A4
330
35A
100
AcDbEntity
  8
DATA
  6
Continuous
 62
     7
100
AcDbLine
 10
146.75
 20
146.25
 30
0.0
 11
211.75
 21
146.25
 31
0.0
  0
ARC
  5
A5
330
35A
100
AcDbEntity
  8
DATA
  6
Continuous
 62
     7
100
AcDbCircle
 10
146.75
 20
143.25
 30
0.0
 40
3.0
100
AcDbArc
 50
90.0
 51
180.0
  0
CIRCLE
  5
A6
330
35A
100
AcDbEntity
  8
DATA
  6
Continuous
 62
     7
100
AcDbCircle
 10
179.25
 20
130.5
 30
0.0
 40
2.600000000000008
  0
CIRCLE
  5
A7
330
35A
100
AcDbEntity
  8
DATA
  6
Continuous
 62
     7
100
AcDbCircle
 10
179.25
 20
47.0
 30
0.0
 40
2.600000000000008
  0
CIRCLE
  5
A8
330
35A
100
AcDbEntity
  8
DATA
  6
Continuous
 62
     7
100
AcDbCircle
 10
179.25
 20
130.5
 30
0.0
 40
5.0
  0
CIRCLE
  5
A9
330
35A
100
AcDbEntity
  8
DATA
  6
Continuous
 62
     7
100
AcDbCircle
 10
179.25
 20
47.0
 30
0.0
 40
5.0
  0
LINE
  5
AA
330
35A
100
AcDbEntity
  8
DATA
  6
Continuous
 62
     7
100
AcDbLine
 10
128.125
 20
142.8
 30
0.0
 11
128.125
 21
34.6999999999999
 31
0.0
  0
LINE
  5
AB
330
35A
100
AcDbEntity
  8
DATA
  6
Continuous
 62
     7
100
AcDbLine
 10
122.525
 20
146.25
 30
0.0
 11
122.525
 21
31.24999999999989
 31
0.0
  0
ARC
  5
AC
330
35A
100
AcDbEntity
  8
DATA
  6
Continuous
 62
     7
100
AcDbCircle
 10
122.7578753095828
 20
140.3580729662793
 30
0.0
 40
5.896527374692809
100
AcDbArc
 50
24.46452065473169
 51
92.26340734801317
  0
ARC
  5
AD
330
35A
100
AcDbEntity
  8
DATA
  6
Continuous
 62
     7
100
AcDbCircle
 10
122.7578753095828
 20
37.14192703372066
 30
0.0
 40
5.896527374692807
100
AcDbArc
 50
267.7365926519868
 51
335.5354793452683
  0
ARC
  5
AE
330
35A
100
AcDbEntity
  8
DATA
  6
Continuous
 62
     7
100
AcDbCircle
 10
74.4779506794887
 20
183.4862849142309
 30
0.0
 40
5.901878987298563
100
AcDbArc
 50
294.7144096425628
 51
2.318092089745675
  0
ARC
  5
AF
330
35A
100
AcDbEntity
  8
DATA
  6
Continuous
 62
     7
100
AcDbCircle
 10
15.2720493205113
 20
183.4862849142309
 30
0.0
 40
5.901878987298565
100
AcDbArc
 50
177.6819079102543
 51
245.2855903574372
  0
LINE
  5
B0
330
35A
100
AcDbEntity
  8
DATA
  6
Continuous
 62
     7
100
AcDbLine
 10
12.80450000000007
 20
178.125
 30
0.0
 11
76.94550000000003
 21
178.125
 31
0.0
  0
LINE
  5
B1
330
35A
100
AcDbEntity
  8
DATA
  6
Continuous
 62
     7
100
AcDbLine
 10
9.375
 20
183.725
 30
0.0
 11
80.37499999999999
 21
183.725
 31
0.0
  0
LINE
  5
B2
330
35A
100
AcDbEntity
  8
DATA
  6
Continuous
 62
     7
100
AcDbLine
 10
42.18620603605553
 20
173.125
 30
0.0
 11
42.18620603605553
 21
178.125
 31
0.0
  0
LINE
  5
B3
330
35A
100
AcDbEntity
  8
DATA
  6
Continuous
 62
     7
100
AcDbLine
 10
47.5862060360551
 20
173.125
 30
0.0
 11
47.5862060360551
 21
178.125
 31
0.0
  0
LINE
  5
B4
330
35A
100
AcDbEntity
  8
DATA
  6
Continuous
 62
     7
100
AcDbLine
 10
42.18620603605553
 20
173.125
 30
0.0
 11
47.5862060360551
 21
173.125
 31
0.0
  0
LINE
  5
B5
330
35A
100
AcDbEntity
  8
DATA
  6
Continuous
 62
     7
100
AcDbLine
 10
43.53620603605548
 20
173.125
 30
0.0
 11
43.53620603605548
 21
178.125
 31
0.0
  0
LINE
  5
B6
330
35A
100
AcDbEntity
  8
DATA
  6
Continuous
 62
     7
100
AcDbLine
 10
46.23620603605517
 20
173.125
 30
0.0
 11
46.23620603605517
 21
178.125
 31
0.0
  0
LINE
  5
B7
330
35A
100
AcDbEntity
  8
DATA
  6
Continuous
 62
     7
100
AcDbLine
 10
149.75
 20
143.25
 30
0.0
 11
208.75
 21
143.25
 31
0.0
  0
LINE
  5
B8
330
35A
100
AcDbEntity
  8
DATA
  6
Continuous
 62
     7
100
AcDbLine
 10
208.75
 20
34.25
 30
0.0
 11
149.75
 21
34.25
 31
0.0
  0
LINE
  5
B9
330
35A
100
AcDbEntity
  8
DATA
  6
Continuous
 62
     7
100
AcDbLine
 10
146.75
 20
37.25
 30
0.0
 11
146.75
 21
140.25
 31
0.0
  0
LINE
  5
BA
330
35A
100
AcDbEntity
  8
DATA
  6
Continuous
 62
     7
100
AcDbLine
 10
211.75
 20
140.25
 30
0.0
 11
211.75
 21
37.25
 31
0.0
  0
ARC
  5
BB
330
35A
100
AcDbEntity
  8
DATA
  6
Continuous
 62
     7
100
AcDbCircle
 10
149.75
 20
140.25
 30
0.0
 40
3.0
100
AcDbArc
 50
90.0
 51
180.0
  0
ARC
  5
BC
330
35A
100
AcDbEntity
  8
DATA
  6
Continuous
 62
     7
100
AcDbCircle
 10
208.75
 20
140.25
 30
0.0
 40
3.0
100
AcDbArc
 50
0.0
 51
90.0
  0
ARC
  5
BD
330
35A
100
AcDbEntity
  8
DATA
  6
Continuous
 62
     7
100
AcDbCircle
 10
149.75
 20
37.25
 30
0.0
 40
3.0
100
AcDbArc
 50
180.0
 51
270.0
  0
ARC
  5
BE
330
35A
100
AcDbEntity
  8
DATA
  6
Continuous
 62
     7
100
AcDbCircle
 10
208.75
 20
37.25
 30
0.0
 40
3.0
100
AcDbArc
 50
270.0
 51
0.0
  0
CIRCLE
  5
BF
330
35A
100
AcDbEntity
  8
DATA
  6
Continuous
 62
     7
100
AcDbCircle
 10
44.87856871036432
 20
104.8518615907916
 30
0.0
 40
1.175000000000096
  0
LWPOLYLINE
  5
C0
330
35A
100
AcDbEntity
  8
DATA
  6
Continuous
 62
     7
100
AcDbPolyline
 90
        6
 70
     1
 43
0.0
 10
47.57856871036431
 20
104.8518615907916
 10
46.22856871036431
 20
107.1901301810095
 10
43.52856871036433
 20
107.1901301810095
 10
42.17856871036436
 20
104.8518615907916
 10
43.52856871036433
 20
102.5135930005734
 10
46.22856871036431
 20
102.5135930005734
  0
CIRCLE
  5
C9
330
35A
100
AcDbEntity
  8
DATA
  6
Continuous
 62
     7
100
AcDbCircle
 10
44.87856871036432
 20
72.35186159079121
 30
0.0
 40
1.175000000000068
  0
LWPOLYLINE
  5
CA
330
35A
100
AcDbEntity
  8
DATA
  6
Continuous
 62
     7
100
AcDbPolyline
 90
        6
 70
     1
 43
0.0
 10
47.57856871036431
 20
72.35186159079121
 10
46.22856871036431
 20
74.69013018100915
 10
43.52856871036433
 20
74.69013018100915
 10
42.17856871036436
 20
72.35186159079121
 10
43.52856871036433
 20
70.01359300057318
 10
46.22856871036431
 20
70.01359300057318
  0
LINE
  5
D3
330
35A
100
AcDbEntity
  8
DATA
  6
Continuous
 62
     7
100
AcDbLine
 10
48.80356871036433
 20
99.55176647798289
 30
0.0
 11
48.80356871036433
 21
77.65195670359938
 31
0.0
  0
LINE
  5
D4
330
35A
100
AcDbEntity
  8
DATA
  6
Continuous
 62
     7
100
AcDbLine
 10
40.95356871036433
 20
78.21087390105167
 30
0.0
 11
40.95356871036433
 21
98.99284928053056
 31
0.0
  0
LWPOLYLINE
  5
D5
330
35A
100
AcDbEntity
  8
DATA
  6
Continuous
 62
     7
100
AcDbPolyline
 90
        4
 70
     1
 43
0.0
 10
44.11356871036433
 20
99.60192776197038
 10
45.64356871036431
 20
99.60192776197038
 10
45.64356871036431
 20
98.07192776197037
 10
44.11356871036433
 20
98.07192776197037
  0
LWPOLYLINE
  5
DC
330
35A
100
AcDbEntity
  8
DATA
  6
Continuous
 62
     7
100
AcDbPolyline
 90
        4
 70
     1
 43
0.0
 10
44.11356871036433
 20
97.60192776197037
 10
45.64356871036431
 20
97.60192776197037
 10
45.64356871036431
 20
96.07192776197038
 10
44.11356871036433
 20
96.07192776197038
  0
LWPOLYLINE
  5
E3
330
35A
100
AcDbEntity
  8
DATA
  6
Continuous
 62
     7
100
AcDbPolyline
 90
        4
 70
     1
 43
0.0
 10
44.11356871036433
 20
95.60192776197038
 10
45.64356871036431
 20
95.60192776197038
 10
45.64356871036431
 20
94.07192776197037
 10
44.11356871036433
 20
94.07192776197037
  0
LWPOLYLINE
  5
EA
330
35A
100
AcDbEntity
  8
DATA
  6
Continuous
 62
     7
100
AcDbPolyline
 90
        4
 70
     1
 43
0.0
 10
44.11356871036433
 20
93.60192776197036
 10
45.64356871036431
 20
93.60192776197036
 10
45.64356871036431
 20
92.07192776197038
 10
44.11356871036433
 20
92.07192776197038
  0
LWPOLYLINE
  5
F1
330
35A
100
AcDbEntity
  8
DATA
  6
Continuous
 62
     7
100
AcDbPolyline
 90
        4
 70
     1
 43
0.0
 10
44.11356871036433
 20
91.60192776197041
 10
45.64356871036431
 20
91.60192776197041
 10
45.64356871036431
 20
90.07192776197044
 10
44.11356871036433
 20
90.07192776197044
  0
LWPOLYLINE
  5
F8
330
35A
100
AcDbEntity
  8
DATA
  6
Continuous
 62
     7
100
AcDbPolyline
 90
        4
 70
     1
 43
0.0
 10
44.11356871036433
 20
89.60192776197045
 10
45.64356871036431
 20
89.60192776197045
 10
45.64356871036431
 20
88.07192776197044
 10
44.11356871036433
 20
88.07192776197044
  0
LWPOLYLINE
  5
FF
330
35A
100
AcDbEntity
  8
DATA
  6
Continuous
 62
     7
100
AcDbPolyline
 90
        4
 70
     1
 43
0.0
 10
44.11356871036433
 20
87.60192776197044
 10
45.64356871036431
 20
87.60192776197044
 10
45.64356871036431
 20
86.07192776197043
 10
44.11356871036433
 20
86.07192776197043
  0
LWPOLYLINE
  5
106
330
35A
100
AcDbEntity
  8
DATA
  6
Continuous
 62
     7
100
AcDbPolyline
 90
        4
 70
     1
 43
0.0
 10
44.11356871036433
 20
85.60192776197046
 10
45.64356871036431
 20
85.60192776197046
 10
45.64356871036431
 20
84.07192776197046
 10
44.11356871036433
 20
84.07192776197046
  0
LWPOLYLINE
  5
10D
330
35A
100
AcDbEntity
  8
DATA
  6
Continuous
 62
     7
100
AcDbPolyline
 90
        4
 70
     1
 43
0.0
 10
46.11356871036433
 20
99.60192776197038
 10
47.64356871036431
 20
99.60192776197038
 10
47.64356871036431
 20
98.07192776197037
 10
46.11356871036433
 20
98.07192776197037
  0
LWPOLYLINE
  5
114
330
35A
100
AcDbEntity
  8
DATA
  6
Continuous
 62
     7
100
AcDbPolyline
 90
        4
 70
     1
 43
0.0
 10
46.11356871036433
 20
97.60192776197037
 10
47.64356871036431
 20
97.60192776197037
 10
47.64356871036431
 20
96.07192776197038
 10
46.11356871036433
 20
96.07192776197038
  0
LWPOLYLINE
  5
11B
330
35A
100
AcDbEntity
  8
DATA
  6
Continuous
 62
     7
100
AcDbPolyline
 90
        4
 70
     1
 43
0.0
 10
46.11356871036433
 20
95.60192776197038
 10
47.64356871036431
 20
95.60192776197038
 10
47.64356871036431
 20
94.07192776197037
 10
46.11356871036433
 20
94.07192776197037
  0
LWPOLYLINE
  5
122
330
35A
100
AcDbEntity
  8
DATA
  6
Continuous
 62
     7
100
AcDbPolyline
 90
        4
 70
     1
 43
0.0
 10
46.11356871036433
 20
93.60192776197036
 10
47.64356871036431
 20
93.60192776197036
 10
47.64356871036431
 20
92.07192776197038
 10
46.11356871036433
 20
92.07192776197038
  0
LWPOLYLINE
  5
129
330
35A
100
AcDbEntity
  8
DATA
  6
Continuous
 62
     7
100
AcDbPolyline
 90
        4
 70
     1
 43
0.0
 10
46.11356871036433
 20
91.60192776197041
 10
47.64356871036431
 20
91.60192776197041
 10
47.64356871036431
 20
90.07192776197044
 10
46.11356871036433
 20
90.07192776197044
  0
LWPOLYLINE
  5
130
330
35A
100
AcDbEntity
  8
DATA
  6
Continuous
 62
     7
100
AcDbPolyline
 90
        4
 70
     1
 43
0.0
 10
46.11356871036433
 20
89.60192776197045
 10
47.64356871036431
 20
89.60192776197045
 10
47.64356871036431
 20
88.07192776197044
 10
46.11356871036433
 20
88.07192776197044
  0
LWPOLYLINE
  5
137
330
35A
100
AcDbEntity
  8
DATA
  6
Continuous
 62
     7
100
AcDbPolyline
 90
        4
 70
     1
 43
0.0
 10
46.11356871036433
 20
87.60192776197044
 10
47.64356871036431
 20
87.60192776197044
 10
47.64356871036431
 20
86.07192776197043
 10
46.11356871036433
 20
86.07192776197043
  0
LWPOLYLINE
  5
13E
330
35A
100
AcDbEntity
  8
DATA
  6
Continuous
 62
     7
100
AcDbPolyline
 90
        4
 70
     1
 43
0.0
 10
46.11356871036433
 20
85.60192776197046
 10
47.64356871036431
 20
85.60192776197046
 10
47.64356871036431
 20
84.07192776197046
 10
46.11356871036433
 20
84.07192776197046
  0
LWPOLYLINE
  5
145
330
35A
100
AcDbEntity
  8
DATA
  6
Continuous
 62
     7
100
AcDbPolyline
 90
        4
 70
     1
 43
0.0
 10
42.11356871036431
 20
99.60192776197038
 10
43.64356871036431
 20
99.60192776197038
 10
43.64356871036431
 20
98.07192776197037
 10
42.11356871036431
 20
98.07192776197037
  0
LWPOLYLINE
  5
14C
330
35A
100
AcDbEntity
  8
DATA
  6
Continuous
 62
     7
100
AcDbPolyline
 90
        4
 70
     1
 43
0.0
 10
42.11356871036431
 20
97.60192776197037
 10
43.64356871036431
 20
97.60192776197037
 10
43.64356871036431
 20
96.07192776197038
 10
42.11356871036431
 20
96.07192776197038
  0
LWPOLYLINE
  5
153
330
35A
100
AcDbEntity
  8
DATA
  6
Continuous
 62
     7
100
AcDbPolyline
 90
        4
 70
     1
 43
0.0
 10
42.11356871036431
 20
95.60192776197038
 10
43.64356871036431
 20
95.60192776197038
 10
43.64356871036431
 20
94.07192776197037
 10
42.11356871036431
 20
94.07192776197037
  0
LWPOLYLINE
  5
15A
330
35A
100
AcDbEntity
  8
DATA
  6
Continuous
 62
     7
100
AcDbPolyline
 90
        4
 70
     1
 43
0.0
 10
42.11356871036431
 20
93.60192776197036
 10
43.64356871036431
 20
93.60192776197036
 10
43.64356871036431
 20
92.07192776197038
 10
42.11356871036431
 20
92.07192776197038
  0
LWPOLYLINE
  5
161
330
35A
100
AcDbEntity
  8
DATA
  6
Continuous
 62
     7
100
AcDbPolyline
 90
        4
 70
     1
 43
0.0
 10
42.11356871036431
 20
91.60192776197041
 10
43.64356871036431
 20
91.60192776197041
 10
43.64356871036431
 20
90.07192776197044
 10
42.11356871036431
 20
90.07192776197044
  0
LWPOLYLINE
  5
168
330
35A
100
AcDbEntity
  8
DATA
  6
Continuous
 62
     7
100
AcDbPolyline
 90
        4
 70
     1
 43
0.0
 10
42.11356871036431
 20
89.60192776197045
 10
43.64356871036431
 20
89.60192776197045
 10
43.64356871036431
 20
88.07192776197044
 10
42.11356871036431
 20
88.07192776197044
  0
LWPOLYLINE
  5
16F
330
35A
100
AcDbEntity
  8
DATA
  6
Continuous
 62
     7
100
AcDbPolyline
 90
        4
 70
     1
 43
0.0
 10
42.11356871036431
 20
87.60192776197044
 10
43.64356871036431
 20
87.60192776197044
 10
43.64356871036431
 20
86.07192776197043
 10
42.11356871036431
 20
86.07192776197043
  0
LWPOLYLINE
  5
176
330
35A
100
AcDbEntity
  8
DATA
  6
Continuous
 62
     7
100
AcDbPolyline
 90
        4
 70
     1
 43
0.0
 10
42.11356871036431
 20
85.60192776197046
 10
43.64356871036431
 20
85.60192776197046
 10
43.64356871036431
 20
84.07192776197046
 10
42.11356871036431
 20
84.07192776197046
  0
LWPOLYLINE
  5
17D
330
35A
100
AcDbEntity
  8
DATA
  6
Continuous
 62
     7
100
AcDbPolyline
 90
        4
 70
     0
 43
0.0
 10
45.27856871036433
 20
80.05186159079107
 10
45.27856871036433
 20
77.95186159079107
 10
44.47856871036432
 20
77.95186159079107
 10
44.47856871036432
 20
80.05186159079107
  0
LWPOLYLINE
  5
184
330
35A
100
AcDbEntity
  8
DATA
  6
Continuous
 62
     7
100
AcDbPolyline
 90
        4
 70
     0
 43
0.0
 10
44.47856871036432
 20
80.85186159079105
 10
44.47856871036432
 20
82.95186159079106
 10
45.27856871036433
 20
82.95186159079106
 10
45.27856871036433
 20
80.85186159079105
  0
LWPOLYLINE
  5
18B
330
35A
100
AcDbEntity
  8
DATA
  6
Continuous
 62
     7
100
AcDbPolyline
 90
        4
 70
     0
 43
0.0
 10
44.47856871036432
 20
80.05186159079107
 10
42.37856871036432
 20
80.05186159079107
 10
42.37856871036432
 20
80.85186159079105
 10
44.47856871036432
 20
80.85186159079105
  0
LWPOLYLINE
  5
192
330
35A
100
AcDbEntity
  8
DATA
  6
Continuous
 62
     7
100
AcDbPolyline
 90
        4
 70
     0
 43
0.0
 10
45.27856871036433
 20
80.85186159079105
 10
47.37856871036432
 20
80.85186159079105
 10
47.37856871036432
 20
80.05186159079107
 10
45.27856871036433
 20
80.05186159079107
  0
LWPOLYLINE
  5
199
330
35A
100
AcDbEntity
  8
DATA
  6
Continuous
 62
     7
100
AcDbPolyline
 90
        4
 70
     1
 43
0.0
 10
45.63799652101424
 20
82.31214602126277
 10
46.63799652101424
 20
82.31214602126277
 10
46.63799652101424
 20
81.31214602126277
 10
45.63799652101424
 20
81.31214602126277
  0
LWPOLYLINE
  5
1A0
330
35A
100
AcDbEntity
  8
DATA
  6
Continuous
 62
     7
100
AcDbPolyline
 90
        4
 70
     1
 43
0.0
 10
45.63799652101424
 20
79.59157716031935
 10
46.63799652101424
 20
79.59157716031935
 10
46.63799652101424
 20
78.59157716031934
 10
45.63799652101424
 20
78.59157716031934
  0
LWPOLYLINE
  5
1A7
330
35A
100
AcDbEntity
  8
DATA
  6
Continuous
 62
     7
100
AcDbPolyline
 90
        4
 70
     1
 43
0.0
 10
43.1191408997144
 20
82.31214602126277
 10
44.1191408997144
 20
82.31214602126277
 10
44.1191408997144
 20
81.31214602126277
 10
43.1191408997144
 20
81.31214602126277
  0
LWPOLYLINE
  5
1AE
330
35A
100
AcDbEntity
  8
DATA
  6
Continuous
 62
     7
100
AcDbPolyline
 90
        4
 70
     1
 43
0.0
 10
43.1191408997144
 20
79.59157716031935
 10
44.1191408997144
 20
79.59157716031935
 10
44.1191408997144
 20
78.59157716031934
 10
43.1191408997144
 20
78.59157716031934
  0
LINE
  5
1B5
330
35A
100
AcDbEntity
  8
DATA
  6
Continuous
 62
     7
100
AcDbLine
 10
47.70846040487813
 20
100.5472334087383
 30
0.0
 11
41.85846040487809
 21
99.98831621128601
 31
0.0
  0
LINE
  5
1B6
330
35A
100
AcDbEntity
  8
DATA
  6
Continuous
 62
     7
100
AcDbLine
 10
47.70846040487813
 20
76.65648977284402
 30
0.0
 11
41.85846040487816
 21
77.2154069702963
 31
0.0
  0
ARC
  5
1B7
330
35A
100
AcDbEntity
  8
DATA
  6
Continuous
 62
     7
100
AcDbCircle
 10
47.80356871036436
 20
99.55176647798289
 30
0.0
 40
0.9999999999999715
100
AcDbArc
 50
0.0
 51
95.45755348510708
  0
ARC
  5
1B8
330
35A
100
AcDbEntity
  8
DATA
  6
Continuous
 62
     7
100
AcDbCircle
 10
47.80356871036433
 20
77.65195670359935
 30
0.0
 40
0.9999999999999729
100
AcDbArc
 50
264.5424465148939
 51
0.0000000000015916
  0
ARC
  5
1B9
330
35A
100
AcDbEntity
  8
DATA
  6
Continuous
 62
     7
100
AcDbCircle
 10
41.95356871036433
 20
98.99284928053056
 30
0.0
 40
1.000000000000088
100
AcDbArc
 50
95.45755348510708
 51
179.9999999999983
  0
ARC
  5
1BA
330
35A
100
AcDbEntity
  8
DATA
  6
Continuous
 62
     7
100
AcDbCircle
 10
41.95356871036433
 20
78.21087390105167
 30
0.0
 40
1.0
100
AcDbArc
 50
180.0
 51
264.5424465148957
  0
CIRCLE
  5
1BB
330
35A
100
AcDbEntity
  8
DATA
  6
Continuous
 62
     7
100
AcDbCircle
 10
170.7723780959947
 20
104.8518615907916
 30
0.0
 40
1.175000000000096
  0
LWPOLYLINE
  5
1BC
330
35A
100
AcDbEntity
  8
DATA
  6
Continuous
 62
     7
100
AcDbPolyline
 90
        6
 70
     1
 43
0.0
 10
173.4723780959946
 20
104.8518615907916
 10
172.1223780959946
 20
107.1901301810095
 10
169.4223780959946
 20
107.1901301810095
 10
168.0723780959947
 20
104.8518615907916
 10
169.4223780959946
 20
102.5135930005734
 10
172.1223780959946
 20
102.5135930005734
  0
CIRCLE
  5
1C5
330
35A
100
AcDbEntity
  8
DATA
  6
Continuous
 62
     7
100
AcDbCircle
 10
170.7723780959947
 20
72.35186159079121
 30
0.0
 40
1.175000000000068
  0
LWPOLYLINE
  5
1C6
330
35A
100
AcDbEntity
  8
DATA
  6
Continuous
 62
     7
100
AcDbPolyline
 90
        6
 70
     1
 43
0.0
 10
173.4723780959946
 20
72.35186159079121
 10
172.1223780959946
 20
74.69013018100915
 10
169.4223780959946
 20
74.69013018100915
 10
168.0723780959947
 20
72.35186159079121
 10
169.4223780959946
 20
70.01359300057318
 10
172.1223780959946
 20
70.01359300057318
  0
LINE
  5
1CF
330
35A
100
AcDbEntity
  8
DATA
  6
Continuous
 62
     7
100
AcDbLine
 10
174.6973780959947
 20
99.55176647798289
 30
0.0
 11
174.6973780959947
 21
77.65195670359938
 31
0.0
  0
LINE
  5
1D0
330
35A
100
AcDbEntity
  8
DATA
  6
Continuous
 62
     7
100
AcDbLine
 10
166.8473780959947
 20
78.21087390105167
 30
0.0
 11
166.8473780959947
 21
98.99284928053056
 31
0.0
  0
LWPOLYLINE
  5
1D1
330
35A
100
AcDbEntity
  8
DATA
  6
Continuous
 62
     7
100
AcDbPolyline
 90
        4
 70
     1
 43
0.0
 10
170.0073780959947
 20
99.60192776197038
 10
171.5373780959946
 20
99.60192776197038
 10
171.5373780959946
 20
98.07192776197037
 10
170.0073780959947
 20
98.07192776197037
  0
LWPOLYLINE
  5
1D8
330
35A
100
AcDbEntity
  8
DATA
  6
Continuous
 62
     7
100
AcDbPolyline
 90
        4
 70
     1
 43
0.0
 10
170.0073780959947
 20
97.60192776197037
 10
171.5373780959946
 20
97.60192776197037
 10
171.5373780959946
 20
96.07192776197038
 10
170.0073780959947
 20
96.07192776197038
  0
LWPOLYLINE
  5
1DF
330
35A
100
AcDbEntity
  8
DATA
  6
Continuous
 62
     7
100
AcDbPolyline
 90
        4
 70
     1
 43
0.0
 10
170.0073780959947
 20
95.60192776197038
 10
171.5373780959946
 20
95.60192776197038
 10
171.5373780959946
 20
94.07192776197037
 10
170.0073780959947
 20
94.07192776197037
  0
LWPOLYLINE
  5
1E6
330
35A
100
AcDbEntity
  8
DATA
  6
Continuous
 62
     7
100
AcDbPolyline
 90
        4
 70
     1
 43
0.0
 10
170.0073780959947
 20
93.60192776197036
 10
171.5373780959946
 20
93.60192776197036
 10
171.5373780959946
 20
92.07192776197038
 10
170.0073780959947
 20
92.07192776197038
  0
LWPOLYLINE
  5
1ED
330
35A
100
AcDbEntity
  8
DATA
  6
Continuous
 62
     7
100
AcDbPolyline
 90
        4
 70
     1
 43
0.0
 10
170.0073780959947
 20
91.60192776197041
 10
171.5373780959946
 20
91.60192776197041
 10
171.5373780959946
 20
90.07192776197044
 10
170.0073780959947
 20
90.07192776197044
  0
LWPOLYLINE
  5
1F4
330
35A
100
AcDbEntity
  8
DATA
  6
Continuous
 62
     7
100
AcDbPolyline
 90
        4
 70
     1
 43
0.0
 10
170.0073780959947
 20
89.60192776197045
 10
171.5373780959946
 20
89.60192776197045
 10
171.5373780959946
 20
88.07192776197044
 10
170.0073780959947
 20
88.07192776197044
  0
LWPOLYLINE
  5
1FB
330
35A
100
AcDbEntity
  8
DATA
  6
Continuous
 62
     7
100
AcDbPolyline
 90
        4
 70
     1
 43
0.0
 10
170.0073780959947
 20
87.60192776197044
 10
171.5373780959946
 20
87.60192776197044
 10
171.5373780959946
 20
86.07192776197043
 10
170.0073780959947
 20
86.07192776197043
  0
LWPOLYLINE
  5
202
330
35A
100
AcDbEntity
  8
DATA
  6
Continuous
 62
     7
100
AcDbPolyline
 90
        4
 70
     1
 43
0.0
 10
170.0073780959947
 20
85.60192776197046
 10
171.5373780959946
 20
85.60192776197046
 10
171.5373780959946
 20
84.07192776197046
 10
170.0073780959947
 20
84.07192776197046
  0
LWPOLYLINE
  5
209
330
35A
100
AcDbEntity
  8
DATA
  6
Continuous
 62
     7
100
AcDbPolyline
 90
        4
 70
     1
 43
0.0
 10
172.0073780959947
 20
99.60192776197038
 10
173.5373780959946
 20
99.60192776197038
 10
173.5373780959946
 20
98.07192776197037
 10
172.0073780959947
 20
98.07192776197037
  0
LWPOLYLINE
  5
210
330
35A
100
AcDbEntity
  8
DATA
  6
Continuous
 62
     7
100
AcDbPolyline
 90
        4
 70
     1
 43
0.0
 10
172.0073780959947
 20
97.60192776197037
 10
173.5373780959946
 20
97.60192776197037
 10
173.5373780959946
 20
96.07192776197038
 10
172.0073780959947
 20
96.07192776197038
  0
LWPOLYLINE
  5
217
330
35A
100
AcDbEntity
  8
DATA
  6
Continuous
 62
     7
100
AcDbPolyline
 90
        4
 70
     1
 43
0.0
 10
172.0073780959947
 20
95.60192776197038
 10
173.5373780959946
 20
95.60192776197038
 10
173.5373780959946
 20
94.07192776197037
 10
172.0073780959947
 20
94.07192776197037
  0
LWPOLYLINE
  5
21E
330
35A
100
AcDbEntity
  8
DATA
  6
Continuous
 62
     7
100
AcDbPolyline
 90
        4
 70
     1
 43
0.0
 10
172.0073780959947
 20
93.60192776197036
 10
173.5373780959946
 20
93.60192776197036
 10
173.5373780959946
 20
92.07192776197038
 10
172.0073780959947
 20
92.07192776197038
  0
LWPOLYLINE
  5
225
330
35A
100
AcDbEntity
  8
DATA
  6
Continuous
 62
     7
100
AcDbPolyline
 90
        4
 70
     1
 43
0.0
 10
172.0073780959947
 20
91.60192776197041
 10
173.5373780959946
 20
91.60192776197041
 10
173.5373780959946
 20
90.07192776197044
 10
172.0073780959947
 20
90.07192776197044
  0
LWPOLYLINE
  5
22C
330
35A
100
AcDbEntity
  8
DATA
  6
Continuous
 62
     7
100
AcDbPolyline
 90
        4
 70
     1
 43
0.0
 10
172.0073780959947
 20
89.60192776197045
 10
173.5373780959946
 20
89.60192776197045
 10
173.5373780959946
 20
88.07192776197044
 10
172.0073780959947
 20
88.07192776197044
  0
LWPOLYLINE
  5
233
330
35A
100
AcDbEntity
  8
DATA
  6
Continuous
 62
     7
100
AcDbPolyline
 90
        4
 70
     1
 43
0.0
 10
172.0073780959947
 20
87.60192776197044
 10
173.5373780959946
 20
87.60192776197044
 10
173.5373780959946
 20
86.07192776197043
 10
172.0073780959947
 20
86.07192776197043
  0
LWPOLYLINE
  5
23A
330
35A
100
AcDbEntity
  8
DATA
  6
Continuous
 62
     7
100
AcDbPolyline
 90
        4
 70
     1
 43
0.0
 10
172.0073780959947
 20
85.60192776197046
 10
173.5373780959946
 20
85.60192776197046
 10
173.5373780959946
 20
84.07192776197046
 10
172.0073780959947
 20
84.07192776197046
  0
LWPOLYLINE
  5
241
330
35A
100
AcDbEntity
  8
DATA
  6
Continuous
 62
     7
100
AcDbPolyline
 90
        4
 70
     1
 43
0.0
 10
168.0073780959946
 20
99.60192776197038
 10
169.5373780959946
 20
99.60192776197038
 10
169.5373780959946
 20
98.07192776197037
 10
168.0073780959946
 20
98.07192776197037
  0
LWPOLYLINE
  5
248
330
35A
100
AcDbEntity
  8
DATA
  6
Continuous
 62
     7
100
AcDbPolyline
 90
        4
 70
     1
 43
0.0
 10
168.0073780959946
 20
97.60192776197037
 10
169.5373780959946
 20
97.60192776197037
 10
169.5373780959946
 20
96.07192776197038
 10
168.0073780959946
 20
96.07192776197038
  0
LWPOLYLINE
  5
24F
330
35A
100
AcDbEntity
  8
DATA
  6
Continuous
 62
     7
100
AcDbPolyline
 90
        4
 70
     1
 43
0.0
 10
168.0073780959946
 20
95.60192776197038
 10
169.5373780959946
 20
95.60192776197038
 10
169.5373780959946
 20
94.07192776197037
 10
168.0073780959946
 20
94.07192776197037
  0
LWPOLYLINE
  5
256
330
35A
100
AcDbEntity
  8
DATA
  6
Continuous
 62
     7
100
AcDbPolyline
 90
        4
 70
     1
 43
0.0
 10
168.0073780959946
 20
93.60192776197036
 10
169.5373780959946
 20
93.60192776197036
 10
169.5373780959946
 20
92.07192776197038
 10
168.0073780959946
 20
92.07192776197038
  0
LWPOLYLINE
  5
25D
330
35A
100
AcDbEntity
  8
DATA
  6
Continuous
 62
     7
100
AcDbPolyline
 90
        4
 70
     1
 43
0.0
 10
168.0073780959946
 20
91.60192776197041
 10
169.5373780959946
 20
91.60192776197041
 10
169.5373780959946
 20
90.07192776197044
 10
168.0073780959946
 20
90.07192776197044
  0
LWPOLYLINE
  5
264
330
35A
100
AcDbEntity
  8
DATA
  6
Continuous
 62
     7
100
AcDbPolyline
 90
        4
 70
     1
 43
0.0
 10
168.0073780959946
 20
89.60192776197045
 10
169.5373780959946
 20
89.60192776197045
 10
169.5373780959946
 20
88.07192776197044
 10
168.0073780959946
 20
88.07192776197044
  0
LWPOLYLINE
  5
26B
330
35A
100
AcDbEntity
  8
DATA
  6
Continuous
 62
     7
100
AcDbPolyline
 90
        4
 70
     1
 43
0.0
 10
168.0073780959946
 20
87.60192776197044
 10
169.5373780959946
 20
87.60192776197044
 10
169.5373780959946
 20
86.07192776197043
 10
168.0073780959946
 20
86.07192776197043
  0
LWPOLYLINE
  5
272
330
35A
100
AcDbEntity
  8
DATA
  6
Continuous
 62
     7
100
AcDbPolyline
 90
        4
 70
     1
 43
0.0
 10
168.0073780959946
 20
85.60192776197046
 10
169.5373780959946
 20
85.60192776197046
 10
169.5373780959946
 20
84.07192776197046
 10
168.0073780959946
 20
84.07192776197046
  0
LWPOLYLINE
  5
279
330
35A
100
AcDbEntity
  8
DATA
  6
Continuous
 62
     7
100
AcDbPolyline
 90
        4
 70
     0
 43
0.0
 10
171.1723780959946
 20
80.05186159079107
 10
171.1723780959946
 20
77.95186159079107
 10
170.3723780959946
 20
77.95186159079107
 10
170.3723780959946
 20
80.05186159079107
  0
LWPOLYLINE
  5
280
330
35A
100
AcDbEntity
  8
DATA
  6
Continuous
 62
     7
100
AcDbPolyline
 90
        4
 70
     0
 43
0.0
 10
170.3723780959946
 20
80.85186159079105
 10
170.3723780959946
 20
82.95186159079106
 10
171.1723780959946
 20
82.95186159079106
 10
171.1723780959946
 20
80.85186159079105
  0
LWPOLYLINE
  5
287
330
35A
100
AcDbEntity
  8
DATA
  6
Continuous
 62
     7
100
AcDbPolyline
 90
        4
 70
     0
 43
0.0
 10
170.3723780959946
 20
80.05186159079107
 10
168.2723780959947
 20
80.05186159079107
 10
168.2723780959947
 20
80.85186159079105
 10
170.3723780959946
 20
80.85186159079105
  0
LWPOLYLINE
  5
28E
330
35A
100
AcDbEntity
  8
DATA
  6
Continuous
 62
     7
100
AcDbPolyline
 90
        4
 70
     0
 43
0.0
 10
171.1723780959946
 20
80.85186159079105
 10
173.2723780959947
 20
80.85186159079105
 10
173.2723780959947
 20
80.05186159079107
 10
171.1723780959946
 20
80.05186159079107
  0
LWPOLYLINE
  5
295
330
35A
100
AcDbEntity
  8
DATA
  6
Continuous
 62
     7
100
AcDbPolyline
 90
        4
 70
     1
 43
0.0
 10
171.5318059066446
 20
82.31214602126277
 10
172.5318059066446
 20
82.31214602126277
 10
172.5318059066446
 20
81.31214602126277
 10
171.5318059066446
 20
81.31214602126277
  0
LWPOLYLINE
  5
29C
330
35A
100
AcDbEntity
  8
DATA
  6
Continuous
 62
     7
100
AcDbPolyline
 90
        4
 70
     1
 43
0.0
 10
171.5318059066446
 20
79.59157716031935
 10
172.5318059066446
 20
79.59157716031935
 10
172.5318059066446
 20
78.59157716031934
 10
171.5318059066446
 20
78.59157716031934
  0
LWPOLYLINE
  5
2A3
330
35A
100
AcDbEntity
  8
DATA
  6
Continuous
 62
     7
100
AcDbPolyline
 90
        4
 70
     1
 43
0.0
 10
169.0129502853447
 20
82.31214602126277
 10
170.0129502853447
 20
82.31214602126277
 10
170.0129502853447
 20
81.31214602126277
 10
169.0129502853447
 20
81.31214602126277
  0
LWPOLYLINE
  5
2AA
330
35A
100
AcDbEntity
  8
DATA
  6
Continuous
 62
     7
100
AcDbPolyline
 90
        4
 70
     1
 43
0.0
 10
169.0129502853447
 20
79.59157716031935
 10
170.0129502853447
 20
79.59157716031935
 10
170.0129502853447
 20
78.59157716031934
 10
169.0129502853447
 20
78.59157716031934
  0
LINE
  5
2B1
330
35A
100
AcDbEntity
  8
DATA
  6
Continuous
 62
     7
100
AcDbLine
 10
173.6022697905084
 20
100.5472334087383
 30
0.0
 11
167.7522697905084
 21
99.98831621128601
 31
0.0
  0
LINE
  5
2B2
330
35A
100
AcDbEntity
  8
DATA
  6
Continuous
 62
     7
100
AcDbLine
 10
173.6022697905084
 20
76.65648977284402
 30
0.0
 11
167.7522697905085
 21
77.2154069702963
 31
0.0
  0
ARC
  5
2B3
330
35A
100
AcDbEntity
  8
DATA
  6
Continuous
 62
     7
100
AcDbCircle
 10
173.6973780959947
 20
99.55176647798289
 30
0.0
 40
0.9999999999999715
100
AcDbArc
 50
0.0
 51
95.45755348510708
  0
ARC
  5
2B4
330
35A
100
AcDbEntity
  8
DATA
  6
Continuous
 62
     7
100
AcDbCircle
 10
173.6973780959947
 20
77.65195670359935
 30
0.0
 40
0.9999999999999729
100
AcDbArc
 50
264.5424465148939
 51
0.0000000000015916
  0
ARC
  5
2B5
330
35A
100
AcDbEntity
  8
DATA
  6
Continuous
 62
     7
100
AcDbCircle
 10
167.8473780959946
 20
98.99284928053056
 30
0.0
 40
1.000000000000088
100
AcDbArc
 50
95.45755348510708
 51
179.9999999999983
  0
ARC
  5
2B6
330
35A
100
AcDbEntity
  8
DATA
  6
Continuous
 62
     7
100
AcDbCircle
 10
167.8473780959946
 20
78.21087390105167
 30
0.0
 40
0.9999999999999573
100
AcDbArc
 50
180.0
 51
264.5424465148957
  0
LWPOLYLINE
  5
2B7
330
35A
100
AcDbEntity
  8
DATA
  6
Continuous
 62
     7
100
AcDbPolyline
 90
        4
 70
     1
 43
0.0
 10
166.1446937591118
 20
107.6018615907914
 10
189.1446937591116
 20
107.6018615907914
 10
189.1446937591116
 20
69.6018615907914
 10
166.1446937591118
 20
69.6018615907914
  0
CIRCLE
  5
2BE
330
35A
100
AcDbEntity
  8
DATA
  6
Continuous
 62
     7
100
AcDbCircle
 10
179.3002156683634
 20
104.8518615907916
 30
0.0
 40
1.175000000000096
  0
CIRCLE
  5
2BF
330
35A
100
AcDbEntity
  8
DATA
  6
Continuous
 62
     7
100
AcDbCircle
 10
179.3002156683634
 20
72.35186159079121
 30
0.0
 40
1.175000000000068
  0
LINE
  5
2C0
330
35A
100
AcDbEntity
  8
DATA
  6
Continuous
 62
     7
100
AcDbLine
 10
133.125
 20
107.1901301810095
 30
0.0
 11
128.125
 21
107.1901301810095
 31
0.0
  0
LINE
  5
2C1
330
35A
100
AcDbEntity
  8
DATA
  6
Continuous
 62
     7
100
AcDbLine
 10
133.125
 20
102.5135930005734
 30
0.0
 11
128.125
 21
102.5135930005734
 31
0.0
  0
LINE
  5
2C2
330
35A
100
AcDbEntity
  8
DATA
  6
Continuous
 62
     7
100
AcDbLine
 10
133.125
 20
100.6295648410232
 30
0.0
 11
128.125
 21
100.6295648410232
 31
0.0
  0
LINE
  5
2C3
330
35A
100
AcDbEntity
  8
DATA
  6
Continuous
 62
     7
100
AcDbLine
 10
133.125
 20
70.01359300057318
 30
0.0
 11
128.125
 21
70.01359300057318
 31
0.0
  0
LINE
  5
2C4
330
35A
100
AcDbEntity
  8
DATA
  6
Continuous
 62
     7
100
AcDbLine
 10
133.125
 20
74.69013018100915
 30
0.0
 11
128.125
 21
74.69013018100915
 31
0.0
  0
LINE
  5
2C5
330
35A
100
AcDbEntity
  8
DATA
  6
Continuous
 62
     7
100
AcDbLine
 10
133.125
 20
76.67231544297706
 30
0.0
 11
128.125
 21
76.67231544297706
 31
0.0
  0
LINE
  5
2C6
330
35A
100
AcDbEntity
  8
DATA
  6
Continuous
 62
     7
100
AcDbLine
 10
133.125
 20
100.6295648410232
 30
0.0
 11
133.125
 21
76.67231544297706
 31
0.0
  0
LINE
  5
2C7
330
35A
100
AcDbEntity
  8
DATA
  6
Continuous
 62
     7
100
AcDbLine
 10
133.125
 20
74.69013018100915
 30
0.0
 11
133.125
 21
70.01359300057318
 31
0.0
  0
LINE
  5
2C8
330
35A
100
AcDbEntity
  8
DATA
  6
Continuous
 62
     7
100
AcDbLine
 10
133.125
 20
102.5135930005734
 30
0.0
 11
133.125
 21
107.1901301810095
 31
0.0
  0
LINE
  5
2C9
330
35A
100
AcDbEntity
  8
DATA
  6
Continuous
 62
     7
100
AcDbLine
 10
108.125
 20
107.1901301810095
 30
0.0
 11
108.125
 21
102.5135930005734
 31
0.0
  0
LINE
  5
2CA
330
35A
100
AcDbEntity
  8
DATA
  6
Continuous
 62
     7
100
AcDbLine
 10
108.125
 20
100.6295648410232
 30
0.0
 11
108.125
 21
76.67231544297706
 31
0.0
  0
LINE
  5
2CB
330
35A
100
AcDbEntity
  8
DATA
  6
Continuous
 62
     7
100
AcDbLine
 10
108.125
 20
74.69013018100915
 30
0.0
 11
108.125
 21
70.01359300057318
 31
0.0
  0
LINE
  5
2CC
330
35A
100
AcDbEntity
  8
DATA
  6
Continuous
 62
     7
100
AcDbLine
 10
114.125
 20
107.1901301810095
 30
0.0
 11
114.125
 21
70.01359300057318
 31
0.0
  0
LINE
  5
2CD
330
35A
100
AcDbEntity
  8
DATA
  6
Continuous
 62
     7
100
AcDbLine
 10
114.125
 20
107.1901301810095
 30
0.0
 11
108.125
 21
107.1901301810095
 31
0.0
  0
LINE
  5
2CE
330
35A
100
AcDbEntity
  8
DATA
  6
Continuous
 62
     7
100
AcDbLine
 10
114.125
 20
102.5135930005734
 30
0.0
 11
108.125
 21
102.5135930005734
 31
0.0
  0
LINE
  5
2CF
330
35A
100
AcDbEntity
  8
DATA
  6
Continuous
 62
     7
100
AcDbLine
 10
114.125
 20
100.6295648410232
 30
0.0
 11
108.125
 21
100.6295648410232
 31
0.0
  0
LINE
  5
2D0
330
35A
100
AcDbEntity
  8
DATA
  6
Continuous
 62
     7
100
AcDbLine
 10
114.125
 20
76.67231544297706
 30
0.0
 11
108.125
 21
76.67231544297706
 31
0.0
  0
LINE
  5
2D1
330
35A
100
AcDbEntity
  8
DATA
  6
Continuous
 62
     7
100
AcDbLine
 10
114.125
 20
74.69013018100915
 30
0.0
 11
108.125
 21
74.69013018100915
 31
0.0
  0
LINE
  5
2D2
330
35A
100
AcDbEntity
  8
DATA
  6
Continuous
 62
     7
100
AcDbLine
 10
114.125
 20
70.01359300057318
 30
0.0
 11
108.125
 21
70.01359300057318
 31
0.0
  0
LINE
  5
2D3
330
35A
100
AcDbEntity
  8
DATA
  6
Continuous
 62
     7
100
AcDbLine
 10
114.125
 20
107.1901301810095
 30
0.0
 11
122.525
 21
107.1901301810095
 31
0.0
  0
LINE
  5
2D4
330
35A
100
AcDbEntity
  8
DATA
  6
Continuous
 62
     7
100
AcDbLine
 10
114.125
 20
70.01359300057318
 30
0.0
 11
122.525
 21
70.01359300057318
 31
0.0
  0
LINE
  5
2D5
330
35A
100
AcDbEntity
  8
DATA
  6
Continuous
 62
     7
100
AcDbLine
 10
119.125
 20
107.1901301810095
 30
0.0
 11
119.125
 21
70.01359300057318
 31
0.0
  0
LINE
  5
2D6
330
35A
100
AcDbEntity
  8
DATA
  6
Continuous
 62
     7
100
AcDbLine
 10
48.31804128923584
 20
198.125
 30
0.0
 11
56.01804128923584
 21
198.125
 31
0.0
  0
LINE
  5
2D7
330
35A
100
AcDbEntity
  8
DATA
  6
Continuous
 62
     7
100
AcDbLine
 10
57.05975389813106
 20
184.525
 30
0.0
 11
57.05975389813106
 21
192.125
 31
0.0
  0
LINE
  5
2D8
330
35A
100
AcDbEntity
  8
DATA
  6
Continuous
 62
     7
100
AcDbLine
 10
47.05975389813106
 20
186.125
 30
0.0
 11
47.05975389813106
 21
192.125
 31
0.0
  0
LINE
  5
2D9
330
35A
100
AcDbEntity
  8
DATA
  6
Continuous
 62
     7
100
AcDbLine
 10
56.01804128923584
 20
192.125
 30
0.0
 11
56.01804128923584
 21
198.125
 31
0.0
  0
LINE
  5
2DA
330
35A
100
AcDbEntity
  8
DATA
  6
Continuous
 62
     7
100
AcDbLine
 10
48.31804128923584
 20
192.125
 30
0.0
 11
48.31804128923584
 21
198.125
 31
0.0
  0
LINE
  5
2DB
330
35A
100
AcDbEntity
  8
DATA
  6
Continuous
 62
     7
100
AcDbLine
 10
47.05975389813106
 20
192.125
 30
0.0
 11
57.05975389813106
 21
192.125
 31
0.0
  0
LINE
  5
2DC
330
35A
100
AcDbEntity
  8
DATA
  6
Continuous
 62
     7
100
AcDbLine
 10
40.95356871036433
 20
186.125
 30
0.0
 11
57.05975389813106
 21
186.125
 31
0.0
  0
LINE
  5
2DD
330
35A
100
AcDbEntity
  8
DATA
  6
Continuous
 62
     7
100
AcDbLine
 10
40.95356871036433
 20
183.725
 30
0.0
 11
40.95356871036433
 21
186.125
 31
0.0
  0
LINE
  5
2DE
330
35A
100
AcDbEntity
  8
DATA
  6
Continuous
 62
     7
100
AcDbLine
 10
48.80356871036433
 20
183.725
 30
0.0
 11
48.80356871036433
 21
184.525
 31
0.0
  0
LINE
  5
2DF
330
35A
100
AcDbEntity
  8
DATA
  6
Continuous
 62
     7
100
AcDbLine
 10
40.95356871036433
 20
184.525
 30
0.0
 11
57.05975389813106
 21
184.525
 31
0.0
  0
LINE
  5
2E0
330
35A
100
AcDbEntity
  8
DATA
  6
Continuous
 62
     7
100
AcDbLine
 10
48.80356871036433
 20
173.125
 30
0.0
 11
40.95356871036433
 21
173.125
 31
0.0
  0
LINE
  5
2E1
330
35A
100
AcDbEntity
  8
DATA
  6
Continuous
 62
     7
100
AcDbLine
 10
40.95356871036433
 20
173.125
 30
0.0
 11
40.95356871036433
 21
178.125
 31
0.0
  0
LINE
  5
2E2
330
35A
100
AcDbEntity
  8
DATA
  6
Continuous
 62
     7
100
AcDbLine
 10
48.80356871036433
 20
173.125
 30
0.0
 11
48.80356871036433
 21
178.125
 31
0.0
  0
ENDSEC
  0
SECTION
  2
OBJECTS
  0
DICTIONARY
  5
2F0
330
0
100
AcDbDictionary
281
     1
  3
ACAD_COLOR
350
351
  3
ACAD_GROUP
350
2F1
  3
ACAD_LAYOUT
350
350
  3
ACAD_MATERIAL
350
2F4
  3
ACAD_MLEADERSTYLE
350
354
  3
ACAD_MLINESTYLE
350
34D
  3
ACAD_PLOTSETTINGS
350
34F
  3
ACAD_PLOTSTYLENAME
350
2F2
  3
ACAD_SCALELIST
350
321
  3
ACAD_TABLESTYLE
350
352
  3
ACAD_VISUALSTYLE
350
30D
  3
ACDB_RECOMPOSE_DATA
350
387
  3
AcDbVariableDictionary
350
37D
  3
DWGPROPS
350
388
  0
DICTIONARY
  5
373
330
343
100
AcDbDictionary
280
     1
281
     1
  3
ADSK_XREC_LAYER_RECONCILED
360
374
  0
DICTIONARY
  5
375
330
35E
100
AcDbDictionary
280
     1
281
     1
  3
ADSK_XREC_LAYER_RECONCILED
360
376
  0
DICTIONARY
  5
377
330
36A
100
AcDbDictionary
280
     1
281
     1
  3
ADSK_XREC_LAYER_RECONCILED
360
378
  0
DICTIONARY
  5
379
330
36C
100
AcDbDictionary
280
     1
281
     1
  3
ADSK_XREC_LAYER_RECONCILED
360
37A
  0
DICTIONARY
  5
37B
330
36D
100
AcDbDictionary
280
     1
281
     1
  3
ADSK_XREC_LAYER_RECONCILED
360
37C
  0
DICTIONARY
  5
351
102
{ACAD_REACTORS
330
2F0
102
}
330
2F0
100
AcDbDictionary
281
     1
  0
DICTIONARY
  5
2F1
102
{ACAD_REACTORS
330
2F0
102
}
330
2F0
100
AcDbDictionary
281
     1
  0
DICTIONARY
  5
350
102
{ACAD_REACTORS
330
2F0
102
}
330
2F0
100
AcDbDictionary
281
     1
  3
Model
350
35D
  3
レイアウト1
350
359
  0
DICTIONARY
  5
2F4
102
{ACAD_REACTORS
330
2F0
102
}
330
2F0
100
AcDbDictionary
281
     1
  3
ByBlock
350
2FD
  3
ByLayer
350
2F5
  3
Global
350
305
  0
DICTIONARY
  5
354
102
{ACAD_REACTORS
330
2F0
102
}
330
2F0
100
AcDbDictionary
281
     1
  3
Standard
350
355
  0
DICTIONARY
  5
34D
102
{ACAD_REACTORS
330
2F0
102
}
330
2F0
100
AcDbDictionary
281
     1
  3
Standard
350
34E
  0
DICTIONARY
  5
34F
102
{ACAD_REACTORS
330
2F0
102
}
330
2F0
100
AcDbDictionary
281
     1
  0
ACDBDICTIONARYWDFLT
  5
2F2
102
{ACAD_REACTORS
330
2F0
102
}
330
2F0
100
AcDbDictionary
281
     1
  3
Normal
350
2F3
100
AcDbDictionaryWithDefault
340
2F3
  0
DICTIONARY
  5
321
102
{ACAD_REACTORS
330
2F0
102
}
330
2F0
100
AcDbDictionary
281
     1
  3
A0
350
322
  3
A1
350
323
  3
A2
350
324
  3
A3
350
325
  3
A4
350
326
  3
A5
350
327
  3
A6
350
328
  3
A7
350
329
  3
A8
350
32A
  3
A9
350
32B
  3
B0
350
32C
  3
B1
350
32D
  3
B2
350
32E
  3
B3
350
32F
  3
B4
350
330
  3
B5
350
331
  3
B6
350
332
  3
B7
350
333
  3
B8
350
334
  3
B9
350
335
  3
C0
350
336
  3
C1
350
337
  3
C2
350
338
  3
C3
350
339
  3
C4
350
33A
  3
C5
350
33B
  3
C6
350
33C
  3
C7
350
33D
  3
C8
350
33E
  3
C9
350
33F
  3
D0
350
340
  3
D1
350
341
  3
D2
350
342
  0
DICTIONARY
  5
352
102
{ACAD_REACTORS
330
2F0
102
}
330
2F0
100
AcDbDictionary
281
     1
  3
Standard
350
353
  0
DICTIONARY
  5
30D
102
{ACAD_REACTORS
330
2F0
102
}
330
2F0
100
AcDbDictionary
281
     1
  3
2dWireframe
350
313
  3
3D Hidden
350
315
  3
3dWireframe
350
314
  3
Basic
350
312
  3
Brighten
350
319
  3
ColorChange
350
31D
  3
Conceptual
350
316
  3
Dim
350
318
  3
EdgeColorOff
350
320
  3
Facepattern
350
31C
  3
Flat
350
30E
  3
FlatWithEdges
350
30F
  3
Gouraud
350
310
  3
GouraudWithEdges
350
311
  3
JitterOff
350
31E
  3
Linepattern
350
31B
  3
OverhangOff
350
31F
  3
Realistic
350
317
  3
Thicken
350
31A
  0
XRECORD
  5
387
102
{ACAD_REACTORS
330
2F0
102
}
330
2F0
100
AcDbXrecord
280
     1
 90
        1
330
353
  0
DICTIONARY
  5
37D
102
{ACAD_REACTORS
330
2F0
102
}
330
2F0
100
AcDbDictionary
281
     1
  3
CANNOSCALE
350
380
  3
CMLEADERSTYLE
350
37F
  3
CTABLESTYLE
350
37E
  3
DIMASSOC
350
383
  3
INDEXCTL
350
382
  3
SORTENTS
350
381
  3
XCLIPFRAME
350
384
  0
XRECORD
  5
388
102
{ACAD_REACTORS
330
2F0
102
}
330
2F0
100
AcDbXrecord
280
     1
  1
DWGPROPS COOKIE
  2

  3

  4

  6

  7

  8
sasaki_n
  9

300
=
301
=
302
=
303
=
304
=
305
=
306
=
307
=
308
=
309
=
 40
0.0004507986111111
 41
2455281.428495371
 42
2455281.430684085
  1

 90
        0
  0
XRECORD
  5
374
102
{ACAD_REACTORS
330
373
102
}
330
373
100
AcDbXrecord
280
     1
290
     1
  0
XRECORD
  5
376
102
{ACAD_REACTORS
330
375
102
}
330
375
100
AcDbXrecord
280
     1
290
     1
  0
XRECORD
  5
378
102
{ACAD_REACTORS
330
377
102
}
330
377
100
AcDbXrecord
280
     1
290
     1
  0
XRECORD
  5
37A
102
{ACAD_REACTORS
330
379
102
}
330
379
100
AcDbXrecord
280
     1
290
     1
  0
XRECORD
  5
37C
102
{ACAD_REACTORS
330
37B
102
}
330
37B
100
AcDbXrecord
280
     1
290
     1
  0
LAYOUT
  5
35D
102
{ACAD_XDICTIONARY
360
3B6
102
}
102
{ACAD_REACTORS
330
350
102
}
330
350
100
AcDbPlotSettings
  1

  2
DocuPrint 255-1
  4

  6

 40
0.0
 41
0.0
 42
0.0
 43
0.0
 44
0.0
 45
0.0
 46
0.0
 47
0.0
 48
0.0
 49
0.0
140
0.0
141
0.0
142
1.0
143
1.0
 70
  1712
 72
     0
 73
     0
 74
     0
  7

 75
     0
147
1.0
148
0.0
149
0.0
100
AcDbLayout
  1
Model
 70
     1
 71
     0
 10
0.0
 20
0.0
 11
12.0
 21
9.0
 12
0.0
 22
0.0
 32
0.0
 14
0.0
 24
0.0
 34
0.0
 15
0.0
 25
0.0
 35
0.0
146
0.0
 13
0.0
 23
0.0
 33
0.0
 16
1.0
 26
0.0
 36
0.0
 17
0.0
 27
1.0
 37
0.0
 76
     0
330
35A
331
35F
  0
LAYOUT
  5
359
102
{ACAD_XDICTIONARY
360
3B4
102
}
102
{ACAD_REACTORS
330
350
102
}
330
350
100
AcDbPlotSettings
  1

  2
DocuPrint 255-1
  4

  6

 40
0.0
 41
0.0
 42
0.0
 43
0.0
 44
0.0
 45
0.0
 46
0.0
 47
0.0
 48
0.0
 49
0.0
140
0.0
141
0.0
142
1.0
143
1.0
 70
   688
 72
     0
 73
     0
 74
     5
  7

 75
    16
147
1.0
148
0.0
149
0.0
100
AcDbLayout
  1
レイアウト1
 70
     0
 71
     1
 10
0.0
 20
0.0
 11
12.0
 21
9.0
 12
0.0
 22
0.0
 32
0.0
 14
1.000000000000000E+20
 24
1.000000000000000E+20
 34
1.000000000000000E+20
 15
-1.000000000000000E+20
 25
-1.000000000000000E+20
 35
-1.000000000000000E+20
146
0.0
 13
0.0
 23
0.0
 33
0.0
 16
1.0
 26
0.0
 36
0.0
 17
0.0
 27
1.0
 37
0.0
 76
     0
330
356
  0
MATERIAL
  5
2FD
102
{ACAD_XDICTIONARY
360
2FE
102
}
102
{ACAD_REACTORS
330
2F4
102
}
330
2F4
100
AcDbMaterial
  1
ByBlock
 72
     0
 43
0.0208333333333333
 43
0.0
 43
0.0
 43
0.0
 43
0.0
 43
0.0208333333333333
 43
0.0
 43
0.0
 43
0.0
 43
0.0
 43
1.0
 43
0.0
 43
0.0
 43
0.0
 43
0.0
 43
1.0
 77
     0
 47
0.0208333333333333
 47
0.0
 47
0.0
 47
0.0
 47
0.0
 47
0.0208333333333333
 47
0.0
 47
0.0
 47
0.0
 47
0.0
 47
1.0
 47
0.0
 47
0.0
 47
0.0
 47
0.0
 47
1.0
171
     0
 49
0.0208333333333333
 49
0.0
 49
0.0
 49
0.0
 49
0.0
 49
0.0208333333333333
 49
0.0
 49
0.0
 49
0.0
 49
0.0
 49
1.0
 49
0.0
 49
0.0
 49
0.0
 49
0.0
 49
1.0
175
     0
142
0.0208333333333333
142
0.0
142
0.0
142
0.0
142
0.0
142
0.0208333333333333
142
0.0
142
0.0
142
0.0
142
0.0
142
1.0
142
0.0
142
0.0
142
0.0
142
0.0
142
1.0
179
     0
144
0.0208333333333333
144
0.0
144
0.0
144
0.0
144
0.0
144
0.0208333333333333
144
0.0
144
0.0
144
0.0
144
0.0
144
1.0
144
0.0
144
0.0
144
0.0
144
0.0
144
1.0
147
0.0208333333333333
147
0.0
147
0.0
147
0.0
147
0.0
147
0.0208333333333333
147
0.0
147
0.0
147
0.0
147
0.0
147
1.0
147
0.0
147
0.0
147
0.0
147
0.0
147
1.0
  0
MATERIAL
  5
2F5
102
{ACAD_XDICTIONARY
360
2F6
102
}
102
{ACAD_REACTORS
330
2F4
102
}
330
2F4
100
AcDbMaterial
  1
ByLayer
 72
     0
 43
0.0208333333333333
 43
0.0
 43
0.0
 43
0.0
 43
0.0
 43
0.0208333333333333
 43
0.0
 43
0.0
 43
0.0
 43
0.0
 43
1.0
 43
0.0
 43
0.0
 43
0.0
 43
0.0
 43
1.0
 77
     0
 47
0.0208333333333333
 47
0.0
 47
0.0
 47
0.0
 47
0.0
 47
0.0208333333333333
 47
0.0
 47
0.0
 47
0.0
 47
0.0
 47
1.0
 47
0.0
 47
0.0
 47
0.0
 47
0.0
 47
1.0
171
     0
 49
0.0208333333333333
 49
0.0
 49
0.0
 49
0.0
 49
0.0
 49
0.0208333333333333
 49
0.0
 49
0.0
 49
0.0
 49
0.0
 49
1.0
 49
0.0
 49
0.0
 49
0.0
 49
0.0
 49
1.0
175
     0
142
0.0208333333333333
142
0.0
142
0.0
142
0.0
142
0.0
142
0.0208333333333333
142
0.0
142
0.0
142
0.0
142
0.0
142
1.0
142
0.0
142
0.0
142
0.0
142
0.0
142
1.0
179
     0
144
0.0208333333333333
144
0.0
144
0.0
144
0.0
144
0.0
144
0.0208333333333333
144
0.0
144
0.0
144
0.0
144
0.0
144
1.0
144
0.0
144
0.0
144
0.0
144
0.0
144
1.0
147
0.0208333333333333
147
0.0
147
0.0
147
0.0
147
0.0
147
0.0208333333333333
147
0.0
147
0.0
147
0.0
147
0.0
147
1.0
147
0.0
147
0.0
147
0.0
147
0.0
147
1.0
  0
MATERIAL
  5
305
102
{ACAD_XDICTIONARY
360
306
102
}
102
{ACAD_REACTORS
330
2F4
102
}
330
2F4
100
AcDbMaterial
  1
Global
 72
     0
 43
0.0208333333333333
 43
0.0
 43
0.0
 43
0.0
 43
0.0
 43
0.0208333333333333
 43
0.0
 43
0.0
 43
0.0
 43
0.0
 43
1.0
 43
0.0
 43
0.0
 43
0.0
 43
0.0
 43
1.0
 77
     0
 47
0.0208333333333333
 47
0.0
 47
0.0
 47
0.0
 47
0.0
 47
0.0208333333333333
 47
0.0
 47
0.0
 47
0.0
 47
0.0
 47
1.0
 47
0.0
 47
0.0
 47
0.0
 47
0.0
 47
1.0
171
     0
 49
0.0208333333333333
 49
0.0
 49
0.0
 49
0.0
 49
0.0
 49
0.0208333333333333
 49
0.0
 49
0.0
 49
0.0
 49
0.0
 49
1.0
 49
0.0
 49
0.0
 49
0.0
 49
0.0
 49
1.0
175
     0
142
0.0208333333333333
142
0.0
142
0.0
142
0.0
142
0.0
142
0.0208333333333333
142
0.0
142
0.0
142
0.0
142
0.0
142
1.0
142
0.0
142
0.0
142
0.0
142
0.0
142
1.0
179
     0
144
0.0208333333333333
144
0.0
144
0.0
144
0.0
144
0.0
144
0.0208333333333333
144
0.0
144
0.0
144
0.0
144
0.0
144
1.0
144
0.0
144
0.0
144
0.0
144
0.0
144
1.0
147
0.0208333333333333
147
0.0
147
0.0
147
0.0
147
0.0
147
0.0208333333333333
147
0.0
147
0.0
147
0.0
147
0.0
147
1.0
147
0.0
147
0.0
147
0.0
147
0.0
147
1.0
  0
MLEADERSTYLE
  5
355
102
{ACAD_REACTORS
330
354
102
}
330
354
100
AcDbMLeaderStyle
170
     2
171
     1
172
     0
 90
        2
 40
0.0
 41
0.0
173
     1
 91
-1056964608
340
349
 92
       -2
290
     1
 42
0.09
291
     1
 43
0.36
  3
Standard
 44
0.18
300

342
344
174
     1
178
     6
175
     1
176
     0
 93
-1056964608
 45
0.18
292
     0
297
     0
 46
0.18
 94
-1056964608
 47
1.0
 49
1.0
140
1.0
293
     1
141
0.0
294
     1
177
     0
142
1.0
295
     0
296
     0
143
0.125
1001
ACAD_MLEADERVER
1070
     2
  0
MLINESTYLE
  5
34E
102
{ACAD_REACTORS
330
34D
102
}
330
34D
100
AcDbMlineStyle
  2
STANDARD
 70
     0
  3

 62
   256
 51
90.0
 52
90.0
 71
     2
 49
0.5
 62
   256
  6
BYLAYER
 49
-0.5
 62
   256
  6
BYLAYER
  0
ACDBPLACEHOLDER
  5
2F3
102
{ACAD_REACTORS
330
2F2
102
}
330
2F2
  0
SCALE
  5
322
102
{ACAD_REACTORS
330
321
102
}
330
321
100
AcDbScale
 70
     0
300
1:1
140
1.0
141
1.0
290
     1
  0
SCALE
  5
323
102
{ACAD_REACTORS
330
321
102
}
330
321
100
AcDbScale
 70
     0
300
1:2
140
1.0
141
2.0
290
     0
  0
SCALE
  5
324
102
{ACAD_REACTORS
330
321
102
}
330
321
100
AcDbScale
 70
     0
300
1:4
140
1.0
141
4.0
290
     0
  0
SCALE
  5
325
102
{ACAD_REACTORS
330
321
102
}
330
321
100
AcDbScale
 70
     0
300
1:5
140
1.0
141
5.0
290
     0
  0
SCALE
  5
326
102
{ACAD_REACTORS
330
321
102
}
330
321
100
AcDbScale
 70
     0
300
1:8
140
1.0
141
8.0
290
     0
  0
SCALE
  5
327
102
{ACAD_REACTORS
330
321
102
}
330
321
100
AcDbScale
 70
     0
300
1:10
140
1.0
141
10.0
290
     0
  0
SCALE
  5
328
102
{ACAD_REACTORS
330
321
102
}
330
321
100
AcDbScale
 70
     0
300
1:16
140
1.0
141
16.0
290
     0
  0
SCALE
  5
329
102
{ACAD_REACTORS
330
321
102
}
330
321
100
AcDbScale
 70
     0
300
1:20
140
1.0
141
20.0
290
     0
  0
SCALE
  5
32A
102
{ACAD_REACTORS
330
321
102
}
330
321
100
AcDbScale
 70
     0
300
1:30
140
1.0
141
30.0
290
     0
  0
SCALE
  5
32B
102
{ACAD_REACTORS
330
321
102
}
330
321
100
AcDbScale
 70
     0
300
1:40
140
1.0
141
40.0
290
     0
  0
SCALE
  5
32C
102
{ACAD_REACTORS
330
321
102
}
330
321
100
AcDbScale
 70
     0
300
1:50
140
1.0
141
50.0
290
     0
  0
SCALE
  5
32D
102
{ACAD_REACTORS
330
321
102
}
330
321
100
AcDbScale
 70
     0
300
1:100
140
1.0
141
100.0
290
     0
  0
SCALE
  5
32E
102
{ACAD_REACTORS
330
321
102
}
330
321
100
AcDbScale
 70
     0
300
2:1
140
2.0
141
1.0
290
     0
  0
SCALE
  5
32F
102
{ACAD_REACTORS
330
321
102
}
330
321
100
AcDbScale
 70
     0
300
4:1
140
4.0
141
1.0
290
     0
  0
SCALE
  5
330
102
{ACAD_REACTORS
330
321
102
}
330
321
100
AcDbScale
 70
     0
300
8:1
140
8.0
141
1.0
290
     0
  0
SCALE
  5
331
102
{ACAD_REACTORS
330
321
102
}
330
321
100
AcDbScale
 70
     0
300
10:1
140
10.0
141
1.0
290
     0
  0
SCALE
  5
332
102
{ACAD_REACTORS
330
321
102
}
330
321
100
AcDbScale
 70
     0
300
100:1
140
100.0
141
1.0
290
     0
  0
SCALE
  5
333
102
{ACAD_REACTORS
330
321
102
}
330
321
100
AcDbScale
 70
     0
300
1/128" = 1'-0"
140
0.0078125
141
12.0
290
     0
  0
SCALE
  5
334
102
{ACAD_REACTORS
330
321
102
}
330
321
100
AcDbScale
 70
     0
300
1/64" = 1'-0"
140
0.015625
141
12.0
290
     0
  0
SCALE
  5
335
102
{ACAD_REACTORS
330
321
102
}
330
321
100
AcDbScale
 70
     0
300
1/32" = 1'-0"
140
0.03125
141
12.0
290
     0
  0
SCALE
  5
336
102
{ACAD_REACTORS
330
321
102
}
330
321
100
AcDbScale
 70
     0
300
1/16" = 1'-0"
140
0.0625
141
12.0
290
     0
  0
SCALE
  5
337
102
{ACAD_REACTORS
330
321
102
}
330
321
100
AcDbScale
 70
     0
300
3/32" = 1'-0"
140
0.09375
141
12.0
290
     0
  0
SCALE
  5
338
102
{ACAD_REACTORS
330
321
102
}
330
321
100
AcDbScale
 70
     0
300
1/8" = 1'-0"
140
0.125
141
12.0
290
     0
  0
SCALE
  5
339
102
{ACAD_REACTORS
330
321
102
}
330
321
100
AcDbScale
 70
     0
300
3/16" = 1'-0"
140
0.1875
141
12.0
290
     0
  0
SCALE
  5
33A
102
{ACAD_REACTORS
330
321
102
}
330
321
100
AcDbScale
 70
     0
300
1/4" = 1'-0"
140
0.25
141
12.0
290
     0
  0
SCALE
  5
33B
102
{ACAD_REACTORS
330
321
102
}
330
321
100
AcDbScale
 70
     0
300
3/8" = 1'-0"
140
0.375
141
12.0
290
     0
  0
SCALE
  5
33C
102
{ACAD_REACTORS
330
321
102
}
330
321
100
AcDbScale
 70
     0
300
1/2" = 1'-0"
140
0.5
141
12.0
290
     0
  0
SCALE
  5
33D
102
{ACAD_REACTORS
330
321
102
}
330
321
100
AcDbScale
 70
     0
300
3/4" = 1'-0"
140
0.75
141
12.0
290
     0
  0
SCALE
  5
33E
102
{ACAD_REACTORS
330
321
102
}
330
321
100
AcDbScale
 70
     0
300
1" = 1'-0"
140
1.0
141
12.0
290
     0
  0
SCALE
  5
33F
102
{ACAD_REACTORS
330
321
102
}
330
321
100
AcDbScale
 70
     0
300
1-1/2" = 1'-0"
140
1.5
141
12.0
290
     0
  0
SCALE
  5
340
102
{ACAD_REACTORS
330
321
102
}
330
321
100
AcDbScale
 70
     0
300
3" = 1'-0"
140
3.0
141
12.0
290
     0
  0
SCALE
  5
341
102
{ACAD_REACTORS
330
321
102
}
330
321
100
AcDbScale
 70
     0
300
6" = 1'-0"
140
6.0
141
12.0
290
     0
  0
SCALE
  5
342
102
{ACAD_REACTORS
330
321
102
}
330
321
100
AcDbScale
 70
     0
300
1'-0" = 1'-0"
140
12.0
141
12.0
290
     0
  0
TABLESTYLE
  5
353
102
{ACAD_XDICTIONARY
360
385
102
}
102
{ACAD_REACTORS
330
352
102
}
330
352
100
AcDbTableStyle
  3
Standard
 70
     0
 71
     0
 40
0.06
 41
0.06
280
     0
281
     0
  7
STANDARD
140
0.18
170
     2
 62
     0
 63
     7
283
     0
274
    -2
284
     1
 64
     0
275
    -2
285
     1
 65
     0
276
    -2
286
     1
 66
     0
277
    -2
287
     1
 67
     0
278
    -2
288
     1
 68
     0
279
    -2
289
     1
 69
     0
  7
STANDARD
140
0.25
170
     5
 62
     0
 63
     7
283
     0
274
    -2
284
     1
 64
     0
275
    -2
285
     1
 65
     0
276
    -2
286
     1
 66
     0
277
    -2
287
     1
 67
     0
278
    -2
288
     1
 68
     0
279
    -2
289
     1
 69
     0
  7
STANDARD
140
0.18
170
     5
 62
     0
 63
     7
283
     0
274
    -2
284
     1
 64
     0
275
    -2
285
     1
 65
     0
276
    -2
286
     1
 66
     0
277
    -2
287
     1
 67
     0
278
    -2
288
     1
 68
     0
279
    -2
289
     1
 69
     0
  0
VISUALSTYLE
  5
313
102
{ACAD_XDICTIONARY
360
396
102
}
102
{ACAD_REACTORS
330
30D
102
}
330
30D
100
AcDbVisualStyle
  2
2dWireframe
 70
     4
 71
     0
 72
     2
 73
     0
 90
        0
 40
-0.6
 41
-30.0
 62
     5
 63
     7
 74
     1
 91
        4
 64
     7
 65
   257
 75
     1
175
     1
 42
1.0
 92
        0
 66
   257
 43
1.0
 76
     1
 77
     6
 78
     2
 67
     7
 79
     5
170
     0
171
     0
290
     0
174
     0
 93
        1
 44
0.0
173
     0
291
     0
 45
0.0
1001
ACAD
1000
AcDbSavedByObjectVersion
1070
     0
  0
VISUALSTYLE
  5
315
102
{ACAD_XDICTIONARY
360
39A
102
}
102
{ACAD_REACTORS
330
30D
102
}
330
30D
100
AcDbVisualStyle
  2
3D Hidden
 70
     6
 71
     1
 72
     2
 73
     2
 90
        0
 40
-0.6
 41
-30.0
 62
     5
 63
     7
 74
     2
 91
        2
 64
     7
 65
   257
 75
     2
175
     1
 42
179.0
 92
        0
 66
   257
 43
1.0
 76
     1
 77
     6
 78
     2
 67
     7
 79
     3
170
     0
171
     0
290
     0
174
     0
 93
        1
 44
0.0
173
     0
291
     0
 45
0.0
1001
ACAD
1000
AcDbSavedByObjectVersion
1070
     0
  0
VISUALSTYLE
  5
314
102
{ACAD_XDICTIONARY
360
398
102
}
102
{ACAD_REACTORS
330
30D
102
}
330
30D
100
AcDbVisualStyle
  2
3dWireframe
 70
     5
 71
     0
 72
     2
 73
     0
 90
        0
 40
-0.6
 41
-30.0
 62
     5
 63
     7
 74
     1
 91
        4
 64
     7
 65
   257
 75
     1
175
     1
 42
1.0
 92
        0
 66
   257
 43
1.0
 76
     1
 77
     6
 78
     2
 67
     7
 79
     5
170
     0
171
     0
290
     0
174
     0
 93
        1
 44
0.0
173
     0
291
     0
 45
0.0
1001
ACAD
1000
AcDbSavedByObjectVersion
1070
     0
  0
VISUALSTYLE
  5
312
102
{ACAD_XDICTIONARY
360
394
102
}
102
{ACAD_REACTORS
330
30D
102
}
330
30D
100
AcDbVisualStyle
  2
Basic
 70
     7
 71
     1
 72
     0
 73
     1
 90
        0
 40
-0.6
 41
-30.0
 62
     5
 63
     7
 74
     0
 91
        4
 64
     7
 65
   257
 75
     1
175
     1
 42
1.0
 92
        8
 66
     7
 43
1.0
 76
     1
 77
     6
 78
     2
 67
     7
 79
     5
170
     0
171
     0
290
     0
174
     0
 93
        1
 44
0.0
173
     0
291
     1
 45
0.0
1001
ACAD
1000
AcDbSavedByObjectVersion
1070
     0
  0
VISUALSTYLE
  5
319
102
{ACAD_XDICTIONARY
360
3A2
102
}
102
{ACAD_REACTORS
330
30D
102
}
330
30D
100
AcDbVisualStyle
  2
Brighten
 70
    12
 71
     2
 72
     2
 73
     0
 90
        0
 40
-0.6
 41
-30.0
 62
     5
 63
     7
 74
     1
 91
        4
 64
     7
 65
   257
 75
     1
175
     1
 42
1.0
 92
        8
 66
     7
 43
1.0
 76
     1
 77
     6
 78
     2
 67
     7
 79
     5
170
     0
171
     0
290
     0
174
     0
 93
        1
 44
50.0
173
     0
291
     1
 45
0.0
1001
ACAD
1000
AcDbSavedByObjectVersion
1070
     0
  0
VISUALSTYLE
  5
31D
102
{ACAD_XDICTIONARY
360
3AA
102
}
102
{ACAD_REACTORS
330
30D
102
}
330
30D
100
AcDbVisualStyle
  2
ColorChange
 70
    16
 71
     2
 72
     2
 73
     3
 90
        0
 40
-0.6
 41
-30.0
 62
     5
 63
     8
 74
     1
 91
        4
 64
     7
 65
   257
 75
     1
175
     1
 42
1.0
 92
        8
 66
     8
 43
1.0
 76
     1
 77
     6
 78
     2
 67
     7
 79
     5
170
     0
171
     0
290
     0
174
     0
 93
        1
 44
0.0
173
     0
291
     1
 45
0.0
1001
ACAD
1000
AcDbSavedByObjectVersion
1070
     0
  0
VISUALSTYLE
  5
316
102
{ACAD_XDICTIONARY
360
39C
102
}
102
{ACAD_REACTORS
330
30D
102
}
330
30D
100
AcDbVisualStyle
  2
Conceptual
 70
     9
 71
     3
 72
     2
 73
     0
 90
        0
 40
-0.6
 41
-30.0
 62
     5
 63
     7
 74
     2
 91
        2
 64
     7
 65
   257
 75
     1
175
     1
 42
179.0
 92
        8
 66
     7
 43
1.0
 76
     1
 77
     6
 78
     2
 67
     7
 79
     3
170
     0
171
     0
290
     0
174
     0
 93
        1
 44
0.0
173
     0
291
     0
 45
0.0
1001
ACAD
1000
AcDbSavedByObjectVersion
1070
     0
  0
VISUALSTYLE
  5
318
102
{ACAD_XDICTIONARY
360
3A0
102
}
102
{ACAD_REACTORS
330
30D
102
}
330
30D
100
AcDbVisualStyle
  2
Dim
 70
    11
 71
     2
 72
     2
 73
     0
 90
        0
 40
-0.6
 41
-30.0
 62
     5
 63
     7
 74
     1
 91
        4
 64
     7
 65
   257
 75
     1
175
     1
 42
1.0
 92
        8
 66
     7
 43
1.0
 76
     1
 77
     6
 78
     2
 67
     7
 79
     5
170
     0
171
     0
290
     0
174
     0
 93
        1
 44
-50.0
173
     0
291
     1
 45
0.0
1001
ACAD
1000
AcDbSavedByObjectVersion
1070
     0
  0
VISUALSTYLE
  5
320
102
{ACAD_XDICTIONARY
360
3B0
102
}
102
{ACAD_REACTORS
330
30D
102
}
330
30D
100
AcDbVisualStyle
  2
EdgeColorOff
 70
    22
 71
     2
 72
     2
 73
     0
 90
        0
 40
-0.6
 41
-30.0
 62
     5
 63
     7
 74
     1
 91
        4
 64
     7
 65
   257
 75
     1
175
     1
 42
1.0
 92
        8
 66
     7
 43
1.0
 76
     1
 77
     6
 78
     2
 67
     7
 79
     5
170
     0
171
     0
290
     0
174
     0
 93
        1
 44
0.0
173
     0
291
     1
 45
0.0
1001
ACAD
1000
AcDbSavedByObjectVersion
1070
     0
  0
VISUALSTYLE
  5
31C
102
{ACAD_XDICTIONARY
360
3A8
102
}
102
{ACAD_REACTORS
330
30D
102
}
330
30D
100
AcDbVisualStyle
  2
Facepattern
 70
    15
 71
     2
 72
     2
 73
     0
 90
        0
 40
-0.6
 41
-30.0
 62
     5
 63
     7
 74
     1
 91
        4
 64
     7
 65
   257
 75
     1
175
     1
 42
1.0
 92
        8
 66
     7
 43
1.0
 76
     1
 77
     6
 78
     2
 67
     7
 79
     5
170
     0
171
     0
290
     0
174
     0
 93
        1
 44
0.0
173
     0
291
     1
 45
0.0
1001
ACAD
1000
AcDbSavedByObjectVersion
1070
     0
  0
VISUALSTYLE
  5
30E
102
{ACAD_XDICTIONARY
360
38C
102
}
102
{ACAD_REACTORS
330
30D
102
}
330
30D
100
AcDbVisualStyle
  2
Flat
 70
     0
 71
     2
 72
     1
 73
     1
 90
        2
 40
-0.6
 41
30.0
 62
     5
 63
     7
 74
     0
 91
        4
 64
     7
 65
   257
 75
     1
175
     1
 42
1.0
 92
        8
 66
     7
 43
1.0
 76
     1
 77
     6
 78
     2
 67
     7
 79
     5
170
     0
171
     0
290
     0
174
     0
 93
       13
 44
0.0
173
     0
291
     1
 45
0.0
1001
ACAD
1000
AcDbSavedByObjectVersion
1070
     0
  0
VISUALSTYLE
  5
30F
102
{ACAD_XDICTIONARY
360
38E
102
}
102
{ACAD_REACTORS
330
30D
102
}
330
30D
100
AcDbVisualStyle
  2
FlatWithEdges
 70
     1
 71
     2
 72
     1
 73
     1
 90
        2
 40
-0.6
 41
30.0
 62
     5
 63
     7
 74
     1
 91
        4
 64
     7
 65
   257
 75
     1
175
     1
 42
1.0
 92
        0
 66
   257
 43
1.0
 76
     1
 77
     6
 78
     2
 67
     7
 79
     5
170
     0
171
     0
290
     0
174
     0
 93
       13
 44
0.0
173
     0
291
     1
 45
0.0
1001
ACAD
1000
AcDbSavedByObjectVersion
1070
     0
  0
VISUALSTYLE
  5
310
102
{ACAD_XDICTIONARY
360
390
102
}
102
{ACAD_REACTORS
330
30D
102
}
330
30D
100
AcDbVisualStyle
  2
Gouraud
 70
     2
 71
     2
 72
     2
 73
     1
 90
        2
 40
-0.6
 41
30.0
 62
     5
 63
     7
 74
     0
 91
        4
 64
     7
 65
   257
 75
     1
175
     1
 42
1.0
 92
        0
 66
     7
 43
1.0
 76
     1
 77
     6
 78
     2
 67
     7
 79
     5
170
     0
171
     0
290
     0
174
     0
 93
       13
 44
0.0
173
     0
291
     1
 45
0.0
1001
ACAD
1000
AcDbSavedByObjectVersion
1070
     0
  0
VISUALSTYLE
  5
311
102
{ACAD_XDICTIONARY
360
392
102
}
102
{ACAD_REACTORS
330
30D
102
}
330
30D
100
AcDbVisualStyle
  2
GouraudWithEdges
 70
     3
 71
     2
 72
     2
 73
     1
 90
        2
 40
-0.6
 41
30.0
 62
     5
 63
     7
 74
     1
 91
        4
 64
     7
 65
   257
 75
     1
175
     1
 42
1.0
 92
        0
 66
   257
 43
1.0
 76
     1
 77
     6
 78
     2
 67
     7
 79
     5
170
     0
171
     0
290
     0
174
     0
 93
       13
 44
0.0
173
     0
291
     1
 45
0.0
1001
ACAD
1000
AcDbSavedByObjectVersion
1070
     0
  0
VISUALSTYLE
  5
31E
102
{ACAD_XDICTIONARY
360
3AC
102
}
102
{ACAD_REACTORS
330
30D
102
}
330
30D
100
AcDbVisualStyle
  2
JitterOff
 70
    20
 71
     2
 72
     2
 73
     0
 90
        0
 40
-0.6
 41
-30.0
 62
     5
 63
     7
 74
     1
 91
        4
 64
     7
 65
   257
 75
     1
175
     1
 42
1.0
 92
       10
 66
     7
 43
1.0
 76
     1
 77
     6
 78
     2
 67
     7
 79
     5
170
     0
171
     0
290
     0
174
     0
 93
        1
 44
0.0
173
     0
291
     1
 45
0.0
1001
ACAD
1000
AcDbSavedByObjectVersion
1070
     0
  0
VISUALSTYLE
  5
31B
102
{ACAD_XDICTIONARY
360
3A6
102
}
102
{ACAD_REACTORS
330
30D
102
}
330
30D
100
AcDbVisualStyle
  2
Linepattern
 70
    14
 71
     2
 72
     2
 73
     0
 90
        0
 40
-0.6
 41
-30.0
 62
     5
 63
     7
 74
     1
 91
        4
 64
     7
 65
   257
 75
     7
175
     7
 42
1.0
 92
        8
 66
     7
 43
1.0
 76
     1
 77
     6
 78
     2
 67
     7
 79
     5
170
     0
171
     0
290
     0
174
     0
 93
        1
 44
0.0
173
     0
291
     1
 45
0.0
1001
ACAD
1000
AcDbSavedByObjectVersion
1070
     0
  0
VISUALSTYLE
  5
31F
102
{ACAD_XDICTIONARY
360
3AE
102
}
102
{ACAD_REACTORS
330
30D
102
}
330
30D
100
AcDbVisualStyle
  2
OverhangOff
 70
    21
 71
     2
 72
     2
 73
     0
 90
        0
 40
-0.6
 41
-30.0
 62
     5
 63
     7
 74
     1
 91
        4
 64
     7
 65
   257
 75
     1
175
     1
 42
1.0
 92
        9
 66
     7
 43
1.0
 76
     1
 77
     6
 78
     2
 67
     7
 79
     5
170
     0
171
     0
290
     0
174
     0
 93
        1
 44
0.0
173
     0
291
     1
 45
0.0
1001
ACAD
1000
AcDbSavedByObjectVersion
1070
     0
  0
VISUALSTYLE
  5
317
102
{ACAD_XDICTIONARY
360
39E
102
}
102
{ACAD_REACTORS
330
30D
102
}
330
30D
100
AcDbVisualStyle
  2
Realistic
 70
     8
 71
     2
 72
     2
 73
     0
 90
        0
 40
-0.6
 41
-30.0
 62
     5
 63
     7
 74
     1
 91
        0
 64
     7
 65
   257
 75
     1
175
     1
 42
1.0
 92
        8
 66
     8
 43
1.0
 76
     1
 77
     6
 78
     2
 67
     7
 79
     5
170
     0
171
     0
290
     0
174
     0
 93
       13
 44
0.0
173
     0
291
     0
 45
0.0
1001
ACAD
1000
AcDbSavedByObjectVersion
1070
     0
  0
VISUALSTYLE
  5
31A
102
{ACAD_XDICTIONARY
360
3A4
102
}
102
{ACAD_REACTORS
330
30D
102
}
330
30D
100
AcDbVisualStyle
  2
Thicken
 70
    13
 71
     2
 72
     2
 73
     0
 90
        0
 40
-0.6
 41
-30.0
 62
     5
 63
     7
 74
     1
 91
        4
 64
     7
 65
   257
 75
     1
175
     1
 42
1.0
 92
       12
 66
     7
 43
1.0
 76
     1
 77
     6
 78
     2
 67
     7
 79
     5
170
     0
171
     0
290
     0
174
     0
 93
        1
 44
0.0
173
     0
291
     1
 45
0.0
1001
ACAD
1000
AcDbSavedByObjectVersion
1070
     0
  0
DICTIONARYVAR
  5
380
102
{ACAD_REACTORS
330
37D
102
}
330
37D
100
DictionaryVariables
280
     0
  1
1:1
  0
DICTIONARYVAR
  5
37F
102
{ACAD_REACTORS
330
37D
102
}
330
37D
100
DictionaryVariables
280
     0
  1
STANDARD
  0
DICTIONARYVAR
  5
37E
102
{ACAD_REACTORS
330
37D
102
}
330
37D
100
DictionaryVariables
280
     0
  1
STANDARD
  0
DICTIONARYVAR
  5
383
102
{ACAD_REACTORS
330
37D
102
}
330
37D
100
DictionaryVariables
280
     0
  1
1
  0
DICTIONARYVAR
  5
382
102
{ACAD_REACTORS
330
37D
102
}
330
37D
100
DictionaryVariables
280
     0
  1
0
  0
DICTIONARYVAR
  5
381
102
{ACAD_REACTORS
330
37D
102
}
330
37D
100
DictionaryVariables
280
     0
  1
127
  0
DICTIONARYVAR
  5
384
102
{ACAD_REACTORS
330
37D
102
}
330
37D
100
DictionaryVariables
280
     0
  1
2
  0
DICTIONARY
  5
3B6
330
35D
100
AcDbDictionary
280
     1
281
     1
  3
ACAD_XREC_ROUNDTRIP
360
3B7
  0
DICTIONARY
  5
3B4
330
359
100
AcDbDictionary
280
     1
281
     1
  3
ACAD_XREC_ROUNDTRIP
360
3B5
  0
DICTIONARY
  5
2FE
330
2FD
100
AcDbDictionary
280
     1
281
     1
  3
ACAD_XREC_ROUNDTRIP
360
38A
  3
BUMPTILE
360
300
  3
DIFFUSETILE
360
2FF
  3
OPACITYTILE
360
303
  3
REFLECTIONTILE
360
302
  3
REFRACTIONTILE
360
304
  3
SPECULARTILE
360
301
  0
DICTIONARY
  5
2F6
330
2F5
100
AcDbDictionary
280
     1
281
     1
  3
ACAD_XREC_ROUNDTRIP
360
389
  3
BUMPTILE
360
2F8
  3
DIFFUSETILE
360
2F7
  3
OPACITYTILE
360
2FB
  3
REFLECTIONTILE
360
2FA
  3
REFRACTIONTILE
360
2FC
  3
SPECULARTILE
360
2F9
  0
DICTIONARY
  5
306
330
305
100
AcDbDictionary
280
     1
281
     1
  3
ACAD_XREC_ROUNDTRIP
360
38B
  3
BUMPTILE
360
308
  3
DIFFUSETILE
360
307
  3
OPACITYTILE
360
30B
  3
REFLECTIONTILE
360
30A
  3
REFRACTIONTILE
360
30C
  3
SPECULARTILE
360
309
  0
DICTIONARY
  5
385
330
353
100
AcDbDictionary
280
     1
281
     1
  3
ACAD_ROUNDTRIP_2008_TABLESTYLE_CELLSTYLEMAP
360
386
  3
ACAD_XREC_ROUNDTRIP
360
3B2
  0
DICTIONARY
  5
396
330
313
100
AcDbDictionary
280
     1
281
     1
  3
ACAD_XREC_ROUNDTRIP
360
397
  0
DICTIONARY
  5
39A
330
315
100
AcDbDictionary
280
     1
281
     1
  3
ACAD_XREC_ROUNDTRIP
360
39B
  0
DICTIONARY
  5
398
330
314
100
AcDbDictionary
280
     1
281
     1
  3
ACAD_XREC_ROUNDTRIP
360
399
  0
DICTIONARY
  5
394
330
312
100
AcDbDictionary
280
     1
281
     1
  3
ACAD_XREC_ROUNDTRIP
360
395
  0
DICTIONARY
  5
3A2
330
319
100
AcDbDictionary
280
     1
281
     1
  3
ACAD_XREC_ROUNDTRIP
360
3A3
  0
DICTIONARY
  5
3AA
330
31D
100
AcDbDictionary
280
     1
281
     1
  3
ACAD_XREC_ROUNDTRIP
360
3AB
  0
DICTIONARY
  5
39C
330
316
100
AcDbDictionary
280
     1
281
     1
  3
ACAD_XREC_ROUNDTRIP
360
39D
  0
DICTIONARY
  5
3A0
330
318
100
AcDbDictionary
280
     1
281
     1
  3
ACAD_XREC_ROUNDTRIP
360
3A1
  0
DICTIONARY
  5
3B0
330
320
100
AcDbDictionary
280
     1
281
     1
  3
ACAD_XREC_ROUNDTRIP
360
3B1
  0
DICTIONARY
  5
3A8
330
31C
100
AcDbDictionary
280
     1
281
     1
  3
ACAD_XREC_ROUNDTRIP
360
3A9
  0
DICTIONARY
  5
38C
330
30E
100
AcDbDictionary
280
     1
281
     1
  3
ACAD_XREC_ROUNDTRIP
360
38D
  0
DICTIONARY
  5
38E
330
30F
100
AcDbDictionary
280
     1
281
     1
  3
ACAD_XREC_ROUNDTRIP
360
38F
  0
DICTIONARY
  5
390
330
310
100
AcDbDictionary
280
     1
281
     1
  3
ACAD_XREC_ROUNDTRIP
360
391
  0
DICTIONARY
  5
392
330
311
100
AcDbDictionary
280
     1
281
     1
  3
ACAD_XREC_ROUNDTRIP
360
393
  0
DICTIONARY
  5
3AC
330
31E
100
AcDbDictionary
280
     1
281
     1
  3
ACAD_XREC_ROUNDTRIP
360
3AD
  0
DICTIONARY
  5
3A6
330
31B
100
AcDbDictionary
280
     1
281
     1
  3
ACAD_XREC_ROUNDTRIP
360
3A7
  0
DICTIONARY
  5
3AE
330
31F
100
AcDbDictionary
280
     1
281
     1
  3
ACAD_XREC_ROUNDTRIP
360
3AF
  0
DICTIONARY
  5
39E
330
317
100
AcDbDictionary
280
     1
281
     1
  3
ACAD_XREC_ROUNDTRIP
360
39F
  0
DICTIONARY
  5
3A4
330
31A
100
AcDbDictionary
280
     1
281
     1
  3
ACAD_XREC_ROUNDTRIP
360
3A5
  0
XRECORD
  5
3B7
102
{ACAD_REACTORS
330
3B6
102
}
330
3B6
100
AcDbXrecord
280
     1
102
SHADEPLOT
 70
     0
102
SHADEPLOTRESLEVEL
 70
     2
102
SHADEPLOTCUSTOMDPI
 70
   300
  0
XRECORD
  5
3B5
102
{ACAD_REACTORS
330
3B4
102
}
330
3B4
100
AcDbXrecord
280
     1
102
SHADEPLOT
 70
     0
102
SHADEPLOTRESLEVEL
 70
     2
102
SHADEPLOTCUSTOMDPI
 70
   300
  0
XRECORD
  5
38A
102
{ACAD_REACTORS
330
2FE
102
}
330
2FE
100
AcDbXrecord
280
     1
102
MATERIAL
148
0.0
149
0.0
149
0.0
 93
        0
 94
      127
282
     0
 72
     0
 77
     0
171
     0
175
     0
179
     0
273
     0
  0
XRECORD
  5
300
102
{ACAD_REACTORS
330
2FE
102
}
330
2FE
100
AcDbXrecord
280
     1
270
     1
271
     1
  0
XRECORD
  5
2FF
102
{ACAD_REACTORS
330
2FE
102
}
330
2FE
100
AcDbXrecord
280
     1
270
     1
271
     1
  0
XRECORD
  5
303
102
{ACAD_REACTORS
330
2FE
102
}
330
2FE
100
AcDbXrecord
280
     1
270
     1
271
     1
  0
XRECORD
  5
302
102
{ACAD_REACTORS
330
2FE
102
}
330
2FE
100
AcDbXrecord
280
     1
270
     1
271
     1
  0
XRECORD
  5
304
102
{ACAD_REACTORS
330
2FE
102
}
330
2FE
100
AcDbXrecord
280
     1
270
     1
271
     1
  0
XRECORD
  5
301
102
{ACAD_REACTORS
330
2FE
102
}
330
2FE
100
AcDbXrecord
280
     1
270
     1
271
     1
  0
XRECORD
  5
389
102
{ACAD_REACTORS
330
2F6
102
}
330
2F6
100
AcDbXrecord
280
     1
102
MATERIAL
148
0.0
149
0.0
149
0.0
 93
        0
 94
      127
282
     0
 72
     0
 77
     0
171
     0
175
     0
179
     0
273
     0
  0
XRECORD
  5
2F8
102
{ACAD_REACTORS
330
2F6
102
}
330
2F6
100
AcDbXrecord
280
     1
270
     1
271
     1
  0
XRECORD
  5
2F7
102
{ACAD_REACTORS
330
2F6
102
}
330
2F6
100
AcDbXrecord
280
     1
270
     1
271
     1
  0
XRECORD
  5
2FB
102
{ACAD_REACTORS
330
2F6
102
}
330
2F6
100
AcDbXrecord
280
     1
270
     1
271
     1
  0
XRECORD
  5
2FA
102
{ACAD_REACTORS
330
2F6
102
}
330
2F6
100
AcDbXrecord
280
     1
270
     1
271
     1
  0
XRECORD
  5
2FC
102
{ACAD_REACTORS
330
2F6
102
}
330
2F6
100
AcDbXrecord
280
     1
270
     1
271
     1
  0
XRECORD
  5
2F9
102
{ACAD_REACTORS
330
2F6
102
}
330
2F6
100
AcDbXrecord
280
     1
270
     1
271
     1
  0
XRECORD
  5
38B
102
{ACAD_REACTORS
330
306
102
}
330
306
100
AcDbXrecord
280
     1
102
MATERIAL
148
0.0
149
0.0
149
0.0
 93
        0
 94
      127
282
     0
 72
     0
 77
     0
171
     0
175
     0
179
     0
273
     0
  0
XRECORD
  5
308
102
{ACAD_REACTORS
330
306
102
}
330
306
100
AcDbXrecord
280
     1
270
     1
271
     1
  0
XRECORD
  5
307
102
{ACAD_REACTORS
330
306
102
}
330
306
100
AcDbXrecord
280
     1
270
     1
271
     1
  0
XRECORD
  5
30B
102
{ACAD_REACTORS
330
306
102
}
330
306
100
AcDbXrecord
280
     1
270
     1
271
     1
  0
XRECORD
  5
30A
102
{ACAD_REACTORS
330
306
102
}
330
306
100
AcDbXrecord
280
     1
270
     1
271
     1
  0
XRECORD
  5
30C
102
{ACAD_REACTORS
330
306
102
}
330
306
100
AcDbXrecord
280
     1
270
     1
271
     1
  0
XRECORD
  5
309
102
{ACAD_REACTORS
330
306
102
}
330
306
100
AcDbXrecord
280
     1
270
     1
271
     1
  0
CELLSTYLEMAP
  5
386
102
{ACAD_REACTORS
330
385
102
}
330
385
100
AcDbCellStyleMap
 90
        3
300
CELLSTYLE
  1
TABLEFORMAT_BEGIN
 90
        5
170
     1
 91
        0
 92
    32768
 62
   257
 93
        1
300
CONTENTFORMAT
  1
CONTENTFORMAT_BEGIN
 90
        0
 91
        0
 92
      512
 93
        0
300

 40
0.0
140
1.0
 94
        5
 62
     0
340
344
144
0.25
309
CONTENTFORMAT_END
171
     0
 94
        0
309
TABLEFORMAT_END
  1
CELLSTYLE_BEGIN
 90
        1
 91
        1
300
_TITLE
309
CELLSTYLE_END
300
CELLSTYLE
  1
TABLEFORMAT_BEGIN
 90
        5
170
     1
 91
        0
 92
        0
 62
   257
 93
        1
300
CONTENTFORMAT
  1
CONTENTFORMAT_BEGIN
 90
        0
 91
        0
 92
      512
 93
        0
300

 40
0.0
140
1.0
 94
        5
 62
     0
340
344
144
0.18
309
CONTENTFORMAT_END
171
     0
 94
        0
309
TABLEFORMAT_END
  1
CELLSTYLE_BEGIN
 90
        2
 91
        1
300
_HEADER
309
CELLSTYLE_END
300
CELLSTYLE
  1
TABLEFORMAT_BEGIN
 90
        5
170
     1
 91
        0
 92
        0
 62
   257
 93
        1
300
CONTENTFORMAT
  1
CONTENTFORMAT_BEGIN
 90
        0
 91
        0
 92
      512
 93
        0
300

 40
0.0
140
1.0
 94
        2
 62
     0
340
344
144
0.18
309
CONTENTFORMAT_END
171
     0
 94
        0
309
TABLEFORMAT_END
  1
CELLSTYLE_BEGIN
 90
        3
 91
        2
300
_DATA
309
CELLSTYLE_END
  0
XRECORD
  5
3B2
102
{ACAD_REACTORS
330
385
102
}
330
385
100
AcDbXrecord
280
     1
102
ACAD_ROUNDTRIP_PRE2007_TABLESTYLE
 90
      512
 91
        0
  1

 92
      512
 93
        0
  2

 94
      512
 95
        0
  3

  0
XRECORD
  5
397
102
{ACAD_REACTORS
330
396
102
}
330
396
100
AcDbXrecord
280
     1
102
RTVSPropertyOp0
 70
     1
102
RTVSPropertyOp1
 70
     1
102
RTVSPropertyOp2
 70
     1
102
RTVSPropertyOp3
 70
     1
102
RTVSPropertyOp4
 70
     1
102
RTVSPropertyOp5
 70
     1
102
RTVSPropertyOp6
 70
     1
102
RTVSPropertyOp7
 70
     1
102
RTVSPropertyOp8
 70
     1
102
RTVSPropertyOp9
 70
     1
102
RTVSPropertyOp10
 70
     1
102
RTVSPropertyOp11
 70
     1
102
RTVSPropertyOp12
 70
     1
102
RTVSPropertyOp13
 70
     1
102
RTVSPropertyOp14
 70
     1
102
RTVSPropertyOp15
 70
     1
102
RTVSPropertyOp16
 70
     1
102
RTVSPropertyOp17
 70
     1
102
RTVSPropertyOp18
 70
     1
102
RTVSPropertyOp19
 70
     1
102
RTVSPropertyOp20
 70
     1
102
RTVSPropertyOp21
 70
     1
102
RTVSPropertyOp22
 70
     1
102
RTVSPropertyOp23
 70
     1
102
RTVSPropertyOp24
 70
     1
102
RTVSPropertyOp25
 70
     1
102
RTVSPropertyOp26
 70
     1
102
RTVSPropertyOp27
 70
     1
  0
XRECORD
  5
39B
102
{ACAD_REACTORS
330
39A
102
}
330
39A
100
AcDbXrecord
280
     1
102
RTVSPropertyOp0
 70
     1
102
RTVSPropertyOp1
 70
     1
102
RTVSPropertyOp2
 70
     1
102
RTVSPropertyOp3
 70
     1
102
RTVSPropertyOp4
 70
     1
102
RTVSPropertyOp5
 70
     1
102
RTVSPropertyOp6
 70
     1
102
RTVSPropertyOp7
 70
     1
102
RTVSPropertyOp8
 70
     1
102
RTVSPropertyOp9
 70
     1
102
RTVSPropertyOp10
 70
     1
102
RTVSPropertyOp11
 70
     1
102
RTVSPropertyOp12
 70
     1
102
RTVSPropertyOp13
 70
     1
102
RTVSPropertyOp14
 70
     1
102
RTVSPropertyOp15
 70
     1
102
RTVSPropertyOp16
 70
     1
102
RTVSPropertyOp17
 70
     1
102
RTVSPropertyOp18
 70
     1
102
RTVSPropertyOp19
 70
     1
102
RTVSPropertyOp20
 70
     1
102
RTVSPropertyOp21
 70
     1
102
RTVSPropertyOp22
 70
     1
102
RTVSPropertyOp23
 70
     1
102
RTVSPropertyOp24
 70
     1
102
RTVSPropertyOp25
 70
     1
102
RTVSPropertyOp26
 70
     1
102
RTVSPropertyOp27
 70
     1
  0
XRECORD
  5
399
102
{ACAD_REACTORS
330
398
102
}
330
398
100
AcDbXrecord
280
     1
102
RTVSPropertyOp0
 70
     1
102
RTVSPropertyOp1
 70
     1
102
RTVSPropertyOp2
 70
     1
102
RTVSPropertyOp3
 70
     1
102
RTVSPropertyOp4
 70
     1
102
RTVSPropertyOp5
 70
     1
102
RTVSPropertyOp6
 70
     1
102
RTVSPropertyOp7
 70
     1
102
RTVSPropertyOp8
 70
     1
102
RTVSPropertyOp9
 70
     1
102
RTVSPropertyOp10
 70
     1
102
RTVSPropertyOp11
 70
     1
102
RTVSPropertyOp12
 70
     1
102
RTVSPropertyOp13
 70
     1
102
RTVSPropertyOp14
 70
     1
102
RTVSPropertyOp15
 70
     1
102
RTVSPropertyOp16
 70
     1
102
RTVSPropertyOp17
 70
     1
102
RTVSPropertyOp18
 70
     1
102
RTVSPropertyOp19
 70
     1
102
RTVSPropertyOp20
 70
     1
102
RTVSPropertyOp21
 70
     1
102
RTVSPropertyOp22
 70
     1
102
RTVSPropertyOp23
 70
     1
102
RTVSPropertyOp24
 70
     1
102
RTVSPropertyOp25
 70
     1
102
RTVSPropertyOp26
 70
     1
102
RTVSPropertyOp27
 70
     1
  0
XRECORD
  5
395
102
{ACAD_REACTORS
330
394
102
}
330
394
100
AcDbXrecord
280
     1
102
RTVSPropertyOp0
 70
     1
102
RTVSPropertyOp1
 70
     1
102
RTVSPropertyOp2
 70
     1
102
RTVSPropertyOp3
 70
     1
102
RTVSPropertyOp4
 70
     1
102
RTVSPropertyOp5
 70
     1
102
RTVSPropertyOp6
 70
     1
102
RTVSPropertyOp7
 70
     1
102
RTVSPropertyOp8
 70
     1
102
RTVSPropertyOp9
 70
     1
102
RTVSPropertyOp10
 70
     1
102
RTVSPropertyOp11
 70
     1
102
RTVSPropertyOp12
 70
     1
102
RTVSPropertyOp13
 70
     1
102
RTVSPropertyOp14
 70
     1
102
RTVSPropertyOp15
 70
     1
102
RTVSPropertyOp16
 70
     1
102
RTVSPropertyOp17
 70
     1
102
RTVSPropertyOp18
 70
     1
102
RTVSPropertyOp19
 70
     1
102
RTVSPropertyOp20
 70
     1
102
RTVSPropertyOp21
 70
     1
102
RTVSPropertyOp22
 70
     1
102
RTVSPropertyOp23
 70
     1
102
RTVSPropertyOp24
 70
     1
102
RTVSPropertyOp25
 70
     1
102
RTVSPropertyOp26
 70
     1
102
RTVSPropertyOp27
 70
     1
  0
XRECORD
  5
3A3
102
{ACAD_REACTORS
330
3A2
102
}
330
3A2
100
AcDbXrecord
280
     1
102
RTVSPropertyOp0
 70
     1
102
RTVSPropertyOp1
 70
     1
102
RTVSPropertyOp2
 70
     1
102
RTVSPropertyOp3
 70
     1
102
RTVSPropertyOp4
 70
     1
102
RTVSPropertyOp5
 70
     1
102
RTVSPropertyOp6
 70
     1
102
RTVSPropertyOp7
 70
     1
102
RTVSPropertyOp8
 70
     1
102
RTVSPropertyOp9
 70
     1
102
RTVSPropertyOp10
 70
     1
102
RTVSPropertyOp11
 70
     1
102
RTVSPropertyOp12
 70
     1
102
RTVSPropertyOp13
 70
     1
102
RTVSPropertyOp14
 70
     1
102
RTVSPropertyOp15
 70
     1
102
RTVSPropertyOp16
 70
     1
102
RTVSPropertyOp17
 70
     1
102
RTVSPropertyOp18
 70
     1
102
RTVSPropertyOp19
 70
     1
102
RTVSPropertyOp20
 70
     1
102
RTVSPropertyOp21
 70
     1
102
RTVSPropertyOp22
 70
     1
102
RTVSPropertyOp23
 70
     1
102
RTVSPropertyOp24
 70
     1
102
RTVSPropertyOp25
 70
     1
102
RTVSPropertyOp26
 70
     1
102
RTVSPropertyOp27
 70
     1
  0
XRECORD
  5
3AB
102
{ACAD_REACTORS
330
3AA
102
}
330
3AA
100
AcDbXrecord
280
     1
102
RTVSPropertyOp0
 70
     1
102
RTVSPropertyOp1
 70
     1
102
RTVSPropertyOp2
 70
     1
102
RTVSPropertyOp3
 70
     1
102
RTVSPropertyOp4
 70
     1
102
RTVSPropertyOp5
 70
     1
102
RTVSPropertyOp6
 70
     1
102
RTVSPropertyOp7
 70
     1
102
RTVSPropertyOp8
 70
     1
102
RTVSPropertyOp9
 70
     1
102
RTVSPropertyOp10
 70
     1
102
RTVSPropertyOp11
 70
     1
102
RTVSPropertyOp12
 70
     1
102
RTVSPropertyOp13
 70
     1
102
RTVSPropertyOp14
 70
     1
102
RTVSPropertyOp15
 70
     1
102
RTVSPropertyOp16
 70
     1
102
RTVSPropertyOp17
 70
     1
102
RTVSPropertyOp18
 70
     1
102
RTVSPropertyOp19
 70
     1
102
RTVSPropertyOp20
 70
     1
102
RTVSPropertyOp21
 70
     1
102
RTVSPropertyOp22
 70
     1
102
RTVSPropertyOp23
 70
     1
102
RTVSPropertyOp24
 70
     1
102
RTVSPropertyOp25
 70
     1
102
RTVSPropertyOp26
 70
     1
102
RTVSPropertyOp27
 70
     1
  0
XRECORD
  5
39D
102
{ACAD_REACTORS
330
39C
102
}
330
39C
100
AcDbXrecord
280
     1
102
RTVSPropertyOp0
 70
     1
102
RTVSPropertyOp1
 70
     1
102
RTVSPropertyOp2
 70
     1
102
RTVSPropertyOp3
 70
     1
102
RTVSPropertyOp4
 70
     1
102
RTVSPropertyOp5
 70
     1
102
RTVSPropertyOp6
 70
     1
102
RTVSPropertyOp7
 70
     1
102
RTVSPropertyOp8
 70
     1
102
RTVSPropertyOp9
 70
     1
102
RTVSPropertyOp10
 70
     1
102
RTVSPropertyOp11
 70
     1
102
RTVSPropertyOp12
 70
     1
102
RTVSPropertyOp13
 70
     1
102
RTVSPropertyOp14
 70
     1
102
RTVSPropertyOp15
 70
     1
102
RTVSPropertyOp16
 70
     1
102
RTVSPropertyOp17
 70
     1
102
RTVSPropertyOp18
 70
     1
102
RTVSPropertyOp19
 70
     1
102
RTVSPropertyOp20
 70
     1
102
RTVSPropertyOp21
 70
     1
102
RTVSPropertyOp22
 70
     1
102
RTVSPropertyOp23
 70
     1
102
RTVSPropertyOp24
 70
     1
102
RTVSPropertyOp25
 70
     1
102
RTVSPropertyOp26
 70
     1
102
RTVSPropertyOp27
 70
     1
  0
XRECORD
  5
3A1
102
{ACAD_REACTORS
330
3A0
102
}
330
3A0
100
AcDbXrecord
280
     1
102
RTVSPropertyOp0
 70
     1
102
RTVSPropertyOp1
 70
     1
102
RTVSPropertyOp2
 70
     1
102
RTVSPropertyOp3
 70
     1
102
RTVSPropertyOp4
 70
     1
102
RTVSPropertyOp5
 70
     1
102
RTVSPropertyOp6
 70
     1
102
RTVSPropertyOp7
 70
     1
102
RTVSPropertyOp8
 70
     1
102
RTVSPropertyOp9
 70
     1
102
RTVSPropertyOp10
 70
     1
102
RTVSPropertyOp11
 70
     1
102
RTVSPropertyOp12
 70
     1
102
RTVSPropertyOp13
 70
     1
102
RTVSPropertyOp14
 70
     1
102
RTVSPropertyOp15
 70
     1
102
RTVSPropertyOp16
 70
     1
102
RTVSPropertyOp17
 70
     1
102
RTVSPropertyOp18
 70
     1
102
RTVSPropertyOp19
 70
     1
102
RTVSPropertyOp20
 70
     1
102
RTVSPropertyOp21
 70
     1
102
RTVSPropertyOp22
 70
     1
102
RTVSPropertyOp23
 70
     1
102
RTVSPropertyOp24
 70
     1
102
RTVSPropertyOp25
 70
     1
102
RTVSPropertyOp26
 70
     1
102
RTVSPropertyOp27
 70
     1
  0
XRECORD
  5
3B1
102
{ACAD_REACTORS
330
3B0
102
}
330
3B0
100
AcDbXrecord
280
     1
102
RTVSPropertyOp0
 70
     0
102
RTVSPropertyOp1
 70
     0
102
RTVSPropertyOp2
 70
     0
102
RTVSPropertyOp3
 70
     0
102
RTVSPropertyOp4
 70
     0
102
RTVSPropertyOp5
 70
     0
102
RTVSPropertyOp6
 70
     0
102
RTVSPropertyOp7
 70
     0
102
RTVSPropertyOp8
 70
     0
102
RTVSPropertyOp9
 70
     0
102
RTVSPropertyOp10
 70
     0
102
RTVSPropertyOp11
 70
     0
102
RTVSPropertyOp12
 70
     0
102
RTVSPropertyOp13
 70
     0
102
RTVSPropertyOp14
 70
     2
102
RTVSPropertyOp15
 70
     0
102
RTVSPropertyOp16
 70
     0
102
RTVSPropertyOp17
 70
     0
102
RTVSPropertyOp18
 70
     0
102
RTVSPropertyOp19
 70
     0
102
RTVSPropertyOp20
 70
     0
102
RTVSPropertyOp21
 70
     0
102
RTVSPropertyOp22
 70
     0
102
RTVSPropertyOp23
 70
     0
102
RTVSPropertyOp24
 70
     0
102
RTVSPropertyOp25
 70
     0
102
RTVSPropertyOp26
 70
     0
102
RTVSPropertyOp27
 70
     0
  0
XRECORD
  5
3A9
102
{ACAD_REACTORS
330
3A8
102
}
330
3A8
100
AcDbXrecord
280
     1
102
RTVSPropertyOp0
 70
     1
102
RTVSPropertyOp1
 70
     1
102
RTVSPropertyOp2
 70
     1
102
RTVSPropertyOp3
 70
     1
102
RTVSPropertyOp4
 70
     1
102
RTVSPropertyOp5
 70
     1
102
RTVSPropertyOp6
 70
     1
102
RTVSPropertyOp7
 70
     1
102
RTVSPropertyOp8
 70
     1
102
RTVSPropertyOp9
 70
     1
102
RTVSPropertyOp10
 70
     1
102
RTVSPropertyOp11
 70
     1
102
RTVSPropertyOp12
 70
     1
102
RTVSPropertyOp13
 70
     1
102
RTVSPropertyOp14
 70
     1
102
RTVSPropertyOp15
 70
     1
102
RTVSPropertyOp16
 70
     1
102
RTVSPropertyOp17
 70
     1
102
RTVSPropertyOp18
 70
     1
102
RTVSPropertyOp19
 70
     1
102
RTVSPropertyOp20
 70
     1
102
RTVSPropertyOp21
 70
     1
102
RTVSPropertyOp22
 70
     1
102
RTVSPropertyOp23
 70
     1
102
RTVSPropertyOp24
 70
     1
102
RTVSPropertyOp25
 70
     1
102
RTVSPropertyOp26
 70
     1
102
RTVSPropertyOp27
 70
     1
  0
XRECORD
  5
38D
102
{ACAD_REACTORS
330
38C
102
}
330
38C
100
AcDbXrecord
280
     1
102
RTVSPropertyOp0
 70
     1
102
RTVSPropertyOp1
 70
     1
102
RTVSPropertyOp2
 70
     1
102
RTVSPropertyOp3
 70
     1
102
RTVSPropertyOp4
 70
     1
102
RTVSPropertyOp5
 70
     1
102
RTVSPropertyOp6
 70
     1
102
RTVSPropertyOp7
 70
     1
102
RTVSPropertyOp8
 70
     1
102
RTVSPropertyOp9
 70
     1
102
RTVSPropertyOp10
 70
     1
102
RTVSPropertyOp11
 70
     1
102
RTVSPropertyOp12
 70
     1
102
RTVSPropertyOp13
 70
     1
102
RTVSPropertyOp14
 70
     1
102
RTVSPropertyOp15
 70
     1
102
RTVSPropertyOp16
 70
     1
102
RTVSPropertyOp17
 70
     1
102
RTVSPropertyOp18
 70
     1
102
RTVSPropertyOp19
 70
     1
102
RTVSPropertyOp20
 70
     1
102
RTVSPropertyOp21
 70
     1
102
RTVSPropertyOp22
 70
     1
102
RTVSPropertyOp23
 70
     1
102
RTVSPropertyOp24
 70
     1
102
RTVSPropertyOp25
 70
     1
102
RTVSPropertyOp26
 70
     1
102
RTVSPropertyOp27
 70
     1
  0
XRECORD
  5
38F
102
{ACAD_REACTORS
330
38E
102
}
330
38E
100
AcDbXrecord
280
     1
102
RTVSPropertyOp0
 70
     1
102
RTVSPropertyOp1
 70
     1
102
RTVSPropertyOp2
 70
     1
102
RTVSPropertyOp3
 70
     1
102
RTVSPropertyOp4
 70
     1
102
RTVSPropertyOp5
 70
     1
102
RTVSPropertyOp6
 70
     1
102
RTVSPropertyOp7
 70
     1
102
RTVSPropertyOp8
 70
     1
102
RTVSPropertyOp9
 70
     1
102
RTVSPropertyOp10
 70
     1
102
RTVSPropertyOp11
 70
     1
102
RTVSPropertyOp12
 70
     1
102
RTVSPropertyOp13
 70
     1
102
RTVSPropertyOp14
 70
     1
102
RTVSPropertyOp15
 70
     1
102
RTVSPropertyOp16
 70
     1
102
RTVSPropertyOp17
 70
     1
102
RTVSPropertyOp18
 70
     1
102
RTVSPropertyOp19
 70
     1
102
RTVSPropertyOp20
 70
     1
102
RTVSPropertyOp21
 70
     1
102
RTVSPropertyOp22
 70
     1
102
RTVSPropertyOp23
 70
     1
102
RTVSPropertyOp24
 70
     1
102
RTVSPropertyOp25
 70
     1
102
RTVSPropertyOp26
 70
     1
102
RTVSPropertyOp27
 70
     1
  0
XRECORD
  5
391
102
{ACAD_REACTORS
330
390
102
}
330
390
100
AcDbXrecord
280
     1
102
RTVSPropertyOp0
 70
     1
102
RTVSPropertyOp1
 70
     1
102
RTVSPropertyOp2
 70
     1
102
RTVSPropertyOp3
 70
     1
102
RTVSPropertyOp4
 70
     1
102
RTVSPropertyOp5
 70
     1
102
RTVSPropertyOp6
 70
     1
102
RTVSPropertyOp7
 70
     1
102
RTVSPropertyOp8
 70
     1
102
RTVSPropertyOp9
 70
     1
102
RTVSPropertyOp10
 70
     1
102
RTVSPropertyOp11
 70
     1
102
RTVSPropertyOp12
 70
     1
102
RTVSPropertyOp13
 70
     1
102
RTVSPropertyOp14
 70
     1
102
RTVSPropertyOp15
 70
     1
102
RTVSPropertyOp16
 70
     1
102
RTVSPropertyOp17
 70
     1
102
RTVSPropertyOp18
 70
     1
102
RTVSPropertyOp19
 70
     1
102
RTVSPropertyOp20
 70
     1
102
RTVSPropertyOp21
 70
     1
102
RTVSPropertyOp22
 70
     1
102
RTVSPropertyOp23
 70
     1
102
RTVSPropertyOp24
 70
     1
102
RTVSPropertyOp25
 70
     1
102
RTVSPropertyOp26
 70
     1
102
RTVSPropertyOp27
 70
     1
  0
XRECORD
  5
393
102
{ACAD_REACTORS
330
392
102
}
330
392
100
AcDbXrecord
280
     1
102
RTVSPropertyOp0
 70
     1
102
RTVSPropertyOp1
 70
     1
102
RTVSPropertyOp2
 70
     1
102
RTVSPropertyOp3
 70
     1
102
RTVSPropertyOp4
 70
     1
102
RTVSPropertyOp5
 70
     1
102
RTVSPropertyOp6
 70
     1
102
RTVSPropertyOp7
 70
     1
102
RTVSPropertyOp8
 70
     1
102
RTVSPropertyOp9
 70
     1
102
RTVSPropertyOp10
 70
     1
102
RTVSPropertyOp11
 70
     1
102
RTVSPropertyOp12
 70
     1
102
RTVSPropertyOp13
 70
     1
102
RTVSPropertyOp14
 70
     1
102
RTVSPropertyOp15
 70
     1
102
RTVSPropertyOp16
 70
     1
102
RTVSPropertyOp17
 70
     1
102
RTVSPropertyOp18
 70
     1
102
RTVSPropertyOp19
 70
     1
102
RTVSPropertyOp20
 70
     1
102
RTVSPropertyOp21
 70
     1
102
RTVSPropertyOp22
 70
     1
102
RTVSPropertyOp23
 70
     1
102
RTVSPropertyOp24
 70
     1
102
RTVSPropertyOp25
 70
     1
102
RTVSPropertyOp26
 70
     1
102
RTVSPropertyOp27
 70
     1
  0
XRECORD
  5
3AD
102
{ACAD_REACTORS
330
3AC
102
}
330
3AC
100
AcDbXrecord
280
     1
102
RTVSPropertyOp0
 70
     0
102
RTVSPropertyOp1
 70
     0
102
RTVSPropertyOp2
 70
     0
102
RTVSPropertyOp3
 70
     0
102
RTVSPropertyOp4
 70
     0
102
RTVSPropertyOp5
 70
     0
102
RTVSPropertyOp6
 70
     0
102
RTVSPropertyOp7
 70
     0
102
RTVSPropertyOp8
 70
     0
102
RTVSPropertyOp9
 70
     0
102
RTVSPropertyOp10
 70
     0
102
RTVSPropertyOp11
 70
     0
102
RTVSPropertyOp12
 70
     0
102
RTVSPropertyOp13
 70
     0
102
RTVSPropertyOp14
 70
     2
102
RTVSPropertyOp15
 70
     0
102
RTVSPropertyOp16
 70
     0
102
RTVSPropertyOp17
 70
     0
102
RTVSPropertyOp18
 70
     0
102
RTVSPropertyOp19
 70
     0
102
RTVSPropertyOp20
 70
     0
102
RTVSPropertyOp21
 70
     0
102
RTVSPropertyOp22
 70
     0
102
RTVSPropertyOp23
 70
     0
102
RTVSPropertyOp24
 70
     0
102
RTVSPropertyOp25
 70
     0
102
RTVSPropertyOp26
 70
     0
102
RTVSPropertyOp27
 70
     0
  0
XRECORD
  5
3A7
102
{ACAD_REACTORS
330
3A6
102
}
330
3A6
100
AcDbXrecord
280
     1
102
RTVSPropertyOp0
 70
     1
102
RTVSPropertyOp1
 70
     1
102
RTVSPropertyOp2
 70
     1
102
RTVSPropertyOp3
 70
     1
102
RTVSPropertyOp4
 70
     1
102
RTVSPropertyOp5
 70
     1
102
RTVSPropertyOp6
 70
     1
102
RTVSPropertyOp7
 70
     1
102
RTVSPropertyOp8
 70
     1
102
RTVSPropertyOp9
 70
     1
102
RTVSPropertyOp10
 70
     1
102
RTVSPropertyOp11
 70
     1
102
RTVSPropertyOp12
 70
     1
102
RTVSPropertyOp13
 70
     1
102
RTVSPropertyOp14
 70
     1
102
RTVSPropertyOp15
 70
     1
102
RTVSPropertyOp16
 70
     1
102
RTVSPropertyOp17
 70
     1
102
RTVSPropertyOp18
 70
     1
102
RTVSPropertyOp19
 70
     1
102
RTVSPropertyOp20
 70
     1
102
RTVSPropertyOp21
 70
     1
102
RTVSPropertyOp22
 70
     1
102
RTVSPropertyOp23
 70
     1
102
RTVSPropertyOp24
 70
     1
102
RTVSPropertyOp25
 70
     1
102
RTVSPropertyOp26
 70
     1
102
RTVSPropertyOp27
 70
     1
  0
XRECORD
  5
3AF
102
{ACAD_REACTORS
330
3AE
102
}
330
3AE
100
AcDbXrecord
280
     1
102
RTVSPropertyOp0
 70
     0
102
RTVSPropertyOp1
 70
     0
102
RTVSPropertyOp2
 70
     0
102
RTVSPropertyOp3
 70
     0
102
RTVSPropertyOp4
 70
     0
102
RTVSPropertyOp5
 70
     0
102
RTVSPropertyOp6
 70
     0
102
RTVSPropertyOp7
 70
     0
102
RTVSPropertyOp8
 70
     0
102
RTVSPropertyOp9
 70
     0
102
RTVSPropertyOp10
 70
     0
102
RTVSPropertyOp11
 70
     0
102
RTVSPropertyOp12
 70
     0
102
RTVSPropertyOp13
 70
     0
102
RTVSPropertyOp14
 70
     2
102
RTVSPropertyOp15
 70
     0
102
RTVSPropertyOp16
 70
     0
102
RTVSPropertyOp17
 70
     0
102
RTVSPropertyOp18
 70
     0
102
RTVSPropertyOp19
 70
     0
102
RTVSPropertyOp20
 70
     0
102
RTVSPropertyOp21
 70
     0
102
RTVSPropertyOp22
 70
     0
102
RTVSPropertyOp23
 70
     0
102
RTVSPropertyOp24
 70
     0
102
RTVSPropertyOp25
 70
     0
102
RTVSPropertyOp26
 70
     0
102
RTVSPropertyOp27
 70
     0
  0
XRECORD
  5
39F
102
{ACAD_REACTORS
330
39E
102
}
330
39E
100
AcDbXrecord
280
     1
102
RTVSPropertyOp0
 70
     1
102
RTVSPropertyOp1
 70
     1
102
RTVSPropertyOp2
 70
     1
102
RTVSPropertyOp3
 70
     1
102
RTVSPropertyOp4
 70
     1
102
RTVSPropertyOp5
 70
     1
102
RTVSPropertyOp6
 70
     1
102
RTVSPropertyOp7
 70
     1
102
RTVSPropertyOp8
 70
     1
102
RTVSPropertyOp9
 70
     1
102
RTVSPropertyOp10
 70
     1
102
RTVSPropertyOp11
 70
     1
102
RTVSPropertyOp12
 70
     1
102
RTVSPropertyOp13
 70
     1
102
RTVSPropertyOp14
 70
     1
102
RTVSPropertyOp15
 70
     1
102
RTVSPropertyOp16
 70
     1
102
RTVSPropertyOp17
 70
     1
102
RTVSPropertyOp18
 70
     1
102
RTVSPropertyOp19
 70
     1
102
RTVSPropertyOp20
 70
     1
102
RTVSPropertyOp21
 70
     1
102
RTVSPropertyOp22
 70
     1
102
RTVSPropertyOp23
 70
     1
102
RTVSPropertyOp24
 70
     1
102
RTVSPropertyOp25
 70
     1
102
RTVSPropertyOp26
 70
     1
102
RTVSPropertyOp27
 70
     1
  0
XRECORD
  5
3A5
102
{ACAD_REACTORS
330
3A4
102
}
330
3A4
100
AcDbXrecord
280
     1
102
RTVSPropertyOp0
 70
     1
102
RTVSPropertyOp1
 70
     1
102
RTVSPropertyOp2
 70
     1
102
RTVSPropertyOp3
 70
     1
102
RTVSPropertyOp4
 70
     1
102
RTVSPropertyOp5
 70
     1
102
RTVSPropertyOp6
 70
     1
102
RTVSPropertyOp7
 70
     1
102
RTVSPropertyOp8
 70
     1
102
RTVSPropertyOp9
 70
     1
102
RTVSPropertyOp10
 70
     1
102
RTVSPropertyOp11
 70
     1
102
RTVSPropertyOp12
 70
     1
102
RTVSPropertyOp13
 70
     1
102
RTVSPropertyOp14
 70
     1
102
RTVSPropertyOp15
 70
     1
102
RTVSPropertyOp16
 70
     1
102
RTVSPropertyOp17
 70
     1
102
RTVSPropertyOp18
 70
     1
102
RTVSPropertyOp19
 70
     1
102
RTVSPropertyOp20
 70
     1
102
RTVSPropertyOp21
 70
     1
102
RTVSPropertyOp22
 70
     1
102
RTVSPropertyOp23
 70
     1
102
RTVSPropertyOp24
 70
     1
102
RTVSPropertyOp25
 70
     1
102
RTVSPropertyOp26
 70
     1
102
RTVSPropertyOp27
 70
     1
  0
ENDSEC
  0
EOF
