  0
SECTION
  2
HEADER
  9
$ACADVER
  1
AC1015
  9
$ACADMAINTVER
 70
    10
  9
$DWGCODEPAGE
  3
ANSI_932
  9
$INSBASE
 10
0.0
 20
0.0
 30
0.0
  9
$EXTMIN
 10
-114.0109854899475
 20
-114.1435590267926
 30
-0.0015258207003583
  9
$EXTMAX
 10
247.2469490818293
 20
420.0163015140169
 30
0.0000000349246037
  9
$LIMMIN
 10
0.0
 20
0.0
  9
$LIMMAX
 10
0.0
 20
0.0
  9
$ORTHOMODE
 70
     0
  9
$REGENMODE
 70
     1
  9
$FILLMODE
 70
     1
  9
$QTEXTMODE
 70
     0
  9
$MIRRTEXT
 70
     1
  9
$LTSCALE
 40
10.16
  9
$ATTMODE
 70
     1
  9
$TEXTSIZE
 40
0.0
  9
$TRACEWID
 40
1.0
  9
$TEXTSTYLE
  7
STANDARD
  9
$CLAYER
  8
DATA
  9
$CELTYPE
  6
CONTINUOUS
  9
$CECOLOR
 62
   256
  9
$CELTSCALE
 40
1.0
  9
$DISPSILH
 70
     0
  9
$DIMSCALE
 40
1.0
  9
$DIMASZ
 40
0.18
  9
$DIMEXO
 40
0.0625
  9
$DIMDLI
 40
0.38
  9
$DIMRND
 40
0.0
  9
$DIMDLE
 40
0.0
  9
$DIMEXE
 40
0.18
  9
$DIMTP
 40
0.0
  9
$DIMTM
 40
0.0
  9
$DIMTXT
 40
0.18
  9
$DIMCEN
 40
0.09
  9
$DIMTSZ
 40
0.0
  9
$DIMTOL
 70
     0
  9
$DIMLIM
 70
     0
  9
$DIMTIH
 70
     1
  9
$DIMTOH
 70
     1
  9
$DIMSE1
 70
     0
  9
$DIMSE2
 70
     0
  9
$DIMTAD
 70
     0
  9
$DIMZIN
 70
     0
  9
$DIMBLK
  1

  9
$DIMASO
 70
     1
  9
$DIMSHO
 70
     1
  9
$DIMPOST
  1

  9
$DIMAPOST
  1

  9
$DIMALT
 70
     0
  9
$DIMALTD
 70
     2
  9
$DIMALTF
 40
25.4
  9
$DIMLFAC
 40
1.0
  9
$DIMTOFL
 70
     0
  9
$DIMTVP
 40
0.0
  9
$DIMTIX
 70
     0
  9
$DIMSOXD
 70
     0
  9
$DIMSAH
 70
     0
  9
$DIMBLK1
  1

  9
$DIMBLK2
  1

  9
$DIMSTYLE
  2
STANDARD
  9
$DIMCLRD
 70
     0
  9
$DIMCLRE
 70
     0
  9
$DIMCLRT
 70
     0
  9
$DIMTFAC
 40
1.0
  9
$DIMGAP
 40
0.09
  9
$DIMJUST
 70
     0
  9
$DIMSD1
 70
     0
  9
$DIMSD2
 70
     0
  9
$DIMTOLJ
 70
     1
  9
$DIMTZIN
 70
     0
  9
$DIMALTZ
 70
     0
  9
$DIMALTTZ
 70
     0
  9
$DIMUPT
 70
     0
  9
$DIMDEC
 70
     4
  9
$DIMTDEC
 70
     4
  9
$DIMALTU
 70
     2
  9
$DIMALTTD
 70
     2
  9
$DIMTXSTY
  7
STANDARD
  9
$DIMAUNIT
 70
     0
  9
$DIMADEC
 70
     0
  9
$DIMALTRND
 40
0.0
  9
$DIMAZIN
 70
     0
  9
$DIMDSEP
 70
    46
  9
$DIMATFIT
 70
     3
  9
$DIMFRAC
 70
     0
  9
$DIMLDRBLK
  1

  9
$DIMLUNIT
 70
     2
  9
$DIMLWD
 70
    -2
  9
$DIMLWE
 70
    -2
  9
$DIMTMOVE
 70
     0
  9
$LUNITS
 70
     2
  9
$LUPREC
 70
     4
  9
$SKETCHINC
 40
0.1
  9
$FILLETRAD
 40
0.0
  9
$AUNITS
 70
     0
  9
$AUPREC
 70
     0
  9
$MENU
  1
acad
  9
$ELEVATION
 40
0.0
  9
$PELEVATION
 40
0.0
  9
$THICKNESS
 40
0.0
  9
$LIMCHECK
 70
     0
  9
$CHAMFERA
 40
0.0
  9
$CHAMFERB
 40
0.0
  9
$CHAMFERC
 40
0.0
  9
$CHAMFERD
 40
0.0
  9
$SKPOLY
 70
     0
  9
$TDCREATE
 40
2454639.684895833
  9
$TDUCREATE
 40
2454639.309895833
  9
$TDUPDATE
 40
2455593.723175462
  9
$TDUUPDATE
 40
2455593.348175463
  9
$TDINDWG
 40
0.0035912153
  9
$TDUSRTIMER
 40
0.0035910301
  9
$USRTIMER
 70
     1
  9
$ANGBASE
 50
0.0
  9
$ANGDIR
 70
     0
  9
$PDMODE
 70
     1
  9
$PDSIZE
 40
-2.0
  9
$PLINEWID
 40
0.0
  9
$SPLFRAME
 70
     0
  9
$SPLINETYPE
 70
     6
  9
$SPLINESEGS
 70
     8
  9
$HANDSEED
  5
35F
  9
$SURFTAB1
 70
     6
  9
$SURFTAB2
 70
     6
  9
$SURFTYPE
 70
     6
  9
$SURFU
 70
     6
  9
$SURFV
 70
     6
  9
$UCSBASE
  2

  9
$UCSNAME
  2

  9
$UCSORG
 10
0.0
 20
0.0
 30
0.0
  9
$UCSXDIR
 10
1.0
 20
0.0
 30
0.0
  9
$UCSYDIR
 10
0.0
 20
1.0
 30
0.0
  9
$UCSORTHOREF
  2

  9
$UCSORTHOVIEW
 70
     0
  9
$UCSORGTOP
 10
0.0
 20
0.0
 30
0.0
  9
$UCSORGBOTTOM
 10
0.0
 20
0.0
 30
0.0
  9
$UCSORGLEFT
 10
0.0
 20
0.0
 30
0.0
  9
$UCSORGRIGHT
 10
0.0
 20
0.0
 30
0.0
  9
$UCSORGFRONT
 10
0.0
 20
0.0
 30
0.0
  9
$UCSORGBACK
 10
0.0
 20
0.0
 30
0.0
  9
$PUCSBASE
  2

  9
$PUCSNAME
  2

  9
$PUCSORG
 10
0.0
 20
0.0
 30
0.0
  9
$PUCSXDIR
 10
1.0
 20
0.0
 30
0.0
  9
$PUCSYDIR
 10
0.0
 20
1.0
 30
0.0
  9
$PUCSORTHOREF
  2

  9
$PUCSORTHOVIEW
 70
     0
  9
$PUCSORGTOP
 10
0.0
 20
0.0
 30
0.0
  9
$PUCSORGBOTTOM
 10
0.0
 20
0.0
 30
0.0
  9
$PUCSORGLEFT
 10
0.0
 20
0.0
 30
0.0
  9
$PUCSORGRIGHT
 10
0.0
 20
0.0
 30
0.0
  9
$PUCSORGFRONT
 10
0.0
 20
0.0
 30
0.0
  9
$PUCSORGBACK
 10
0.0
 20
0.0
 30
0.0
  9
$USERI1
 70
     0
  9
$USERI2
 70
     0
  9
$USERI3
 70
     0
  9
$USERI4
 70
     0
  9
$USERI5
 70
     0
  9
$USERR1
 40
0.0
  9
$USERR2
 40
0.0
  9
$USERR3
 40
0.0
  9
$USERR4
 40
0.0
  9
$USERR5
 40
0.0
  9
$WORLDVIEW
 70
     1
  9
$SHADEDGE
 70
     3
  9
$SHADEDIF
 70
    70
  9
$TILEMODE
 70
     1
  9
$MAXACTVP
 70
    64
  9
$PINSBASE
 10
0.0
 20
0.0
 30
0.0
  9
$PLIMCHECK
 70
     0
  9
$PEXTMIN
 10
1.000000000000000E+20
 20
1.000000000000000E+20
 30
1.000000000000000E+20
  9
$PEXTMAX
 10
-1.000000000000000E+20
 20
-1.000000000000000E+20
 30
-1.000000000000000E+20
  9
$PLIMMIN
 10
0.0
 20
0.0
  9
$PLIMMAX
 10
12.0
 20
9.0
  9
$UNITMODE
 70
     0
  9
$VISRETAIN
 70
     0
  9
$PLINEGEN
 70
     1
  9
$PSLTSCALE
 70
     0
  9
$TREEDEPTH
 70
  3020
  9
$CMLSTYLE
  2
Standard
  9
$CMLJUST
 70
     0
  9
$CMLSCALE
 40
1.0
  9
$PROXYGRAPHICS
 70
     1
  9
$MEASUREMENT
 70
     0
  9
$CELWEIGHT
370
    -1
  9
$ENDCAPS
280
     0
  9
$JOINSTYLE
280
     0
  9
$LWDISPLAY
290
     0
  9
$INSUNITS
 70
     0
  9
$HYPERLINKBASE
  1

  9
$STYLESHEET
  1

  9
$XEDIT
290
     1
  9
$CEPSNTYPE
380
     0
  9
$PSTYLEMODE
290
     1
  9
$FINGERPRINTGUID
  2
{704BD95D-B7FA-492E-9849-8FFC99A86673}
  9
$VERSIONGUID
  2
{FEDEE8FD-F739-4EC6-A23E-14A75F901167}
  9
$EXTNAMES
290
     1
  9
$PSVPSCALE
 40
0.0
  9
$OLESTARTUP
290
     0
  0
ENDSEC
  0
SECTION
  2
CLASSES
  0
CLASS
  1
ACDBDICTIONARYWDFLT
  2
AcDbDictionaryWithDefault
  3
AutoCAD 2000
 90
        0
280
     0
281
     0
  0
CLASS
  1
ACDBPLACEHOLDER
  2
AcDbPlaceHolder
  3
AutoCAD 2000
 90
        0
280
     0
281
     0
  0
CLASS
  1
LAYOUT
  2
AcDbLayout
  3
AutoCAD 2000
 90
        0
280
     0
281
     0
  0
ENDSEC
  0
SECTION
  2
TABLES
  0
TABLE
  2
VPORT
  5
1B3
330
0
100
AcDbSymbolTable
 70
     4
  0
VPORT
  5
35E
330
1B3
100
AcDbSymbolTableRecord
100
AcDbViewportTableRecord
  2
*Active
 70
     0
 10
0.0
 20
0.0
 11
1.0
 21
1.0
 12
66.61798179594092
 22
152.9363712436121
 13
0.0
 23
0.0
 14
1.0
 24
1.0
 15
0.0
 25
0.0
 16
0.0
 26
0.0
 36
1.0
 17
0.0
 27
0.0
 37
0.0
 40
538.1313093180647
 41
1.478908188585607
 42
50.0
 43
0.0
 44
0.0
 50
0.0
 51
0.0
 71
     0
 72
  2000
 73
     1
 74
     1
 75
     0
 76
     0
 77
     0
 78
     0
281
     0
 65
     1
110
0.0
120
0.0
130
0.0
111
1.0
121
0.0
131
0.0
112
0.0
122
1.0
132
0.0
 79
     0
146
0.0
  0
ENDTAB
  0
TABLE
  2
LTYPE
  5
1B0
330
0
100
AcDbSymbolTable
 70
    11
  0
LTYPE
  5
1BE
330
1B0
100
AcDbSymbolTableRecord
100
AcDbLinetypeTableRecord
  2
ByBlock
 70
     0
  3

 72
    65
 73
     0
 40
0.0
  0
LTYPE
  5
1BF
330
1B0
100
AcDbSymbolTableRecord
100
AcDbLinetypeTableRecord
  2
ByLayer
 70
     0
  3

 72
    65
 73
     0
 40
0.0
  0
LTYPE
  5
1C0
330
1B0
100
AcDbSymbolTableRecord
100
AcDbLinetypeTableRecord
  2
CONTINUOUS
 70
     0
  3
Solid line
 72
    65
 73
     0
 40
0.0
  0
LTYPE
  5
1CF
330
1B0
100
AcDbSymbolTableRecord
100
AcDbLinetypeTableRecord
  2
STYLE_01
 70
     0
  3

 72
    65
 73
     2
 40
0.4166412353515625
 49
0.208282470703125
 74
     0
 49
-0.2083587646484375
 74
     0
  0
LTYPE
  5
1D0
330
1B0
100
AcDbSymbolTableRecord
100
AcDbLinetypeTableRecord
  2
STYLE_02
 70
     0
  3

 72
    65
 73
     2
 40
0.694427490234375
 49
0.4860687255859375
 74
     0
 49
-0.2083587646484375
 74
     0
  0
LTYPE
  5
1D1
330
1B0
100
AcDbSymbolTableRecord
100
AcDbLinetypeTableRecord
  2
STYLE_03
 70
     0
  3

 72
    65
 73
     2
 40
1.25
 49
1.041641235351562
 74
     0
 49
-0.2083587646484375
 74
     0
  0
LTYPE
  5
1D2
330
1B0
100
AcDbSymbolTableRecord
100
AcDbLinetypeTableRecord
  2
STYLE_04
 70
     0
  3

 72
    65
 73
     2
 40
1.5277099609375
 49
1.319427490234375
 74
     0
 49
-0.208282470703125
 74
     0
  0
LTYPE
  5
1D3
330
1B0
100
AcDbSymbolTableRecord
100
AcDbLinetypeTableRecord
  2
STYLE_05
 70
     0
  3

 72
    65
 73
     2
 40
0.208282470703125
 49
0.069427490234375
 74
     0
 49
-0.13885498046875
 74
     0
  0
LTYPE
  5
1D4
330
1B0
100
AcDbSymbolTableRecord
100
AcDbLinetypeTableRecord
  2
STYLE_06
 70
     0
  3

 72
    65
 73
     4
 40
1.041641235351562
 49
0.625
 74
     0
 49
-0.208282470703125
 74
     0
 49
0.069427490234375
 74
     0
 49
-0.1389312744140625
 74
     0
  0
LTYPE
  5
1D5
330
1B0
100
AcDbSymbolTableRecord
100
AcDbLinetypeTableRecord
  2
STYLE_07
 70
     0
  3

 72
    65
 73
     6
 40
1.875
 49
0.625
 74
     0
 49
-0.208282470703125
 74
     0
 49
0.625
 74
     0
 49
-0.2083587646484375
 74
     0
 49
0.069427490234375
 74
     0
 49
-0.1389312744140625
 74
     0
  0
LTYPE
  5
1D6
330
1B0
100
AcDbSymbolTableRecord
100
AcDbLinetypeTableRecord
  2
STYLE_08
 70
     0
  3

 72
    65
 73
     6
 40
1.25
 49
0.625
 74
     0
 49
-0.208282470703125
 74
     0
 49
0.069427490234375
 74
     0
 49
-0.1389312744140625
 74
     0
 49
0.069427490234375
 74
     0
 49
-0.1389312744140625
 74
     0
  0
LTYPE
  5
1D7
330
1B0
100
AcDbSymbolTableRecord
100
AcDbLinetypeTableRecord
  2
STYLE_09
 70
     0
  3

 72
    65
 73
     4
 40
5.0
 49
3.75
 74
     0
 49
-0.2777862548828125
 74
     0
 49
0.694427490234375
 74
     0
 49
-0.2777862548828125
 74
     0
  0
LTYPE
  5
1D8
330
1B0
100
AcDbSymbolTableRecord
100
AcDbLinetypeTableRecord
  2
STYLE_10
 70
     0
  3

 72
    65
 73
     6
 40
5.9375
 49
3.75
 74
     0
 49
-0.2777862548828125
 74
     0
 49
0.694427490234375
 74
     0
 49
-0.2777862548828125
 74
     0
 49
0.625
 74
     0
 49
-0.3125
 74
     0
  0
ENDTAB
  0
TABLE
  2
LAYER
  5
1AD
330
0
100
AcDbSymbolTable
 70
     5
  0
LAYER
  5
1BB
330
1AD
100
AcDbSymbolTableRecord
100
AcDbLayerTableRecord
  2
0
 70
     0
 62
     7
  6
CONTINUOUS
370
    -3
390
1BA
  0
LAYER
  5
1CD
330
1AD
100
AcDbSymbolTableRecord
100
AcDbLayerTableRecord
  2
DATA
 70
     0
 62
     7
  6
CONTINUOUS
370
    -3
390
1BA
  0
LAYER
  5
1D9
330
1AD
100
AcDbSymbolTableRecord
100
AcDbLayerTableRecord
  2
BASE
 70
     0
 62
     7
  6
CONTINUOUS
370
    -3
390
1BA
  0
LAYER
  5
1DA
330
1AD
100
AcDbSymbolTableRecord
100
AcDbLayerTableRecord
  2
SPEC
 70
     0
 62
     7
  6
CONTINUOUS
370
    -3
390
1BA
  0
LAYER
  5
1DB
330
1AD
100
AcDbSymbolTableRecord
100
AcDbLayerTableRecord
  2
DIMNSIONS
 70
     0
 62
     7
  6
CONTINUOUS
370
    -3
390
1BA
  0
ENDTAB
  0
TABLE
  2
STYLE
  5
1AE
330
0
100
AcDbSymbolTable
 70
     2
  0
STYLE
  5
1BC
330
1AE
100
AcDbSymbolTableRecord
100
AcDbTextStyleTableRecord
  2
STANDARD
 70
     0
 40
0.0
 41
1.0
 50
0.0
 71
     0
 42
0.0
  3
txt
  4
BIGFONT.SHX
  0
STYLE
  5
1DC
330
1AE
100
AcDbSymbolTableRecord
100
AcDbTextStyleTableRecord
  2
_______
 70
     0
 40
0.0
 41
1.0
 50
0.0
 71
     0
 42
0.0
  3

  4
ＭＳ ゴシック
  0
ENDTAB
  0
TABLE
  2
VIEW
  5
1B1
330
0
100
AcDbSymbolTable
 70
     0
  0
ENDTAB
  0
TABLE
  2
UCS
  5
1B2
330
0
100
AcDbSymbolTable
 70
     0
  0
ENDTAB
  0
TABLE
  2
APPID
  5
1B4
330
0
100
AcDbSymbolTable
 70
     1
  0
APPID
  5
1BD
330
1B4
100
AcDbSymbolTableRecord
100
AcDbRegAppTableRecord
  2
ACAD
 70
     0
  0
ENDTAB
  0
TABLE
  2
DIMSTYLE
  5
1B5
330
0
100
AcDbSymbolTable
 70
     1
100
AcDbDimStyleTable
 71
     0
  0
DIMSTYLE
105
1DD
330
1B5
100
AcDbSymbolTableRecord
100
AcDbDimStyleTableRecord
  2
STANDARD
 70
     0
279
     2
340
1BC
  0
ENDTAB
  0
TABLE
  2
BLOCK_RECORD
  5
1AC
330
0
100
AcDbSymbolTable
 70
     0
  0
BLOCK_RECORD
  5
1C9
330
1AC
100
AcDbSymbolTableRecord
100
AcDbBlockTableRecord
  2
*Model_Space
340
1CC
  0
BLOCK_RECORD
  5
1C5
330
1AC
100
AcDbSymbolTableRecord
100
AcDbBlockTableRecord
  2
*Paper_Space
340
1C8
  0
ENDTAB
  0
ENDSEC
  0
SECTION
  2
BLOCKS
  0
BLOCK
  5
1CA
330
1C9
100
AcDbEntity
  8
0
100
AcDbBlockBegin
  2
*Model_Space
 70
     0
 10
0.0
 20
0.0
 30
0.0
  3
*Model_Space
  1

  0
ENDBLK
  5
1CB
330
1C9
100
AcDbEntity
  8
0
100
AcDbBlockEnd
  0
BLOCK
  5
1C6
330
1C5
100
AcDbEntity
 67
     1
  8
0
100
AcDbBlockBegin
  2
*Paper_Space
 70
     0
 10
0.0
 20
0.0
 30
0.0
  3
*Paper_Space
  1

  0
ENDBLK
  5
1C7
330
1C5
100
AcDbEntity
 67
     1
  8
0
100
AcDbBlockEnd
  0
ENDSEC
  0
SECTION
  2
ENTITIES
  0
LINE
  5
1E1
330
1C9
100
AcDbEntity
  8
BASE
  6
Continuous
 62
     7
100
AcDbLine
 10
-114.0
 20
420.0
 30
0.0
 11
246.0
 21
420.0
 31
0.0
  0
LINE
  5
1E2
330
1C9
100
AcDbEntity
  8
BASE
  6
Continuous
 62
     7
100
AcDbLine
 10
246.0
 20
-100.0
 30
0.0
 11
-114.0
 21
-100.0
 31
0.0
  0
LINE
  5
1E3
330
1C9
100
AcDbEntity
  8
BASE
  6
Continuous
 62
     7
100
AcDbLine
 10
-114.0
 20
-100.0
 30
0.0
 11
-114.0
 21
420.0
 31
0.0
  0
TEXT
  5
1E4
330
1C9
100
AcDbEntity
  8
BASE
 62
     7
100
AcDbText
 10
-99.63199999999996
 20
-112.8173555999999
 30
0.0
 40
7.200088359374999
  1
Hibino-Intersound Corporation
  7
_______
 11
-99.63199999999996
 21
-105.6172672406249
 31
0.0
100
AcDbText
 73
     3
  0
LINE
  5
1E5
330
1C9
100
AcDbEntity
  8
BASE
  6
Continuous
 62
     7
100
AcDbLine
 10
246.0
 20
420.0
 30
0.0
 11
246.0
 21
-100.0
 31
0.0
  0
LINE
  5
1E6
330
1C9
100
AcDbEntity
  8
BASE
  6
Continuous
 62
     7
100
AcDbLine
 10
66.0
 20
-54.99999999999997
 30
0.0
 11
246.0
 21
-54.99999999999997
 31
0.0
  0
LINE
  5
1E7
330
1C9
100
AcDbEntity
  8
BASE
  6
Continuous
 62
     7
100
AcDbLine
 10
66.0
 20
-100.0
 30
0.0
 11
66.0
 21
-54.99999999999997
 31
0.0
  0
TEXT
  5
1E8
330
1C9
100
AcDbEntity
  8
BASE
 62
     7
100
AcDbText
 10
67.8
 20
-60.01738666666665
 30
0.0
 40
3.257682291666666
  1
NOTE
  7
_______
 11
67.8
 21
-56.75970437499998
 31
0.0
100
AcDbText
 73
     3
  0
LINE
  5
1E9
330
1C9
100
AcDbEntity
  8
BASE
  6
Continuous
 62
     7
100
AcDbLine
 10
136.0
 20
-100.0
 30
0.0
 11
136.0
 21
-54.99999999999997
 31
0.0
  0
TEXT
  5
1EA
330
1C9
100
AcDbEntity
  8
BASE
 62
     7
100
AcDbText
 10
137.8
 20
-60.01738666666665
 30
0.0
 40
3.257682291666666
  1
TITLE
  7
_______
 11
137.8
 21
-56.75970437499998
 31
0.0
100
AcDbText
 73
     3
  0
TEXT
  5
1EB
330
1C9
100
AcDbEntity
  8
BASE
 62
     7
100
AcDbText
 10
106.897018738015
 20
-112.5109358364018
 30
0.0
 40
7.200088359374999
  1
ヒビノインターサウンド株式会社
  7
_______
 11
106.897018738015
 21
-105.3108474770268
 31
0.0
100
AcDbText
 73
     3
  0
LINE
  5
1EC
330
1C9
100
AcDbEntity
  8
BASE
  6
Continuous
 62
     7
100
AcDbLine
 10
66.0
 20
-79.99999999999997
 30
0.0
 11
246.0
 21
-79.99999999999997
 31
0.0
  0
TEXT
  5
1ED
330
1C9
100
AcDbEntity
  8
BASE
 62
     7
100
AcDbText
 10
162.8
 20
-84.90474666666665
 30
0.0
 40
3.257682291666666
  1
DRAWN
  7
_______
 11
162.8
 21
-81.64706437499999
 31
0.0
100
AcDbText
 73
     3
  0
TEXT
  5
1EE
330
1C9
100
AcDbEntity
  8
BASE
 62
     7
100
AcDbText
 10
112.7999999999999
 20
-84.90474666666665
 30
0.0
 40
3.257682291666666
  1
DATE
  7
_______
 11
112.7999999999999
 21
-81.64706437499999
 31
0.0
100
AcDbText
 73
     3
  0
TEXT
  5
1EF
330
1C9
100
AcDbEntity
  8
BASE
 62
     7
100
AcDbText
 10
68.2
 20
-85.23891240000002
 30
0.0
 40
3.257687421875
  1
図面サイズ
  7
_______
 11
68.2
 21
-81.98122497812502
 31
0.0
100
AcDbText
 73
     3
  0
TEXT
  5
1F0
330
1C9
100
AcDbEntity
  8
BASE
 62
     7
100
AcDbText
 10
92.79999999999999
 20
-84.90474666666665
 30
0.0
 40
3.257682291666666
  1
SCALE
  7
_______
 11
92.79999999999999
 21
-81.64706437499999
 31
0.0
100
AcDbText
 73
     3
  0
TEXT
  5
1F1
330
1C9
100
AcDbEntity
  8
BASE
 62
     7
100
AcDbText
 10
137.8
 20
-84.90474666666665
 30
0.0
 40
3.257682291666666
  1
DESIGN
  7
_______
 11
137.8
 21
-81.64706437499999
 31
0.0
100
AcDbText
 73
     3
  0
TEXT
  5
1F2
330
1C9
100
AcDbEntity
  8
BASE
 62
     7
100
AcDbText
 10
212.8
 20
-84.90474666666665
 30
0.0
 40
3.257682291666666
  1
DRAWING NO.
  7
_______
 11
212.8
 21
-81.64706437499999
 31
0.0
100
AcDbText
 73
     3
  0
TEXT
  5
1F3
330
1C9
100
AcDbEntity
  8
BASE
 62
     7
100
AcDbText
 10
187.8
 20
-84.90474666666665
 30
0.0
 40
3.257682291666666
  1
CHECK
  7
_______
 11
187.8
 21
-81.64706437499999
 31
0.0
100
AcDbText
 73
     3
  0
LINE
  5
1F4
330
1C9
100
AcDbEntity
  8
BASE
  6
Continuous
 62
     7
100
AcDbLine
 10
94.74999999999999
 20
-97.5
 30
0.0
 11
102.2499999999999
 21
-89.99999999999996
 31
0.0
  0
TEXT
  5
1F5
330
1C9
100
AcDbEntity
  8
BASE
 62
     7
100
AcDbText
 10
93.49999999999999
 20
-92.2178866666667
 30
0.0
 40
3.257682291666666
  1
1
  7
_______
 11
93.49999999999999
 21
-88.96020437500004
 31
0.0
100
AcDbText
 73
     3
  0
LINE
  5
1F6
330
1C9
100
AcDbEntity
  8
BASE
  6
Continuous
 62
     7
100
AcDbLine
 10
91.0
 20
-100.0
 30
0.0
 11
91.0
 21
-79.99999999999997
 31
0.0
  0
LINE
  5
1F7
330
1C9
100
AcDbEntity
  8
BASE
  6
Continuous
 62
     7
100
AcDbLine
 10
111.0
 20
-100.0
 30
0.0
 11
111.0
 21
-79.99999999999997
 31
0.0
  0
LINE
  5
1F8
330
1C9
100
AcDbEntity
  8
BASE
  6
Continuous
 62
     7
100
AcDbLine
 10
161.0
 20
-79.99999999999997
 30
0.0
 11
161.0
 21
-100.0
 31
0.0
  0
LINE
  5
1F9
330
1C9
100
AcDbEntity
  8
BASE
  6
Continuous
 62
     7
100
AcDbLine
 10
211.0
 20
-79.99999999999997
 30
0.0
 11
211.0
 21
-100.0
 31
0.0
  0
LINE
  5
1FA
330
1C9
100
AcDbEntity
  8
BASE
  6
Continuous
 62
     7
100
AcDbLine
 10
186.0
 20
-100.0
 30
0.0
 11
186.0
 21
-79.99999999999997
 31
0.0
  0
TEXT
  5
1FB
330
1C9
100
AcDbEntity
  8
BASE
 62
     7
100
AcDbText
 10
112.7130799999999
 20
-94.2727066666667
 30
0.0
 40
3.257682291666666
  1
'08.6.
  7
_______
 11
112.7130799999999
 21
-91.01502437500002
 31
0.0
100
AcDbText
 73
     3
  0
TEXT
  5
1FC
330
1C9
100
AcDbEntity
  8
BASE
 62
     7
100
AcDbText
 10
101.0
 20
-97.46788666666667
 30
0.0
 40
3.257682291666666
  1
2
  7
_______
 11
101.0
 21
-94.21020437500001
 31
0.0
100
AcDbText
 73
     3
  0
TEXT
  5
1FD
330
1C9
100
AcDbEntity
  8
BASE
 62
     7
100
AcDbText
 10
164.0116200220692
 20
-94.2727066666667
 30
0.0
 40
3.257682291666666
  1
S.T
  7
_______
 11
164.0116200220692
 21
-91.01502437500002
 31
0.0
100
AcDbText
 73
     3
  0
TEXT
  5
1FE
330
1C9
100
AcDbEntity
  8
BASE
 62
     7
100
AcDbText
 10
73.76666666666669
 20
-96.048
 30
0.0
 40
6.515364583333333
  1
A4
  7
_______
 11
73.76666666666669
 21
-89.53263541666666
 31
0.0
100
AcDbText
 73
     3
  0
LINE
  5
1FF
330
1C9
100
AcDbEntity
  8
SPEC
  6
Continuous
 62
     7
100
AcDbLine
 10
-99.0
 20
400.0
 30
0.0
 11
196.0
 21
400.0
 31
0.0
  0
LINE
  5
200
330
1C9
100
AcDbEntity
  8
SPEC
  6
Continuous
 62
     7
100
AcDbLine
 10
-99.0
 20
392.5
 30
0.0
 11
196.0
 21
392.5
 31
0.0
  0
LINE
  5
201
330
1C9
100
AcDbEntity
  8
SPEC
  6
Continuous
 62
     7
100
AcDbLine
 10
-99.0
 20
362.5
 30
0.0
 11
196.0
 21
362.5
 31
0.0
  0
LINE
  5
202
330
1C9
100
AcDbEntity
  8
SPEC
  6
Continuous
 62
     7
100
AcDbLine
 10
-99.0
 20
370.0
 30
0.0
 11
196.0
 21
370.0
 31
0.0
  0
LINE
  5
203
330
1C9
100
AcDbEntity
  8
SPEC
  6
Continuous
 62
     7
100
AcDbLine
 10
-99.0
 20
377.4999999999999
 30
0.0
 11
196.0
 21
377.4999999999999
 31
0.0
  0
LINE
  5
204
330
1C9
100
AcDbEntity
  8
SPEC
  6
Continuous
 62
     7
100
AcDbLine
 10
-99.0
 20
355.0
 30
0.0
 11
196.0
 21
355.0
 31
0.0
  0
LINE
  5
205
330
1C9
100
AcDbEntity
  8
SPEC
  6
Continuous
 62
     7
100
AcDbLine
 10
-99.0
 20
340.0
 30
0.0
 11
196.0
 21
340.0
 31
0.0
  0
LINE
  5
206
330
1C9
100
AcDbEntity
  8
SPEC
  6
Continuous
 62
     7
100
AcDbLine
 10
-99.0
 20
347.5
 30
0.0
 11
196.0
 21
347.5
 31
0.0
  0
LINE
  5
207
330
1C9
100
AcDbEntity
  8
SPEC
  6
Continuous
 62
     7
100
AcDbLine
 10
-99.0
 20
332.5
 30
0.0
 11
196.0
 21
332.5
 31
0.0
  0
LINE
  5
208
330
1C9
100
AcDbEntity
  8
SPEC
  6
Continuous
 62
     7
100
AcDbLine
 10
-99.0
 20
325.0
 30
0.0
 11
196.0
 21
325.0
 31
0.0
  0
LINE
  5
209
330
1C9
100
AcDbEntity
  8
SPEC
  6
Continuous
 62
     7
100
AcDbLine
 10
-99.0
 20
385.0
 30
0.0
 11
196.0
 21
385.0
 31
0.0
  0
TEXT
  5
20A
330
1C9
100
AcDbEntity
  8
SPEC
 62
     7
100
AcDbText
 10
1.800000000000011
 20
394.0758431999999
 30
0.0
 40
3.800622499999999
  1
165MHz
  7
_______
 11
1.800000000000011
 21
397.8764656999999
 31
0.0
100
AcDbText
 73
     3
  0
LINE
  5
20B
330
1C9
100
AcDbEntity
  8
SPEC
  6
Continuous
 62
     7
100
AcDbLine
 10
-99.0
 20
400.0
 30
0.0
 11
-99.0
 21
325.0
 31
0.0
  0
TEXT
  5
20C
330
1C9
100
AcDbEntity
  8
SPEC
 62
     7
100
AcDbText
 10
-96.5
 20
402.78654
 30
0.0
 40
4.886523437500001
  1
仕様
  7
_______
 11
-96.5
 21
407.6730634375
 31
0.0
100
AcDbText
 73
     3
  0
LINE
  5
20D
330
1C9
100
AcDbEntity
  8
SPEC
  6
Continuous
 62
     7
100
AcDbLine
 10
0.0
 20
400.0
 30
0.0
 11
0.0
 21
325.0
 31
0.0
  0
LINE
  5
20E
330
1C9
100
AcDbEntity
  8
SPEC
  6
Continuous
 62
     7
100
AcDbLine
 10
196.0
 20
400.0
 30
0.0
 11
196.0
 21
325.0
 31
0.0
  0
TEXT
  5
20F
330
1C9
100
AcDbEntity
  8
SPEC
 62
     7
100
AcDbText
 10
1.800000000000011
 20
326.5758432
 30
0.0
 40
3.800622499999999
  1
ACアダプター、DVIケーブル(29ピン、オス-オス、約25cm)
  7
_______
 11
1.800000000000011
 21
330.3764656999999
 31
0.0
100
AcDbText
 73
     3
  0
TEXT
  5
210
330
1C9
100
AcDbEntity
  8
SPEC
 62
     7
100
AcDbText
 10
1.800000000000011
 20
334.0758432
 30
0.0
 40
3.800622499999999
  1
約86g
  7
_______
 11
1.800000000000011
 21
337.8764657
 31
0.0
100
AcDbText
 73
     3
  0
TEXT
  5
211
330
1C9
100
AcDbEntity
  8
SPEC
 62
     7
100
AcDbText
 10
-97.2
 20
364.0758432
 30
0.0
 40
3.800622499999999
  1
DVI入出力コネクタ ー
  7
_______
 11
-97.2
 21
367.8764656999999
 31
0.0
100
AcDbText
 73
     3
  0
TEXT
  5
212
330
1C9
100
AcDbEntity
  8
SPEC
 62
     7
100
AcDbText
 10
-97.2
 20
394.0758431999999
 30
0.0
 40
3.800622499999999
  1
ビデオアンプ帯域幅
  7
_______
 11
-97.2
 21
397.8764656999999
 31
0.0
100
AcDbText
 73
     3
  0
TEXT
  5
213
330
1C9
100
AcDbEntity
  8
SPEC
 62
     7
100
AcDbText
 10
-97.2
 20
349.0758432
 30
0.0
 40
3.800622499999999
  1
消費電力
  7
_______
 11
-97.2
 21
352.8764656999999
 31
0.0
100
AcDbText
 73
     3
  0
TEXT
  5
214
330
1C9
100
AcDbEntity
  8
SPEC
 62
     7
100
AcDbText
 10
-97.2
 20
341.5758432
 30
0.0
 40
3.800622499999999
  1
寸法(突起、コネクタ ー、ゴム足含まず)
  7
_______
 11
-97.2
 21
345.3764656999999
 31
0.0
100
AcDbText
 73
     3
  0
TEXT
  5
215
330
1C9
100
AcDbEntity
  8
SPEC
 62
     7
100
AcDbText
 10
-97.2
 20
371.5758432
 30
0.0
 40
3.800622499999999
  1
最大サポート範囲
  7
_______
 11
-97.2
 21
375.3764657
 31
0.0
100
AcDbText
 73
     3
  0
TEXT
  5
216
330
1C9
100
AcDbEntity
  8
SPEC
 62
     7
100
AcDbText
 10
-97.2
 20
356.5758431999999
 30
0.0
 40
3.800622499999999
  1
電源
  7
_______
 11
-97.2
 21
360.3764656999999
 31
0.0
100
AcDbText
 73
     3
  0
TEXT
  5
217
330
1C9
100
AcDbEntity
  8
SPEC
 62
     7
100
AcDbText
 10
-97.2
 20
386.5758432
 30
0.0
 40
3.800622499999999
  1
入力映像信号
  7
_______
 11
-97.2
 21
390.3764656999999
 31
0.0
100
AcDbText
 73
     3
  0
TEXT
  5
218
330
1C9
100
AcDbEntity
  8
SPEC
 62
     7
100
AcDbText
 10
-97.2
 20
379.0758432
 30
0.0
 40
3.800622499999999
  1
入力DDC信号
  7
_______
 11
-97.2
 21
382.8764656999999
 31
0.0
100
AcDbText
 73
     3
  0
TEXT
  5
219
330
1C9
100
AcDbEntity
  8
SPEC
 62
     7
100
AcDbText
 10
-97.2
 20
334.0758432
 30
0.0
 40
3.800622499999999
  1
質量
  7
_______
 11
-97.2
 21
337.8764657
 31
0.0
100
AcDbText
 73
     3
  0
TEXT
  5
21A
330
1C9
100
AcDbEntity
  8
SPEC
 62
     7
100
AcDbText
 10
-97.2
 20
326.5758432
 30
0.0
 40
3.800622499999999
  1
付属品
  7
_______
 11
-97.2
 21
330.3764656999999
 31
0.0
100
AcDbText
 73
     3
  0
TEXT
  5
21B
330
1C9
100
AcDbEntity
  8
SPEC
 62
     7
100
AcDbText
 10
1.800000000000011
 20
364.0758432
 30
0.0
 40
3.800622499999999
  1
DVI-I 29ピン、メス
  7
_______
 11
1.800000000000011
 21
367.8764656999999
 31
0.0
100
AcDbText
 73
     3
  0
TEXT
  5
21C
330
1C9
100
AcDbEntity
  8
SPEC
 62
     7
100
AcDbText
 10
1.800000000000011
 20
349.0758432
 30
0.0
 40
3.800622499999999
  1
5W(最大)
  7
_______
 11
1.800000000000011
 21
352.8764656999999
 31
0.0
100
AcDbText
 73
     3
  0
TEXT
  5
21D
330
1C9
100
AcDbEntity
  8
SPEC
 62
     7
100
AcDbText
 10
1.800000000000011
 20
341.5758432
 30
0.0
 40
3.800622499999999
  1
69(W)×33(H)×46(D)mm
  7
_______
 11
1.800000000000011
 21
345.3764656999999
 31
0.0
100
AcDbText
 73
     3
  0
TEXT
  5
21E
330
1C9
100
AcDbEntity
  8
SPEC
 62
     7
100
AcDbText
 10
1.800000000000011
 20
371.5758432
 30
0.0
 40
3.800622499999999
  1
1920×1200(シングルリンク)、3840×2400(デュアルリンク)
  7
_______
 11
1.800000000000011
 21
375.3764657
 31
0.0
100
AcDbText
 73
     3
  0
TEXT
  5
21F
330
1C9
100
AcDbEntity
  8
SPEC
 62
     7
100
AcDbText
 10
1.800000000000011
 20
356.5758431999999
 30
0.0
 40
3.800622499999999
  1
DC5V(専用ACアダプタ ー、AC100V 50/60Hz)
  7
_______
 11
1.800000000000011
 21
360.3764656999999
 31
0.0
100
AcDbText
 73
     3
  0
TEXT
  5
220
330
1C9
100
AcDbEntity
  8
SPEC
 62
     7
100
AcDbText
 10
1.800000000000011
 20
379.0758432
 30
0.0
 40
3.800622499999999
  1
5V p-p(TTL)
  7
_______
 11
1.800000000000011
 21
382.8764656999999
 31
0.0
100
AcDbText
 73
     3
  0
TEXT
  5
221
330
1C9
100
AcDbEntity
  8
SPEC
 62
     7
100
AcDbText
 10
1.800000000000011
 20
386.5758432
 30
0.0
 40
3.800622499999999
  1
1.2V p-p
  7
_______
 11
1.800000000000011
 21
390.3764656999999
 31
0.0
100
AcDbText
 73
     3
  0
TEXT
  5
222
330
1C9
100
AcDbEntity
  8
DIMNSIONS
 62
     7
100
AcDbText
 10
26.0
 20
-75.46102000000001
 30
0.0
 40
4.886523437500001
  1
(単位：mm)
  7
_______
 11
26.0
 21
-70.5744965625
 31
0.0
100
AcDbText
 73
     3
  0
LINE
  5
223
330
1C9
100
AcDbEntity
  8
DIMNSIONS
  6
Continuous
 62
     7
100
AcDbLine
 10
40.0
 20
17.5
 30
0.0
 11
40.0
 21
-24.0
 31
0.0
  0
LINE
  5
224
330
1C9
100
AcDbEntity
  8
DIMNSIONS
  6
Continuous
 62
     7
100
AcDbLine
 10
108.4999999999999
 20
17.50000000000011
 30
0.0
 11
108.4999999999999
 21
-24.0
 31
0.0
  0
LINE
  5
225
330
1C9
100
AcDbEntity
  8
DIMNSIONS
  6
Continuous
 62
     7
100
AcDbLine
 10
40.0
 20
-20.0
 30
0.0
 11
108.4999999999999
 21
-20.0
 31
0.0
  0
LINE
  5
226
330
1C9
100
AcDbEntity
  8
DIMNSIONS
  6
Continuous
 62
     7
100
AcDbLine
 10
40.0
 20
-20.0
 30
0.0
 11
45.00124511718751
 21
-18.6599204096995
 31
0.0
  0
LINE
  5
227
330
1C9
100
AcDbEntity
  8
DIMNSIONS
  6
Continuous
 62
     7
100
AcDbLine
 10
40.0
 20
-20.0
 30
0.0
 11
45.00124511718751
 21
-21.34007959030048
 31
0.0
  0
LINE
  5
228
330
1C9
100
AcDbEntity
  8
DIMNSIONS
  6
Continuous
 62
     7
100
AcDbLine
 10
108.4999999999999
 20
-20.0
 30
0.0
 11
103.4987548828125
 21
-21.34007959030048
 31
0.0
  0
LINE
  5
229
330
1C9
100
AcDbEntity
  8
DIMNSIONS
  6
Continuous
 62
     7
100
AcDbLine
 10
108.4999999999999
 20
-20.0
 30
0.0
 11
103.4987548828125
 21
-18.6599204096995
 31
0.0
  0
TEXT
  5
22A
330
1C9
100
AcDbEntity
  8
DIMNSIONS
 62
     7
100
AcDbText
 10
70.72222222222222
 20
-18.01222222222224
 30
0.0
 40
5.429470486111111
  1
69
  7
_______
 11
70.72222222222222
 21
-12.58275173611113
 31
0.0
100
AcDbText
 73
     3
  0
LINE
  5
22B
330
1C9
100
AcDbEntity
  8
DIMNSIONS
  6
Continuous
 62
     7
100
AcDbLine
 10
112.5
 20
146.0
 30
0.0
 11
144.0
 21
146.0
 31
0.0
  0
LINE
  5
22C
330
1C9
100
AcDbEntity
  8
DIMNSIONS
  6
Continuous
 62
     7
100
AcDbLine
 10
112.5
 20
100.0
 30
0.0
 11
144.0
 21
100.0
 31
0.0
  0
LINE
  5
22D
330
1C9
100
AcDbEntity
  8
DIMNSIONS
  6
Continuous
 62
     7
100
AcDbLine
 10
140.0
 20
146.0
 30
0.0
 11
140.0
 21
100.0
 31
0.0
  0
LINE
  5
22E
330
1C9
100
AcDbEntity
  8
DIMNSIONS
  6
Continuous
 62
     7
100
AcDbLine
 10
140.0
 20
146.0
 30
0.0
 11
141.3400795903004
 21
140.9987548828125
 31
0.0
  0
LINE
  5
22F
330
1C9
100
AcDbEntity
  8
DIMNSIONS
  6
Continuous
 62
     7
100
AcDbLine
 10
140.0
 20
146.0
 30
0.0
 11
138.6599204096995
 21
140.9987548828125
 31
0.0
  0
LINE
  5
230
330
1C9
100
AcDbEntity
  8
DIMNSIONS
  6
Continuous
 62
     7
100
AcDbLine
 10
140.0
 20
100.0
 30
0.0
 11
138.6599204096995
 21
105.0012451171874
 31
0.0
  0
LINE
  5
231
330
1C9
100
AcDbEntity
  8
DIMNSIONS
  6
Continuous
 62
     7
100
AcDbLine
 10
140.0
 20
100.0
 30
0.0
 11
141.3400795903004
 21
105.0012451171874
 31
0.0
  0
TEXT
  5
232
330
1C9
100
AcDbEntity
  8
DIMNSIONS
 62
     7
100
AcDbText
 10
138.0122222222222
 20
119.4722222222222
 30
0.0
 40
5.429470486111111
  1
46
 50
90.0
  7
_______
 11
132.5827517361111
 21
119.4722222222222
 31
0.0
100
AcDbText
 73
     3
  0
LINE
  5
233
330
1C9
100
AcDbEntity
  8
DIMNSIONS
  6
Continuous
 62
     7
100
AcDbLine
 10
111.0
 20
20.00000000000011
 30
0.0
 11
144.0
 21
20.00000000000011
 31
0.0
  0
LINE
  5
234
330
1C9
100
AcDbEntity
  8
DIMNSIONS
  6
Continuous
 62
     7
100
AcDbLine
 10
111.0
 20
53.0
 30
0.0
 11
144.0
 21
53.0
 31
0.0
  0
LINE
  5
235
330
1C9
100
AcDbEntity
  8
DIMNSIONS
  6
Continuous
 62
     7
100
AcDbLine
 10
140.0
 20
20.00000000000011
 30
0.0
 11
140.0
 21
53.0
 31
0.0
  0
LINE
  5
236
330
1C9
100
AcDbEntity
  8
DIMNSIONS
  6
Continuous
 62
     7
100
AcDbLine
 10
140.0
 20
20.00000000000011
 30
0.0
 11
138.6599204096995
 21
25.00124511718761
 31
0.0
  0
LINE
  5
237
330
1C9
100
AcDbEntity
  8
DIMNSIONS
  6
Continuous
 62
     7
100
AcDbLine
 10
140.0
 20
20.00000000000011
 30
0.0
 11
141.3400795903004
 21
25.00124511718761
 31
0.0
  0
LINE
  5
238
330
1C9
100
AcDbEntity
  8
DIMNSIONS
  6
Continuous
 62
     7
100
AcDbLine
 10
140.0
 20
53.0
 30
0.0
 11
141.3400795903004
 21
47.9987548828125
 31
0.0
  0
LINE
  5
239
330
1C9
100
AcDbEntity
  8
DIMNSIONS
  6
Continuous
 62
     7
100
AcDbLine
 10
140.0
 20
53.0
 30
0.0
 11
138.6599204096995
 21
47.9987548828125
 31
0.0
  0
TEXT
  5
23A
330
1C9
100
AcDbEntity
  8
DIMNSIONS
 62
     7
100
AcDbText
 10
138.0122222222222
 20
32.97222222222228
 30
0.0
 40
5.429470486111111
  1
33
 50
90.0
  7
_______
 11
132.5827517361111
 21
32.97222222222228
 31
0.0
100
AcDbText
 73
     3
  0
TEXT
  5
23B
330
1C9
100
AcDbEntity
  8
DATA
 62
     7
100
AcDbText
 10
156.4999999999999
 20
-77.73821999999999
 30
0.0
 40
4.886523437500001
  1
EXT-DVI-EDIDP
  7
_______
 11
156.4999999999999
 21
-72.85169656249998
 31
0.0
100
AcDbText
 73
     3
  0
TEXT
  5
23C
330
1C9
100
AcDbEntity
  8
DATA
 62
     7
100
AcDbText
 10
156.4999999999999
 20
-63.23822
 30
0.0
 40
4.886523437500001
  1
Gefen
  7
_______
 11
156.4999999999999
 21
-58.3516965625
 31
0.0
100
AcDbText
 73
     3
  0
TEXT
  5
23D
330
1C9
100
AcDbEntity
  8
DATA
 62
     7
100
AcDbText
 10
156.4999999999999
 20
-70.29890444444446
 30
0.0
 40
3.800629340277777
  1
EDID信号保持機 DVI Detective Plus
  7
_______
 11
156.4999999999999
 21
-66.49827510416668
 31
0.0
100
AcDbText
 73
     3
  0
TEXT
  5
23E
330
1C9
100
AcDbEntity
  8
DATA
 62
     7
100
AcDbText
 10
-94.0
 20
-91.52399999999998
 30
0.0
 40
3.257682291666666
  1
仕様および外観は予告なく変更されることがありますので、ご了承ください。
  7
_______
 11
-94.0
 21
-88.26631770833332
 31
0.0
100
AcDbText
 73
     3
  0
LINE
  5
23F
330
1C9
100
AcDbEntity
  8
DATA
  6
Continuous
 62
     7
100
AcDbLine
 10
40.0
 20
51.5
 30
0.0
 11
40.0
 21
21.49999999999999
 31
0.0
  0
LINE
  5
240
330
1C9
100
AcDbEntity
  8
DATA
  6
Continuous
 62
     7
100
AcDbLine
 10
41.5
 20
53.0
 30
0.0
 11
107.0
 21
53.0
 31
0.0
  0
LINE
  5
241
330
1C9
100
AcDbEntity
  8
DATA
  6
Continuous
 62
     7
100
AcDbLine
 10
108.4999999999999
 20
51.5
 30
0.0
 11
108.4999999999999
 21
21.50000000000011
 31
0.0
  0
LINE
  5
242
330
1C9
100
AcDbEntity
  8
DATA
  6
Continuous
 62
     7
100
AcDbLine
 10
41.5
 20
20.0
 30
0.0
 11
52.0
 21
20.0
 31
0.0
  0
LINE
  5
243
330
1C9
100
AcDbEntity
  8
DATA
  6
Continuous
 62
     7
100
AcDbLine
 10
40.00000000000002
 20
100.0
 30
0.0
 11
108.5
 21
100.0
 31
0.0
  0
LINE
  5
244
330
1C9
100
AcDbEntity
  8
DATA
  6
Continuous
 62
     7
100
AcDbLine
 10
40.00000000000002
 20
100.0
 30
0.0
 11
40.00000000000002
 21
146.0
 31
0.0
  0
LINE
  5
245
330
1C9
100
AcDbEntity
  8
DATA
  6
Continuous
 62
     7
100
AcDbLine
 10
40.00000000000002
 20
146.0
 30
0.0
 11
108.5
 21
146.0
 31
0.0
  0
LINE
  5
246
330
1C9
100
AcDbEntity
  8
DATA
  6
Continuous
 62
     7
100
AcDbLine
 10
108.5
 20
146.0
 30
0.0
 11
108.5
 21
100.0
 31
0.0
  0
LINE
  5
247
330
1C9
100
AcDbEntity
  8
DATA
  6
Continuous
 62
     7
100
AcDbLine
 10
41.5
 20
51.0
 30
0.0
 11
41.5
 21
22.0
 31
0.0
  0
LINE
  5
248
330
1C9
100
AcDbEntity
  8
DATA
  6
Continuous
 62
     7
100
AcDbLine
 10
42.0
 20
51.5
 30
0.0
 11
106.4999999999999
 21
51.5
 31
0.0
  0
LINE
  5
249
330
1C9
100
AcDbEntity
  8
DATA
  6
Continuous
 62
     7
100
AcDbLine
 10
107.0
 20
51.0
 30
0.0
 11
107.0
 21
22.0
 31
0.0
  0
LINE
  5
24A
330
1C9
100
AcDbEntity
  8
DATA
  6
Continuous
 62
     7
100
AcDbLine
 10
42.0
 20
21.49999999999999
 30
0.0
 11
106.4999999999999
 21
21.49999999999999
 31
0.0
  0
LINE
  5
24B
330
1C9
100
AcDbEntity
  8
DATA
  6
Continuous
 62
     7
100
AcDbLine
 10
52.0
 20
20.0
 30
0.0
 11
52.0
 21
21.49999999999999
 31
0.0
  0
LINE
  5
24C
330
1C9
100
AcDbEntity
  8
DATA
  6
Continuous
 62
     7
100
AcDbLine
 10
96.5
 20
20.00000000000011
 30
0.0
 11
96.5
 21
21.50000000000011
 31
0.0
  0
LINE
  5
24D
330
1C9
100
AcDbEntity
  8
DATA
  6
Continuous
 62
     7
100
AcDbLine
 10
96.5
 20
20.00000000000011
 30
0.0
 11
107.0
 21
20.00000000000011
 31
0.0
  0
ARC
  5
24E
330
1C9
100
AcDbEntity
  8
DATA
  6
Continuous
 62
     7
100
AcDbCircle
 10
41.5
 20
21.49999999999999
 30
0.0
 40
1.5
100
AcDbArc
 50
180.0
 51
270.0
  0
ARC
  5
24F
330
1C9
100
AcDbEntity
  8
DATA
  6
Continuous
 62
     7
100
AcDbCircle
 10
42.0
 20
22.0
 30
0.0
 40
0.5
100
AcDbArc
 50
180.0
 51
270.0
  0
ARC
  5
250
330
1C9
100
AcDbEntity
  8
DATA
  6
Continuous
 62
     7
100
AcDbCircle
 10
42.0
 20
51.0
 30
0.0
 40
0.5
100
AcDbArc
 50
90.0
 51
180.0
  0
ARC
  5
251
330
1C9
100
AcDbEntity
  8
DATA
  6
Continuous
 62
     7
100
AcDbCircle
 10
106.4999999999999
 20
51.0
 30
0.0
 40
0.5
100
AcDbArc
 50
0.0
 51
90.0
  0
ARC
  5
252
330
1C9
100
AcDbEntity
  8
DATA
  6
Continuous
 62
     7
100
AcDbCircle
 10
106.4999999999999
 20
22.0
 30
0.0
 40
0.5
100
AcDbArc
 50
270.0
 51
0.0
  0
ARC
  5
253
330
1C9
100
AcDbEntity
  8
DATA
  6
Continuous
 62
     7
100
AcDbCircle
 10
41.5
 20
51.5
 30
0.0
 40
1.5
100
AcDbArc
 50
90.0
 51
180.0
  0
ARC
  5
254
330
1C9
100
AcDbEntity
  8
DATA
  6
Continuous
 62
     7
100
AcDbCircle
 10
107.0
 20
51.5
 30
0.0
 40
1.5
100
AcDbArc
 50
0.0
 51
90.0
  0
ARC
  5
255
330
1C9
100
AcDbEntity
  8
DATA
  6
Continuous
 62
     7
100
AcDbCircle
 10
107.0
 20
21.50000000000011
 30
0.0
 40
1.5
100
AcDbArc
 50
270.0
 51
0.0
  0
CIRCLE
  5
256
330
1C9
100
AcDbEntity
  8
DATA
  6
Continuous
 62
     7
100
AcDbCircle
 10
47.0
 20
42.0
 30
0.0
 40
2.249999999999994
  0
CIRCLE
  5
257
330
1C9
100
AcDbEntity
  8
DATA
  6
Continuous
 62
     7
100
AcDbCircle
 10
58.0
 20
43.0
 30
0.0
 40
1.269999999999995
  0
LWPOLYLINE
  5
258
330
1C9
100
AcDbEntity
  8
DATA
  6
Continuous
 62
     7
100
AcDbPolyline
 90
        6
 70
     1
 43
0.0
 10
60.25
 20
41.70096189432337
 10
60.24999999999997
 20
44.29903810567668
 10
57.99999999999997
 20
45.59807621135332
 10
55.75
 20
44.29903810567663
 10
55.75000000000002
 20
41.70096189432331
 10
58.00000000000002
 20
40.40192378864669
  0
LINE
  5
260
330
1C9
100
AcDbEntity
  8
DATA
  6
Continuous
 62
     7
100
AcDbLine
 10
63.52
 20
46.86000000000002
 30
0.0
 11
84.97999999999997
 21
46.86000000000002
 31
0.0
  0
LINE
  5
261
330
1C9
100
AcDbEntity
  8
DATA
  6
Continuous
 62
     7
100
AcDbLine
 10
64.79
 20
39.13999999999999
 30
0.0
 11
83.71
 21
39.13999999999999
 31
0.0
  0
CIRCLE
  5
262
330
1C9
100
AcDbEntity
  8
DATA
  6
Continuous
 62
     7
100
AcDbCircle
 10
90.5
 20
43.0
 30
0.0
 40
1.269999999999995
  0
LWPOLYLINE
  5
263
330
1C9
100
AcDbEntity
  8
DATA
  6
Continuous
 62
     7
100
AcDbPolyline
 90
        6
 70
     1
 43
0.0
 10
88.25000000000001
 20
41.70096189432337
 10
88.25000000000004
 20
44.29903810567668
 10
90.50000000000004
 20
45.59807621135332
 10
92.75
 20
44.29903810567663
 10
92.74999999999996
 20
41.70096189432331
 10
90.49999999999995
 20
40.40192378864669
  0
LINE
  5
26B
330
1C9
100
AcDbEntity
  8
DATA
  6
Continuous
 62
     7
100
AcDbLine
 10
63.7725
 20
45.85749999999999
 30
0.0
 11
79.0125
 21
45.85749999999999
 31
0.0
  0
LINE
  5
26C
330
1C9
100
AcDbEntity
  8
DATA
  6
Continuous
 62
     7
100
AcDbLine
 10
63.7725
 20
43.95249999999999
 30
0.0
 11
79.0125
 21
43.95249999999999
 31
0.0
  0
LINE
  5
26D
330
1C9
100
AcDbEntity
  8
DATA
  6
Continuous
 62
     7
100
AcDbLine
 10
63.7725
 20
42.04749999999999
 30
0.0
 11
79.0125
 21
42.04749999999999
 31
0.0
  0
LINE
  5
26E
330
1C9
100
AcDbEntity
  8
DATA
  6
Continuous
 62
     7
100
AcDbLine
 10
63.7725
 20
40.14249999999998
 30
0.0
 11
79.0125
 21
40.14249999999998
 31
0.0
  0
LINE
  5
26F
330
1C9
100
AcDbEntity
  8
DATA
  6
Continuous
 62
     7
100
AcDbLine
 10
63.7725
 20
45.85749999999999
 30
0.0
 11
63.7725
 21
40.14249999999998
 31
0.0
  0
LINE
  5
270
330
1C9
100
AcDbEntity
  8
DATA
  6
Continuous
 62
     7
100
AcDbLine
 10
65.6775
 20
45.85749999999999
 30
0.0
 11
65.6775
 21
40.14249999999998
 31
0.0
  0
LINE
  5
271
330
1C9
100
AcDbEntity
  8
DATA
  6
Continuous
 62
     7
100
AcDbLine
 10
67.5825
 20
45.85749999999999
 30
0.0
 11
67.5825
 21
40.14249999999998
 31
0.0
  0
LINE
  5
272
330
1C9
100
AcDbEntity
  8
DATA
  6
Continuous
 62
     7
100
AcDbLine
 10
69.4875
 20
45.85749999999999
 30
0.0
 11
69.4875
 21
40.14249999999998
 31
0.0
  0
LINE
  5
273
330
1C9
100
AcDbEntity
  8
DATA
  6
Continuous
 62
     7
100
AcDbLine
 10
71.3925
 20
45.85749999999999
 30
0.0
 11
71.3925
 21
40.14249999999998
 31
0.0
  0
LINE
  5
274
330
1C9
100
AcDbEntity
  8
DATA
  6
Continuous
 62
     7
100
AcDbLine
 10
73.2975
 20
45.85749999999999
 30
0.0
 11
73.2975
 21
40.14249999999998
 31
0.0
  0
LINE
  5
275
330
1C9
100
AcDbEntity
  8
DATA
  6
Continuous
 62
     7
100
AcDbLine
 10
75.2025
 20
45.85749999999999
 30
0.0
 11
75.2025
 21
40.14249999999998
 31
0.0
  0
LINE
  5
276
330
1C9
100
AcDbEntity
  8
DATA
  6
Continuous
 62
     7
100
AcDbLine
 10
77.10749999999999
 20
45.85749999999999
 30
0.0
 11
77.10749999999999
 21
40.14249999999998
 31
0.0
  0
LINE
  5
277
330
1C9
100
AcDbEntity
  8
DATA
  6
Continuous
 62
     7
100
AcDbLine
 10
79.0125
 20
45.85749999999999
 30
0.0
 11
79.0125
 21
40.14249999999998
 31
0.0
  0
LINE
  5
278
330
1C9
100
AcDbEntity
  8
DATA
  6
Continuous
 62
     7
100
AcDbLine
 10
82.50499999999998
 20
44.90499999999997
 30
0.0
 11
82.50499999999998
 21
43.63499999999996
 31
0.0
  0
LINE
  5
279
330
1C9
100
AcDbEntity
  8
DATA
  6
Continuous
 62
     7
100
AcDbLine
 10
81.23499999999998
 20
44.90499999999997
 30
0.0
 11
81.23499999999998
 21
43.63499999999996
 31
0.0
  0
LINE
  5
27A
330
1C9
100
AcDbEntity
  8
DATA
  6
Continuous
 62
     7
100
AcDbLine
 10
84.40999999999998
 20
44.90499999999997
 30
0.0
 11
84.40999999999998
 21
43.63499999999996
 31
0.0
  0
LINE
  5
27B
330
1C9
100
AcDbEntity
  8
DATA
  6
Continuous
 62
     7
100
AcDbLine
 10
81.23499999999998
 20
44.90499999999997
 30
0.0
 11
82.50499999999998
 21
44.90499999999997
 31
0.0
  0
LINE
  5
27C
330
1C9
100
AcDbEntity
  8
DATA
  6
Continuous
 62
     7
100
AcDbLine
 10
83.13999999999998
 20
44.90499999999997
 30
0.0
 11
84.40999999999998
 21
44.90499999999997
 31
0.0
  0
LINE
  5
27D
330
1C9
100
AcDbEntity
  8
DATA
  6
Continuous
 62
     7
100
AcDbLine
 10
83.13999999999998
 20
44.90499999999997
 30
0.0
 11
83.13999999999998
 21
43.63499999999996
 31
0.0
  0
LINE
  5
27E
330
1C9
100
AcDbEntity
  8
DATA
  6
Continuous
 62
     7
100
AcDbLine
 10
81.23499999999998
 20
43.63499999999996
 30
0.0
 11
82.50499999999998
 21
43.63499999999996
 31
0.0
  0
LINE
  5
27F
330
1C9
100
AcDbEntity
  8
DATA
  6
Continuous
 62
     7
100
AcDbLine
 10
83.13999999999998
 20
43.63499999999996
 30
0.0
 11
84.40999999999998
 21
43.63499999999996
 31
0.0
  0
LINE
  5
280
330
1C9
100
AcDbEntity
  8
DATA
  6
Continuous
 62
     7
100
AcDbLine
 10
82.50499999999998
 20
42.36499999999998
 30
0.0
 11
82.50499999999998
 21
41.09499999999996
 31
0.0
  0
LINE
  5
281
330
1C9
100
AcDbEntity
  8
DATA
  6
Continuous
 62
     7
100
AcDbLine
 10
81.23499999999998
 20
42.36499999999998
 30
0.0
 11
81.23499999999998
 21
41.09499999999996
 31
0.0
  0
LINE
  5
282
330
1C9
100
AcDbEntity
  8
DATA
  6
Continuous
 62
     7
100
AcDbLine
 10
84.40999999999998
 20
42.36499999999998
 30
0.0
 11
84.40999999999998
 21
41.09499999999996
 31
0.0
  0
LINE
  5
283
330
1C9
100
AcDbEntity
  8
DATA
  6
Continuous
 62
     7
100
AcDbLine
 10
81.23499999999998
 20
42.36499999999998
 30
0.0
 11
82.50499999999998
 21
42.36499999999998
 31
0.0
  0
LINE
  5
284
330
1C9
100
AcDbEntity
  8
DATA
  6
Continuous
 62
     7
100
AcDbLine
 10
83.13999999999998
 20
42.36499999999998
 30
0.0
 11
84.40999999999998
 21
42.36499999999998
 31
0.0
  0
LINE
  5
285
330
1C9
100
AcDbEntity
  8
DATA
  6
Continuous
 62
     7
100
AcDbLine
 10
83.13999999999998
 20
42.36499999999998
 30
0.0
 11
83.13999999999998
 21
41.09499999999996
 31
0.0
  0
LINE
  5
286
330
1C9
100
AcDbEntity
  8
DATA
  6
Continuous
 62
     7
100
AcDbLine
 10
81.23499999999998
 20
41.09499999999996
 30
0.0
 11
82.50499999999998
 21
41.09499999999996
 31
0.0
  0
LINE
  5
287
330
1C9
100
AcDbEntity
  8
DATA
  6
Continuous
 62
     7
100
AcDbLine
 10
83.13999999999998
 20
41.09499999999996
 30
0.0
 11
84.40999999999998
 21
41.09499999999996
 31
0.0
  0
LINE
  5
288
330
1C9
100
AcDbEntity
  8
DATA
  6
Continuous
 62
     7
100
AcDbLine
 10
82.82249999999997
 20
44.99999999999997
 30
0.0
 11
82.82249999999997
 21
40.99999999999996
 31
0.0
  0
LINE
  5
289
330
1C9
100
AcDbEntity
  8
DATA
  6
Continuous
 62
     7
100
AcDbLine
 10
80.32249999999997
 20
43.0
 30
0.0
 11
85.32249999999997
 21
43.0
 31
0.0
  0
LINE
  5
28A
330
1C9
100
AcDbEntity
  8
DATA
  6
Continuous
 62
     7
100
AcDbLine
 10
62.25
 20
45.59
 30
0.0
 11
62.25
 21
41.67999999999998
 31
0.0
  0
LINE
  5
28B
330
1C9
100
AcDbEntity
  8
DATA
  6
Continuous
 62
     7
100
AcDbLine
 10
86.25
 20
45.59
 30
0.0
 11
86.25
 21
41.67999999999998
 31
0.0
  0
ARC
  5
28C
330
1C9
100
AcDbEntity
  8
DATA
  6
Continuous
 62
     7
100
AcDbCircle
 10
63.52
 20
45.59000000000003
 30
0.0
 40
1.269999999999981
100
AcDbArc
 50
90.0
 51
180.0000000000012
  0
ARC
  5
28D
330
1C9
100
AcDbEntity
  8
DATA
  6
Continuous
 62
     7
100
AcDbCircle
 10
84.97999999999997
 20
45.59
 30
0.0
 40
1.27000000000001
100
AcDbArc
 50
0.0
 51
89.99999999999969
  0
ARC
  5
28E
330
1C9
100
AcDbEntity
  8
DATA
  6
Continuous
 62
     7
100
AcDbCircle
 10
64.79000000000002
 20
41.67999999999998
 30
0.0
 40
2.54000000000002
100
AcDbArc
 50
180.0
 51
269.9999999999996
  0
ARC
  5
28F
330
1C9
100
AcDbEntity
  8
DATA
  6
Continuous
 62
     7
100
AcDbCircle
 10
83.71
 20
41.67999999999994
 30
0.0
 40
2.539999999999964
100
AcDbArc
 50
270.0
 51
0.0000000000006821
  0
CIRCLE
  5
290
330
1C9
100
AcDbEntity
  8
DATA
  6
Continuous
 62
     7
100
AcDbCircle
 10
101.5
 20
43.0
 30
0.0
 40
1.75
  0
LINE
  5
291
330
1C9
100
AcDbEntity
  8
DATA
  6
Continuous
 62
     7
100
AcDbLine
 10
43.75
 20
17.0
 30
0.0
 11
49.75
 21
17.0
 31
0.0
  0
LINE
  5
292
330
1C9
100
AcDbEntity
  8
DATA
  6
Continuous
 62
     7
100
AcDbLine
 10
43.75
 20
17.0
 30
0.0
 11
43.75
 21
19.0
 31
0.0
  0
LINE
  5
293
330
1C9
100
AcDbEntity
  8
DATA
  6
Continuous
 62
     7
100
AcDbLine
 10
49.75
 20
17.0
 30
0.0
 11
49.75
 21
19.0
 31
0.0
  0
LINE
  5
294
330
1C9
100
AcDbEntity
  8
DATA
  6
Continuous
 62
     7
100
AcDbLine
 10
43.25
 20
19.0
 30
0.0
 11
50.25
 21
19.0
 31
0.0
  0
LINE
  5
295
330
1C9
100
AcDbEntity
  8
DATA
  6
Continuous
 62
     7
100
AcDbLine
 10
43.25
 20
19.0
 30
0.0
 11
43.25
 21
20.0
 31
0.0
  0
LINE
  5
296
330
1C9
100
AcDbEntity
  8
DATA
  6
Continuous
 62
     7
100
AcDbLine
 10
50.25
 20
19.0
 30
0.0
 11
50.25
 21
20.0
 31
0.0
  0
LINE
  5
297
330
1C9
100
AcDbEntity
  8
DATA
  6
Continuous
 62
     7
100
AcDbLine
 10
104.75
 20
16.99999999999988
 30
0.0
 11
98.75
 21
16.99999999999988
 31
0.0
  0
LINE
  5
298
330
1C9
100
AcDbEntity
  8
DATA
  6
Continuous
 62
     7
100
AcDbLine
 10
104.75
 20
16.99999999999988
 30
0.0
 11
104.75
 21
18.99999999999988
 31
0.0
  0
LINE
  5
299
330
1C9
100
AcDbEntity
  8
DATA
  6
Continuous
 62
     7
100
AcDbLine
 10
98.75
 20
16.99999999999988
 30
0.0
 11
98.75
 21
18.99999999999988
 31
0.0
  0
LINE
  5
29A
330
1C9
100
AcDbEntity
  8
DATA
  6
Continuous
 62
     7
100
AcDbLine
 10
105.2499999999999
 20
18.99999999999988
 30
0.0
 11
98.24999999999999
 21
18.99999999999988
 31
0.0
  0
LINE
  5
29B
330
1C9
100
AcDbEntity
  8
DATA
  6
Continuous
 62
     7
100
AcDbLine
 10
105.2499999999999
 20
18.99999999999988
 30
0.0
 11
105.2499999999999
 21
19.99999999999988
 31
0.0
  0
LINE
  5
29C
330
1C9
100
AcDbEntity
  8
DATA
  6
Continuous
 62
     7
100
AcDbLine
 10
98.24999999999999
 20
18.99999999999988
 30
0.0
 11
98.24999999999999
 21
19.99999999999988
 31
0.0
  0
TEXT
  5
29D
330
1C9
100
AcDbEntity
  8
DATA
 62
     7
100
AcDbText
 10
43.75
 20
101.3228888888888
 30
0.0
 40
2.171788194444444
  1
Prog.
  7
_______
 11
43.75
 21
103.4946770833333
 31
0.0
100
AcDbText
 73
     3
  0
TEXT
  5
29E
330
1C9
100
AcDbEntity
  8
DATA
 62
     7
100
AcDbText
 10
69.25
 20
101.3228888888888
 30
0.0
 40
2.469444444444444
  1
DVI In
 11
69.25
 21
103.7923333333333
 31
0.0
100
AcDbText
 73
     3
  0
TEXT
  5
29F
330
1C9
100
AcDbEntity
  8
DATA
 62
     7
100
AcDbText
 10
99.25
 20
101.3228888888888
 30
0.0
 40
2.171788194444444
  1
Power
  7
_______
 11
99.25
 21
103.4946770833333
 31
0.0
100
AcDbText
 73
     3
  0
TEXT
  5
2A0
330
1C9
100
AcDbEntity
  8
DATA
 62
     7
100
AcDbText
 10
41.28955555555555
 20
127.7333333333333
 30
0.0
 40
2.469444444444444
  1
+5 Vdc
 50
270.0
 11
43.75899999999999
 21
127.7333333333333
 31
0.0
100
AcDbText
 73
     3
  0
LINE
  5
2A1
330
1C9
100
AcDbEntity
  8
DATA
  6
Continuous
 62
     7
100
AcDbLine
 10
55.75
 20
95.0
 30
0.0
 11
55.75
 21
100.0
 31
0.0
  0
LINE
  5
2A2
330
1C9
100
AcDbEntity
  8
DATA
  6
Continuous
 62
     7
100
AcDbLine
 10
60.24999999999997
 20
95.0
 30
0.0
 11
60.24999999999997
 21
100.0
 31
0.0
  0
LINE
  5
2A3
330
1C9
100
AcDbEntity
  8
DATA
  6
Continuous
 62
     7
100
AcDbLine
 10
62.25
 20
95.0
 30
0.0
 11
62.25
 21
100.0
 31
0.0
  0
LINE
  5
2A4
330
1C9
100
AcDbEntity
  8
DATA
  6
Continuous
 62
     7
100
AcDbLine
 10
86.25
 20
95.0
 30
0.0
 11
86.25
 21
100.0
 31
0.0
  0
LINE
  5
2A5
330
1C9
100
AcDbEntity
  8
DATA
  6
Continuous
 62
     7
100
AcDbLine
 10
88.25000000000004
 20
95.0
 30
0.0
 11
88.25000000000004
 21
100.0
 31
0.0
  0
LINE
  5
2A6
330
1C9
100
AcDbEntity
  8
DATA
  6
Continuous
 62
     7
100
AcDbLine
 10
92.75
 20
95.0
 30
0.0
 11
92.75
 21
100.0
 31
0.0
  0
LINE
  5
2A7
330
1C9
100
AcDbEntity
  8
DATA
  6
Continuous
 62
     7
100
AcDbLine
 10
55.75
 20
95.0
 30
0.0
 11
60.24999999999997
 21
95.0
 31
0.0
  0
LINE
  5
2A8
330
1C9
100
AcDbEntity
  8
DATA
  6
Continuous
 62
     7
100
AcDbLine
 10
62.25
 20
95.0
 30
0.0
 11
86.25
 21
95.0
 31
0.0
  0
LINE
  5
2A9
330
1C9
100
AcDbEntity
  8
DATA
  6
Continuous
 62
     7
100
AcDbLine
 10
88.25000000000004
 20
95.0
 30
0.0
 11
92.75
 21
95.0
 31
0.0
  0
LINE
  5
2AA
330
1C9
100
AcDbEntity
  8
DATA
  6
Continuous
 62
     7
100
AcDbLine
 10
57.99999999999997
 20
95.0
 30
0.0
 11
57.99999999999997
 21
100.0
 31
0.0
  0
LINE
  5
2AB
330
1C9
100
AcDbEntity
  8
DATA
  6
Continuous
 62
     7
100
AcDbLine
 10
90.50000000000004
 20
95.0
 30
0.0
 11
90.50000000000004
 21
100.0
 31
0.0
  0
LINE
  5
2AC
330
1C9
100
AcDbEntity
  8
DATA
  6
Continuous
 62
     7
100
AcDbLine
 10
44.75
 20
98.50000000000001
 30
0.0
 11
44.75
 21
100.0
 31
0.0
  0
LINE
  5
2AD
330
1C9
100
AcDbEntity
  8
DATA
  6
Continuous
 62
     7
100
AcDbLine
 10
49.25
 20
98.50000000000001
 30
0.0
 11
49.25
 21
100.0
 31
0.0
  0
LINE
  5
2AE
330
1C9
100
AcDbEntity
  8
DATA
  6
Continuous
 62
     7
100
AcDbLine
 10
49.25
 20
98.50000000000001
 30
0.0
 11
44.75
 21
98.50000000000001
 31
0.0
  0
ARC
  5
2AF
330
1C9
100
AcDbEntity
  8
DATA
  6
Continuous
 62
     7
100
AcDbCircle
 10
101.5
 20
102.8124999999999
 30
0.0
 40
3.3125
100
AcDbArc
 50
238.1092081981543
 51
301.8907918018457
  0
LINE
  5
2B0
330
1C9
100
AcDbEntity
  8
DATA
  6
Continuous
 62
     7
100
AcDbLine
 10
40.0
 20
194.5
 30
0.0
 11
40.0
 21
224.5
 31
0.0
  0
LINE
  5
2B1
330
1C9
100
AcDbEntity
  8
DATA
  6
Continuous
 62
     7
100
AcDbLine
 10
41.5
 20
193.0
 30
0.0
 11
107.0
 21
193.0
 31
0.0
  0
LINE
  5
2B2
330
1C9
100
AcDbEntity
  8
DATA
  6
Continuous
 62
     7
100
AcDbLine
 10
108.4999999999999
 20
194.5
 30
0.0
 11
108.4999999999999
 21
224.4999999999998
 31
0.0
  0
LINE
  5
2B3
330
1C9
100
AcDbEntity
  8
DATA
  6
Continuous
 62
     7
100
AcDbLine
 10
41.5
 20
226.0
 30
0.0
 11
52.0
 21
226.0
 31
0.0
  0
LINE
  5
2B4
330
1C9
100
AcDbEntity
  8
DATA
  6
Continuous
 62
     7
100
AcDbLine
 10
41.5
 20
195.0
 30
0.0
 11
41.5
 21
224.0
 31
0.0
  0
LINE
  5
2B5
330
1C9
100
AcDbEntity
  8
DATA
  6
Continuous
 62
     7
100
AcDbLine
 10
42.0
 20
194.5
 30
0.0
 11
106.4999999999999
 21
194.5
 31
0.0
  0
LINE
  5
2B6
330
1C9
100
AcDbEntity
  8
DATA
  6
Continuous
 62
     7
100
AcDbLine
 10
107.0
 20
195.0
 30
0.0
 11
107.0
 21
224.0
 31
0.0
  0
LINE
  5
2B7
330
1C9
100
AcDbEntity
  8
DATA
  6
Continuous
 62
     7
100
AcDbLine
 10
42.0
 20
224.5
 30
0.0
 11
106.4999999999999
 21
224.5
 31
0.0
  0
LINE
  5
2B8
330
1C9
100
AcDbEntity
  8
DATA
  6
Continuous
 62
     7
100
AcDbLine
 10
52.0
 20
226.0
 30
0.0
 11
52.0
 21
224.5
 31
0.0
  0
LINE
  5
2B9
330
1C9
100
AcDbEntity
  8
DATA
  6
Continuous
 62
     7
100
AcDbLine
 10
96.5
 20
225.9999999999998
 30
0.0
 11
96.5
 21
224.4999999999998
 31
0.0
  0
LINE
  5
2BA
330
1C9
100
AcDbEntity
  8
DATA
  6
Continuous
 62
     7
100
AcDbLine
 10
96.5
 20
225.9999999999998
 30
0.0
 11
107.0
 21
225.9999999999998
 31
0.0
  0
ARC
  5
2BB
330
1C9
100
AcDbEntity
  8
DATA
  6
Continuous
 62
     7
100
AcDbCircle
 10
41.5
 20
224.5
 30
0.0
 40
1.5
100
AcDbArc
 50
90.0
 51
180.0
  0
ARC
  5
2BC
330
1C9
100
AcDbEntity
  8
DATA
  6
Continuous
 62
     7
100
AcDbCircle
 10
42.0
 20
224.0
 30
0.0
 40
0.5
100
AcDbArc
 50
90.0
 51
180.0
  0
ARC
  5
2BD
330
1C9
100
AcDbEntity
  8
DATA
  6
Continuous
 62
     7
100
AcDbCircle
 10
42.0
 20
195.0
 30
0.0
 40
0.5
100
AcDbArc
 50
180.0
 51
270.0
  0
ARC
  5
2BE
330
1C9
100
AcDbEntity
  8
DATA
  6
Continuous
 62
     7
100
AcDbCircle
 10
106.4999999999999
 20
195.0
 30
0.0
 40
0.5
100
AcDbArc
 50
270.0
 51
0.0
  0
ARC
  5
2BF
330
1C9
100
AcDbEntity
  8
DATA
  6
Continuous
 62
     7
100
AcDbCircle
 10
106.4999999999999
 20
224.0
 30
0.0
 40
0.5
100
AcDbArc
 50
0.0
 51
90.0
  0
ARC
  5
2C0
330
1C9
100
AcDbEntity
  8
DATA
  6
Continuous
 62
     7
100
AcDbCircle
 10
41.5
 20
194.5
 30
0.0
 40
1.5
100
AcDbArc
 50
180.0
 51
270.0
  0
ARC
  5
2C1
330
1C9
100
AcDbEntity
  8
DATA
  6
Continuous
 62
     7
100
AcDbCircle
 10
107.0
 20
194.5
 30
0.0
 40
1.5
100
AcDbArc
 50
270.0
 51
0.0
  0
ARC
  5
2C2
330
1C9
100
AcDbEntity
  8
DATA
  6
Continuous
 62
     7
100
AcDbCircle
 10
107.0
 20
224.4999999999998
 30
0.0
 40
1.5
100
AcDbArc
 50
0.0
 51
90.0
  0
LINE
  5
2C3
330
1C9
100
AcDbEntity
  8
DATA
  6
Continuous
 62
     7
100
AcDbLine
 10
43.75
 20
229.0
 30
0.0
 11
49.75
 21
229.0
 31
0.0
  0
LINE
  5
2C4
330
1C9
100
AcDbEntity
  8
DATA
  6
Continuous
 62
     7
100
AcDbLine
 10
43.75
 20
229.0
 30
0.0
 11
43.75
 21
227.0
 31
0.0
  0
LINE
  5
2C5
330
1C9
100
AcDbEntity
  8
DATA
  6
Continuous
 62
     7
100
AcDbLine
 10
49.75
 20
229.0
 30
0.0
 11
49.75
 21
227.0
 31
0.0
  0
LINE
  5
2C6
330
1C9
100
AcDbEntity
  8
DATA
  6
Continuous
 62
     7
100
AcDbLine
 10
43.25
 20
227.0
 30
0.0
 11
50.25
 21
227.0
 31
0.0
  0
LINE
  5
2C7
330
1C9
100
AcDbEntity
  8
DATA
  6
Continuous
 62
     7
100
AcDbLine
 10
43.25
 20
227.0
 30
0.0
 11
43.25
 21
226.0
 31
0.0
  0
LINE
  5
2C8
330
1C9
100
AcDbEntity
  8
DATA
  6
Continuous
 62
     7
100
AcDbLine
 10
50.25
 20
227.0
 30
0.0
 11
50.25
 21
226.0
 31
0.0
  0
LINE
  5
2C9
330
1C9
100
AcDbEntity
  8
DATA
  6
Continuous
 62
     7
100
AcDbLine
 10
104.75
 20
229.0
 30
0.0
 11
98.75
 21
229.0
 31
0.0
  0
LINE
  5
2CA
330
1C9
100
AcDbEntity
  8
DATA
  6
Continuous
 62
     7
100
AcDbLine
 10
104.75
 20
229.0
 30
0.0
 11
104.75
 21
227.0
 31
0.0
  0
LINE
  5
2CB
330
1C9
100
AcDbEntity
  8
DATA
  6
Continuous
 62
     7
100
AcDbLine
 10
98.75
 20
229.0
 30
0.0
 11
98.75
 21
227.0
 31
0.0
  0
LINE
  5
2CC
330
1C9
100
AcDbEntity
  8
DATA
  6
Continuous
 62
     7
100
AcDbLine
 10
105.2499999999999
 20
227.0
 30
0.0
 11
98.24999999999999
 21
227.0
 31
0.0
  0
LINE
  5
2CD
330
1C9
100
AcDbEntity
  8
DATA
  6
Continuous
 62
     7
100
AcDbLine
 10
105.2499999999999
 20
227.0
 30
0.0
 11
105.2499999999999
 21
226.0000000000001
 31
0.0
  0
LINE
  5
2CE
330
1C9
100
AcDbEntity
  8
DATA
  6
Continuous
 62
     7
100
AcDbLine
 10
98.24999999999999
 20
227.0
 30
0.0
 11
98.24999999999999
 21
226.0000000000001
 31
0.0
  0
CIRCLE
  5
2CF
330
1C9
100
AcDbEntity
  8
DATA
  6
Continuous
 62
     7
100
AcDbCircle
 10
90.5
 20
215.1399999999999
 30
0.0
 40
1.269999999999995
  0
LWPOLYLINE
  5
2D0
330
1C9
100
AcDbEntity
  8
DATA
  6
Continuous
 62
     7
100
AcDbPolyline
 90
        6
 70
     1
 43
0.0
 10
88.25000000000001
 20
213.8409618943233
 10
88.25000000000004
 20
216.4390381056767
 10
90.50000000000004
 20
217.7380762113533
 10
92.75
 20
216.4390381056766
 10
92.74999999999996
 20
213.8409618943232
 10
90.49999999999995
 20
212.5419237886466
  0
CIRCLE
  5
2D8
330
1C9
100
AcDbEntity
  8
DATA
  6
Continuous
 62
     7
100
AcDbCircle
 10
58.0
 20
215.1399999999999
 30
0.0
 40
1.269999999999995
  0
LWPOLYLINE
  5
2D9
330
1C9
100
AcDbEntity
  8
DATA
  6
Continuous
 62
     7
100
AcDbPolyline
 90
        6
 70
     1
 43
0.0
 10
60.25
 20
213.8409618943233
 10
60.24999999999997
 20
216.4390381056767
 10
57.99999999999997
 20
217.7380762113533
 10
55.75
 20
216.4390381056766
 10
55.75000000000002
 20
213.8409618943232
 10
58.00000000000002
 20
212.5419237886466
  0
LINE
  5
2E1
330
1C9
100
AcDbEntity
  8
DATA
  6
Continuous
 62
     7
100
AcDbLine
 10
95.0
 20
220.5
 30
0.0
 11
105.0
 21
220.5
 31
0.0
  0
LINE
  5
2E2
330
1C9
100
AcDbEntity
  8
DATA
  6
Continuous
 62
     7
100
AcDbLine
 10
105.0
 20
220.5
 30
0.0
 11
105.0
 21
213.0
 31
0.0
  0
LINE
  5
2E3
330
1C9
100
AcDbEntity
  8
DATA
  6
Continuous
 62
     7
100
AcDbLine
 10
95.0
 20
220.5
 30
0.0
 11
95.0
 21
213.0
 31
0.0
  0
LINE
  5
2E4
330
1C9
100
AcDbEntity
  8
DATA
  6
Continuous
 62
     7
100
AcDbLine
 10
95.0
 20
213.0
 30
0.0
 11
105.0
 21
213.0
 31
0.0
  0
LINE
  5
2E5
330
1C9
100
AcDbEntity
  8
DATA
  6
Continuous
 62
     7
100
AcDbLine
 10
96.27
 20
220.5
 30
0.0
 11
96.27
 21
217.0
 31
0.0
  0
LINE
  5
2E6
330
1C9
100
AcDbEntity
  8
DATA
  6
Continuous
 62
     7
100
AcDbLine
 10
97.54000000000001
 20
220.5
 30
0.0
 11
97.54000000000001
 21
217.0
 31
0.0
  0
LINE
  5
2E7
330
1C9
100
AcDbEntity
  8
DATA
  6
Continuous
 62
     7
100
AcDbLine
 10
98.81
 20
220.5
 30
0.0
 11
98.81
 21
217.0
 31
0.0
  0
LINE
  5
2E8
330
1C9
100
AcDbEntity
  8
DATA
  6
Continuous
 62
     7
100
AcDbLine
 10
100.0799999999999
 20
220.5
 30
0.0
 11
100.0799999999999
 21
217.0
 31
0.0
  0
LINE
  5
2E9
330
1C9
100
AcDbEntity
  8
DATA
  6
Continuous
 62
     7
100
AcDbLine
 10
101.35
 20
220.5
 30
0.0
 11
101.35
 21
217.0
 31
0.0
  0
LINE
  5
2EA
330
1C9
100
AcDbEntity
  8
DATA
  6
Continuous
 62
     7
100
AcDbLine
 10
102.62
 20
220.5
 30
0.0
 11
102.62
 21
217.0
 31
0.0
  0
LINE
  5
2EB
330
1C9
100
AcDbEntity
  8
DATA
  6
Continuous
 62
     7
100
AcDbLine
 10
103.8899999999999
 20
220.5
 30
0.0
 11
103.8899999999999
 21
217.0
 31
0.0
  0
LINE
  5
2EC
330
1C9
100
AcDbEntity
  8
DATA
  6
Continuous
 62
     7
100
AcDbLine
 10
95.0
 20
219.4999999999999
 30
0.0
 11
96.27
 21
219.4999999999999
 31
0.0
  0
LINE
  5
2ED
330
1C9
100
AcDbEntity
  8
DATA
  6
Continuous
 62
     7
100
AcDbLine
 10
97.54000000000001
 20
219.4999999999999
 30
0.0
 11
98.81
 21
219.4999999999999
 31
0.0
  0
LINE
  5
2EE
330
1C9
100
AcDbEntity
  8
DATA
  6
Continuous
 62
     7
100
AcDbLine
 10
100.0799999999999
 20
219.4999999999999
 30
0.0
 11
101.35
 21
219.4999999999999
 31
0.0
  0
LINE
  5
2EF
330
1C9
100
AcDbEntity
  8
DATA
  6
Continuous
 62
     7
100
AcDbLine
 10
102.62
 20
219.4999999999999
 30
0.0
 11
103.8899999999999
 21
219.4999999999999
 31
0.0
  0
LINE
  5
2F0
330
1C9
100
AcDbEntity
  8
DATA
  6
Continuous
 62
     7
100
AcDbLine
 10
95.0
 20
217.0
 30
0.0
 11
105.0
 21
217.0
 31
0.0
  0
LINE
  5
2F1
330
1C9
100
AcDbEntity
  8
DATA
  6
Continuous
 62
     7
100
AcDbLine
 10
95.0
 20
215.7299999999999
 30
0.0
 11
105.0
 21
215.7299999999999
 31
0.0
  0
TEXT
  5
2F2
330
1C9
100
AcDbEntity
  8
DATA
 62
     7
100
AcDbText
 10
104.5055555555555
 20
212.1528888888888
 30
0.0
 40
2.1
  1
1
 50
180.0
 11
104.5055555555555
 21
210.0528888888888
 31
0.0
100
AcDbText
 73
     3
  0
TEXT
  5
2F3
330
1C9
100
AcDbEntity
  8
DATA
 62
     7
100
AcDbText
 10
101.7888126901641
 20
212.1528888888888
 30
0.0
 40
1.846875
  1
2
 50
180.0
  7
_______
 11
101.7888126901641
 21
210.3060138888888
 31
0.0
100
AcDbText
 73
     3
  0
TEXT
  5
2F4
330
1C9
100
AcDbEntity
  8
DATA
 62
     7
100
AcDbText
 10
99.28881269016413
 20
212.1528888888888
 30
0.0
 40
1.846875
  1
3
 50
180.0
  7
_______
 11
99.28881269016413
 21
210.3060138888888
 31
0.0
100
AcDbText
 73
     3
  0
TEXT
  5
2F5
330
1C9
100
AcDbEntity
  8
DATA
 62
     7
100
AcDbText
 10
96.78881269016413
 20
212.1528888888888
 30
0.0
 40
1.846875
  1
4
 50
180.0
  7
_______
 11
96.78881269016413
 21
210.3060138888888
 31
0.0
100
AcDbText
 73
     3
  0
TEXT
  5
2F6
330
1C9
100
AcDbEntity
  8
DATA
 62
     7
100
AcDbText
 10
104.2888126901641
 20
209.6528888888888
 30
0.0
 40
1.846875
  1
SETTING
 50
180.0
  7
_______
 11
104.2888126901641
 21
207.8060138888889
 31
0.0
100
AcDbText
 73
     3
  0
TEXT
  5
2F7
330
1C9
100
AcDbEntity
  8
DATA
 62
     7
100
AcDbText
 10
93.78881269016412
 20
223.164
 30
0.0
 40
1.846875
  1
OFF
 50
180.0
  7
_______
 11
93.78881269016412
 21
221.317125
 31
0.0
100
AcDbText
 73
     3
  0
TEXT
  5
2F8
330
1C9
100
AcDbEntity
  8
DATA
 62
     7
100
AcDbText
 10
78.87777777777779
 20
223.1048888888888
 30
0.0
 40
2.469444444444444
  1
DVI Out
 50
180.0
 11
78.87777777777779
 21
220.6354444444444
 31
0.0
100
AcDbText
 73
     3
  0
LINE
  5
2F9
330
1C9
100
AcDbEntity
  8
DATA
  6
Continuous
 62
     7
100
AcDbLine
 10
45.0
 20
213.5
 30
0.0
 11
51.0
 21
213.5
 31
0.0
  0
LINE
  5
2FA
330
1C9
100
AcDbEntity
  8
DATA
  6
Continuous
 62
     7
100
AcDbLine
 10
51.0
 20
213.5
 30
0.0
 11
51.0
 21
210.4999999999999
 31
0.0
  0
LINE
  5
2FB
330
1C9
100
AcDbEntity
  8
DATA
  6
Continuous
 62
     7
100
AcDbLine
 10
45.0
 20
213.5
 30
0.0
 11
45.0
 21
210.4999999999999
 31
0.0
  0
LINE
  5
2FC
330
1C9
100
AcDbEntity
  8
DATA
  6
Continuous
 62
     7
100
AcDbLine
 10
45.0
 20
210.4999999999999
 30
0.0
 11
51.0
 21
210.4999999999999
 31
0.0
  0
LINE
  5
2FD
330
1C9
100
AcDbEntity
  8
DATA
  6
Continuous
 62
     7
100
AcDbLine
 10
46.0
 20
212.25
 30
0.0
 11
50.0
 21
212.25
 31
0.0
  0
LINE
  5
2FE
330
1C9
100
AcDbEntity
  8
DATA
  6
Continuous
 62
     7
100
AcDbLine
 10
46.0
 20
212.25
 30
0.0
 11
46.0
 21
211.75
 31
0.0
  0
LINE
  5
2FF
330
1C9
100
AcDbEntity
  8
DATA
  6
Continuous
 62
     7
100
AcDbLine
 10
46.0
 20
211.75
 30
0.0
 11
50.0
 21
211.75
 31
0.0
  0
LINE
  5
300
330
1C9
100
AcDbEntity
  8
DATA
  6
Continuous
 62
     7
100
AcDbLine
 10
49.0
 20
211.75
 30
0.0
 11
49.0
 21
212.25
 31
0.0
  0
LINE
  5
301
330
1C9
100
AcDbEntity
  8
DATA
  6
Continuous
 62
     7
100
AcDbLine
 10
50.0
 20
212.25
 30
0.0
 11
50.0
 21
211.75
 31
0.0
  0
TEXT
  5
302
330
1C9
100
AcDbEntity
  8
DATA
 62
     7
100
AcDbText
 10
49.32222222222222
 20
209.6048888888888
 30
0.0
 40
2.469444444444444
  1
WR
 50
180.0
 11
49.32222222222222
 21
207.1354444444444
 31
0.0
100
AcDbText
 73
     3
  0
TEXT
  5
303
330
1C9
100
AcDbEntity
  8
DATA
 62
     7
100
AcDbText
 10
46.41118732639275
 20
216.0751111111111
 30
0.0
 40
1.846875
  1
D
 50
180.0
  7
_______
 11
46.41118732639275
 21
214.2282361111111
 31
0.0
100
AcDbText
 73
     3
  0
TEXT
  5
304
330
1C9
100
AcDbEntity
  8
DATA
 62
     7
100
AcDbText
 10
50.91118732639275
 20
216.0751111111111
 30
0.0
 40
1.846875
  1
E
 50
180.0
  7
_______
 11
50.91118732639275
 21
214.2282361111111
 31
0.0
100
AcDbText
 73
     3
  0
LINE
  5
305
330
1C9
100
AcDbEntity
  8
DATA
  6
Continuous
 62
     7
100
AcDbLine
 10
55.75
 20
151.0
 30
0.0
 11
55.75
 21
146.0
 31
0.0
  0
LINE
  5
306
330
1C9
100
AcDbEntity
  8
DATA
  6
Continuous
 62
     7
100
AcDbLine
 10
60.24999999999997
 20
151.0
 30
0.0
 11
60.24999999999997
 21
146.0
 31
0.0
  0
LINE
  5
307
330
1C9
100
AcDbEntity
  8
DATA
  6
Continuous
 62
     7
100
AcDbLine
 10
62.25
 20
151.0
 30
0.0
 11
62.25
 21
146.0
 31
0.0
  0
LINE
  5
308
330
1C9
100
AcDbEntity
  8
DATA
  6
Continuous
 62
     7
100
AcDbLine
 10
86.25
 20
151.0
 30
0.0
 11
86.25
 21
146.0
 31
0.0
  0
LINE
  5
309
330
1C9
100
AcDbEntity
  8
DATA
  6
Continuous
 62
     7
100
AcDbLine
 10
88.25000000000004
 20
151.0
 30
0.0
 11
88.25000000000004
 21
146.0
 31
0.0
  0
LINE
  5
30A
330
1C9
100
AcDbEntity
  8
DATA
  6
Continuous
 62
     7
100
AcDbLine
 10
92.75
 20
151.0
 30
0.0
 11
92.75
 21
146.0
 31
0.0
  0
LINE
  5
30B
330
1C9
100
AcDbEntity
  8
DATA
  6
Continuous
 62
     7
100
AcDbLine
 10
55.75
 20
151.0
 30
0.0
 11
60.24999999999997
 21
151.0
 31
0.0
  0
LINE
  5
30C
330
1C9
100
AcDbEntity
  8
DATA
  6
Continuous
 62
     7
100
AcDbLine
 10
62.25
 20
151.0
 30
0.0
 11
86.25
 21
151.0
 31
0.0
  0
LINE
  5
30D
330
1C9
100
AcDbEntity
  8
DATA
  6
Continuous
 62
     7
100
AcDbLine
 10
88.25000000000004
 20
151.0
 30
0.0
 11
92.75
 21
151.0
 31
0.0
  0
LINE
  5
30E
330
1C9
100
AcDbEntity
  8
DATA
  6
Continuous
 62
     7
100
AcDbLine
 10
57.99999999999997
 20
151.0
 30
0.0
 11
57.99999999999997
 21
146.0
 31
0.0
  0
LINE
  5
30F
330
1C9
100
AcDbEntity
  8
DATA
  6
Continuous
 62
     7
100
AcDbLine
 10
90.50000000000004
 20
151.0
 30
0.0
 11
90.50000000000004
 21
146.0
 31
0.0
  0
LINE
  5
310
330
1C9
100
AcDbEntity
  8
DATA
  6
Continuous
 62
     7
100
AcDbLine
 10
-20.0
 20
146.0
 30
0.0
 11
-53.0
 21
146.0
 31
0.0
  0
LINE
  5
311
330
1C9
100
AcDbEntity
  8
DATA
  6
Continuous
 62
     7
100
AcDbLine
 10
-20.0
 20
100.0
 30
0.0
 11
-20.0
 21
146.0
 31
0.0
  0
LINE
  5
312
330
1C9
100
AcDbEntity
  8
DATA
  6
Continuous
 62
     7
100
AcDbLine
 10
-53.0
 20
100.0
 30
0.0
 11
-53.0
 21
146.0
 31
0.0
  0
LINE
  5
313
330
1C9
100
AcDbEntity
  8
DATA
  6
Continuous
 62
     7
100
AcDbLine
 10
-56.0
 20
102.4999999999999
 30
0.0
 11
-56.0
 21
108.4999999999999
 31
0.0
  0
LINE
  5
314
330
1C9
100
AcDbEntity
  8
DATA
  6
Continuous
 62
     7
100
AcDbLine
 10
-54.0
 20
102.0
 30
0.0
 11
-54.0
 21
109.0
 31
0.0
  0
LINE
  5
315
330
1C9
100
AcDbEntity
  8
DATA
  6
Continuous
 62
     7
100
AcDbLine
 10
-56.0
 20
102.4999999999999
 30
0.0
 11
-54.0
 21
102.4999999999999
 31
0.0
  0
LINE
  5
316
330
1C9
100
AcDbEntity
  8
DATA
  6
Continuous
 62
     7
100
AcDbLine
 10
-56.0
 20
108.4999999999999
 30
0.0
 11
-54.0
 21
108.4999999999999
 31
0.0
  0
LINE
  5
317
330
1C9
100
AcDbEntity
  8
DATA
  6
Continuous
 62
     7
100
AcDbLine
 10
-54.0
 20
102.0
 30
0.0
 11
-53.0
 21
102.0
 31
0.0
  0
LINE
  5
318
330
1C9
100
AcDbEntity
  8
DATA
  6
Continuous
 62
     7
100
AcDbLine
 10
-54.0
 20
109.0
 30
0.0
 11
-53.0
 21
109.0
 31
0.0
  0
LINE
  5
319
330
1C9
100
AcDbEntity
  8
DATA
  6
Continuous
 62
     7
100
AcDbLine
 10
-32.59807621135332
 20
95.0
 30
0.0
 11
-32.59807621135332
 21
98.50000000000001
 31
0.0
  0
LINE
  5
31A
330
1C9
100
AcDbEntity
  8
DATA
  6
Continuous
 62
     7
100
AcDbLine
 10
-27.40192378864668
 20
95.0
 30
0.0
 11
-27.40192378864668
 21
100.0
 31
0.0
  0
LINE
  5
31B
330
1C9
100
AcDbEntity
  8
DATA
  6
Continuous
 62
     7
100
AcDbLine
 10
-26.13999999999998
 20
95.0
 30
0.0
 11
-33.86000000000001
 21
95.0
 31
0.0
  0
LINE
  5
31C
330
1C9
100
AcDbEntity
  8
DATA
  6
Continuous
 62
     7
100
AcDbLine
 10
-31.29903810567613
 20
95.0
 30
0.0
 11
-31.29903810567609
 21
98.50000000000001
 31
0.0
  0
LINE
  5
31D
330
1C9
100
AcDbEntity
  8
DATA
  6
Continuous
 62
     7
100
AcDbLine
 10
-28.70096189432331
 20
95.0
 30
0.0
 11
-28.70096189432331
 21
100.0
 31
0.0
  0
LINE
  5
31E
330
1C9
100
AcDbEntity
  8
DATA
  6
Continuous
 62
     7
100
AcDbLine
 10
-33.86000000000001
 20
95.0
 30
0.0
 11
-33.86000000000001
 21
100.0
 31
0.0
  0
LINE
  5
31F
330
1C9
100
AcDbEntity
  8
DATA
  6
Continuous
 62
     7
100
AcDbLine
 10
-26.13999999999998
 20
95.0
 30
0.0
 11
-26.13999999999998
 21
100.0
 31
0.0
  0
LINE
  5
320
330
1C9
100
AcDbEntity
  8
DATA
  6
Continuous
 62
     7
100
AcDbLine
 10
-53.0
 20
100.0
 30
0.0
 11
-20.0
 21
100.0
 31
0.0
  0
LINE
  5
321
330
1C9
100
AcDbEntity
  8
DATA
  6
Continuous
 62
     7
100
AcDbLine
 10
-56.0
 20
143.5
 30
0.0
 11
-56.0
 21
137.5
 31
0.0
  0
LINE
  5
322
330
1C9
100
AcDbEntity
  8
DATA
  6
Continuous
 62
     7
100
AcDbLine
 10
-54.0
 20
144.0
 30
0.0
 11
-54.0
 21
137.0
 31
0.0
  0
LINE
  5
323
330
1C9
100
AcDbEntity
  8
DATA
  6
Continuous
 62
     7
100
AcDbLine
 10
-56.0
 20
143.5
 30
0.0
 11
-54.0
 21
143.5
 31
0.0
  0
LINE
  5
324
330
1C9
100
AcDbEntity
  8
DATA
  6
Continuous
 62
     7
100
AcDbLine
 10
-56.0
 20
137.5
 30
0.0
 11
-54.0
 21
137.5
 31
0.0
  0
LINE
  5
325
330
1C9
100
AcDbEntity
  8
DATA
  6
Continuous
 62
     7
100
AcDbLine
 10
-54.0
 20
144.0
 30
0.0
 11
-53.0
 21
144.0
 31
0.0
  0
LINE
  5
326
330
1C9
100
AcDbEntity
  8
DATA
  6
Continuous
 62
     7
100
AcDbLine
 10
-54.0
 20
137.0
 30
0.0
 11
-53.0
 21
137.0
 31
0.0
  0
LINE
  5
327
330
1C9
100
AcDbEntity
  8
DATA
  6
Continuous
 62
     7
100
AcDbLine
 10
-44.73807621135329
 20
151.0
 30
0.0
 11
-44.73807621135329
 21
146.0
 31
0.0
  0
LINE
  5
328
330
1C9
100
AcDbEntity
  8
DATA
  6
Continuous
 62
     7
100
AcDbLine
 10
-39.54192378864668
 20
151.0
 30
0.0
 11
-39.54192378864668
 21
146.0
 31
0.0
  0
LINE
  5
329
330
1C9
100
AcDbEntity
  8
DATA
  6
Continuous
 62
     7
100
AcDbLine
 10
-43.43903810567661
 20
151.0
 30
0.0
 11
-43.43903810567661
 21
146.0
 31
0.0
  0
LINE
  5
32A
330
1C9
100
AcDbEntity
  8
DATA
  6
Continuous
 62
     7
100
AcDbLine
 10
-40.84096189432329
 20
151.0
 30
0.0
 11
-40.84096189432329
 21
146.0
 31
0.0
  0
LINE
  5
32B
330
1C9
100
AcDbEntity
  8
DATA
  6
Continuous
 62
     7
100
AcDbLine
 10
-38.27999999999996
 20
151.0
 30
0.0
 11
-38.27999999999996
 21
146.0
 31
0.0
  0
LINE
  5
32C
330
1C9
100
AcDbEntity
  8
DATA
  6
Continuous
 62
     7
100
AcDbLine
 10
-46.0
 20
151.0
 30
0.0
 11
-46.0
 21
146.0
 31
0.0
  0
LINE
  5
32D
330
1C9
100
AcDbEntity
  8
DATA
  6
Continuous
 62
     7
100
AcDbLine
 10
-38.27999999999996
 20
151.0
 30
0.0
 11
-46.0
 21
151.0
 31
0.0
  0
CIRCLE
  5
32E
330
1C9
100
AcDbEntity
  8
DATA
  6
Continuous
 62
     7
100
AcDbCircle
 10
-28.5
 20
123.0
 30
0.0
 40
3.5
  0
CIRCLE
  5
32F
330
1C9
100
AcDbEntity
  8
DATA
  6
Continuous
 62
     7
100
AcDbCircle
 10
-28.5
 20
123.0
 30
0.0
 40
0.75
  0
LINE
  5
330
330
1C9
100
AcDbEntity
  8
DATA
  6
Continuous
 62
     7
100
AcDbLine
 10
-33.25
 20
98.50000000000001
 30
0.0
 11
-28.75
 21
98.50000000000001
 31
0.0
  0
LINE
  5
331
330
1C9
100
AcDbEntity
  8
DATA
  6
Continuous
 62
     7
100
AcDbLine
 10
-31.0
 20
98.50000000000001
 30
0.0
 11
-31.0
 21
95.0
 31
0.0
  0
LINE
  5
332
330
1C9
100
AcDbEntity
  8
DATA
  6
Continuous
 62
     7
100
AcDbLine
 10
-33.25
 20
98.50000000000001
 30
0.0
 11
-33.25
 21
100.0
 31
0.0
  0
LINE
  5
333
330
1C9
100
AcDbEntity
  8
DATA
  6
Continuous
 62
     7
100
AcDbLine
 10
-28.75
 20
98.50000000000001
 30
0.0
 11
-28.75
 21
100.0
 31
0.0
  0
LINE
  5
334
330
1C9
100
AcDbEntity
  8
DATA
  6
Continuous
 62
     7
100
AcDbLine
 10
63.52
 20
219.0
 30
0.0
 11
84.97999999999997
 21
219.0
 31
0.0
  0
LINE
  5
335
330
1C9
100
AcDbEntity
  8
DATA
  6
Continuous
 62
     7
100
AcDbLine
 10
64.79
 20
211.28
 30
0.0
 11
83.71
 21
211.28
 31
0.0
  0
LINE
  5
336
330
1C9
100
AcDbEntity
  8
DATA
  6
Continuous
 62
     7
100
AcDbLine
 10
63.7725
 20
217.9974999999999
 30
0.0
 11
79.0125
 21
217.9974999999999
 31
0.0
  0
LINE
  5
337
330
1C9
100
AcDbEntity
  8
DATA
  6
Continuous
 62
     7
100
AcDbLine
 10
63.7725
 20
216.0925
 30
0.0
 11
79.0125
 21
216.0925
 31
0.0
  0
LINE
  5
338
330
1C9
100
AcDbEntity
  8
DATA
  6
Continuous
 62
     7
100
AcDbLine
 10
63.7725
 20
214.1874999999999
 30
0.0
 11
79.0125
 21
214.1874999999999
 31
0.0
  0
LINE
  5
339
330
1C9
100
AcDbEntity
  8
DATA
  6
Continuous
 62
     7
100
AcDbLine
 10
63.7725
 20
212.2825
 30
0.0
 11
79.0125
 21
212.2825
 31
0.0
  0
LINE
  5
33A
330
1C9
100
AcDbEntity
  8
DATA
  6
Continuous
 62
     7
100
AcDbLine
 10
63.7725
 20
217.9974999999999
 30
0.0
 11
63.7725
 21
212.2825
 31
0.0
  0
LINE
  5
33B
330
1C9
100
AcDbEntity
  8
DATA
  6
Continuous
 62
     7
100
AcDbLine
 10
65.6775
 20
217.9974999999999
 30
0.0
 11
65.6775
 21
212.2825
 31
0.0
  0
LINE
  5
33C
330
1C9
100
AcDbEntity
  8
DATA
  6
Continuous
 62
     7
100
AcDbLine
 10
67.5825
 20
217.9974999999999
 30
0.0
 11
67.5825
 21
212.2825
 31
0.0
  0
LINE
  5
33D
330
1C9
100
AcDbEntity
  8
DATA
  6
Continuous
 62
     7
100
AcDbLine
 10
69.4875
 20
217.9974999999999
 30
0.0
 11
69.4875
 21
212.2825
 31
0.0
  0
LINE
  5
33E
330
1C9
100
AcDbEntity
  8
DATA
  6
Continuous
 62
     7
100
AcDbLine
 10
71.3925
 20
217.9974999999999
 30
0.0
 11
71.3925
 21
212.2825
 31
0.0
  0
LINE
  5
33F
330
1C9
100
AcDbEntity
  8
DATA
  6
Continuous
 62
     7
100
AcDbLine
 10
73.2975
 20
217.9974999999999
 30
0.0
 11
73.2975
 21
212.2825
 31
0.0
  0
LINE
  5
340
330
1C9
100
AcDbEntity
  8
DATA
  6
Continuous
 62
     7
100
AcDbLine
 10
75.2025
 20
217.9974999999999
 30
0.0
 11
75.2025
 21
212.2825
 31
0.0
  0
LINE
  5
341
330
1C9
100
AcDbEntity
  8
DATA
  6
Continuous
 62
     7
100
AcDbLine
 10
77.10749999999999
 20
217.9974999999999
 30
0.0
 11
77.10749999999999
 21
212.2825
 31
0.0
  0
LINE
  5
342
330
1C9
100
AcDbEntity
  8
DATA
  6
Continuous
 62
     7
100
AcDbLine
 10
79.0125
 20
217.9974999999999
 30
0.0
 11
79.0125
 21
212.2825
 31
0.0
  0
LINE
  5
343
330
1C9
100
AcDbEntity
  8
DATA
  6
Continuous
 62
     7
100
AcDbLine
 10
82.50499999999998
 20
217.0449999999999
 30
0.0
 11
82.50499999999998
 21
215.7749999999999
 31
0.0
  0
LINE
  5
344
330
1C9
100
AcDbEntity
  8
DATA
  6
Continuous
 62
     7
100
AcDbLine
 10
81.23499999999998
 20
217.0449999999999
 30
0.0
 11
81.23499999999998
 21
215.7749999999999
 31
0.0
  0
LINE
  5
345
330
1C9
100
AcDbEntity
  8
DATA
  6
Continuous
 62
     7
100
AcDbLine
 10
84.40999999999998
 20
217.0449999999999
 30
0.0
 11
84.40999999999998
 21
215.7749999999999
 31
0.0
  0
LINE
  5
346
330
1C9
100
AcDbEntity
  8
DATA
  6
Continuous
 62
     7
100
AcDbLine
 10
81.23499999999998
 20
217.0449999999999
 30
0.0
 11
82.50499999999998
 21
217.0449999999999
 31
0.0
  0
LINE
  5
347
330
1C9
100
AcDbEntity
  8
DATA
  6
Continuous
 62
     7
100
AcDbLine
 10
83.13999999999998
 20
217.0449999999999
 30
0.0
 11
84.40999999999998
 21
217.0449999999999
 31
0.0
  0
LINE
  5
348
330
1C9
100
AcDbEntity
  8
DATA
  6
Continuous
 62
     7
100
AcDbLine
 10
83.13999999999998
 20
217.0449999999999
 30
0.0
 11
83.13999999999998
 21
215.7749999999999
 31
0.0
  0
LINE
  5
349
330
1C9
100
AcDbEntity
  8
DATA
  6
Continuous
 62
     7
100
AcDbLine
 10
81.23499999999998
 20
215.7749999999999
 30
0.0
 11
82.50499999999998
 21
215.7749999999999
 31
0.0
  0
LINE
  5
34A
330
1C9
100
AcDbEntity
  8
DATA
  6
Continuous
 62
     7
100
AcDbLine
 10
83.13999999999998
 20
215.7749999999999
 30
0.0
 11
84.40999999999998
 21
215.7749999999999
 31
0.0
  0
LINE
  5
34B
330
1C9
100
AcDbEntity
  8
DATA
  6
Continuous
 62
     7
100
AcDbLine
 10
82.50499999999998
 20
214.5049999999999
 30
0.0
 11
82.50499999999998
 21
213.235
 31
0.0
  0
LINE
  5
34C
330
1C9
100
AcDbEntity
  8
DATA
  6
Continuous
 62
     7
100
AcDbLine
 10
81.23499999999998
 20
214.5049999999999
 30
0.0
 11
81.23499999999998
 21
213.235
 31
0.0
  0
LINE
  5
34D
330
1C9
100
AcDbEntity
  8
DATA
  6
Continuous
 62
     7
100
AcDbLine
 10
84.40999999999998
 20
214.5049999999999
 30
0.0
 11
84.40999999999998
 21
213.235
 31
0.0
  0
LINE
  5
34E
330
1C9
100
AcDbEntity
  8
DATA
  6
Continuous
 62
     7
100
AcDbLine
 10
81.23499999999998
 20
214.5049999999999
 30
0.0
 11
82.50499999999998
 21
214.5049999999999
 31
0.0
  0
LINE
  5
34F
330
1C9
100
AcDbEntity
  8
DATA
  6
Continuous
 62
     7
100
AcDbLine
 10
83.13999999999998
 20
214.5049999999999
 30
0.0
 11
84.40999999999998
 21
214.5049999999999
 31
0.0
  0
LINE
  5
350
330
1C9
100
AcDbEntity
  8
DATA
  6
Continuous
 62
     7
100
AcDbLine
 10
83.13999999999998
 20
214.5049999999999
 30
0.0
 11
83.13999999999998
 21
213.235
 31
0.0
  0
LINE
  5
351
330
1C9
100
AcDbEntity
  8
DATA
  6
Continuous
 62
     7
100
AcDbLine
 10
81.23499999999998
 20
213.235
 30
0.0
 11
82.50499999999998
 21
213.235
 31
0.0
  0
LINE
  5
352
330
1C9
100
AcDbEntity
  8
DATA
  6
Continuous
 62
     7
100
AcDbLine
 10
83.13999999999998
 20
213.235
 30
0.0
 11
84.40999999999998
 21
213.235
 31
0.0
  0
LINE
  5
353
330
1C9
100
AcDbEntity
  8
DATA
  6
Continuous
 62
     7
100
AcDbLine
 10
82.82249999999997
 20
217.1399999999999
 30
0.0
 11
82.82249999999997
 21
213.1399999999999
 31
0.0
  0
LINE
  5
354
330
1C9
100
AcDbEntity
  8
DATA
  6
Continuous
 62
     7
100
AcDbLine
 10
80.32249999999997
 20
215.1399999999999
 30
0.0
 11
85.32249999999997
 21
215.1399999999999
 31
0.0
  0
LINE
  5
355
330
1C9
100
AcDbEntity
  8
DATA
  6
Continuous
 62
     7
100
AcDbLine
 10
62.25
 20
217.7299999999999
 30
0.0
 11
62.25
 21
213.8199999999999
 31
0.0
  0
LINE
  5
356
330
1C9
100
AcDbEntity
  8
DATA
  6
Continuous
 62
     7
100
AcDbLine
 10
86.25
 20
217.7299999999999
 30
0.0
 11
86.25
 21
213.8199999999999
 31
0.0
  0
ARC
  5
357
330
1C9
100
AcDbEntity
  8
DATA
  6
Continuous
 62
     7
100
AcDbCircle
 10
63.52
 20
217.7299999999999
 30
0.0
 40
1.269999999999981
100
AcDbArc
 50
90.0
 51
180.0000000000012
  0
ARC
  5
358
330
1C9
100
AcDbEntity
  8
DATA
  6
Continuous
 62
     7
100
AcDbCircle
 10
84.97999999999997
 20
217.7299999999999
 30
0.0
 40
1.27000000000001
100
AcDbArc
 50
0.0
 51
90.0
  0
ARC
  5
359
330
1C9
100
AcDbEntity
  8
DATA
  6
Continuous
 62
     7
100
AcDbCircle
 10
64.79000000000002
 20
213.8199999999999
 30
0.0
 40
2.54000000000002
100
AcDbArc
 50
180.0
 51
269.9999999999996
  0
ARC
  5
35A
330
1C9
100
AcDbEntity
  8
DATA
  6
Continuous
 62
     7
100
AcDbCircle
 10
83.71
 20
213.8199999999999
 30
0.0
 40
2.539999999999964
100
AcDbArc
 50
270.0
 51
0.0000000000006821
  0
ENDSEC
  0
SECTION
  2
OBJECTS
  0
DICTIONARY
  5
1B7
330
0
100
AcDbDictionary
281
     1
  3
ACAD_GROUP
350
1B8
  3
ACAD_LAYOUT
350
1C4
  3
ACAD_MLINESTYLE
350
1C1
  3
ACAD_PLOTSETTINGS
350
1C3
  3
ACAD_PLOTSTYLENAME
350
1B9
  0
DICTIONARY
  5
1B8
102
{ACAD_REACTORS
330
1B7
102
}
330
1B7
100
AcDbDictionary
281
     1
  0
DICTIONARY
  5
1C4
102
{ACAD_REACTORS
330
1B7
102
}
330
1B7
100
AcDbDictionary
281
     1
  3
Model
350
1CC
  3
ﾚｲｱｳﾄ1
350
1C8
  0
DICTIONARY
  5
1C1
102
{ACAD_REACTORS
330
1B7
102
}
330
1B7
100
AcDbDictionary
281
     1
  3
Standard
350
1C2
  0
DICTIONARY
  5
1C3
102
{ACAD_REACTORS
330
1B7
102
}
330
1B7
100
AcDbDictionary
281
     1
  0
ACDBDICTIONARYWDFLT
  5
1B9
102
{ACAD_REACTORS
330
1B7
102
}
330
1B7
100
AcDbDictionary
281
     1
  3
Normal
350
1BA
100
AcDbDictionaryWithDefault
340
1BA
  0
LAYOUT
  5
1CC
102
{ACAD_REACTORS
330
1C4
102
}
330
1C4
100
AcDbPlotSettings
  1

  2
DocuPrint 255
  4

  6

 40
0.0
 41
0.0
 42
0.0
 43
0.0
 44
0.0
 45
0.0
 46
0.0
 47
0.0
 48
0.0
 49
0.0
140
0.0
141
0.0
142
1.0
143
1.0
 70
  1712
 72
     0
 73
     0
 74
     0
  7

 75
     0
147
1.0
148
0.0
149
0.0
100
AcDbLayout
  1
Model
 70
     1
 71
     0
 10
0.0
 20
0.0
 11
12.0
 21
9.0
 12
0.0
 22
0.0
 32
0.0
 14
0.0
 24
0.0
 34
0.0
 15
0.0
 25
0.0
 35
0.0
146
0.0
 13
0.0
 23
0.0
 33
0.0
 16
1.0
 26
0.0
 36
0.0
 17
0.0
 27
1.0
 37
0.0
 76
     0
330
1C9
  0
LAYOUT
  5
1C8
102
{ACAD_REACTORS
330
1C4
102
}
330
1C4
100
AcDbPlotSettings
  1

  2
DocuPrint 255
  4

  6

 40
0.0
 41
0.0
 42
0.0
 43
0.0
 44
0.0
 45
0.0
 46
0.0
 47
0.0
 48
0.0
 49
0.0
140
0.0
141
0.0
142
1.0
143
1.0
 70
   688
 72
     0
 73
     0
 74
     5
  7

 75
    16
147
1.0
148
0.0
149
0.0
100
AcDbLayout
  1
ﾚｲｱｳﾄ1
 70
     0
 71
     1
 10
0.0
 20
0.0
 11
12.0
 21
9.0
 12
0.0
 22
0.0
 32
0.0
 14
1.000000000000000E+20
 24
1.000000000000000E+20
 34
1.000000000000000E+20
 15
-1.000000000000000E+20
 25
-1.000000000000000E+20
 35
-1.000000000000000E+20
146
0.0
 13
0.0
 23
0.0
 33
0.0
 16
1.0
 26
0.0
 36
0.0
 17
0.0
 27
1.0
 37
0.0
 76
     0
330
1C5
  0
MLINESTYLE
  5
1C2
102
{ACAD_REACTORS
330
1C1
102
}
330
1C1
100
AcDbMlineStyle
  2
STANDARD
 70
     0
  3

 62
   256
 51
90.0
 52
90.0
 71
     2
 49
0.5
 62
   256
  6
BYLAYER
 49
-0.5
 62
   256
  6
BYLAYER
  0
ACDBPLACEHOLDER
  5
1BA
102
{ACAD_REACTORS
330
1B9
102
}
330
1B9
  0
ENDSEC
  0
EOF
