  0
SECTION
  2
HEADER
  9
$ACADVER
  1
AC1009
  9
$INSBASE
 10
0.0
 20
0.0
 30
0.0
  9
$EXTMIN
 10
-180.01097548933731
 20
-272.50946306821521
 30
-0.0015258207003583
  9
$EXTMAX
 10
180.01097716571769
 20
263.54814704457698
 30
0.0000000349246037
  9
$LIMMIN
 10
0.0
 20
0.0
  9
$LIMMAX
 10
0.0
 20
0.0
  9
$ORTHOMODE
 70
     0
  9
$REGENMODE
 70
     1
  9
$FILLMODE
 70
     1
  9
$QTEXTMODE
 70
     0
  9
$MIRRTEXT
 70
     1
  9
$DRAGMODE
 70
     2
  9
$LTSCALE
 40
10.16
  9
$OSMODE
 70
   231
  9
$ATTMODE
 70
     1
  9
$TEXTSIZE
 40
0.0
  9
$TRACEWID
 40
1.0
  9
$TEXTSTYLE
  7
STANDARD
  9
$CLAYER
  8
DATA
  9
$CELTYPE
  6
BYLAYER
  9
$CECOLOR
 62
   256
  9
$DIMSCALE
 40
1.0
  9
$DIMASZ
 40
0.18
  9
$DIMEXO
 40
0.0625
  9
$DIMDLI
 40
0.38
  9
$DIMRND
 40
0.0
  9
$DIMDLE
 40
0.0
  9
$DIMEXE
 40
0.18
  9
$DIMTP
 40
0.0
  9
$DIMTM
 40
0.0
  9
$DIMTXT
 40
0.18
  9
$DIMCEN
 40
0.09
  9
$DIMTSZ
 40
0.0
  9
$DIMTOL
 70
     0
  9
$DIMLIM
 70
     0
  9
$DIMTIH
 70
     1
  9
$DIMTOH
 70
     1
  9
$DIMSE1
 70
     0
  9
$DIMSE2
 70
     0
  9
$DIMTAD
 70
     0
  9
$DIMZIN
 70
     0
  9
$DIMBLK
  1

  9
$DIMASO
 70
     1
  9
$DIMSHO
 70
     1
  9
$DIMPOST
  1

  9
$DIMAPOST
  1

  9
$DIMALT
 70
     0
  9
$DIMALTD
 70
     2
  9
$DIMALTF
 40
25.399999999999999
  9
$DIMLFAC
 40
1.0
  9
$DIMTOFL
 70
     0
  9
$DIMTVP
 40
0.0
  9
$DIMTIX
 70
     0
  9
$DIMSOXD
 70
     0
  9
$DIMSAH
 70
     0
  9
$DIMBLK1
  1

  9
$DIMBLK2
  1

  9
$DIMSTYLE
  2
STANDARD
  9
$DIMCLRD
 70
     0
  9
$DIMCLRE
 70
     0
  9
$DIMCLRT
 70
     0
  9
$DIMTFAC
 40
1.0
  9
$DIMGAP
 40
0.09
  9
$LUNITS
 70
     2
  9
$LUPREC
 70
     4
  9
$SKETCHINC
 40
0.1
  9
$FILLETRAD
 40
0.0
  9
$AUNITS
 70
     0
  9
$AUPREC
 70
     0
  9
$MENU
  1
acad
  9
$ELEVATION
 40
0.0
  9
$PELEVATION
 40
0.0
  9
$THICKNESS
 40
0.0
  9
$LIMCHECK
 70
     0
  9
$BLIPMODE
 70
     0
  9
$CHAMFERA
 40
0.0
  9
$CHAMFERB
 40
0.0
  9
$SKPOLY
 70
     0
  9
$TDCREATE
 40
2456206.5672453712
  9
$TDUPDATE
 40
2456206.5733954171
  9
$TDINDWG
 40
0.0003096412
  9
$TDUSRTIMER
 40
0.000309456
  9
$USRTIMER
 70
     1
  9
$ANGBASE
 50
0.0
  9
$ANGDIR
 70
     0
  9
$PDMODE
 70
     1
  9
$PDSIZE
 40
-2.0
  9
$PLINEWID
 40
0.0
  9
$COORDS
 70
     2
  9
$SPLFRAME
 70
     0
  9
$SPLINETYPE
 70
     6
  9
$SPLINESEGS
 70
     8
  9
$ATTDIA
 70
     0
  9
$ATTREQ
 70
     1
  9
$HANDLING
 70
     1
  9
$HANDSEED
  5
38A
  9
$SURFTAB1
 70
     6
  9
$SURFTAB2
 70
     6
  9
$SURFTYPE
 70
     6
  9
$SURFU
 70
     6
  9
$SURFV
 70
     6
  9
$UCSNAME
  2

  9
$UCSORG
 10
0.0
 20
0.0
 30
0.0
  9
$UCSXDIR
 10
1.0
 20
0.0
 30
0.0
  9
$UCSYDIR
 10
0.0
 20
1.0
 30
0.0
  9
$PUCSNAME
  2

  9
$PUCSORG
 10
0.0
 20
0.0
 30
0.0
  9
$PUCSXDIR
 10
1.0
 20
0.0
 30
0.0
  9
$PUCSYDIR
 10
0.0
 20
1.0
 30
0.0
  9
$USERI1
 70
     0
  9
$USERI2
 70
     0
  9
$USERI3
 70
     0
  9
$USERI4
 70
     0
  9
$USERI5
 70
     0
  9
$USERR1
 40
0.0
  9
$USERR2
 40
0.0
  9
$USERR3
 40
0.0
  9
$USERR4
 40
0.0
  9
$USERR5
 40
0.0
  9
$WORLDVIEW
 70
     1
  9
$SHADEDGE
 70
     3
  9
$SHADEDIF
 70
    70
  9
$TILEMODE
 70
     1
  9
$MAXACTVP
 70
    64
  9
$PLIMCHECK
 70
     0
  9
$PEXTMIN
 10
1.0000000000000000E+020
 20
1.0000000000000000E+020
 30
1.0000000000000000E+020
  9
$PEXTMAX
 10
-1.0000000000000000E+020
 20
-1.0000000000000000E+020
 30
-1.0000000000000000E+020
  9
$PLIMMIN
 10
0.0
 20
0.0
  9
$PLIMMAX
 10
12.0
 20
9.0
  9
$UNITMODE
 70
     0
  9
$VISRETAIN
 70
     0
  9
$PLINEGEN
 70
     1
  9
$PSLTSCALE
 70
     0
  0
ENDSEC
  0
SECTION
  2
TABLES
  0
TABLE
  2
VPORT
 70
     1
  0
VPORT
  2
*ACTIVE
 70
     0
 10
0.0
 20
0.0
 11
1.0
 21
1.0
 12
0.0000008381902603
 22
-4.4806580118190587
 13
0.0
 23
0.0
 14
1.0
 24
1.0
 15
0.0
 25
0.0
 16
0.0
 26
0.0
 36
1.0
 17
0.0
 27
0.0
 37
0.0
 40
540.34036065963198
 41
2.2333333333333329
 42
50.0
 43
0.0
 44
0.0
 50
0.0
 51
0.0
 71
     0
 72
  2000
 73
     1
 74
     1
 75
     0
 76
     0
 77
     0
 78
     0
  0
ENDTAB
  0
TABLE
  2
LTYPE
 70
    12
  0
LTYPE
  2
CONTINUOUS
 70
     0
  3
Solid line
 72
    65
 73
     0
 40
0.0
  0
LTYPE
  2
PHANTOM2
 70
     0
  3
___ _ _ ___ _ _ ___ _ _ ___ _ _
 72
    65
 73
     6
 40
1.25
 49
0.625
 49
-0.125
 49
0.125
 49
-0.125
 49
0.125
 49
-0.125
  0
ENDTAB
  0
TABLE
  2
LAYER
 70
     5
  0
LAYER
  2
0
 70
     0
 62
     7
  6
CONTINUOUS
  0
LAYER
  2
DATA
 70
     0
 62
     7
  6
CONTINUOUS
  0
LAYER
  2
HIBINO-BASE
 70
     0
 62
     7
  6
CONTINUOUS
  0
LAYER
  2
SPEC
 70
     0
 62
     7
  6
CONTINUOUS
  0
LAYER
  2
DIMNSIONS
 70
     0
 62
     7
  6
CONTINUOUS
  0
ENDTAB
  0
TABLE
  2
STYLE
 70
     3
  0
STYLE
  2
STANDARD
 70
     0
 40
0.0
 41
1.0
 50
0.0
 71
     0
 42
0.0
  3
txt
  4
BIGFONT.SHX
  0
ENDTAB
  0
TABLE
  2
VIEW
 70
     0
  0
ENDTAB
  0
TABLE
  2
UCS
 70
     0
  0
ENDTAB
  0
TABLE
  2
APPID
 70
     4
  0
APPID
  2
ACAD
 70
     0
  0
APPID
  2
ACADANNOTATIVE
 70
     0
  0
APPID
  2
ACAD_NAV_VCDISPLAY
 70
     0
  0
APPID
  2
ACAD_MLEADERVER
 70
     0
  0
ENDTAB
  0
TABLE
  2
DIMSTYLE
 70
     2
  0
DIMSTYLE
  2
STANDARD
 70
     0
  3

  4

  5

  6

  7

 40
1.0
 41
0.18
 42
0.0625
 43
0.38
 44
0.18
 45
0.0
 46
0.0
 47
0.0
 48
0.0
140
0.18
141
0.09
142
0.0
143
25.399999999999999
144
1.0
145
0.0
146
1.0
147
0.09
 71
     0
 72
     0
 73
     1
 74
     1
 75
     0
 76
     0
 77
     0
 78
     0
170
     0
171
     2
172
     0
173
     0
174
     0
175
     0
176
     0
177
     0
178
     0
  0
ENDTAB
  0
ENDSEC
  0
SECTION
  2
BLOCKS
  0
BLOCK
  8
0
  2
$MODEL_SPACE
 70
     0
 10
0.0
 20
0.0
 30
0.0
  3
$MODEL_SPACE
  1

  0
ENDBLK
  5
2AB
  8
0
  0
BLOCK
 67
     1
  8
0
  2
$PAPER_SPACE
 70
     0
 10
0.0
 20
0.0
 30
0.0
  3
$PAPER_SPACE
  1

  0
ENDBLK
  5
2A7
 67
     1
  8
0
  0
ENDSEC
  0
SECTION
  2
ENTITIES
  0
LINE
  5
2C
  8
HIBINO-BASE
  6
CONTINUOUS
 62
     7
 10
-179.99999
 20
263.53181999999998
 30
0.0
 11
179.99999
 21
263.53181999999998
 31
0.0
  0
LINE
  5
2D
  8
HIBINO-BASE
  6
CONTINUOUS
 62
     7
 10
179.99999
 20
-256.46816999999999
 30
0.0
 11
-179.99999
 21
-256.46816999999999
 31
0.0
  0
LINE
  5
2E
  8
HIBINO-BASE
  6
CONTINUOUS
 62
     7
 10
-179.99999
 20
-256.46816999999999
 30
0.0
 11
-179.99999
 21
263.53181999999998
 31
0.0
  0
LINE
  5
2F
  8
HIBINO-BASE
  6
CONTINUOUS
 62
     7
 10
179.99999
 20
263.53181999999998
 30
0.0
 11
179.99999
 21
-256.46816999999999
 31
0.0
  0
LINE
  5
30
  8
HIBINO-BASE
  6
CONTINUOUS
 62
     7
 10
0.0
 20
-211.46817999999999
 30
0.0
 11
179.99999
 21
-211.46817999999999
 31
0.0
  0
LINE
  5
31
  8
HIBINO-BASE
  6
CONTINUOUS
 62
     7
 10
0.0
 20
-256.46816999999999
 30
0.0
 11
0.0
 21
-211.46817999999999
 31
0.0
  0
TEXT
  5
32
  8
HIBINO-BASE
 62
     7
 10
1.799979999999999
 20
-216.86818640000001
 30
0.0
 40
3.6000518750000001
  1
NOTE
 41
0.7
 11
1.799979999999999
 21
-213.26813452499999
 31
0.0
 73
     3
  0
LINE
  5
33
  8
HIBINO-BASE
  6
CONTINUOUS
 62
     7
 10
70.0
 20
-256.46816999999999
 30
0.0
 11
70.0
 21
-211.46817999999999
 31
0.0
  0
TEXT
  5
34
  8
HIBINO-BASE
 62
     7
 10
71.799999999999983
 20
-216.86818640000001
 30
0.0
 40
3.6000518750000001
  1
TITLE
 41
0.7
 11
71.799999999999983
 21
-213.26813452499999
 31
0.0
 73
     3
  0
LINE
  5
35
  8
HIBINO-BASE
  6
CONTINUOUS
 62
     7
 10
0.0
 20
-236.46817999999999
 30
0.0
 11
179.99999
 21
-236.46817999999999
 31
0.0
  0
TEXT
  5
36
  8
HIBINO-BASE
 62
     7
 10
96.799999999999983
 20
-241.75552640000001
 30
0.0
 40
3.6000518750000001
  1
DRAWN
 41
0.7
 11
96.799999999999983
 21
-238.15547452499999
 31
0.0
 73
     3
  0
TEXT
  5
37
  8
HIBINO-BASE
 62
     7
 10
46.79999999999999
 20
-241.75552640000001
 30
0.0
 40
3.6000518750000001
  1
DATE
 41
0.7
 11
46.79999999999999
 21
-238.15547452499999
 31
0.0
 73
     3
  0
TEXT
  5
38
  8
HIBINO-BASE
 62
     7
 10
2.19998
 20
-241.70706519999999
 30
0.0
 40
3.2576720312499998
  1
図面サイズ
 41
0.7
 11
2.19998
 21
-238.44939316874999
 31
0.0
 73
     3
  0
TEXT
  5
39
  8
HIBINO-BASE
 62
     7
 10
26.799980000000001
 20
-241.75552640000001
 30
0.0
 40
3.6000518750000001
  1
SCALE
 41
0.7
 11
26.799980000000001
 21
-238.15547452499999
 31
0.0
 73
     3
  0
TEXT
  5
3A
  8
HIBINO-BASE
 62
     7
 10
71.799999999999983
 20
-241.75552640000001
 30
0.0
 40
3.6000518750000001
  1
DESIGN
 41
0.7
 11
71.799999999999983
 21
-238.15547452499999
 31
0.0
 73
     3
  0
TEXT
  5
3B
  8
HIBINO-BASE
 62
     7
 10
146.79997999999989
 20
-241.75552640000001
 30
0.0
 40
3.6000518750000001
  1
DRAWING NO.
 41
0.7
 11
146.79997999999989
 21
-238.15547452499999
 31
0.0
 73
     3
  0
TEXT
  5
3C
  8
HIBINO-BASE
 62
     7
 10
121.79998999999999
 20
-241.75552640000001
 30
0.0
 40
3.6000518750000001
  1
CHECK
 41
0.7
 11
121.79998999999999
 21
-238.15547452499999
 31
0.0
 73
     3
  0
LINE
  5
3D
  8
HIBINO-BASE
  6
CONTINUOUS
 62
     7
 10
28.749980000000001
 20
-253.96817999999999
 30
0.0
 11
36.25
 21
-246.46817999999999
 31
0.0
  0
TEXT
  5
3E
  8
HIBINO-BASE
 62
     7
 10
27.499980000000001
 20
-249.8995984
 30
0.0
 40
4.3435729687500002
  1
1
 41
0.7
 11
27.499980000000001
 21
-245.55602543124999
 31
0.0
 73
     3
  0
LINE
  5
3F
  8
HIBINO-BASE
  6
CONTINUOUS
 62
     7
 10
24.999980000000001
 20
-256.46816999999999
 30
0.0
 11
24.999980000000001
 21
-236.46817999999999
 31
0.0
  0
LINE
  5
40
  8
HIBINO-BASE
  6
CONTINUOUS
 62
     7
 10
44.99998999999999
 20
-256.46816999999999
 30
0.0
 11
44.99998999999999
 21
-236.46817999999999
 31
0.0
  0
LINE
  5
41
  8
HIBINO-BASE
  6
CONTINUOUS
 62
     7
 10
94.999989999999997
 20
-236.46817999999999
 30
0.0
 11
94.999989999999997
 21
-256.46816999999999
 31
0.0
  0
LINE
  5
42
  8
HIBINO-BASE
  6
CONTINUOUS
 62
     7
 10
145.0
 20
-236.46817999999999
 30
0.0
 11
145.0
 21
-256.46816999999999
 31
0.0
  0
LINE
  5
43
  8
HIBINO-BASE
  6
CONTINUOUS
 62
     7
 10
119.99997999999999
 20
-256.46816999999999
 30
0.0
 11
119.99997999999999
 21
-236.46817999999999
 31
0.0
  0
TEXT
  5
44
  8
HIBINO-BASE
 62
     7
 10
7.8217799999999977
 20
-251.47123899999991
 30
0.0
 40
6.5153517578124989
  1
A4
 41
0.7
 11
7.8217799999999977
 21
-244.9558872421874
 31
0.0
 73
     3
  0
TEXT
  5
45
  8
HIBINO-BASE
 62
     7
 10
46.713079999999991
 20
-251.12348639999999
 30
0.0
 40
3.6000518750000001
  1
'12.10.
 41
0.7
 11
46.713079999999991
 21
-247.523434525
 31
0.0
 73
     3
  0
TEXT
  5
46
  8
HIBINO-BASE
 62
     7
 10
35.0
 20
-253.6495984
 30
0.0
 40
4.3435729687500002
  1
2
 41
0.7
 11
35.0
 21
-249.30602543124999
 31
0.0
 73
     3
  0
TEXT
  5
47
  8
HIBINO-BASE
 62
     7
 10
99.12784600574669
 20
-250.5755159698497
 30
0.0
 40
3.6000518750000001
  1
Ootake
 41
0.7
 11
99.12784600574669
 21
-246.97546409484971
 31
0.0
 73
     3
  0
TEXT
  5
48
  8
HIBINO-BASE
 62
     7
 10
-165.8305234669732
 20
-270.14785046751672
 30
0.0
 40
7.0583116319444441
  1
Hibino-Intersound Corporation
 41
0.7
 11
-165.8305234669732
 21
-263.08953883557228
 31
0.0
 73
     3
  0
TEXT
  5
49
  8
HIBINO-BASE
 62
     7
 10
28.16277785839128
 20
-268.92933985620181
 30
0.0
 40
7.0583116319444441
  1
ヒビノインターサウンド株式会社
 41
0.7
 11
28.16277785839128
 21
-261.87102822425737
 31
0.0
 73
     3
  0
LINE
  5
4A
  8
SPEC
  6
CONTINUOUS
 62
     7
 10
-164.99999
 20
243.53182000000001
 30
0.0
 11
130.0
 21
243.53182000000001
 31
0.0
  0
LINE
  5
4B
  8
SPEC
  6
CONTINUOUS
 62
     7
 10
-164.99999
 20
243.53182000000001
 30
0.0
 11
-164.99999
 21
153.5318199999999
 31
0.0
  0
LINE
  5
4C
  8
SPEC
  6
CONTINUOUS
 62
     7
 10
-99.999989999999997
 20
243.53182000000001
 30
0.0
 11
-99.999989999999997
 21
161.0318199999999
 31
0.0
  0
LINE
  5
4D
  8
SPEC
  6
CONTINUOUS
 62
     7
 10
130.0
 20
243.53182000000001
 30
0.0
 11
130.0
 21
153.5318199999999
 31
0.0
  0
TEXT
  5
4E
  8
SPEC
 62
     7
 10
-163.27652562404131
 20
222.79557151288381
 30
0.0
 40
3.8006293402777769
  1
指向特性
 41
0.7
 11
-163.27652562404131
 21
226.59620085316149
 31
0.0
 73
     3
  0
TEXT
  5
4F
  8
SPEC
 62
     7
 10
-98.570138791501236
 20
223.1228178985173
 30
0.0
 40
3.8006293402777769
  1
カーディオイド
 41
0.7
 11
-98.570138791501236
 21
226.92344723879501
 31
0.0
 73
     3
  0
LINE
  5
50
  8
SPEC
  6
CONTINUOUS
 62
     7
 10
-164.99999
 20
236.03182000000001
 30
0.0
 11
130.0
 21
236.03182000000001
 31
0.0
  0
TEXT
  5
51
  8
SPEC
 62
     7
 10
-163.28892010765199
 20
237.78732434189141
 30
0.0
 40
3.8006293402777769
  1
形式
 41
0.7
 11
-163.28892010765199
 21
241.58795368216909
 31
0.0
 73
     3
  0
LINE
  5
52
  8
SPEC
  6
CONTINUOUS
 62
     7
 10
-164.99999
 20
228.53182000000001
 30
0.0
 11
130.0
 21
228.53182000000001
 31
0.0
  0
TEXT
  5
53
  8
SPEC
 62
     7
 10
-163.2959700460859
 20
230.26725956754271
 30
0.0
 40
3.8006293402777769
  1
周波数特性
 41
0.7
 11
-163.2959700460859
 21
234.06788890782039
 31
0.0
 73
     3
  0
TEXT
  5
54
  8
SPEC
 62
     7
 10
-98.181842400963063
 20
230.4630488703734
 30
0.0
 40
3.8006293402777769
  1
20Hz～20kHz
 41
0.7
 11
-98.181842400963063
 21
234.26367821065119
 31
0.0
 73
     3
  0
LINE
  5
55
  8
SPEC
  6
CONTINUOUS
 62
     7
 10
-164.99999
 20
213.53182000000001
 30
0.0
 11
130.0
 21
213.53182000000001
 31
0.0
  0
LINE
  5
56
  8
SPEC
  6
CONTINUOUS
 62
     7
 10
-164.99999
 20
206.03182000000001
 30
0.0
 11
130.0
 21
206.03182000000001
 31
0.0
  0
TEXT
  5
57
  8
SPEC
 62
     7
 10
-163.50916671427689
 20
185.37177080563299
 30
0.0
 40
3.8006293402777769
  1
出力コネクター
 41
0.7
 11
-163.50916671427689
 21
189.17240014591081
 31
0.0
 73
     3
  0
TEXT
  5
58
  8
SPEC
 62
     7
 10
-98.169585265149053
 20
185.52385765956871
 30
0.0
 40
3.8006293402777769
  1
Micr oDot
 41
0.7
 11
-98.169585265149053
 21
189.3244869998465
 31
0.0
 73
     3
  0
LINE
  5
59
  8
SPEC
  6
CONTINUOUS
 62
     7
 10
-164.99999
 20
198.53182000000001
 30
0.0
 11
130.0
 21
198.53182000000001
 31
0.0
  0
LINE
  5
5A
  8
SPEC
  6
CONTINUOUS
 62
     7
 10
-164.99999
 20
183.53182000000001
 30
0.0
 11
130.0
 21
183.53182000000001
 31
0.0
  0
TEXT
  5
5B
  8
SPEC
 62
     7
 10
-162.49999
 20
246.31834000000001
 30
0.0
 40
4.8865234375000002
  1
仕様
 41
0.7
 11
-162.49999
 21
251.20486343749999
 31
0.0
 73
     3
  0
TEXT
  5
5C
  8
SPEC
 62
     7
 10
-163.4431559047602
 20
170.63395093420371
 30
0.0
 40
3.8006293402777769
  1
ケーブル長
 41
0.7
 11
-163.4431559047602
 21
174.4345802744815
 31
0.0
 73
     3
  0
TEXT
  5
5D
  8
SPEC
 62
     7
 10
-98.379769761220345
 20
170.58635643454619
 30
0.0
 40
3.8006293402777769
  1
1.3m
 41
0.7
 11
-98.379769761220345
 21
174.38698577482401
 31
0.0
 73
     3
  0
TEXT
  5
5E
  8
SPEC
 62
     7
 10
-163.3597434818349
 20
162.9997221559592
 30
0.0
 40
3.8006293402777769
  1
質量
 41
0.7
 11
-163.3597434818349
 21
166.800351496237
 31
0.0
 73
     3
  0
LINE
  5
5F
  8
SPEC
  6
CONTINUOUS
 62
     7
 10
-164.99999
 20
221.03182000000001
 30
0.0
 11
130.0
 21
221.03182000000001
 31
0.0
  0
LINE
  5
60
  8
SPEC
  6
CONTINUOUS
 62
     7
 10
-164.99999
 20
191.03182000000001
 30
0.0
 11
130.0
 21
191.03182000000001
 31
0.0
  0
LINE
  5
61
  8
SPEC
  6
CONTINUOUS
 62
     7
 10
-164.99999
 20
176.0318199999999
 30
0.0
 11
130.0
 21
176.0318199999999
 31
0.0
  0
LINE
  5
62
  8
SPEC
  6
CONTINUOUS
 62
     7
 10
-164.99999
 20
168.5318199999999
 30
0.0
 11
130.0
 21
168.5318199999999
 31
0.0
  0
LINE
  5
63
  8
SPEC
  6
CONTINUOUS
 62
     7
 10
-164.99999
 20
161.0318199999999
 30
0.0
 11
130.0
 21
161.0318199999999
 31
0.0
  0
TEXT
  5
64
  8
SPEC
 62
     7
 10
-163.27670439874839
 20
215.39202086092629
 30
0.0
 40
3.8006293402777769
  1
感度
 41
0.7
 11
-163.27670439874839
 21
219.192650201204
 31
0.0
 73
     3
  0
TEXT
  5
65
  8
SPEC
 62
     7
 10
-98.173923426229294
 20
215.3259173719662
 30
0.0
 40
3.8006293402777769
  1
6mV/Pa、-44dB re、1V/Pa(\U+00B13dB@1kHz)
 41
0.7
 11
-98.173923426229294
 21
219.12654671224391
 31
0.0
 73
     3
  0
TEXT
  5
66
  8
SPEC
 62
     7
 10
-163.46301125730031
 20
208.15171506257039
 30
0.0
 40
3.8006293402777769
  1
インピーダンス
 41
0.7
 11
-163.46301125730031
 21
211.9523444028481
 31
0.0
 73
     3
  0
TEXT
  5
67
  8
SPEC
 62
     7
 10
-98.206186554104136
 20
207.9734807106328
 30
0.0
 40
3.8006293402777769
  1
30～40\U+03A9(Micro Dotコネクター使用時)、100\U+03A9(DAD6001BC使用時)
 41
0.7
 11
-98.206186554104136
 21
211.77411005091059
 31
0.0
 73
     3
  0
TEXT
  5
68
  8
SPEC
 62
     7
 10
-163.27714946995059
 20
200.34286084142519
 30
0.0
 40
3.8006293402777769
  1
等価雑音レベル
 41
0.7
 11
-163.27714946995059
 21
204.1434901817029
 31
0.0
 73
     3
  0
TEXT
  5
69
  8
SPEC
 62
     7
 10
-98.21293501886268
 20
200.26689340641491
 30
0.0
 40
3.8006293402777769
  1
28dB SPL
 41
0.7
 11
-98.21293501886268
 21
204.06752274669259
 31
0.0
 73
     3
  0
TEXT
  5
6A
  8
SPEC
 62
     7
 10
-163.1822410291141
 20
193.01849946861219
 30
0.0
 40
3.8006293402777769
  1
最大音圧レベル
 41
0.7
 11
-163.1822410291141
 21
196.81912880889001
 31
0.0
 73
     3
  0
TEXT
  5
6B
  8
SPEC
 62
     7
 10
-98.481057948366356
 20
193.07756744682811
 30
0.0
 40
3.8006293402777769
  1
144dB
 41
0.7
 11
-98.481057948366356
 21
196.87819678710579
 31
0.0
 73
     3
  0
TEXT
  5
6C
  8
SPEC
 62
     7
 10
-163.3649968690508
 20
177.9488554170205
 30
0.0
 40
3.8006293402777769
  1
電源
 41
0.7
 11
-163.3649968690508
 21
181.74948475729821
 31
0.0
 73
     3
  0
TEXT
  5
6D
  8
SPEC
 62
     7
 10
-98.240875957099206
 20
177.8306475951639
 30
0.0
 40
3.8006293402777769
  1
DC48V/5mA(ファンタム)、DC5V～50V(ワイヤレスシステムでの使用時)
 41
0.7
 11
-98.240875957099206
 21
181.63127693544169
 31
0.0
 73
     3
  0
LINE
  5
6E
  8
SPEC
  6
CONTINUOUS
 62
     7
 10
-164.99999
 20
153.5318199999999
 30
0.0
 11
130.0
 21
153.5318199999999
 31
0.0
  0
TEXT
  5
6F
  8
SPEC
 62
     7
 10
-163.2572245777024
 20
155.34834009882621
 30
0.0
 40
3.8006293402777769
  1
FIDF00(ベージュ)、FIDB00(黒)、FIDC00(茶)、FIDLLB00(ライムグリーン)
 41
0.7
 11
-163.2572245777024
 21
159.14896943910401
 31
0.0
 73
     3
  0
TEXT
  5
70
  8
SPEC
 62
     7
 10
-98.199857781670161
 20
163.0013454954632
 30
0.0
 40
3.8006293402777769
  1
8.5g(含むケーブル、コネクタ ー）
 41
0.7
 11
-98.199857781670161
 21
166.80197483574091
 31
0.0
 73
     3
  0
TEXT
  5
71
  8
SPEC
 62
     7
 10
-98.753493342503873
 20
237.9604928158524
 30
0.0
 40
3.8006293402777769
  1
プリポラライズド・コンデンサー型 
 41
0.7
 11
-98.753493342503873
 21
241.7611221561302
 31
0.0
 73
     3
  0
TEXT
  5
72
  8
DIMNSIONS
 62
     7
 10
-40.0
 20
-231.92919000000001
 30
0.0
 40
4.8865234375000002
  1
(単位：mm)
 41
0.7
 11
-40.0
 21
-227.04266656249999
 31
0.0
 73
     3
  0
LINE
  5
73
  8
DIMNSIONS
  6
CONTINUOUS
 62
     7
 10
117.99343569725799
 20
78.536738043117282
 30
0.0
 11
124.6788884733006
 21
81.786534951718238
 31
0.0
  0
LINE
  5
74
  8
DIMNSIONS
  6
CONTINUOUS
 62
     7
 10
117.99343569725799
 20
78.536738043117282
 30
0.0
 11
123.0294147356213
 21
82.762426196824435
 31
0.0
  0
LINE
  5
75
  8
DIMNSIONS
  6
CONTINUOUS
 62
     7
 10
117.99343569725799
 20
78.536738043117282
 30
0.0
 11
124.4675655542601
 21
79.678301813516995
 31
0.0
  0
LINE
  5
76
  8
DIMNSIONS
  6
CONTINUOUS
 62
     7
 10
124.6788884733006
 20
81.786534951718238
 30
0.0
 11
154.31777736479719
 21
81.786534951718238
 31
0.0
  0
TEXT
  5
77
  8
DIMNSIONS
 62
     7
 10
136.67888847590831
 20
83.274312729496032
 30
0.0
 40
5.4294704861111107
  1
\U+03C65.8
 41
0.7
 11
136.67888847590831
 21
88.703783215607146
 31
0.0
 73
     3
  0
LINE
  5
78
  8
DIMNSIONS
  6
CONTINUOUS
 62
     7
 10
-65.698998856219603
 20
-194.8735396952523
 30
0.0
 11
-52.349579924544898
 21
-210.0
 31
0.0
  0
LINE
  5
79
  8
DIMNSIONS
  6
CONTINUOUS
 62
     7
 10
-65.698998856219603
 20
-194.8735396952523
 30
0.0
 11
-60.185575401218529
 21
-198.45399875144321
 31
0.0
  0
LINE
  5
7A
  8
DIMNSIONS
  6
CONTINUOUS
 62
     7
 10
-65.698998856219603
 20
-194.8735396952523
 30
0.0
 11
-62.714463610463177
 21
-200.7310199226242
 31
0.0
  0
LINE
  5
7B
  8
DIMNSIONS
  6
CONTINUOUS
 62
     7
 10
-52.349579924544898
 20
-210.0
 30
0.0
 11
-26.23846746508567
 21
-210.0
 31
0.0
  0
TEXT
  5
7C
  8
DIMNSIONS
 62
     7
 10
-40.349579921937213
 20
-207.01222217079669
 30
0.0
 40
5.4294708097328099
  1
\U+03C613
 41
0.7
 11
-40.349579921937213
 21
-201.58275136106391
 31
0.0
 73
     3
  0
LINE
  5
7D
  8
DIMNSIONS
  6
CONTINUOUS
 62
     7
 10
104.4954114072565
 20
70.368903180764406
 30
0.0
 11
104.4954114072565
 21
51.000000014901161
 31
0.0
  0
LINE
  5
7E
  8
DIMNSIONS
  6
CONTINUOUS
 62
     7
 10
104.4954114072565
 20
55.0
 30
0.0
 11
-30.0
 21
55.0
 31
0.0
  0
LINE
  5
7F
  8
DIMNSIONS
  6
CONTINUOUS
 62
     7
 10
104.4954114072565
 20
55.0
 30
0.0
 11
98.145411407256503
 21
53.298522628062372
 31
0.0
  0
LINE
  5
80
  8
DIMNSIONS
  6
CONTINUOUS
 62
     7
 10
104.4954114072565
 20
55.0
 30
0.0
 11
98.145411407256503
 21
56.701477371937621
 31
0.0
  0
LINE
  5
81
  8
DIMNSIONS
  6
CONTINUOUS
 62
     7
 10
-45.0
 20
-5.7470677273860318
 30
0.0
 11
-45.0
 21
40.0
 31
0.0
  0
LINE
  5
82
  8
DIMNSIONS
  6
CONTINUOUS
 62
     7
 10
-45.0
 20
-5.7470677273860318
 30
0.0
 11
-46.701477371937621
 21
0.6029322726139671
 31
0.0
  0
LINE
  5
83
  8
DIMNSIONS
  6
CONTINUOUS
 62
     7
 10
-45.0
 20
-5.7470677273860318
 30
0.0
 11
-43.298522628062372
 21
0.6029322726139671
 31
0.0
  0
ARC
  5
84
  8
DIMNSIONS
  6
CONTINUOUS
 62
     7
 10
-30.0
 20
40.0
 30
0.0
 40
15.0
 50
90.0
 51
180.0
  0
LINE
  5
85
  8
DIMNSIONS
  6
CONTINUOUS
 62
     7
 10
-75.499999985098853
 20
-166.99999999996771
 30
0.0
 11
-123.9999999850988
 21
-166.99999999996771
 31
0.0
  0
LINE
  5
86
  8
DIMNSIONS
  6
CONTINUOUS
 62
     7
 10
-77.999999985098853
 20
3.0
 30
0.0
 11
-123.9999999850988
 21
3.0
 31
0.0
  0
LINE
  5
87
  8
DIMNSIONS
  6
CONTINUOUS
 62
     7
 10
-120.0
 20
-166.99999999996771
 30
0.0
 11
-120.0
 21
3.0
 31
0.0
  0
LINE
  5
88
  8
DIMNSIONS
  6
CONTINUOUS
 62
     7
 10
-120.0
 20
-166.99999999996771
 30
0.0
 11
-121.7014773719376
 21
-160.64999999996769
 31
0.0
  0
LINE
  5
89
  8
DIMNSIONS
  6
CONTINUOUS
 62
     7
 10
-120.0
 20
-166.99999999996771
 30
0.0
 11
-118.2985226280623
 21
-160.64999999996769
 31
0.0
  0
LINE
  5
8A
  8
DIMNSIONS
  6
CONTINUOUS
 62
     7
 10
-120.0
 20
3.0
 30
0.0
 11
-118.2985226280623
 21
-3.3500000000000001
 31
0.0
  0
LINE
  5
8B
  8
DIMNSIONS
  6
CONTINUOUS
 62
     7
 10
-120.0
 20
3.0
 30
0.0
 11
-121.7014773719376
 21
-3.3500000000000001
 31
0.0
  0
TEXT
  5
8C
  8
DIMNSIONS
 62
     7
 10
-122.9877778439224
 20
-87.291667003085635
 30
0.0
 40
5.429470890638239
  1
170
 50
90.0
 41
0.7
 11
-128.41724873456059
 21
-87.291667003085635
 31
0.0
 73
     3
  0
LINE
  5
8D
  8
DIMNSIONS
  6
CONTINUOUS
 62
     7
 10
86.718228748131565
 20
-136.99999999998579
 30
0.0
 11
36.000000014901161
 21
-136.99999999998579
 31
0.0
  0
LINE
  5
8E
  8
DIMNSIONS
  6
CONTINUOUS
 62
     7
 10
82.000000014901147
 20
3.0
 30
0.0
 11
36.000000014901161
 21
3.0
 31
0.0
  0
LINE
  5
8F
  8
DIMNSIONS
  6
CONTINUOUS
 62
     7
 10
40.0
 20
-136.99999999998579
 30
0.0
 11
40.0
 21
3.0
 31
0.0
  0
LINE
  5
90
  8
DIMNSIONS
  6
CONTINUOUS
 62
     7
 10
40.0
 20
-136.99999999998579
 30
0.0
 11
38.298522628062372
 21
-130.64999999998579
 31
0.0
  0
LINE
  5
91
  8
DIMNSIONS
  6
CONTINUOUS
 62
     7
 10
40.0
 20
-136.99999999998579
 30
0.0
 11
41.701477371937621
 21
-130.64999999998579
 31
0.0
  0
LINE
  5
92
  8
DIMNSIONS
  6
CONTINUOUS
 62
     7
 10
40.0
 20
3.0
 30
0.0
 11
41.701477371937621
 21
-3.3500000000000001
 31
0.0
  0
LINE
  5
93
  8
DIMNSIONS
  6
CONTINUOUS
 62
     7
 10
40.0
 20
3.0
 30
0.0
 11
38.298522628062372
 21
-3.3500000000000001
 31
0.0
  0
TEXT
  5
94
  8
DIMNSIONS
 62
     7
 10
37.012222156077613
 20
-72.291667003094702
 30
0.0
 40
5.429470890638239
  1
140
 50
90.0
 41
0.7
 11
31.582751265439381
 21
-72.291667003094702
 31
0.0
 73
     3
  0
LINE
  5
95
  8
DIMNSIONS
  6
CONTINUOUS
 62
     7
 10
-62.455026144244592
 20
-5.7470677273860318
 30
0.0
 11
-41.075682267618369
 21
-5.7470677273860318
 31
0.0
  0
LINE
  5
96
  8
DIMNSIONS
  6
CONTINUOUS
 62
     7
 10
-79.499999970197663
 20
-166.99999999996771
 30
0.0
 11
-103.9999999850988
 21
-166.99999999996771
 31
0.0
  0
LINE
  5
97
  8
DIMNSIONS
  6
CONTINUOUS
 62
     7
 10
-74.749999985098853
 20
-46.999999999967677
 30
0.0
 11
-103.9999999850988
 21
-46.999999999967677
 31
0.0
  0
LINE
  5
98
  8
DIMNSIONS
  6
CONTINUOUS
 62
     7
 10
-100.0
 20
-166.99999999996771
 30
0.0
 11
-100.0
 21
-46.999999999967677
 31
0.0
  0
LINE
  5
99
  8
DIMNSIONS
  6
CONTINUOUS
 62
     7
 10
-100.0
 20
-166.99999999996771
 30
0.0
 11
-101.7014773719376
 21
-160.64999999996769
 31
0.0
  0
LINE
  5
9A
  8
DIMNSIONS
  6
CONTINUOUS
 62
     7
 10
-100.0
 20
-166.99999999996771
 30
0.0
 11
-98.298522628062358
 21
-160.64999999996769
 31
0.0
  0
LINE
  5
9B
  8
DIMNSIONS
  6
CONTINUOUS
 62
     7
 10
-100.0
 20
-46.999999999967677
 30
0.0
 11
-98.298522628062358
 21
-53.349999999967693
 31
0.0
  0
LINE
  5
9C
  8
DIMNSIONS
  6
CONTINUOUS
 62
     7
 10
-100.0
 20
-46.999999999967677
 30
0.0
 11
-101.7014773719376
 21
-53.349999999967693
 31
0.0
  0
TEXT
  5
9D
  8
DIMNSIONS
 62
     7
 10
-102.98777785864139
 20
-112.29166700306941
 30
0.0
 40
5.4294709715436644
  1
120
 50
90.0
 41
0.7
 11
-108.4172488301851
 21
-112.29166700306941
 31
0.0
 73
     3
  0
TEXT
  5
9E
  8
DIMNSIONS
 62
     7
 10
10.0
 20
56.932627980586382
 30
0.0
 40
5.4294708097328099
  1
1.3m
 41
0.7
 11
10.0
 21
59.647363385452792
 31
0.0
 73
     2
  0
TEXT
  5
9F
  8
DATA
 62
     7
 10
76.636691247124304
 20
-235.03876419351329
 30
0.0
 40
4.8865234375000002
  1
FIDF00/FIDB00/FIDC00/FIDLLB00
 41
0.7
 11
76.636691247124304
 21
-230.1522407560133
 31
0.0
 73
     3
  0
TEXT
  5
A0
  8
DATA
 62
     7
 10
94.274724553315565
 20
-217.63726475650481
 30
0.0
 40
4.8865234375000002
  1
DPA
 41
0.7
 11
94.274724553315565
 21
-212.75074131900479
 31
0.0
 73
     3
  0
LINE
  5
A1
  8
DATA
  6
CONTINUOUS
 62
     7
 10
-74.000000000000014
 20
3.0
 30
0.0
 11
-70.0
 21
3.0
 31
0.0
  0
LINE
  5
A2
  8
DATA
  6
CONTINUOUS
 62
     7
 10
-72.700000000000003
 20
-164.66555381559999
 30
0.0
 11
-72.700000000000003
 21
-162.66555381559999
 31
0.0
  0
LINE
  5
A3
  8
DATA
  6
CONTINUOUS
 62
     7
 10
-67.300000000000011
 20
-164.66555381559999
 30
0.0
 11
-72.700000000000003
 21
-164.66555381559999
 31
0.0
  0
LINE
  5
A4
  8
DATA
  6
CONTINUOUS
 62
     7
 10
-67.300000000000011
 20
-162.66555381559999
 30
0.0
 11
-67.300000000000011
 21
-164.66555381559999
 31
0.0
  0
LINE
  5
A5
  8
DATA
  6
CONTINUOUS
 62
     7
 10
-72.700000000000003
 20
-162.66555381559999
 30
0.0
 11
-71.5
 21
-162.66555381559999
 31
0.0
  0
LINE
  5
A6
  8
DATA
  6
CONTINUOUS
 62
     7
 10
-68.5
 20
-162.66555381559999
 30
0.0
 11
-67.300000000000011
 21
-162.66555381559999
 31
0.0
  0
LINE
  5
A7
  8
DATA
  6
CONTINUOUS
 62
     7
 10
-72.59999999999998
 20
-162.66555381559999
 30
0.0
 11
-72.59999999999998
 21
-159.30180764191431
 31
0.0
  0
LINE
  5
A8
  8
DATA
  6
CONTINUOUS
 62
     7
 10
-69.099999999999994
 20
-154.66555381559999
 30
0.0
 11
-70.90000000000002
 21
-154.66555381559999
 31
0.0
  0
ARC
  5
A9
  8
DATA
  6
CONTINUOUS
 62
     7
 10
-79.639103257741468
 20
-153.31268493105989
 30
0.0
 40
8.8431996453899089
 50
326.47236921403731
 51
351.20010102294691
  0
ARC
  5
AA
  8
DATA
  6
CONTINUOUS
 62
     7
 10
-70.600000000000051
 20
-159.30180764191431
 30
0.0
 40
1.9999999999999709
 50
146.472369214037
 51
180.0
  0
ARC
  5
AB
  8
DATA
  6
CONTINUOUS
 62
     7
 10
-60.360896742258532
 20
-153.31268493105989
 30
0.0
 40
8.8431996453899089
 50
188.799898977053
 51
213.52763078596271
  0
ARC
  5
AC
  8
DATA
  6
CONTINUOUS
 62
     7
 10
-69.399999999999963
 20
-159.30180764191431
 30
0.0
 40
1.9999999999999569
 50
0.0
 51
33.527630785962977
  0
LINE
  5
AD
  8
DATA
  6
CONTINUOUS
 62
     7
 10
-67.400000000000006
 20
-159.30555381560001
 30
0.0
 11
-67.406293571792091
 21
-162.66555381559999
 31
0.0
  0
LINE
  5
AE
  8
DATA
  6
CONTINUOUS
 62
     7
 10
-70.599999999999994
 20
-154.66555381559999
 30
0.0
 11
-70.599999999999994
 21
-130.09999999999999
 31
0.0
  0
LINE
  5
AF
  8
DATA
  6
CONTINUOUS
 62
     7
 10
-70.599999999999994
 20
-129.90000000000001
 30
0.0
 11
-70.599999999999994
 21
-46.999999999967677
 31
0.0
  0
LINE
  5
B0
  8
DATA
  6
CONTINUOUS
 62
     7
 10
-69.399999999999991
 20
-46.999999999967677
 30
0.0
 11
-69.399999999999991
 21
-129.89999999999989
 31
0.0
  0
LINE
  5
B1
  8
DATA
  6
CONTINUOUS
 62
     7
 10
-69.399999999999991
 20
-130.09999999999991
 30
0.0
 11
-69.399999999999991
 21
-154.66555381559999
 31
0.0
  0
LINE
  5
B2
  8
DATA
  6
CONTINUOUS
 62
     7
 10
-70.144999999999968
 20
-158.66555381559999
 30
0.0
 11
-69.854999999999961
 21
-158.66555381559999
 31
0.0
  0
POLYLINE
  5
B3
  8
DATA
  6
CONTINUOUS
 62
     7
 66
     1
 10
0.0
 20
0.0
 30
0.0
  0
VERTEX
  5
2DB
  8
DATA
  6
CONTINUOUS
 62
     7
 10
-68.5
 20
-160.78442734720889
 30
0.0
  0
VERTEX
  5
2DC
  8
DATA
  6
CONTINUOUS
 62
     7
 10
-68.5
 20
-164.66555381559999
 30
0.0
  0
VERTEX
  5
2DD
  8
DATA
  6
CONTINUOUS
 62
     7
 10
-71.5
 20
-164.66555381559999
 30
0.0
  0
VERTEX
  5
2DE
  8
DATA
  6
CONTINUOUS
 62
     7
 10
-71.5
 20
-160.78442734720889
 30
0.0
  0
SEQEND
  5
2DF
  8
DATA
  6
CONTINUOUS
 62
     7
  0
ARC
  5
BA
  8
DATA
  6
CONTINUOUS
 62
     7
 10
-68.756478230460857
 20
-160.85499058140431
 30
0.0
 40
2.7444290608349511
 50
140.6797186864664
 51
181.47331958854701
  0
ARC
  5
BB
  8
DATA
  6
CONTINUOUS
 62
     7
 10
-69.842112669711284
 20
-159.9838229309868
 30
0.0
 40
1.3526175347939551
 50
102.9397787888534
 51
140.08802550898969
  0
ARC
  5
BC
  8
DATA
  6
CONTINUOUS
 62
     7
 10
-71.243521769539143
 20
-160.85499058140431
 30
0.0
 40
2.7444290608349382
 50
358.5266804114529
 51
39.320281313533599
  0
ARC
  5
BD
  8
DATA
  6
CONTINUOUS
 62
     7
 10
-70.157887330288716
 20
-159.9838229309868
 30
0.0
 40
1.352617534793958
 50
39.911974491010291
 51
77.060221211146612
  0
LINE
  5
BE
  8
DATA
  6
CONTINUOUS
 62
     7
 10
-70.130048201034143
 20
-156.3155538156
 30
0.0
 11
-69.86995179897869
 21
-156.3155538156
 31
0.0
  0
ARC
  5
BF
  8
DATA
  6
CONTINUOUS
 62
     7
 10
-55.772787286063249
 20
-163.5978398791697
 30
0.0
 40
16.853018869757449
 50
161.55468141893661
 51
176.8288567004239
  0
ARC
  5
C0
  8
DATA
  6
CONTINUOUS
 62
     7
 10
-66.536330758210653
 20
-160.58283621454689
 30
0.0
 40
5.7145881797453209
 50
136.07735121345371
 51
156.0773512134576
  0
ARC
  5
C1
  8
DATA
  6
CONTINUOUS
 62
     7
 10
-69.881693033917401
 20
-157.23234783893039
 30
0.0
 40
0.985177851858794
 50
120.78945751984421
 51
141.4734457241936
  0
ARC
  5
C2
  8
DATA
  6
CONTINUOUS
 62
     7
 10
-84.227212713936737
 20
-163.5978398791697
 30
0.0
 40
16.853018869757449
 50
3.1711432995760549
 51
18.445318581063379
  0
ARC
  5
C3
  8
DATA
  6
CONTINUOUS
 62
     7
 10
-73.463669241789347
 20
-160.58283621454689
 30
0.0
 40
5.7145881797453359
 50
23.922648786542439
 51
43.922648786546269
  0
ARC
  5
C4
  8
DATA
  6
CONTINUOUS
 62
     7
 10
-70.118306966082599
 20
-157.23234783893039
 30
0.0
 40
0.9851778518587995
 50
38.52655427580639
 51
59.2105424814551
  0
ARC
  5
C5
  8
DATA
  6
CONTINUOUS
 62
     7
 10
-70.130048201034143
 20
-156.81555382303489
 30
0.0
 40
0.5000000074348919
 50
90.0
 51
120.7894575207641
  0
ARC
  5
C6
  8
DATA
  6
CONTINUOUS
 62
     7
 10
-69.86995179897869
 20
-156.8155538230813
 30
0.0
 40
0.5000000074812788
 50
59.210542483256368
 51
90.0
  0
POLYLINE
  5
C7
  8
DATA
  6
CONTINUOUS
 62
     7
 66
     1
 10
0.0
 20
0.0
 30
0.0
 70
   129
  0
VERTEX
  5
2E0
  8
DATA
  6
CONTINUOUS
 62
     7
 10
-71.5
 20
-151.99999999996771
 30
0.0
  0
VERTEX
  5
2E1
  8
DATA
  6
CONTINUOUS
 62
     7
 10
-68.5
 20
-151.99999999996771
 30
0.0
  0
VERTEX
  5
2E2
  8
DATA
  6
CONTINUOUS
 62
     7
 10
-68.5
 20
-151.99999999996771
 30
0.0
 42
-0.4142135623730951
  0
VERTEX
  5
2E3
  8
DATA
  6
CONTINUOUS
 62
     7
 10
-63.5
 20
-156.99999999996771
 30
0.0
  0
VERTEX
  5
2E4
  8
DATA
  6
CONTINUOUS
 62
     7
 10
-63.5
 20
-161.99999999996771
 30
0.0
  0
VERTEX
  5
2E5
  8
DATA
  6
CONTINUOUS
 62
     7
 10
-63.5
 20
-161.99999999996771
 30
0.0
 42
-0.4142135623730951
  0
VERTEX
  5
2E6
  8
DATA
  6
CONTINUOUS
 62
     7
 10
-68.5
 20
-166.99999999996771
 30
0.0
  0
VERTEX
  5
2E7
  8
DATA
  6
CONTINUOUS
 62
     7
 10
-71.5
 20
-166.99999999996771
 30
0.0
  0
VERTEX
  5
2E8
  8
DATA
  6
CONTINUOUS
 62
     7
 10
-71.5
 20
-166.99999999996771
 30
0.0
 42
-0.4142135623730951
  0
VERTEX
  5
2E9
  8
DATA
  6
CONTINUOUS
 62
     7
 10
-76.5
 20
-161.99999999996771
 30
0.0
  0
VERTEX
  5
2EA
  8
DATA
  6
CONTINUOUS
 62
     7
 10
-76.5
 20
-156.9999999999676
 30
0.0
  0
VERTEX
  5
2EB
  8
DATA
  6
CONTINUOUS
 62
     7
 10
-76.5
 20
-156.9999999999676
 30
0.0
 42
-0.4142135623730901
  0
VERTEX
  5
2EC
  8
DATA
  6
CONTINUOUS
 62
     7
 10
-71.5
 20
-151.99999999996771
 30
0.0
  0
SEQEND
  5
2ED
  8
DATA
  6
CONTINUOUS
 62
     7
  0
POLYLINE
  5
D6
  8
DATA
  6
CONTINUOUS
 62
     7
 66
     1
 10
0.0
 20
0.0
 30
0.0
  0
VERTEX
  5
2EE
  8
DATA
  6
CONTINUOUS
 62
     7
 10
-71.5
 20
-45.005553815600003
 30
0.0
  0
VERTEX
  5
2EF
  8
DATA
  6
CONTINUOUS
 62
     7
 10
-71.5
 20
-40.999999999967692
 30
0.0
  0
VERTEX
  5
2F0
  8
DATA
  6
CONTINUOUS
 62
     7
 10
-68.5
 20
-40.999999999967692
 30
0.0
  0
VERTEX
  5
2F1
  8
DATA
  6
CONTINUOUS
 62
     7
 10
-68.5
 20
-45.005553815600003
 30
0.0
  0
SEQEND
  5
2F2
  8
DATA
  6
CONTINUOUS
 62
     7
  0
LINE
  5
DD
  8
DATA
  6
CONTINUOUS
 62
     7
 10
-69.25
 20
-46.999999999967677
 30
0.0
 11
-70.75
 21
-46.999999999967677
 31
0.0
  0
LINE
  5
DE
  8
DATA
  6
CONTINUOUS
 62
     7
 10
-70.75
 20
-46.999999999967677
 30
0.0
 11
-71.5
 21
-45.005553815600003
 31
0.0
  0
LINE
  5
DF
  8
DATA
  6
CONTINUOUS
 62
     7
 10
-69.25
 20
-46.999999999967677
 30
0.0
 11
-68.5
 21
-45.005553815600003
 31
0.0
  0
LINE
  5
E0
  8
DATA
  6
CONTINUOUS
 62
     7
 10
-71.269999999999996
 20
-40.10555381559999
 30
0.0
 11
-70.581925877129777
 21
-39.38570870505977
 31
0.0
  0
LINE
  5
E1
  8
DATA
  6
CONTINUOUS
 62
     7
 10
-68.769999999999996
 20
-40.10555381559999
 30
0.0
 11
-69.422330012591246
 21
-39.385708705059791
 31
0.0
  0
LINE
  5
E2
  8
DATA
  6
CONTINUOUS
 62
     7
 10
-71.269999999999996
 20
-40.10555381559999
 30
0.0
 11
-71.269999999999996
 21
-40.999999999967692
 31
0.0
  0
LINE
  5
E3
  8
DATA
  6
CONTINUOUS
 62
     7
 10
-68.769999999999996
 20
-40.10555381559999
 30
0.0
 11
-68.769999999999996
 21
-40.999999999967692
 31
0.0
  0
LINE
  5
E4
  8
DATA
  6
CONTINUOUS
 62
     7
 10
-70.581925877129777
 20
-39.385708705059791
 30
0.0
 11
-69.422330012591246
 21
-39.385708705059791
 31
0.0
  0
LINE
  5
E5
  8
DATA
  6
CONTINUOUS
 62
     7
 10
-71.269999999999996
 20
-40.438578293354887
 30
0.0
 11
-68.769999999999996
 21
-40.438578293354887
 31
0.0
  0
LINE
  5
E6
  8
DATA
  6
CONTINUOUS
 62
     7
 10
-81.021032995131577
 20
-36.383564742944991
 30
0.0
 11
-72.100000000000023
 21
-36.383564742944991
 31
0.0
  0
LINE
  5
E7
  8
DATA
  6
CONTINUOUS
 62
     7
 10
-71.216055561913933
 20
-40.049118558544997
 30
0.0
 11
-68.821142129614046
 21
-40.049118558544997
 31
0.0
  0
LINE
  5
E8
  8
DATA
  6
CONTINUOUS
 62
     7
 10
-73.105826838945973
 20
-35.349716315478332
 30
0.0
 11
-70.0
 21
3.0
 31
0.0
  0
LINE
  5
E9
  8
DATA
  6
CONTINUOUS
 62
     7
 10
-74.845988853577992
 20
-7.4459888535781129
 30
0.0
 11
-74.0
 21
3.0
 31
0.0
  0
ARC
  5
EA
  8
DATA
  6
CONTINUOUS
 62
     7
 10
-92.828223265694007
 20
-21.698815907733291
 30
0.0
 40
15.0000000000003
 50
54.469230809490483
 51
307.04266197166112
  0
ARC
  5
EB
  8
DATA
  6
CONTINUOUS
 62
     7
 10
-80.088216887721487
 20
-5.7077719658564794
 30
0.0
 40
5.5228935089064111
 50
223.24712305670781
 51
341.6555220967162
  0
ARC
  5
EC
  8
DATA
  6
CONTINUOUS
 62
     7
 10
-92.828223265693765
 20
-21.698815907733088
 30
0.0
 40
14.0
 50
41.557816121870339
 51
303.57975176696999
  0
ARC
  5
ED
  8
DATA
  6
CONTINUOUS
 62
     7
 10
-81.021032995131577
 20
-34.383564742944991
 30
0.0
 40
1.999999999999996
 50
199.3733962730262
 51
270.0
  0
ARC
  5
EE
  8
DATA
  6
CONTINUOUS
 62
     7
 10
-91.209424667370357
 20
-21.733127874597599
 30
0.0
 40
14.937590113747669
 50
305.45589426799881
 51
356.4809621018008
  0
ARC
  5
EF
  8
DATA
  6
CONTINUOUS
 62
     7
 10
-88.122507515254426
 20
-22.73056291158775
 30
0.0
 40
11.822782004713231
 50
0.3904284575585231
 51
60.786454707486278
  0
ARC
  5
F0
  8
DATA
  6
CONTINUOUS
 62
     7
 10
-109.19056722337039
 20
-20.134552934170081
 30
0.0
 40
28.35674604196981
 50
338.40239831911089
 51
6.2059687764672731
  0
ARC
  5
F1
  8
DATA
  6
CONTINUOUS
 62
     7
 10
-106.61168893766209
 20
-21.021460106367378
 30
0.0
 40
26.751717835112029
 50
337.73976396328851
 51
8.444531847207827
  0
LINE
  5
F2
  8
DATA
  6
CONTINUOUS
 62
     7
 10
-80.150000000000006
 20
-17.092920212734761
 30
0.0
 11
-81.0
 21
-17.06910586834017
 31
0.0
  0
LINE
  5
F3
  8
DATA
  6
CONTINUOUS
 62
     7
 10
-73.105826838945973
 20
-35.349716315478332
 30
0.0
 11
-72.100000000000023
 21
-35.349414106606631
 31
0.0
  0
LINE
  5
F4
  8
DATA
  6
CONTINUOUS
 62
     7
 10
-72.100000000000023
 20
-35.349414106606631
 30
0.0
 11
-72.100000000000023
 21
-36.383564742944991
 31
0.0
  0
ARC
  5
F5
  8
DATA
  6
CONTINUOUS
 62
     7
 10
-88.403445971982265
 20
-28.363749958498701
 30
0.0
 40
6.0000000000000249
 50
303.57975176697028
 51
338.40239831911089
  0
ARC
  5
F6
  8
DATA
  6
CONTINUOUS
 62
     7
 10
-87.406537641696985
 20
-28.882500546868641
 30
0.0
 40
6.0000000000000284
 50
307.04266197166129
 51
337.73976396328851
  0
ARC
  5
F7
  8
DATA
  6
CONTINUOUS
 62
     7
 10
-81.964409781326367
 20
-34.71528787941395
 30
0.0
 40
1.000000000000008
 50
125.4558942679987
 51
199.37339627302569
  0
LINE
  5
F8
  8
DATA
  6
CONTINUOUS
 62
     7
 10
-70.502127944860518
 20
-39.385708705059791
 30
0.0
 11
-70.502127944860518
 21
-37.285531277409731
 31
0.0
  0
LINE
  5
F9
  8
DATA
  6
CONTINUOUS
 62
     7
 10
-69.502127944860518
 20
-36.819223619254721
 30
0.0
 11
-69.502127944860518
 21
-39.385708705059791
 31
0.0
  0
LINE
  5
FA
  8
DATA
  6
CONTINUOUS
 62
     7
 10
-71.216552725487446
 20
-35.753442391171767
 30
0.0
 11
-73.016224653091342
 21
-34.243338340479198
 31
0.0
  0
LINE
  5
FB
  8
DATA
  6
CONTINUOUS
 62
     7
 10
-70.216552725487446
 20
-35.287134733016771
 30
0.0
 11
-72.917230919298561
 21
-33.020996656661332
 31
0.0
  0
ARC
  5
FC
  8
DATA
  6
CONTINUOUS
 62
     7
 10
-72.502127944860533
 20
-37.285531277409703
 30
0.0
 40
2.0000000000000142
 50
359.99999999999937
 51
49.999999999999091
  0
ARC
  5
FD
  8
DATA
  6
CONTINUOUS
 62
     7
 10
-71.502127944860504
 20
-36.819223619254728
 30
0.0
 40
2.0
 50
0.0000000000002274
 51
50.000000000000341
  0
LINE
  5
FE
  8
DATA
  6
CONTINUOUS
 62
     7
 10
-70.897687076051994
 20
-27.301246206209228
 30
0.0
 11
-72.567478274755615
 21
-28.70236738518453
 31
0.0
  0
LINE
  5
FF
  8
DATA
  6
CONTINUOUS
 62
     7
 10
-69.960564039832676
 20
-27.82031390148213
 30
0.0
 11
-72.680907446272812
 21
-30.102953050501629
 31
0.0
  0
ARC
  5
100
  8
DATA
  6
CONTINUOUS
 62
     7
 10
-72.183262295425095
 20
-25.769157319971299
 30
0.0
 40
1.9999999999999989
 50
310.0000000000008
 51
347.50000000000119
  0
LINE
  5
101
  8
DATA
  6
CONTINUOUS
 62
     7
 10
-70.230670281185212
 20
-26.202036547847481
 30
0.0
 11
-70.17246498906016
 21
-25.545037322293961
 31
0.0
  0
LINE
  5
102
  8
DATA
  6
CONTINUOUS
 62
     7
 10
-69.25394201314009
 20
-26.464719017318991
 30
0.0
 11
-69.180309645824252
 21
-25.63358482769512
 31
0.0
  0
ARC
  5
103
  8
DATA
  6
CONTINUOUS
 62
     7
 10
-71.246139259205762
 20
-26.288225015244201
 30
0.0
 40
1.999999999999998
 50
310.0000000000004
 51
354.93723365184718
  0
POLYLINE
  5
104
  8
DATA
  6
CONTINUOUS
 62
     7
 66
     1
 10
0.0
 20
0.0
 30
0.0
  0
VERTEX
  5
2F3
  8
DATA
  6
CONTINUOUS
 62
     7
 10
-67.604436249825909
 20
-20.75435443119741
 30
0.0
  0
VERTEX
  5
2F4
  8
DATA
  6
CONTINUOUS
 62
     7
 10
-68.048907734158121
 20
-25.734559758251251
 30
0.0
  0
VERTEX
  5
2F5
  8
DATA
  6
CONTINUOUS
 62
     7
 10
-71.335843250013681
 20
-25.441208578592001
 30
0.0
  0
VERTEX
  5
2F6
  8
DATA
  6
CONTINUOUS
 62
     7
 10
-70.891371765681455
 20
-20.461003251538148
 30
0.0
  0
SEQEND
  5
2F7
  8
DATA
  6
CONTINUOUS
 62
     7
  0
LINE
  5
10B
  8
DATA
  6
CONTINUOUS
 62
     7
 10
-68.81092651362674
 20
-5.5870579930264386
 30
0.0
 11
-67.018052595887369
 21
-5.7470677273860318
 31
0.0
  0
LINE
  5
10C
  8
DATA
  6
CONTINUOUS
 62
     7
 10
-68.81092651362674
 20
-5.5870579930264386
 30
0.0
 11
-70.891371765681455
 21
-20.461003251538148
 31
0.0
  0
LINE
  5
10D
  8
DATA
  6
CONTINUOUS
 62
     7
 10
-67.018052595887369
 20
-5.7470677273860318
 30
0.0
 11
-67.604436249825909
 21
-20.75435443119741
 31
0.0
  0
LINE
  5
10E
  8
DATA
  6
CONTINUOUS
 62
     7
 10
-68.76523905611694
 20
-5.5249231234857348
 30
0.0
 11
-67.489667818212538
 21
68.65742115409661
 31
0.0
  0
LINE
  5
10F
  8
DATA
  6
CONTINUOUS
 62
     7
 10
-65.981943407867789
 20
67.057421154096602
 30
0.0
 11
-67.109777226026665
 21
-5.7388815222337328
 31
0.0
  0
LINE
  5
110
  8
DATA
  6
CONTINUOUS
 62
     7
 10
-57.5070005103005
 20
78.068903168352563
 30
0.0
 11
2.2468100708811392
 21
78.068903168352563
 31
0.0
  0
LINE
  5
111
  8
DATA
  6
CONTINUOUS
 62
     7
 10
17.753189929118872
 20
78.068903168352563
 30
0.0
 11
58.731806433861472
 21
78.068903168352563
 31
0.0
  0
LINE
  5
112
  8
DATA
  6
CONTINUOUS
 62
     7
 10
-55.999276099955779
 20
76.468903168352568
 30
0.0
 11
2.078780354729012
 21
76.468903168352568
 31
0.0
  0
LINE
  5
113
  8
DATA
  6
CONTINUOUS
 62
     7
 10
17.921219645270991
 20
76.468903168352568
 30
0.0
 11
57.787249483899487
 21
76.468903168352568
 31
0.0
  0
ARC
  5
114
  8
DATA
  6
CONTINUOUS
 62
     7
 10
-55.999276099955779
 20
66.468903168352568
 30
0.0
 40
10.0
 50
90.0
 51
176.62609080195369
  0
ARC
  5
115
  8
DATA
  6
CONTINUOUS
 62
     7
 10
-57.5070005103005
 20
68.068903168352563
 30
0.0
 40
10.0
 50
90.0
 51
176.62609080195369
  0
CIRCLE
  5
116
  8
DATA
  6
CONTINUOUS
 62
     7
 10
115.38525726700929
 20
77.268903165863193
 30
0.0
 40
2.9000000000000048
  0
CIRCLE
  5
117
  8
DATA
  6
CONTINUOUS
 62
     7
 10
115.38525726700929
 20
77.268903165863193
 30
0.0
 40
2.0
  0
CIRCLE
  5
118
  8
DATA
  6
CONTINUOUS
 62
     7
 10
115.38525726700929
 20
77.268903165863193
 30
0.0
 40
0.3900000000000148
  0
LINE
  5
119
  8
DATA
  6
CONTINUOUS
 62
     7
 10
117.3695707503078
 20
77.018903165863193
 30
0.0
 11
116.4564715312904
 21
77.018903165863193
 31
0.0
  0
LINE
  5
11A
  8
DATA
  6
CONTINUOUS
 62
     7
 10
114.3140430027283
 20
77.018903165863193
 30
0.0
 11
113.4009437837109
 21
77.018903165863193
 31
0.0
  0
LINE
  5
11B
  8
DATA
  6
CONTINUOUS
 62
     7
 10
113.4009437837109
 20
77.518903165863222
 30
0.0
 11
114.3140430027283
 21
77.518903165863193
 31
0.0
  0
LINE
  5
11C
  8
DATA
  6
CONTINUOUS
 62
     7
 10
116.4564715312903
 20
77.518903165863193
 30
0.0
 11
117.3695707503078
 21
77.518903165863193
 31
0.0
  0
CIRCLE
  5
11D
  8
DATA
  6
CONTINUOUS
 62
     7
 10
115.38525726700929
 20
77.268903165863193
 30
0.0
 40
1.0999999999999941
  0
LINE
  5
11E
  8
DATA
  6
CONTINUOUS
 62
     7
 10
104.4954114072565
 20
77.658903165863222
 30
0.0
 11
105.4854114069565
 21
77.658903165863236
 31
0.0
  0
LINE
  5
11F
  8
DATA
  6
CONTINUOUS
 62
     7
 10
106.0954114069565
 20
77.403903165863213
 30
0.0
 11
106.0954114069565
 21
77.133903165863217
 31
0.0
  0
LINE
  5
120
  8
DATA
  6
CONTINUOUS
 62
     7
 10
105.4854114069565
 20
76.878903165863193
 30
0.0
 11
104.4954114072565
 21
76.878903165863193
 31
0.0
  0
LINE
  5
121
  8
DATA
  6
CONTINUOUS
 62
     7
 10
106.0954114069565
 20
77.133903165863217
 30
0.0
 11
105.4854114069565
 21
76.878903165863193
 31
0.0
  0
LINE
  5
122
  8
DATA
  6
CONTINUOUS
 62
     7
 10
106.0954114069565
 20
77.403903165863213
 30
0.0
 11
105.4854114069565
 21
77.658903165863222
 31
0.0
  0
LINE
  5
123
  8
DATA
  6
CONTINUOUS
 62
     7
 10
99.495411407256597
 20
74.368903165863273
 30
0.0
 11
99.495411407256626
 21
80.168903165863156
 31
0.0
  0
LINE
  5
124
  8
DATA
  6
CONTINUOUS
 62
     7
 10
98.6954114072566
 20
74.368903165863273
 30
0.0
 11
98.695411407256657
 21
80.168903165863142
 31
0.0
  0
LINE
  5
125
  8
DATA
  6
CONTINUOUS
 62
     7
 10
93.395411407256674
 20
74.368903165863244
 30
0.0
 11
93.39541140725666
 21
80.168903165863185
 31
0.0
  0
LINE
  5
126
  8
DATA
  6
CONTINUOUS
 62
     7
 10
89.79541140725668
 20
79.393903165863222
 30
0.0
 11
89.79541140725668
 21
75.143903165863264
 31
0.0
  0
LINE
  5
127
  8
DATA
  6
CONTINUOUS
 62
     7
 10
104.4954114072565
 20
74.368903165863244
 30
0.0
 11
93.395411407256674
 21
74.368903165863244
 31
0.0
  0
LINE
  5
128
  8
DATA
  6
CONTINUOUS
 62
     7
 10
104.4954114072565
 20
80.168903165863213
 30
0.0
 11
93.39541140725666
 21
80.168903165863185
 31
0.0
  0
LINE
  5
129
  8
DATA
  6
CONTINUOUS
 62
     7
 10
104.4954114072565
 20
80.168903165863213
 30
0.0
 11
104.4954114072565
 21
74.368903165863244
 31
0.0
  0
LINE
  5
12A
  8
DATA
  6
CONTINUOUS
 62
     7
 10
89.79541140725668
 20
75.143903165863264
 30
0.0
 11
93.395411407256674
 21
74.368903165863244
 31
0.0
  0
LINE
  5
12B
  8
DATA
  6
CONTINUOUS
 62
     7
 10
89.79541140725668
 20
79.393903165863222
 30
0.0
 11
93.39541140725666
 21
80.168903165863185
 31
0.0
  0
LINE
  5
12C
  8
DATA
  6
CONTINUOUS
 62
     7
 10
78.495411407256682
 20
78.202935343256726
 30
0.0
 11
78.495411407256682
 21
76.334870988469731
 31
0.0
  0
LINE
  5
12D
  8
DATA
  6
CONTINUOUS
 62
     7
 10
89.79541140725668
 20
79.393903165863222
 30
0.0
 11
78.495411407256682
 21
78.202935343256726
 31
0.0
  0
LINE
  5
12E
  8
DATA
  6
CONTINUOUS
 62
     7
 10
89.79541140725668
 20
75.143903165863236
 30
0.0
 11
78.495411407256682
 21
76.334870988469731
 31
0.0
  0
LINE
  5
12F
  8
DATA
  6
CONTINUOUS
 62
     7
 10
78.495411407256654
 20
76.518903165863236
 30
0.0
 11
59.937929932955029
 21
76.518903165863264
 31
0.0
  0
LINE
  5
130
  8
DATA
  6
CONTINUOUS
 62
     7
 10
60.968725544596388
 20
78.018903165863264
 30
0.0
 11
78.495411407256654
 21
78.01890316586325
 31
0.0
  0
ARC
  5
131
  8
DATA
  6
CONTINUOUS
 62
     7
 10
58.947363022313787
 20
78.62211067512284
 30
0.0
 40
2.109446786651775
 50
312.2698274430993
 51
77.730172556900413
  0
ARC
  5
132
  8
DATA
  6
CONTINUOUS
 62
     7
 10
61.785087548301149
 20
75.500190993665342
 30
0.0
 40
2.1094467866517652
 50
132.2698274430995
 51
257.73017255690081
  0
ARC
  5
133
  8
DATA
  6
CONTINUOUS
 62
     7
 10
56.638158178558022
 20
78.326590437693355
 30
0.0
 40
2.109446786651775
 50
312.2698274430993
 51
77.730172556900612
  0
ARC
  5
134
  8
DATA
  6
CONTINUOUS
 62
     7
 10
59.475882704545413
 20
75.204670756235842
 30
0.0
 40
2.1094467866517799
 50
132.26982744309939
 51
257.73017255690053
  0
TEXT
  5
135
  8
DATA
 62
     7
 10
-42.75828114153164
 20
-188.11238533901891
 30
0.0
 40
5.4294708097328099
  1
ウインドスクリーン
 41
0.7
 11
-42.75828114153164
 21
-185.3976499341525
 31
0.0
 73
     2
  0
CIRCLE
  5
136
  8
DATA
  6
CONTINUOUS
 62
     7
 10
-70.0
 20
-190.0
 30
0.0
 40
6.5
  0
POLYLINE
  5
137
  8
DATA
  6
CONTINUOUS
 62
     7
 66
     1
 10
0.0
 20
0.0
 30
0.0
 70
     1
  0
VERTEX
  5
2F8
  8
DATA
  6
CONTINUOUS
 62
     7
 10
-72.700000000000003
 20
-188.30000000000001
 30
0.0
  0
VERTEX
  5
2F9
  8
DATA
  6
CONTINUOUS
 62
     7
 10
-67.299999999999997
 20
-188.30000000000001
 30
0.0
  0
VERTEX
  5
2FA
  8
DATA
  6
CONTINUOUS
 62
     7
 10
-67.299999999999997
 20
-191.6999999999999
 30
0.0
  0
VERTEX
  5
2FB
  8
DATA
  6
CONTINUOUS
 62
     7
 10
-72.700000000000003
 20
-191.6999999999999
 30
0.0
  0
SEQEND
  5
2FC
  8
DATA
  6
CONTINUOUS
 62
     7
  0
LINE
  5
13E
  8
DATA
  6
CONTINUOUS
 62
     7
 10
-71.350000000000023
 20
-188.30000000000001
 30
0.0
 11
-71.350000000000023
 21
-191.6999999999999
 31
0.0
  0
LINE
  5
13F
  8
DATA
  6
CONTINUOUS
 62
     7
 10
-68.650000000000006
 20
-188.30000000000001
 30
0.0
 11
-68.650000000000006
 21
-191.6999999999999
 31
0.0
  0
TEXT
  5
140
  8
DATA
 62
     7
 10
86.296011213563006
 20
-222.79022846932261
 30
0.0
 40
3.8006293402777769
  1
d:fine シングルイヤー・ヘットセット・
 41
0.7
 11
86.296011213563006
 21
-220.88991379918369
 31
0.0
 73
     2
  0
TEXT
  5
141
  8
DATA
 62
     7
 10
90.889300318921357
 20
-228.167717065663
 30
0.0
 40
3.8006293402777769
  1
マイクロホン 単一指向性
 41
0.7
 11
90.889300318921357
 21
-226.2674023955241
 31
0.0
 73
     2
  0
ARC
  5
142
  8
DATA
  6
CONTINUOUS
 62
     7
 10
10.0
 20
82.948062001061146
 30
0.0
 40
11.437584897516009
 50
234.16558680993359
 51
305.83441319006641
  0
ARC
  5
143
  8
DATA
  6
CONTINUOUS
 62
     7
 10
30.403259906142001
 20
74.303129876836621
 30
0.0
 40
28.40715958712974
 50
146.0004246458133
 51
175.92728620209249
  0
ARC
  5
144
  8
DATA
  6
CONTINUOUS
 62
     7
 10
5.0602605277656227
 20
76.107607860491214
 30
0.0
 40
2.9999999999999818
 50
175.92728620209209
 51
234.1655868099337
  0
LINE
  5
145
  8
DATA
  6
CONTINUOUS
 62
     7
 10
9.3396646986372822
 20
91.510477103545128
 30
0.0
 11
10.660335301362711
 21
91.510477103545128
 31
0.0
  0
ARC
  5
146
  8
DATA
  6
CONTINUOUS
 62
     7
 10
9.3396646986372822
 20
88.510477103545057
 30
0.0
 40
3.000000000000056
 50
90.0
 51
146.00042464581239
  0
ARC
  5
147
  8
DATA
  6
CONTINUOUS
 62
     7
 10
-10.403259906142001
 20
74.303129876836621
 30
0.0
 40
28.40715958712974
 50
4.0727137979074843
 51
33.999575354186611
  0
ARC
  5
148
  8
DATA
  6
CONTINUOUS
 62
     7
 10
10.660335301362711
 20
88.510477103545057
 30
0.0
 40
3.0000000000000511
 50
33.99957535418757
 51
90.0
  0
ARC
  5
149
  8
DATA
  6
CONTINUOUS
 62
     7
 10
14.93973947223437
 20
76.107607860491214
 30
0.0
 40
2.999999999999984
 50
305.83441319006619
 51
4.0727137979077952
  0
CIRCLE
  5
14A
  8
DATA
  6
CONTINUOUS
 62
     7
 10
10.0
 20
76.896664311889353
 30
0.0
 40
2.5
  0
LINE
  5
14B
  8
DATA
  6
CONTINUOUS
 62
     7
 10
85.999999999999986
 20
3.0
 30
0.0
 11
90.0
 21
3.0
 31
0.0
  0
LINE
  5
14C
  8
DATA
  6
CONTINUOUS
 62
     7
 10
89.518228733230444
 20
-134.6655538156183
 30
0.0
 11
89.518228733230444
 21
-132.6655538156183
 31
0.0
  0
LINE
  5
14D
  8
DATA
  6
CONTINUOUS
 62
     7
 10
94.918228733230436
 20
-134.6655538156183
 30
0.0
 11
89.518228733230444
 21
-134.6655538156183
 31
0.0
  0
LINE
  5
14E
  8
DATA
  6
CONTINUOUS
 62
     7
 10
94.918228733230436
 20
-132.6655538156183
 30
0.0
 11
94.918228733230436
 21
-134.6655538156183
 31
0.0
  0
LINE
  5
14F
  8
DATA
  6
CONTINUOUS
 62
     7
 10
89.518228733230444
 20
-132.6655538156183
 30
0.0
 11
90.718228733230433
 21
-132.6655538156183
 31
0.0
  0
LINE
  5
150
  8
DATA
  6
CONTINUOUS
 62
     7
 10
93.718228733230433
 20
-132.6655538156183
 30
0.0
 11
94.918228733230436
 21
-132.6655538156183
 31
0.0
  0
LINE
  5
151
  8
DATA
  6
CONTINUOUS
 62
     7
 10
89.618228733230424
 20
-132.6655538156183
 30
0.0
 11
89.618228733230424
 21
-129.3018076419327
 31
0.0
  0
LINE
  5
152
  8
DATA
  6
CONTINUOUS
 62
     7
 10
93.118228733230424
 20
-124.66555381561859
 30
0.0
 11
91.318228733230413
 21
-124.66555381561859
 31
0.0
  0
ARC
  5
153
  8
DATA
  6
CONTINUOUS
 62
     7
 10
82.579125475488965
 20
-123.31268493107849
 30
0.0
 40
8.8431996453898982
 50
326.47236921403743
 51
351.20010102294691
  0
ARC
  5
154
  8
DATA
  6
CONTINUOUS
 62
     7
 10
91.618228733230396
 20
-129.3018076419327
 30
0.0
 40
1.9999999999999389
 50
146.47236921403831
 51
180.0
  0
ARC
  5
155
  8
DATA
  6
CONTINUOUS
 62
     7
 10
101.8573319909719
 20
-123.31268493107849
 30
0.0
 40
8.8431996453899373
 50
188.799898977053
 51
213.5276307859626
  0
ARC
  5
156
  8
DATA
  6
CONTINUOUS
 62
     7
 10
92.81822873323047
 20
-129.3018076419327
 30
0.0
 40
1.9999999999999849
 50
0.0
 51
33.527630785961207
  0
LINE
  5
157
  8
DATA
  6
CONTINUOUS
 62
     7
 10
94.818228733230455
 20
-129.30555381561851
 30
0.0
 11
94.811935161438356
 21
-132.6655538156183
 31
0.0
  0
LINE
  5
158
  8
DATA
  6
CONTINUOUS
 62
     7
 10
91.618228733230438
 20
-124.66555381561859
 30
0.0
 11
91.618228733230438
 21
-100.09999999999999
 31
0.0
  0
LINE
  5
159
  8
DATA
  6
CONTINUOUS
 62
     7
 10
91.618228733230438
 20
-99.899999999999963
 30
0.0
 11
91.618228733230438
 21
-16.999998866985688
 31
0.0
  0
LINE
  5
15A
  8
DATA
  6
CONTINUOUS
 62
     7
 10
92.818228733230441
 20
-16.999998866985688
 30
0.0
 11
92.818228733230427
 21
-99.899999999999963
 31
0.0
  0
LINE
  5
15B
  8
DATA
  6
CONTINUOUS
 62
     7
 10
92.818228733230427
 20
-100.09999999999999
 30
0.0
 11
92.818228733230427
 21
-124.66555381561859
 31
0.0
  0
LINE
  5
15C
  8
DATA
  6
CONTINUOUS
 62
     7
 10
92.073228733230451
 20
-128.66555381561849
 30
0.0
 11
92.363228733230471
 21
-128.66555381561849
 31
0.0
  0
POLYLINE
  5
15D
  8
DATA
  6
CONTINUOUS
 62
     7
 66
     1
 10
0.0
 20
0.0
 30
0.0
  0
VERTEX
  5
2FD
  8
DATA
  6
CONTINUOUS
 62
     7
 10
93.718228733230433
 20
-130.78442734722731
 30
0.0
  0
VERTEX
  5
2FE
  8
DATA
  6
CONTINUOUS
 62
     7
 10
93.718228733230433
 20
-134.6655538156183
 30
0.0
  0
VERTEX
  5
2FF
  8
DATA
  6
CONTINUOUS
 62
     7
 10
90.718228733230433
 20
-134.6655538156183
 30
0.0
  0
VERTEX
  5
300
  8
DATA
  6
CONTINUOUS
 62
     7
 10
90.718228733230433
 20
-130.78442734722731
 30
0.0
  0
SEQEND
  5
301
  8
DATA
  6
CONTINUOUS
 62
     7
  0
ARC
  5
164
  8
DATA
  6
CONTINUOUS
 62
     7
 10
93.461750502769561
 20
-130.85499058142281
 30
0.0
 40
2.7444290608348969
 50
140.67971868646779
 51
181.47331958854701
  0
ARC
  5
165
  8
DATA
  6
CONTINUOUS
 62
     7
 10
92.376116063519149
 20
-129.98382293100531
 30
0.0
 40
1.3526175347938989
 50
102.9397787888539
 51
140.0880255089906
  0
ARC
  5
166
  8
DATA
  6
CONTINUOUS
 62
     7
 10
90.974706963691276
 20
-130.85499058142281
 30
0.0
 40
2.7444290608349382
 50
358.5266804114529
 51
39.320281313532242
  0
ARC
  5
167
  8
DATA
  6
CONTINUOUS
 62
     7
 10
92.060341402941717
 20
-129.98382293100531
 30
0.0
 40
1.35261753479394
 50
39.91197449100936
 51
77.060221211146043
  0
LINE
  5
168
  8
DATA
  6
CONTINUOUS
 62
     7
 10
92.088180532196276
 20
-126.3155538156185
 30
0.0
 11
92.348276934251714
 21
-126.3155538156185
 31
0.0
  0
ARC
  5
169
  8
DATA
  6
CONTINUOUS
 62
     7
 10
106.4454414471672
 20
-133.597839879188
 30
0.0
 40
16.853018869757399
 50
161.55468141893741
 51
176.82885670042401
  0
ARC
  5
16A
  8
DATA
  6
CONTINUOUS
 62
     7
 10
95.681897975019794
 20
-130.5828362145653
 30
0.0
 40
5.7145881797452542
 50
136.07735121345479
 51
156.07735121345871
  0
ARC
  5
16B
  8
DATA
  6
CONTINUOUS
 62
     7
 10
92.336535699313046
 20
-127.2323478389489
 30
0.0
 40
0.985177851858794
 50
120.78945751984421
 51
141.4734457241936
  0
ARC
  5
16C
  8
DATA
  6
CONTINUOUS
 62
     7
 10
77.991016019293696
 20
-133.597839879188
 30
0.0
 40
16.853018869757481
 50
3.1711432995759519
 51
18.445318581062541
  0
ARC
  5
16D
  8
DATA
  6
CONTINUOUS
 62
     7
 10
88.754559491441086
 20
-130.5828362145653
 30
0.0
 40
5.7145881797453031
 50
23.922648786541341
 51
43.922648786545317
  0
ARC
  5
16E
  8
DATA
  6
CONTINUOUS
 62
     7
 10
92.099921767147833
 20
-127.2323478389489
 30
0.0
 40
0.9851778518587995
 50
38.52655427580639
 51
59.2105424814551
  0
ARC
  5
16F
  8
DATA
  6
CONTINUOUS
 62
     7
 10
92.088180532196276
 20
-126.81555382305341
 30
0.0
 40
0.5000000074348919
 50
90.0
 51
120.7894575207641
  0
ARC
  5
170
  8
DATA
  6
CONTINUOUS
 62
     7
 10
92.348276934251714
 20
-126.8155538230999
 30
0.0
 40
0.5000000074812788
 50
59.210542483256368
 51
90.0
  0
POLYLINE
  5
171
  8
DATA
  6
CONTINUOUS
 62
     7
 66
     1
 10
0.0
 20
0.0
 30
0.0
 70
   129
  0
VERTEX
  5
302
  8
DATA
  6
CONTINUOUS
 62
     7
 10
90.718228733230433
 20
-121.9999999999862
 30
0.0
  0
VERTEX
  5
303
  8
DATA
  6
CONTINUOUS
 62
     7
 10
93.718228733230433
 20
-121.9999999999862
 30
0.0
  0
VERTEX
  5
304
  8
DATA
  6
CONTINUOUS
 62
     7
 10
93.718228733230433
 20
-121.9999999999862
 30
0.0
 42
-0.4142135623730976
  0
VERTEX
  5
305
  8
DATA
  6
CONTINUOUS
 62
     7
 10
98.718228733230475
 20
-126.9999999999863
 30
0.0
  0
VERTEX
  5
306
  8
DATA
  6
CONTINUOUS
 62
     7
 10
98.718228733230475
 20
-131.9999999999861
 30
0.0
  0
VERTEX
  5
307
  8
DATA
  6
CONTINUOUS
 62
     7
 10
98.718228733230475
 20
-131.9999999999861
 30
0.0
 42
-0.4142135623730784
  0
VERTEX
  5
308
  8
DATA
  6
CONTINUOUS
 62
     7
 10
93.718228733230433
 20
-136.99999999998579
 30
0.0
  0
VERTEX
  5
309
  8
DATA
  6
CONTINUOUS
 62
     7
 10
90.718228733230433
 20
-136.99999999998579
 30
0.0
  0
VERTEX
  5
30A
  8
DATA
  6
CONTINUOUS
 62
     7
 10
90.718228733230433
 20
-136.99999999998579
 30
0.0
 42
-0.4142135623731102
  0
VERTEX
  5
30B
  8
DATA
  6
CONTINUOUS
 62
     7
 10
85.718228733230433
 20
-131.9999999999861
 30
0.0
  0
VERTEX
  5
30C
  8
DATA
  6
CONTINUOUS
 62
     7
 10
85.718228733230433
 20
-126.9999999999862
 30
0.0
  0
VERTEX
  5
30D
  8
DATA
  6
CONTINUOUS
 62
     7
 10
85.718228733230433
 20
-126.9999999999862
 30
0.0
 42
-0.414213562373091
  0
VERTEX
  5
30E
  8
DATA
  6
CONTINUOUS
 62
     7
 10
90.718228733230433
 20
-121.9999999999862
 30
0.0
  0
SEQEND
  5
30F
  8
DATA
  6
CONTINUOUS
 62
     7
  0
POLYLINE
  5
180
  8
DATA
  6
CONTINUOUS
 62
     7
 66
     1
 10
0.0
 20
0.0
 30
0.0
  0
VERTEX
  5
310
  8
DATA
  6
CONTINUOUS
 62
     7
 10
90.718228733230433
 20
-15.00555268261804
 30
0.0
  0
VERTEX
  5
311
  8
DATA
  6
CONTINUOUS
 62
     7
 10
90.718228733230433
 20
-10.999998866985759
 30
0.0
  0
VERTEX
  5
312
  8
DATA
  6
CONTINUOUS
 62
     7
 10
93.718228733230433
 20
-10.999998866985759
 30
0.0
  0
VERTEX
  5
313
  8
DATA
  6
CONTINUOUS
 62
     7
 10
93.718228733230433
 20
-15.00555268261804
 30
0.0
  0
SEQEND
  5
314
  8
DATA
  6
CONTINUOUS
 62
     7
  0
LINE
  5
187
  8
DATA
  6
CONTINUOUS
 62
     7
 10
92.968228733230418
 20
-16.999998866985688
 30
0.0
 11
91.468228733230447
 21
-16.999998866985688
 31
0.0
  0
LINE
  5
188
  8
DATA
  6
CONTINUOUS
 62
     7
 10
91.468228733230447
 20
-16.999998866985688
 30
0.0
 11
90.718228733230433
 21
-15.00555268261804
 31
0.0
  0
LINE
  5
189
  8
DATA
  6
CONTINUOUS
 62
     7
 10
92.968228733230418
 20
-16.999998866985688
 30
0.0
 11
93.718228733230433
 21
-15.00555268261804
 31
0.0
  0
LINE
  5
18A
  8
DATA
  6
CONTINUOUS
 62
     7
 10
90.948228733230437
 20
-10.105552682618059
 30
0.0
 11
91.636302856100642
 21
-9.3857075720778536
 31
0.0
  0
LINE
  5
18B
  8
DATA
  6
CONTINUOUS
 62
     7
 10
93.448228733230437
 20
-10.105552682618059
 30
0.0
 11
92.795898720639187
 21
-9.3857075720778589
 31
0.0
  0
LINE
  5
18C
  8
DATA
  6
CONTINUOUS
 62
     7
 10
90.948228733230437
 20
-10.105552682618059
 30
0.0
 11
90.948228733230437
 21
-10.999998866985759
 31
0.0
  0
LINE
  5
18D
  8
DATA
  6
CONTINUOUS
 62
     7
 10
93.448228733230437
 20
-10.105552682618059
 30
0.0
 11
93.448228733230437
 21
-10.999998866985759
 31
0.0
  0
LINE
  5
18E
  8
DATA
  6
CONTINUOUS
 62
     7
 10
91.636302856100642
 20
-9.3857075720778589
 30
0.0
 11
92.795898720639187
 21
-9.3857075720778589
 31
0.0
  0
LINE
  5
18F
  8
DATA
  6
CONTINUOUS
 62
     7
 10
90.948228733230437
 20
-10.438577160372949
 30
0.0
 11
93.448228733230437
 21
-10.438577160372949
 31
0.0
  0
LINE
  5
190
  8
DATA
  6
CONTINUOUS
 62
     7
 10
78.97896700486838
 20
-36.383564742944991
 30
0.0
 11
87.899999999999963
 21
-36.383564742944991
 31
0.0
  0
LINE
  5
191
  8
DATA
  6
CONTINUOUS
 62
     7
 10
91.002173171316485
 20
-10.04911742556305
 30
0.0
 11
93.397086603616373
 21
-10.04911742556305
 31
0.0
  0
LINE
  5
192
  8
DATA
  6
CONTINUOUS
 62
     7
 10
86.894173161054013
 20
-35.349716315478332
 30
0.0
 11
90.0
 21
3.0
 31
0.0
  0
LINE
  5
193
  8
DATA
  6
CONTINUOUS
 62
     7
 10
85.154011146421979
 20
-7.4459888535781129
 30
0.0
 11
86.0
 21
3.0
 31
0.0
  0
ARC
  5
194
  8
DATA
  6
CONTINUOUS
 62
     7
 10
67.171776734306007
 20
-21.698815907733291
 30
0.0
 40
15.0000000000003
 50
48.442360419983849
 51
307.04266197166112
  0
ARC
  5
195
  8
DATA
  6
CONTINUOUS
 62
     7
 10
79.911783112278513
 20
-5.7077719658564794
 30
0.0
 40
5.5228935089064128
 50
239.66446817276619
 51
341.6555220967162
  0
ARC
  5
196
  8
DATA
  6
CONTINUOUS
 62
     7
 10
67.171776734306249
 20
-21.698815907733088
 30
0.0
 40
14.0
 50
41.557816121870339
 51
303.57975176696999
  0
ARC
  5
197
  8
DATA
  6
CONTINUOUS
 62
     7
 10
78.97896700486838
 20
-34.383564742944991
 30
0.0
 40
1.999999999999996
 50
199.3733962730262
 51
270.0
  0
ARC
  5
198
  8
DATA
  6
CONTINUOUS
 62
     7
 10
68.790575332629615
 20
-21.733127874597599
 30
0.0
 40
14.937590113747669
 50
305.45589426799881
 51
356.4809621018008
  0
ARC
  5
199
  8
DATA
  6
CONTINUOUS
 62
     7
 10
71.877492484745559
 20
-22.73056291158775
 30
0.0
 40
11.822782004713231
 50
0.3904284575585231
 51
60.786454707486278
  0
ARC
  5
19A
  8
DATA
  6
CONTINUOUS
 62
     7
 10
50.809432776629613
 20
-20.134552934170081
 30
0.0
 40
28.35674604196981
 50
338.40239831911089
 51
6.2059687764672731
  0
ARC
  5
19B
  8
DATA
  6
CONTINUOUS
 62
     7
 10
53.388311062337898
 20
-21.021460106367378
 30
0.0
 40
26.751717835112029
 50
337.73976396328851
 51
8.444531847207827
  0
LINE
  5
19C
  8
DATA
  6
CONTINUOUS
 62
     7
 10
79.84999999999998
 20
-17.092920212734761
 30
0.0
 11
79.0
 21
-17.06910586834017
 31
0.0
  0
LINE
  5
19D
  8
DATA
  6
CONTINUOUS
 62
     7
 10
86.894173161054013
 20
-35.349716315478332
 30
0.0
 11
87.899999999999963
 21
-35.349414106606631
 31
0.0
  0
LINE
  5
19E
  8
DATA
  6
CONTINUOUS
 62
     7
 10
87.899999999999963
 20
-35.349414106606631
 30
0.0
 11
87.899999999999963
 21
-36.383564742944991
 31
0.0
  0
ARC
  5
19F
  8
DATA
  6
CONTINUOUS
 62
     7
 10
71.596554028017735
 20
-28.363749958498701
 30
0.0
 40
6.0000000000000249
 50
303.57975176697028
 51
338.40239831911089
  0
ARC
  5
1A0
  8
DATA
  6
CONTINUOUS
 62
     7
 10
72.593462358303015
 20
-28.882500546868641
 30
0.0
 40
6.0000000000000284
 50
307.04266197166129
 51
337.73976396328851
  0
ARC
  5
1A1
  8
DATA
  6
CONTINUOUS
 62
     7
 10
78.03559021867359
 20
-34.71528787941395
 30
0.0
 40
1.000000000000008
 50
125.4558942679987
 51
199.37339627302569
  0
LINE
  5
1A2
  8
DATA
  6
CONTINUOUS
 62
     7
 10
91.716100788369928
 20
-9.3857075720778589
 30
0.0
 11
91.716100788369928
 21
-6.1019401444277834
 31
0.0
  0
LINE
  5
1A3
  8
DATA
  6
CONTINUOUS
 62
     7
 10
92.716100788369914
 20
-5.6356324862727751
 30
0.0
 11
92.716100788369914
 21
-9.3857075720778589
 31
0.0
  0
LINE
  5
1A4
  8
DATA
  6
CONTINUOUS
 62
     7
 10
91.001676007743001
 20
-4.5698512581898116
 30
0.0
 11
89.489689523234816
 21
-3.3011439566939438
 31
0.0
  0
LINE
  5
1A5
  8
DATA
  6
CONTINUOUS
 62
     7
 10
92.001676007742986
 20
-4.1035436000348113
 30
0.0
 11
89.588683257027569
 21
-2.078802272876084
 31
0.0
  0
ARC
  5
1A6
  8
DATA
  6
CONTINUOUS
 62
     7
 10
89.7161007883699
 20
-6.1019401444277612
 30
0.0
 40
2.0000000000000142
 50
359.99999999999937
 51
49.999999999999382
  0
ARC
  5
1A7
  8
DATA
  6
CONTINUOUS
 62
     7
 10
90.716100788369928
 20
-5.6356324862727822
 30
0.0
 40
2.0
 50
0.0000000000002274
 51
50.000000000000462
  0
LINE
  5
1A8
  8
DATA
  6
CONTINUOUS
 62
     7
 10
91.320541657178438
 20
3.8823449267726882
 30
0.0
 11
89.980386691170196
 21
2.7578213890747958
 31
0.0
  0
LINE
  5
1A9
  8
DATA
  6
CONTINUOUS
 62
     7
 10
92.257664693397771
 20
3.363277231499791
 30
0.0
 11
89.866957519653013
 21
1.357235723757668
 31
0.0
  0
ARC
  5
1AA
  8
DATA
  6
CONTINUOUS
 62
     7
 10
90.034966437805338
 20
5.4144338130106231
 30
0.0
 40
1.9999999999999969
 50
310.0000000000008
 51
347.50000000000119
  0
LINE
  5
1AB
  8
DATA
  6
CONTINUOUS
 62
     7
 10
91.987558452045207
 20
4.9815545851344387
 30
0.0
 11
92.045763744170273
 21
5.638553810687962
 31
0.0
  0
LINE
  5
1AC
  8
DATA
  6
CONTINUOUS
 62
     7
 10
92.964286720090357
 20
4.7188721156629283
 30
0.0
 11
93.037919087406195
 21
5.5500063052868018
 31
0.0
  0
ARC
  5
1AD
  8
DATA
  6
CONTINUOUS
 62
     7
 10
90.972089474024685
 20
4.8953661177377317
 30
0.0
 40
1.9999999999999929
 50
310.0000000000004
 51
354.93723365184718
  0
POLYLINE
  5
1AE
  8
DATA
  6
CONTINUOUS
 62
     7
 66
     1
 10
0.0
 20
0.0
 30
0.0
  0
VERTEX
  5
315
  8
DATA
  6
CONTINUOUS
 62
     7
 10
94.613792483404566
 20
10.42923670178449
 30
0.0
  0
VERTEX
  5
316
  8
DATA
  6
CONTINUOUS
 62
     7
 10
94.169320999072326
 20
5.4490313747306676
 30
0.0
  0
VERTEX
  5
317
  8
DATA
  6
CONTINUOUS
 62
     7
 10
90.882385483216765
 20
5.7423825543899261
 30
0.0
  0
VERTEX
  5
318
  8
DATA
  6
CONTINUOUS
 62
     7
 10
91.326856967548949
 20
10.722587881443751
 30
0.0
  0
SEQEND
  5
319
  8
DATA
  6
CONTINUOUS
 62
     7
  0
LINE
  5
1B5
  8
DATA
  6
CONTINUOUS
 62
     7
 10
93.407302219603679
 20
25.596533139955529
 30
0.0
 11
95.200176137343078
 21
25.436523405595931
 31
0.0
  0
LINE
  5
1B6
  8
DATA
  6
CONTINUOUS
 62
     7
 10
93.407302219603679
 20
25.596533139955529
 30
0.0
 11
91.326856967548949
 21
10.722587881443751
 31
0.0
  0
LINE
  5
1B7
  8
DATA
  6
CONTINUOUS
 62
     7
 10
95.200176137343078
 20
25.436523405595931
 30
0.0
 11
94.613792483404566
 21
10.42923670178449
 31
0.0
  0
LINE
  5
1B8
  8
DATA
  6
CONTINUOUS
 62
     7
 10
93.514785802546555
 20
25.586940485734541
 30
0.0
 11
93.676644100420646
 21
35.0
 31
0.0
  0
LINE
  5
1B9
  8
DATA
  6
CONTINUOUS
 62
     7
 10
95.264341322096996
 20
35.0
 30
0.0
 11
95.108451507203782
 21
25.444709610748241
 31
0.0
  0
LINE
  5
1BA
  8
DATA
  6
CONTINUOUS
 62
     7
 10
-22.70000000000001
 20
-164.66555381559999
 30
0.0
 11
-22.70000000000001
 21
-162.66555381559999
 31
0.0
  0
LINE
  5
1BB
  8
DATA
  6
CONTINUOUS
 62
     7
 10
-17.300000000000011
 20
-164.66555381559999
 30
0.0
 11
-22.70000000000001
 21
-164.66555381559999
 31
0.0
  0
LINE
  5
1BC
  8
DATA
  6
CONTINUOUS
 62
     7
 10
-17.300000000000011
 20
-162.66555381559999
 30
0.0
 11
-17.300000000000011
 21
-164.66555381559999
 31
0.0
  0
LINE
  5
1BD
  8
DATA
  6
CONTINUOUS
 62
     7
 10
-22.70000000000001
 20
-162.66555381559999
 30
0.0
 11
-21.5
 21
-162.66555381559999
 31
0.0
  0
LINE
  5
1BE
  8
DATA
  6
CONTINUOUS
 62
     7
 10
-18.5
 20
-162.66555381559999
 30
0.0
 11
-17.300000000000011
 21
-162.66555381559999
 31
0.0
  0
LINE
  5
1BF
  8
DATA
  6
CONTINUOUS
 62
     7
 10
-22.599999999999991
 20
-162.66555381559999
 30
0.0
 11
-22.599999999999991
 21
-159.30180764191431
 31
0.0
  0
LINE
  5
1C0
  8
DATA
  6
CONTINUOUS
 62
     7
 10
-19.099999999999991
 20
-154.66555381559999
 30
0.0
 11
-20.900000000000009
 21
-154.66555381559999
 31
0.0
  0
ARC
  5
1C1
  8
DATA
  6
CONTINUOUS
 62
     7
 10
-29.639103257741471
 20
-153.31268493105989
 30
0.0
 40
8.8431996453899089
 50
326.47236921403731
 51
351.20010102294691
  0
ARC
  5
1C2
  8
DATA
  6
CONTINUOUS
 62
     7
 10
-20.600000000000041
 20
-159.30180764191431
 30
0.0
 40
1.9999999999999709
 50
146.472369214037
 51
180.0
  0
ARC
  5
1C3
  8
DATA
  6
CONTINUOUS
 62
     7
 10
-10.360896742258531
 20
-153.31268493105989
 30
0.0
 40
8.8431996453899089
 50
188.799898977053
 51
213.52763078596271
  0
ARC
  5
1C4
  8
DATA
  6
CONTINUOUS
 62
     7
 10
-19.399999999999959
 20
-159.30180764191431
 30
0.0
 40
1.9999999999999569
 50
0.0
 51
33.527630785962977
  0
LINE
  5
1C5
  8
DATA
  6
CONTINUOUS
 62
     7
 10
-17.399999999999999
 20
-159.30555381560001
 30
0.0
 11
-17.406293571792091
 21
-162.66555381559999
 31
0.0
  0
LINE
  5
1C6
  8
DATA
  6
CONTINUOUS
 62
     7
 10
-20.600000000000001
 20
-154.66555381559999
 30
0.0
 11
-20.600000000000001
 21
-130.09999999999999
 31
0.0
  0
LINE
  5
1C7
  8
DATA
  6
CONTINUOUS
 62
     7
 10
-20.600000000000001
 20
-129.90000000000001
 30
0.0
 11
-20.600000000000001
 21
-46.999999999967692
 31
0.0
  0
LINE
  5
1C8
  8
DATA
  6
CONTINUOUS
 62
     7
 10
-19.399999999999991
 20
-46.999999999967677
 30
0.0
 11
-19.399999999999991
 21
-129.89999999999989
 31
0.0
  0
LINE
  5
1C9
  8
DATA
  6
CONTINUOUS
 62
     7
 10
-19.399999999999991
 20
-130.09999999999991
 30
0.0
 11
-19.399999999999991
 21
-154.66555381559999
 31
0.0
  0
LINE
  5
1CA
  8
DATA
  6
CONTINUOUS
 62
     7
 10
-20.144999999999971
 20
-158.66555381559999
 30
0.0
 11
-19.854999999999961
 21
-158.66555381559999
 31
0.0
  0
POLYLINE
  5
1CB
  8
DATA
  6
CONTINUOUS
 62
     7
 66
     1
 10
0.0
 20
0.0
 30
0.0
  0
VERTEX
  5
31A
  8
DATA
  6
CONTINUOUS
 62
     7
 10
-18.5
 20
-160.78442734720889
 30
0.0
  0
VERTEX
  5
31B
  8
DATA
  6
CONTINUOUS
 62
     7
 10
-18.5
 20
-164.66555381559999
 30
0.0
  0
VERTEX
  5
31C
  8
DATA
  6
CONTINUOUS
 62
     7
 10
-21.5
 20
-164.66555381559999
 30
0.0
  0
VERTEX
  5
31D
  8
DATA
  6
CONTINUOUS
 62
     7
 10
-21.5
 20
-160.78442734720889
 30
0.0
  0
SEQEND
  5
31E
  8
DATA
  6
CONTINUOUS
 62
     7
  0
ARC
  5
1D2
  8
DATA
  6
CONTINUOUS
 62
     7
 10
-18.756478230460861
 20
-160.85499058140431
 30
0.0
 40
2.7444290608349511
 50
140.6797186864664
 51
181.47331958854701
  0
ARC
  5
1D3
  8
DATA
  6
CONTINUOUS
 62
     7
 10
-19.84211266971128
 20
-159.9838229309868
 30
0.0
 40
1.3526175347939551
 50
102.9397787888534
 51
140.08802550898969
  0
ARC
  5
1D4
  8
DATA
  6
CONTINUOUS
 62
     7
 10
-21.243521769539139
 20
-160.85499058140431
 30
0.0
 40
2.7444290608349382
 50
358.5266804114529
 51
39.320281313533599
  0
ARC
  5
1D5
  8
DATA
  6
CONTINUOUS
 62
     7
 10
-20.157887330288709
 20
-159.9838229309868
 30
0.0
 40
1.352617534793958
 50
39.911974491010291
 51
77.060221211146612
  0
LINE
  5
1D6
  8
DATA
  6
CONTINUOUS
 62
     7
 10
-20.130048201034128
 20
-156.3155538156
 30
0.0
 11
-19.86995179897869
 21
-156.3155538156
 31
0.0
  0
ARC
  5
1D7
  8
DATA
  6
CONTINUOUS
 62
     7
 10
-5.7727872860632479
 20
-163.5978398791697
 30
0.0
 40
16.853018869757449
 50
161.55468141893661
 51
176.8288567004239
  0
ARC
  5
1D8
  8
DATA
  6
CONTINUOUS
 62
     7
 10
-16.536330758210649
 20
-160.58283621454689
 30
0.0
 40
5.7145881797453209
 50
136.07735121345371
 51
156.0773512134576
  0
ARC
  5
1D9
  8
DATA
  6
CONTINUOUS
 62
     7
 10
-19.881693033917401
 20
-157.23234783893039
 30
0.0
 40
0.985177851858794
 50
120.78945751984421
 51
141.4734457241936
  0
ARC
  5
1DA
  8
DATA
  6
CONTINUOUS
 62
     7
 10
-34.227212713936751
 20
-163.5978398791697
 30
0.0
 40
16.853018869757449
 50
3.1711432995760549
 51
18.445318581063379
  0
ARC
  5
1DB
  8
DATA
  6
CONTINUOUS
 62
     7
 10
-23.463669241789351
 20
-160.58283621454689
 30
0.0
 40
5.7145881797453359
 50
23.922648786542439
 51
43.922648786546269
  0
ARC
  5
1DC
  8
DATA
  6
CONTINUOUS
 62
     7
 10
-20.118306966082599
 20
-157.23234783893039
 30
0.0
 40
0.9851778518587995
 50
38.52655427580639
 51
59.2105424814551
  0
ARC
  5
1DD
  8
DATA
  6
CONTINUOUS
 62
     7
 10
-20.130048201034128
 20
-156.81555382303489
 30
0.0
 40
0.5000000074348919
 50
90.0
 51
120.7894575207641
  0
ARC
  5
1DE
  8
DATA
  6
CONTINUOUS
 62
     7
 10
-19.86995179897869
 20
-156.8155538230813
 30
0.0
 40
0.5000000074812788
 50
59.210542483256368
 51
90.0
  0
POLYLINE
  5
1DF
  8
DATA
  6
CONTINUOUS
 62
     7
 66
     1
 10
0.0
 20
0.0
 30
0.0
 70
   129
  0
VERTEX
  5
31F
  8
DATA
  6
CONTINUOUS
 62
     7
 10
-21.5
 20
-151.99999999996771
 30
0.0
  0
VERTEX
  5
320
  8
DATA
  6
CONTINUOUS
 62
     7
 10
-18.5
 20
-151.99999999996771
 30
0.0
  0
VERTEX
  5
321
  8
DATA
  6
CONTINUOUS
 62
     7
 10
-18.5
 20
-151.99999999996771
 30
0.0
 42
-0.4142135623730951
  0
VERTEX
  5
322
  8
DATA
  6
CONTINUOUS
 62
     7
 10
-13.5
 20
-156.99999999996771
 30
0.0
  0
VERTEX
  5
323
  8
DATA
  6
CONTINUOUS
 62
     7
 10
-13.5
 20
-161.99999999996771
 30
0.0
  0
VERTEX
  5
324
  8
DATA
  6
CONTINUOUS
 62
     7
 10
-13.5
 20
-161.99999999996771
 30
0.0
 42
-0.4142135623730951
  0
VERTEX
  5
325
  8
DATA
  6
CONTINUOUS
 62
     7
 10
-18.5
 20
-166.99999999996771
 30
0.0
  0
VERTEX
  5
326
  8
DATA
  6
CONTINUOUS
 62
     7
 10
-21.5
 20
-166.99999999996771
 30
0.0
  0
VERTEX
  5
327
  8
DATA
  6
CONTINUOUS
 62
     7
 10
-21.5
 20
-166.99999999996771
 30
0.0
 42
-0.4142135623730951
  0
VERTEX
  5
328
  8
DATA
  6
CONTINUOUS
 62
     7
 10
-26.5
 20
-161.99999999996771
 30
0.0
  0
VERTEX
  5
329
  8
DATA
  6
CONTINUOUS
 62
     7
 10
-26.5
 20
-156.9999999999676
 30
0.0
  0
VERTEX
  5
32A
  8
DATA
  6
CONTINUOUS
 62
     7
 10
-26.5
 20
-156.9999999999676
 30
0.0
 42
-0.4142135623730918
  0
VERTEX
  5
32B
  8
DATA
  6
CONTINUOUS
 62
     7
 10
-21.5
 20
-151.99999999996771
 30
0.0
  0
SEQEND
  5
32C
  8
DATA
  6
CONTINUOUS
 62
     7
  0
LINE
  5
1EE
  8
DATA
  6
CONTINUOUS
 62
     7
 10
-21.216055561913951
 20
-36.383564742944991
 30
0.0
 11
-18.821142129614049
 21
-36.383564742944991
 31
0.0
  0
LINE
  5
1EF
  8
DATA
  6
CONTINUOUS
 62
     7
 10
-66.586582838174593
 20
-166.61939766252411
 30
0.0
 11
-46.967928040095863
 21
-190.0
 31
0.0
  0
LINE
  5
1F0
  8
DATA
  6
CONTINUOUS
 62
     7
 10
-66.586582838174593
 20
-166.61939766252411
 30
0.0
 11
-61.136486730951283
 21
-170.29553390445599
 31
0.0
  0
LINE
  5
1F1
  8
DATA
  6
CONTINUOUS
 62
     7
 10
-66.586582838174593
 20
-166.61939766252411
 30
0.0
 11
-63.704729277218448
 21
-172.52807308942141
 31
0.0
  0
LINE
  5
1F2
  8
DATA
  6
CONTINUOUS
 62
     7
 10
-46.967928040095863
 20
-190.0
 30
0.0
 11
25.0
 21
-190.0
 31
0.0
  0
LINE
  5
1F3
  8
DATA
  6
CONTINUOUS
 62
     7
 10
-21.400000000000009
 20
3.0
 30
0.0
 11
-20.775000000000009
 21
3.0
 31
0.0
  0
LINE
  5
1F4
  8
DATA
  6
CONTINUOUS
 62
     7
 10
-19.225000000000001
 20
3.0
 30
0.0
 11
-18.600000000000001
 21
3.0
 31
0.0
  0
LINE
  5
1F5
  8
DATA
  6
CONTINUOUS
 62
     7
 10
-21.399999999999999
 20
3.0
 30
0.0
 11
-21.399999999999999
 21
-11.385359893340491
 31
0.0
  0
LINE
  5
1F6
  8
DATA
  6
CONTINUOUS
 62
     7
 10
-21.399999999999999
 20
-21.975894721417749
 30
0.0
 11
-21.399999999999999
 21
-32.034999999999989
 31
0.0
  0
LINE
  5
1F7
  8
DATA
  6
CONTINUOUS
 62
     7
 10
-18.600000000000001
 20
3.0
 30
0.0
 11
-18.600000000000001
 21
-12.56642954949497
 31
0.0
  0
LINE
  5
1F8
  8
DATA
  6
CONTINUOUS
 62
     7
 10
-18.600000000000001
 20
-21.975894721417749
 30
0.0
 11
-18.600000000000001
 21
-32.035000000000011
 31
0.0
  0
POLYLINE
  5
1F9
  8
DATA
  6
CONTINUOUS
 62
     7
 66
     1
 10
0.0
 20
0.0
 30
0.0
 70
   128
  0
VERTEX
  5
32D
  8
DATA
  6
CONTINUOUS
 62
     7
 10
-18.100000000000001
 20
-33.383564742944991
 30
0.0
  0
VERTEX
  5
32E
  8
DATA
  6
CONTINUOUS
 62
     7
 10
-18.100000000000001
 20
-36.383564742944984
 30
0.0
  0
VERTEX
  5
32F
  8
DATA
  6
CONTINUOUS
 62
     7
 10
-21.600000000000001
 20
-36.383564742944991
 30
0.0
  0
VERTEX
  5
330
  8
DATA
  6
CONTINUOUS
 62
     7
 10
-21.600000000000001
 20
-36.383564742944991
 30
0.0
 42
-0.4142135623730951
  0
VERTEX
  5
331
  8
DATA
  6
CONTINUOUS
 62
     7
 10
-21.899999999999999
 20
-36.083564742944993
 30
0.0
  0
VERTEX
  5
332
  8
DATA
  6
CONTINUOUS
 62
     7
 10
-21.899999999999999
 20
-33.383564742944991
 30
0.0
  0
SEQEND
  5
333
  8
DATA
  6
CONTINUOUS
 62
     7
  0
ARC
  5
201
  8
DATA
  6
CONTINUOUS
 62
     7
 10
-24.398185807396889
 20
-31.690352497406749
 30
0.0
 40
3.017929760070623
 50
325.871493463663
 51
353.44251701606549
  0
ARC
  5
202
  8
DATA
  6
CONTINUOUS
 62
     7
 10
-15.601814192603101
 20
-31.690352497406749
 30
0.0
 40
3.017929760070623
 50
186.55748298393451
 51
214.128506536337
  0
POLYLINE
  5
203
  8
DATA
  6
CONTINUOUS
 62
     7
 66
     1
 10
0.0
 20
0.0
 30
0.0
  0
VERTEX
  5
334
  8
DATA
  6
CONTINUOUS
 62
     7
 10
-18.379526741403851
 20
-16.975894721417738
 30
0.0
  0
VERTEX
  5
335
  8
DATA
  6
CONTINUOUS
 62
     7
 10
-18.379526741403851
 20
-21.975894721417749
 30
0.0
  0
VERTEX
  5
336
  8
DATA
  6
CONTINUOUS
 62
     7
 10
-21.679526741403869
 20
-21.975894721417749
 30
0.0
  0
VERTEX
  5
337
  8
DATA
  6
CONTINUOUS
 62
     7
 10
-21.679526741403869
 20
-16.975894721417738
 30
0.0
  0
SEQEND
  5
338
  8
DATA
  6
CONTINUOUS
 62
     7
  0
LINE
  5
20A
  8
DATA
  6
CONTINUOUS
 62
     7
 10
-20.929526741403851
 20
-1.9758947214177469
 30
0.0
 11
-19.129526741403861
 21
-1.9758947214177469
 31
0.0
  0
LINE
  5
20B
  8
DATA
  6
CONTINUOUS
 62
     7
 10
-20.929526741403851
 20
-1.9758947214177469
 30
0.0
 11
-21.679526741403869
 21
-16.975894721417738
 31
0.0
  0
LINE
  5
20C
  8
DATA
  6
CONTINUOUS
 62
     7
 10
-19.129526741403861
 20
-1.9758947214177469
 30
0.0
 11
-18.379526741403851
 21
-16.975894721417738
 31
0.0
  0
LINE
  5
20D
  8
DATA
  6
CONTINUOUS
 62
     7
 10
-20.774999999999999
 20
-1.9758947214177469
 30
0.0
 11
-20.774999999999999
 21
17.80389740635362
 31
0.0
  0
LINE
  5
20E
  8
DATA
  6
CONTINUOUS
 62
     7
 10
-19.225000000000001
 20
17.80389740635362
 30
0.0
 11
-19.225000000000001
 21
-1.9758947214177449
 31
0.0
  0
POLYLINE
  5
20F
  8
DATA
  6
CONTINUOUS
 62
     7
 66
     1
 10
0.0
 20
0.0
 30
0.0
 70
     1
  0
VERTEX
  5
339
  8
DATA
  6
CONTINUOUS
 62
     7
 10
-72.0
 20
-129.90000000000001
 30
0.0
  0
VERTEX
  5
33A
  8
DATA
  6
CONTINUOUS
 62
     7
 10
-68.0
 20
-129.90000000000001
 30
0.0
  0
VERTEX
  5
33B
  8
DATA
  6
CONTINUOUS
 62
     7
 10
-68.0
 20
-130.09999999999999
 30
0.0
  0
VERTEX
  5
33C
  8
DATA
  6
CONTINUOUS
 62
     7
 10
-72.0
 20
-130.09999999999999
 30
0.0
  0
SEQEND
  5
33D
  8
DATA
  6
CONTINUOUS
 62
     7
  0
POLYLINE
  5
216
  8
DATA
  6
CONTINUOUS
 62
     7
 66
     1
 10
0.0
 20
0.0
 30
0.0
 70
     1
  0
VERTEX
  5
33E
  8
DATA
  6
CONTINUOUS
 62
     7
 10
-22.0
 20
-129.90000000000001
 30
0.0
  0
VERTEX
  5
33F
  8
DATA
  6
CONTINUOUS
 62
     7
 10
-18.0
 20
-129.90000000000001
 30
0.0
  0
VERTEX
  5
340
  8
DATA
  6
CONTINUOUS
 62
     7
 10
-18.0
 20
-130.09999999999999
 30
0.0
  0
VERTEX
  5
341
  8
DATA
  6
CONTINUOUS
 62
     7
 10
-22.0
 20
-130.09999999999999
 30
0.0
  0
SEQEND
  5
342
  8
DATA
  6
CONTINUOUS
 62
     7
  0
POLYLINE
  5
21D
  8
DATA
  6
CONTINUOUS
 62
     7
 66
     1
 10
0.0
 20
0.0
 30
0.0
 70
     1
  0
VERTEX
  5
343
  8
DATA
  6
CONTINUOUS
 62
     7
 10
90.218228733230447
 20
-99.900000000000006
 30
0.0
  0
VERTEX
  5
344
  8
DATA
  6
CONTINUOUS
 62
     7
 10
94.218228733230418
 20
-99.900000000000006
 30
0.0
  0
VERTEX
  5
345
  8
DATA
  6
CONTINUOUS
 62
     7
 10
94.218228733230418
 20
-100.09999999999999
 30
0.0
  0
VERTEX
  5
346
  8
DATA
  6
CONTINUOUS
 62
     7
 10
90.218228733230447
 20
-100.09999999999999
 30
0.0
  0
SEQEND
  5
347
  8
DATA
  6
CONTINUOUS
 62
     7
  0
POLYLINE
  5
224
  8
DATA
  6
CONTINUOUS
 62
     7
 66
     1
 10
0.0
 20
0.0
 30
0.0
  0
VERTEX
  5
348
  8
DATA
  6
CONTINUOUS
 62
     7
 10
-21.5
 20
-45.005553815600003
 30
0.0
  0
VERTEX
  5
349
  8
DATA
  6
CONTINUOUS
 62
     7
 10
-21.5
 20
-40.999999999967692
 30
0.0
  0
VERTEX
  5
34A
  8
DATA
  6
CONTINUOUS
 62
     7
 10
-18.5
 20
-40.999999999967692
 30
0.0
  0
VERTEX
  5
34B
  8
DATA
  6
CONTINUOUS
 62
     7
 10
-18.5
 20
-45.005553815600003
 30
0.0
  0
SEQEND
  5
34C
  8
DATA
  6
CONTINUOUS
 62
     7
  0
LINE
  5
22B
  8
DATA
  6
CONTINUOUS
 62
     7
 10
-19.25
 20
-46.999999999967677
 30
0.0
 11
-20.75
 21
-46.999999999967677
 31
0.0
  0
LINE
  5
22C
  8
DATA
  6
CONTINUOUS
 62
     7
 10
-20.75
 20
-46.999999999967677
 30
0.0
 11
-21.5
 21
-45.005553815600003
 31
0.0
  0
LINE
  5
22D
  8
DATA
  6
CONTINUOUS
 62
     7
 10
-19.25
 20
-46.999999999967677
 30
0.0
 11
-18.5
 21
-45.005553815600003
 31
0.0
  0
LINE
  5
22E
  8
DATA
  6
CONTINUOUS
 62
     7
 10
-21.27
 20
-40.10555381559999
 30
0.0
 11
-20.58192587712977
 21
-39.38570870505977
 31
0.0
  0
LINE
  5
22F
  8
DATA
  6
CONTINUOUS
 62
     7
 10
-18.77
 20
-40.10555381559999
 30
0.0
 11
-19.422330012591239
 21
-39.385708705059791
 31
0.0
  0
LINE
  5
230
  8
DATA
  6
CONTINUOUS
 62
     7
 10
-21.27
 20
-40.10555381559999
 30
0.0
 11
-21.27
 21
-40.999999999967692
 31
0.0
  0
LINE
  5
231
  8
DATA
  6
CONTINUOUS
 62
     7
 10
-18.77
 20
-40.10555381559999
 30
0.0
 11
-18.77
 21
-40.999999999967692
 31
0.0
  0
LINE
  5
232
  8
DATA
  6
CONTINUOUS
 62
     7
 10
-20.58192587712977
 20
-39.385708705059791
 30
0.0
 11
-19.422330012591239
 21
-39.385708705059791
 31
0.0
  0
LINE
  5
233
  8
DATA
  6
CONTINUOUS
 62
     7
 10
-21.27
 20
-40.438578293354887
 30
0.0
 11
-18.77
 21
-40.438578293354887
 31
0.0
  0
LINE
  5
234
  8
DATA
  6
CONTINUOUS
 62
     7
 10
-21.216055561913951
 20
-40.049118558544997
 30
0.0
 11
-18.821142129614049
 21
-40.049118558544997
 31
0.0
  0
LINE
  5
235
  8
DATA
  6
CONTINUOUS
 62
     7
 10
-20.502127944860518
 20
-39.385708705059791
 30
0.0
 11
-20.502127944860518
 21
-36.383564742944991
 31
0.0
  0
LINE
  5
236
  8
DATA
  6
CONTINUOUS
 62
     7
 10
-19.502127944860518
 20
-36.383564742944984
 30
0.0
 11
-19.502127944860518
 21
-39.385708705059791
 31
0.0
  0
LINE
  5
237
  8
DATA
  6
CONTINUOUS
 62
     7
 10
-68.76523905611694
 20
-5.5249231234857348
 30
0.0
 11
-68.76523905611694
 21
-5.5911354899811201
 31
0.0
  0
ENDSEC
  0
EOF
