  0
SECTION
  2
HEADER
  9
$ACADVER
  1
AC1009
  9
$INSBASE
 10
0.0
 20
0.0
 30
0.0
  9
$EXTMIN
 10
29.989015033921529
 20
7.2674579490762881
 30
-0.0015258207003583
  9
$EXTMAX
 10
570.01739634668616
 20
810.02472112423811
 30
0.0000000349246037
  9
$LIMMIN
 10
0.0
 20
0.0
  9
$LIMMAX
 10
0.0
 20
0.0
  9
$ORTHOMODE
 70
     0
  9
$REGENMODE
 70
     1
  9
$FILLMODE
 70
     1
  9
$QTEXTMODE
 70
     0
  9
$MIRRTEXT
 70
     1
  9
$DRAGMODE
 70
     2
  9
$LTSCALE
 40
15.24
  9
$OSMODE
 70
   231
  9
$ATTMODE
 70
     1
  9
$TEXTSIZE
 40
0.0
  9
$TRACEWID
 40
1.0
  9
$TEXTSTYLE
  7
STANDARD
  9
$CLAYER
  8
DATA
  9
$CELTYPE
  6
BYLAYER
  9
$CECOLOR
 62
   256
  9
$DIMSCALE
 40
1.0
  9
$DIMASZ
 40
0.18
  9
$DIMEXO
 40
0.0625
  9
$DIMDLI
 40
0.38
  9
$DIMRND
 40
0.0
  9
$DIMDLE
 40
0.0
  9
$DIMEXE
 40
0.18
  9
$DIMTP
 40
0.0
  9
$DIMTM
 40
0.0
  9
$DIMTXT
 40
0.18
  9
$DIMCEN
 40
0.09
  9
$DIMTSZ
 40
0.0
  9
$DIMTOL
 70
     0
  9
$DIMLIM
 70
     0
  9
$DIMTIH
 70
     1
  9
$DIMTOH
 70
     1
  9
$DIMSE1
 70
     0
  9
$DIMSE2
 70
     0
  9
$DIMTAD
 70
     0
  9
$DIMZIN
 70
     0
  9
$DIMBLK
  1

  9
$DIMASO
 70
     1
  9
$DIMSHO
 70
     1
  9
$DIMPOST
  1

  9
$DIMAPOST
  1

  9
$DIMALT
 70
     0
  9
$DIMALTD
 70
     2
  9
$DIMALTF
 40
25.399999999999999
  9
$DIMLFAC
 40
1.0
  9
$DIMTOFL
 70
     0
  9
$DIMTVP
 40
0.0
  9
$DIMTIX
 70
     0
  9
$DIMSOXD
 70
     0
  9
$DIMSAH
 70
     0
  9
$DIMBLK1
  1

  9
$DIMBLK2
  1

  9
$DIMSTYLE
  2
STANDARD
  9
$DIMCLRD
 70
     0
  9
$DIMCLRE
 70
     0
  9
$DIMCLRT
 70
     0
  9
$DIMTFAC
 40
1.0
  9
$DIMGAP
 40
0.09
  9
$LUNITS
 70
     2
  9
$LUPREC
 70
     4
  9
$SKETCHINC
 40
0.1
  9
$FILLETRAD
 40
0.0
  9
$AUNITS
 70
     0
  9
$AUPREC
 70
     0
  9
$MENU
  1
acad
  9
$ELEVATION
 40
0.0
  9
$PELEVATION
 40
0.0
  9
$THICKNESS
 40
0.0
  9
$LIMCHECK
 70
     0
  9
$BLIPMODE
 70
     0
  9
$CHAMFERA
 40
0.0
  9
$CHAMFERB
 40
0.0
  9
$SKPOLY
 70
     0
  9
$TDCREATE
 40
2455477.4234606479
  9
$TDUPDATE
 40
2455477.4293488078
  9
$TDINDWG
 40
0.0002604514
  9
$TDUSRTIMER
 40
0.0002604514
  9
$USRTIMER
 70
     1
  9
$ANGBASE
 50
0.0
  9
$ANGDIR
 70
     0
  9
$PDMODE
 70
     1
  9
$PDSIZE
 40
-2.0
  9
$PLINEWID
 40
0.0
  9
$COORDS
 70
     0
  9
$SPLFRAME
 70
     0
  9
$SPLINETYPE
 70
     6
  9
$SPLINESEGS
 70
     8
  9
$ATTDIA
 70
     0
  9
$ATTREQ
 70
     1
  9
$HANDLING
 70
     1
  9
$HANDSEED
  5
2BE
  9
$SURFTAB1
 70
     6
  9
$SURFTAB2
 70
     6
  9
$SURFTYPE
 70
     6
  9
$SURFU
 70
     6
  9
$SURFV
 70
     6
  9
$UCSNAME
  2

  9
$UCSORG
 10
0.0
 20
0.0
 30
0.0
  9
$UCSXDIR
 10
1.0
 20
0.0
 30
0.0
  9
$UCSYDIR
 10
0.0
 20
1.0
 30
0.0
  9
$PUCSNAME
  2

  9
$PUCSORG
 10
0.0
 20
0.0
 30
0.0
  9
$PUCSXDIR
 10
1.0
 20
0.0
 30
0.0
  9
$PUCSYDIR
 10
0.0
 20
1.0
 30
0.0
  9
$USERI1
 70
     0
  9
$USERI2
 70
     0
  9
$USERI3
 70
     0
  9
$USERI4
 70
     0
  9
$USERI5
 70
     0
  9
$USERR1
 40
0.0
  9
$USERR2
 40
0.0
  9
$USERR3
 40
0.0
  9
$USERR4
 40
0.0
  9
$USERR5
 40
0.0
  9
$WORLDVIEW
 70
     1
  9
$SHADEDGE
 70
     3
  9
$SHADEDIF
 70
    70
  9
$TILEMODE
 70
     1
  9
$MAXACTVP
 70
    64
  9
$PLIMCHECK
 70
     0
  9
$PEXTMIN
 10
1.0000000000000000E+020
 20
1.0000000000000000E+020
 30
1.0000000000000000E+020
  9
$PEXTMAX
 10
-1.0000000000000000E+020
 20
-1.0000000000000000E+020
 30
-1.0000000000000000E+020
  9
$PLIMMIN
 10
0.0
 20
0.0
  9
$PLIMMAX
 10
12.0
 20
9.0
  9
$UNITMODE
 70
     0
  9
$VISRETAIN
 70
     0
  9
$PLINEGEN
 70
     1
  9
$PSLTSCALE
 70
     0
  0
ENDSEC
  0
SECTION
  2
TABLES
  0
TABLE
  2
VPORT
 70
     1
  0
VPORT
  2
*ACTIVE
 70
     0
 10
0.0
 20
0.0
 11
1.0
 21
1.0
 12
300.00320569030379
 22
408.64608953665709
 13
0.0
 23
0.0
 14
1.0
 24
1.0
 15
0.0
 25
0.0
 16
0.0
 26
0.0
 36
1.0
 17
0.0
 27
0.0
 37
0.0
 40
808.66713259731011
 41
1.9619164619164611
 42
50.0
 43
0.0
 44
0.0
 50
0.0
 51
0.0
 71
     0
 72
  2000
 73
     1
 74
     1
 75
     0
 76
     0
 77
     0
 78
     0
  0
ENDTAB
  0
TABLE
  2
LTYPE
 70
    11
  0
LTYPE
  2
CONTINUOUS
 70
     0
  3
Solid line
 72
    65
 73
     0
 40
0.0
  0
ENDTAB
  0
TABLE
  2
LAYER
 70
     5
  0
LAYER
  2
0
 70
     0
 62
     7
  6
CONTINUOUS
  0
LAYER
  2
DATA
 70
     0
 62
     7
  6
CONTINUOUS
  0
LAYER
  2
HIBINO-BASE
 70
     0
 62
     7
  6
CONTINUOUS
  0
LAYER
  2
SPEC
 70
     0
 62
     7
  6
CONTINUOUS
  0
LAYER
  2
DIMNSIONS
 70
     0
 62
     7
  6
CONTINUOUS
  0
ENDTAB
  0
TABLE
  2
STYLE
 70
     3
  0
STYLE
  2
STANDARD
 70
     0
 40
0.0
 41
1.0
 50
0.0
 71
     0
 42
0.0
  3
txt
  4
BIGFONT.SHX
  0
ENDTAB
  0
TABLE
  2
VIEW
 70
     0
  0
ENDTAB
  0
TABLE
  2
UCS
 70
     0
  0
ENDTAB
  0
TABLE
  2
APPID
 70
     3
  0
APPID
  2
ACAD
 70
     0
  0
APPID
  2
ACADANNOTATIVE
 70
     0
  0
APPID
  2
ACAD_MLEADERVER
 70
     0
  0
ENDTAB
  0
TABLE
  2
DIMSTYLE
 70
     2
  0
DIMSTYLE
  2
STANDARD
 70
     0
  3

  4

  5

  6

  7

 40
1.0
 41
0.18
 42
0.0625
 43
0.38
 44
0.18
 45
0.0
 46
0.0
 47
0.0
 48
0.0
140
0.18
141
0.09
142
0.0
143
25.399999999999999
144
1.0
145
0.0
146
1.0
147
0.09
 71
     0
 72
     0
 73
     1
 74
     1
 75
     0
 76
     0
 77
     0
 78
     0
170
     0
171
     2
172
     0
173
     0
174
     0
175
     0
176
     0
177
     0
178
     0
  0
ENDTAB
  0
ENDSEC
  0
SECTION
  2
BLOCKS
  0
BLOCK
  8
0
  2
$MODEL_SPACE
 70
     0
 10
0.0
 20
0.0
 30
0.0
  3
$MODEL_SPACE
  1

  0
ENDBLK
  5
239
  8
0
  0
BLOCK
 67
     1
  8
0
  2
$PAPER_SPACE
 70
     0
 10
0.0
 20
0.0
 30
0.0
  3
$PAPER_SPACE
  1

  0
ENDBLK
  5
235
 67
     1
  8
0
  0
ENDSEC
  0
SECTION
  2
ENTITIES
  0
LINE
  5
2C
  8
HIBINO-BASE
  6
CONTINUOUS
 62
     7
 10
30.0
 20
810.0
 30
0.0
 11
569.99999999999989
 21
810.0
 31
0.0
  0
LINE
  5
2D
  8
HIBINO-BASE
  6
CONTINUOUS
 62
     7
 10
569.99999999999989
 20
30.0
 30
0.0
 11
30.0
 21
30.0
 31
0.0
  0
LINE
  5
2E
  8
HIBINO-BASE
  6
CONTINUOUS
 62
     7
 10
30.0
 20
30.0
 30
0.0
 11
30.0
 21
810.0
 31
0.0
  0
LINE
  5
2F
  8
HIBINO-BASE
  6
CONTINUOUS
 62
     7
 10
569.99999999999989
 20
810.0
 30
0.0
 11
569.99999999999989
 21
30.0
 31
0.0
  0
LINE
  5
30
  8
HIBINO-BASE
  6
CONTINUOUS
 62
     7
 10
300.0
 20
97.500000000000057
 30
0.0
 11
569.99999999999989
 21
97.500000000000057
 31
0.0
  0
LINE
  5
31
  8
HIBINO-BASE
  6
CONTINUOUS
 62
     7
 10
300.0
 20
30.0
 30
0.0
 11
300.0
 21
97.500000000000057
 31
0.0
  0
TEXT
  5
32
  8
HIBINO-BASE
 62
     7
 10
302.69999999999987
 20
89.973919999999993
 30
0.0
 40
4.8865234374999993
  1
NOTE
 41
0.7
 11
302.69999999999987
 21
94.860443437499995
 31
0.0
 73
     3
  0
LINE
  5
33
  8
HIBINO-BASE
  6
CONTINUOUS
 62
     7
 10
405.0
 20
30.0
 30
0.0
 11
405.0
 21
97.500000000000057
 31
0.0
  0
TEXT
  5
34
  8
HIBINO-BASE
 62
     7
 10
407.69999999999987
 20
89.973919999999993
 30
0.0
 40
4.8865234374999993
  1
TITLE
 41
0.7
 11
407.69999999999987
 21
94.860443437499995
 31
0.0
 73
     3
  0
LINE
  5
35
  8
HIBINO-BASE
  6
CONTINUOUS
 62
     7
 10
300.0
 20
60.000000000000071
 30
0.0
 11
569.99999999999989
 21
60.000000000000071
 31
0.0
  0
TEXT
  5
36
  8
HIBINO-BASE
 62
     7
 10
445.19999999999987
 20
52.64287999999997
 30
0.0
 40
4.8865234374999993
  1
DRAWN
 41
0.7
 11
445.19999999999987
 21
57.529403437499973
 31
0.0
 73
     3
  0
TEXT
  5
37
  8
HIBINO-BASE
 62
     7
 10
370.19999999999987
 20
52.64287999999997
 30
0.0
 40
4.8865234374999993
  1
DATE
 41
0.7
 11
370.19999999999987
 21
57.529403437499973
 31
0.0
 73
     3
  0
TEXT
  5
38
  8
HIBINO-BASE
 62
     7
 10
340.19999999999987
 20
52.64287999999997
 30
0.0
 40
4.8865234374999993
  1
SCALE
 41
0.7
 11
340.19999999999987
 21
57.529403437499973
 31
0.0
 73
     3
  0
TEXT
  5
39
  8
HIBINO-BASE
 62
     7
 10
407.69999999999987
 20
52.64287999999997
 30
0.0
 40
4.8865234374999993
  1
DESIGN
 41
0.7
 11
407.69999999999987
 21
57.529403437499973
 31
0.0
 73
     3
  0
TEXT
  5
3A
  8
HIBINO-BASE
 62
     7
 10
520.19999999999993
 20
52.64287999999997
 30
0.0
 40
4.8865234374999993
  1
DRAWING NO.
 41
0.7
 11
520.19999999999993
 21
57.529403437499973
 31
0.0
 73
     3
  0
TEXT
  5
3B
  8
HIBINO-BASE
 62
     7
 10
482.69999999999987
 20
52.64287999999997
 30
0.0
 40
4.8865234374999993
  1
CHECK
 41
0.7
 11
482.69999999999987
 21
57.529403437499973
 31
0.0
 73
     3
  0
LINE
  5
3C
  8
HIBINO-BASE
  6
CONTINUOUS
 62
     7
 10
343.12499999999989
 20
33.75
 30
0.0
 11
354.37499999999989
 21
45.000000000000057
 31
0.0
  0
TEXT
  5
3D
  8
HIBINO-BASE
 62
     7
 10
341.25
 20
41.673170000000013
 30
0.0
 40
4.8865234374999993
  1
1
 41
0.7
 11
341.25
 21
46.559693437500009
 31
0.0
 73
     3
  0
LINE
  5
3E
  8
HIBINO-BASE
  6
CONTINUOUS
 62
     7
 10
337.5
 20
30.0
 30
0.0
 11
337.5
 21
60.000000000000071
 31
0.0
  0
LINE
  5
3F
  8
HIBINO-BASE
  6
CONTINUOUS
 62
     7
 10
367.5
 20
30.0
 30
0.0
 11
367.5
 21
60.000000000000071
 31
0.0
  0
LINE
  5
40
  8
HIBINO-BASE
  6
CONTINUOUS
 62
     7
 10
442.49999999999989
 20
60.000000000000071
 30
0.0
 11
442.49999999999989
 21
30.0
 31
0.0
  0
LINE
  5
41
  8
HIBINO-BASE
  6
CONTINUOUS
 62
     7
 10
517.49999999999989
 20
60.000000000000071
 30
0.0
 11
517.49999999999989
 21
30.0
 31
0.0
  0
LINE
  5
42
  8
HIBINO-BASE
  6
CONTINUOUS
 62
     7
 10
479.99999999999989
 20
30.0
 30
0.0
 11
479.99999999999989
 21
60.000000000000071
 31
0.0
  0
TEXT
  5
43
  8
HIBINO-BASE
 62
     7
 10
370.06961999999987
 20
38.590939999999982
 30
0.0
 40
4.8865234374999993
  1
'10.10.
 41
0.7
 11
370.06961999999987
 21
43.477463437499978
 31
0.0
 73
     3
  0
TEXT
  5
44
  8
HIBINO-BASE
 62
     7
 10
352.49999999999989
 20
36.048170000000013
 30
0.0
 40
4.8865234374999993
  1
3
 41
0.7
 11
352.49999999999989
 21
40.934693437500009
 31
0.0
 73
     3
  0
TEXT
  5
45
  8
HIBINO-BASE
 62
     7
 10
447.01743003310372
 20
38.590939999999982
 30
0.0
 40
4.8865234374999993
  1
T.Ootake
 41
0.7
 11
447.01743003310372
 21
43.477463437499978
 31
0.0
 73
     3
  0
TEXT
  5
46
  8
HIBINO-BASE
 62
     7
 10
311.64999999999998
 20
35.928000000000033
 30
0.0
 40
9.7730468749999986
  1
A4
 41
0.7
 11
311.64999999999998
 21
45.701046875000031
 31
0.0
 73
     3
  0
TEXT
  5
47
  8
HIBINO-BASE
 62
     7
 10
302.875
 20
52.141635000000051
 30
0.0
 40
4.8865234374999993
  1
PAPER SIZE
 41
0.7
 11
302.875
 21
57.028158437500053
 31
0.0
 73
     3
  0
TEXT
  5
48
  8
HIBINO-BASE
 62
     7
 10
38.742632240394357
 20
10.816519385235591
 30
0.0
 40
10.58746744791666
  1
Hibino-Intersound Corporation
 41
0.7
 11
38.742632240394357
 21
21.40398683315226
 31
0.0
 73
     3
  0
TEXT
  5
49
  8
HIBINO-BASE
 62
     7
 10
361.9378998119634
 20
11.74753638661347
 30
0.0
 40
10.58746744791666
  1
ヒビノインターサウンド株式会社
 41
0.7
 11
361.9378998119634
 21
22.335003834530141
 31
0.0
 73
     3
  0
LINE
  5
4A
  8
SPEC
  6
CONTINUOUS
 62
     7
 10
52.5
 20
780.0
 30
0.0
 11
495.0
 21
780.0
 31
0.0
  0
LINE
  5
4B
  8
SPEC
  6
CONTINUOUS
 62
     7
 10
52.5
 20
768.75
 30
0.0
 11
495.0
 21
768.75
 31
0.0
  0
LINE
  5
4C
  8
SPEC
  6
CONTINUOUS
 62
     7
 10
52.5
 20
723.74999999999989
 30
0.0
 11
495.0
 21
723.74999999999989
 31
0.0
  0
LINE
  5
4D
  8
SPEC
  6
CONTINUOUS
 62
     7
 10
52.5
 20
735.0
 30
0.0
 11
495.0
 21
735.0
 31
0.0
  0
LINE
  5
4E
  8
SPEC
  6
CONTINUOUS
 62
     7
 10
52.5
 20
746.25
 30
0.0
 11
495.0
 21
746.25
 31
0.0
  0
LINE
  5
4F
  8
SPEC
  6
CONTINUOUS
 62
     7
 10
52.5
 20
712.5
 30
0.0
 11
495.0
 21
712.5
 31
0.0
  0
LINE
  5
50
  8
SPEC
  6
CONTINUOUS
 62
     7
 10
52.5
 20
690.0
 30
0.0
 11
495.0
 21
690.0
 31
0.0
  0
LINE
  5
51
  8
SPEC
  6
CONTINUOUS
 62
     7
 10
52.5
 20
701.25
 30
0.0
 11
495.0
 21
701.25
 31
0.0
  0
LINE
  5
52
  8
SPEC
  6
CONTINUOUS
 62
     7
 10
52.5
 20
757.5
 30
0.0
 11
495.0
 21
757.5
 31
0.0
  0
LINE
  5
53
  8
SPEC
  6
CONTINUOUS
 62
     7
 10
52.5
 20
780.0
 30
0.0
 11
52.5
 21
667.49999999999989
 31
0.0
  0
TEXT
  5
54
  8
SPEC
 62
     7
 10
56.25
 20
784.17980999999986
 30
0.0
 40
7.3297851562499989
  1
仕様
 41
0.7
 11
56.25
 21
791.50959515624982
 31
0.0
 73
     3
  0
LINE
  5
55
  8
SPEC
  6
CONTINUOUS
 62
     7
 10
495.0
 20
780.0
 30
0.0
 11
495.0
 21
667.49999999999989
 31
0.0
  0
TEXT
  5
56
  8
SPEC
 62
     7
 10
55.057447585664143
 20
771.48901474726665
 30
0.0
 40
5.700933749999999
  1
形式
 41
0.7
 11
55.057447585664143
 21
777.18994849726664
 31
0.0
 73
     3
  0
TEXT
  5
57
  8
SPEC
 62
     7
 10
196.7703870241906
 20
771.76473000204101
 30
0.0
 40
5.700933749999999
  1
RS232延長機
 41
0.7
 11
196.7703870241906
 21
777.465663752041
 31
0.0
 73
     3
  0
TEXT
  5
58
  8
SPEC
 62
     7
 10
54.910202906379617
 20
704.44685777687391
 30
0.0
 40
5.700933749999999
  1
寸法
 41
0.7
 11
54.910202906379617
 21
710.1477915268739
 31
0.0
 73
     3
  0
TEXT
  5
59
  8
SPEC
 62
     7
 10
55.070052079801421
 20
693.16449451324036
 30
0.0
 40
5.700933749999999
  1
重量
 41
0.7
 11
55.070052079801421
 21
698.86542826324035
 31
0.0
 73
     3
  0
TEXT
  5
5A
  8
SPEC
 62
     7
 10
55.046238033455317
 20
726.66373829905626
 30
0.0
 40
5.700933749999999
  1
電源
 41
0.7
 11
55.046238033455317
 21
732.36467204905637
 31
0.0
 73
     3
  0
TEXT
  5
5B
  8
SPEC
 62
     7
 10
55.259260644918129
 20
760.01417351148132
 30
0.0
 40
5.700933749999999
  1
RS232入力端子
 41
0.7
 11
55.259260644918129
 21
765.71510726148131
 31
0.0
 73
     3
  0
TEXT
  5
5C
  8
SPEC
 62
     7
 10
196.77881173760321
 20
726.40054559816645
 30
0.0
 40
5.700933749999999
  1
5V DC@1A(最大)
 41
0.7
 11
196.77881173760321
 21
732.10147934816655
 31
0.0
 73
     3
  0
TEXT
  5
5D
  8
SPEC
 62
     7
 10
196.82737015396219
 20
760.04190288920552
 30
0.0
 40
5.700933749999999
  1
DB-9 female
 41
0.7
 11
196.82737015396219
 21
765.74283663920539
 31
0.0
 73
     3
  0
TEXT
  5
5E
  8
SPEC
 62
     7
 10
196.8126600542605
 20
703.8914430718421
 30
0.0
 40
5.7009440104166647
  1
35(W)\U+00D724(H)\U+00D794(D)mm(突起部含まず)、(センダー、レシーバー共に)
 41
0.7
 11
196.8126600542605
 21
709.59238708225894
 31
0.0
 73
     3
  0
TEXT
  5
5F
  8
SPEC
 62
     7
 10
196.6543421966858
 20
693.22884178599816
 30
0.0
 40
5.7009440104166647
  1
約75g(センダー、レシーバー共に）
 41
0.7
 11
196.6543421966858
 21
698.92978579641499
 31
0.0
 73
     3
  0
LINE
  5
60
  8
SPEC
  6
CONTINUOUS
 62
     7
 10
52.5
 20
678.75
 30
0.0
 11
495.0
 21
678.75
 31
0.0
  0
TEXT
  5
61
  8
SPEC
 62
     7
 10
55.08077192297786
 20
715.51636806036674
 30
0.0
 40
5.700933749999999
  1
消費電力
 41
0.7
 11
55.08077192297786
 21
721.21730181036685
 31
0.0
 73
     3
  0
TEXT
  5
62
  8
SPEC
 62
     7
 10
196.69671695938359
 20
715.03075033625703
 30
0.0
 40
5.700933749999999
  1
5W(最大)
 41
0.7
 11
196.69671695938359
 21
720.73168408625702
 31
0.0
 73
     3
  0
TEXT
  5
63
  8
SPEC
 62
     7
 10
55.209132525656877
 20
749.25629631051595
 30
0.0
 40
5.700933749999999
  1
RS232出力端子
 41
0.7
 11
55.209132525656877
 21
754.95723006051594
 31
0.0
 73
     3
  0
TEXT
  5
64
  8
SPEC
 62
     7
 10
196.81578614180691
 20
749.10265907558733
 30
0.0
 40
5.700933749999999
  1
DB-9 male
 41
0.7
 11
196.81578614180691
 21
754.80359282558732
 31
0.0
 73
     3
  0
TEXT
  5
65
  8
SPEC
 62
     7
 10
53.637042746365267
 20
737.8544052883185
 30
0.0
 40
5.700933749999999
  1
リンクコネクター
 41
0.7
 11
53.637042746365267
 21
743.55533903831838
 31
0.0
 73
     3
  0
TEXT
  5
66
  8
SPEC
 62
     7
 10
196.78919801833979
 20
737.67867708064
 30
0.0
 40
5.700933749999999
  1
RJ-45シールド付き
 41
0.7
 11
196.78919801833979
 21
743.37961083063999
 31
0.0
 73
     3
  0
LINE
  5
67
  8
SPEC
  6
CONTINUOUS
 62
     7
 10
52.5
 20
667.49999999999989
 30
0.0
 11
495.0
 21
667.49999999999989
 31
0.0
  0
TEXT
  5
68
  8
SPEC
 62
     7
 10
55.175506760541907
 20
681.82616362316332
 30
0.0
 40
5.700933749999999
  1
サポート
 41
0.7
 11
55.175506760541907
 21
687.52709737316331
 31
0.0
 73
     3
  0
TEXT
  5
69
  8
SPEC
 62
     7
 10
196.70913688006539
 20
681.82517561431087
 30
0.0
 40
5.7009440104166647
  1
full 9-pin RS-232標準
 41
0.7
 11
196.70913688006539
 21
687.52611962472758
 31
0.0
 73
     3
  0
TEXT
  5
6A
  8
SPEC
 62
     7
 10
55.325205983136641
 20
670.94786399913403
 30
0.0
 40
5.700933749999999
  1
最大データトランスミッションレート
 41
0.7
 11
55.325205983136641
 21
676.64879774913402
 31
0.0
 73
     3
  0
TEXT
  5
6B
  8
SPEC
 62
     7
 10
196.70913688006539
 20
670.57517561431075
 30
0.0
 40
5.7009440104166647
  1
115,200 baud
 41
0.7
 11
196.70913688006539
 21
676.27611962472747
 31
0.0
 73
     3
  0
LINE
  5
6C
  8
SPEC
  6
CONTINUOUS
 62
     7
 10
194.0
 20
667.49999999999989
 30
0.0
 11
194.0
 21
780.0
 31
0.0
  0
TEXT
  5
6D
  8
DIMNSIONS
 62
     7
 10
240.0
 20
66.808470000000028
 30
0.0
 40
7.3297851562499989
  1
(単位：mm)
 41
0.7
 11
240.0
 21
74.138255156250025
 31
0.0
 73
     3
  0
LINE
  5
6E
  8
DIMNSIONS
  6
CONTINUOUS
 62
     7
 10
151.16263876916929
 20
431.25382330114189
 30
0.0
 11
131.5
 21
431.25382330114189
 31
0.0
  0
LINE
  5
6F
  8
DIMNSIONS
  6
CONTINUOUS
 62
     7
 10
151.25
 20
455.25
 30
0.0
 11
131.5
 21
455.25
 31
0.0
  0
LINE
  5
70
  8
DIMNSIONS
  6
CONTINUOUS
 62
     7
 10
137.5
 20
431.25382330114189
 30
0.0
 11
137.5
 21
455.25
 31
0.0
  0
LINE
  5
71
  8
DIMNSIONS
  6
CONTINUOUS
 62
     7
 10
137.5
 20
431.25382330114189
 30
0.0
 11
135.48988061454921
 21
438.75569097692318
 31
0.0
  0
LINE
  5
72
  8
DIMNSIONS
  6
CONTINUOUS
 62
     7
 10
137.5
 20
431.25382330114189
 30
0.0
 11
139.51011938545071
 21
438.75569097692318
 31
0.0
  0
LINE
  5
73
  8
DIMNSIONS
  6
CONTINUOUS
 62
     7
 10
137.5
 20
455.25
 30
0.0
 11
139.51011938545071
 21
447.74813232421877
 31
0.0
  0
LINE
  5
74
  8
DIMNSIONS
  6
CONTINUOUS
 62
     7
 10
137.5
 20
455.25
 30
0.0
 11
135.48988061454921
 21
447.74813232421877
 31
0.0
  0
TEXT
  5
75
  8
DIMNSIONS
 62
     7
 10
134.51833333333329
 20
437.96024498390432
 30
0.0
 40
8.1442057291666661
  1
24
 50
90.0
 41
0.7
 11
126.3741276041667
 21
437.96024498390432
 31
0.0
 73
     3
  0
LINE
  5
76
  8
DIMNSIONS
  6
CONTINUOUS
 62
     7
 10
156.25
 20
426.25
 30
0.0
 11
156.25
 21
406.5
 31
0.0
  0
LINE
  5
77
  8
DIMNSIONS
  6
CONTINUOUS
 62
     7
 10
191.25
 20
426.25
 30
0.0
 11
191.25
 21
406.5
 31
0.0
  0
LINE
  5
78
  8
DIMNSIONS
  6
CONTINUOUS
 62
     7
 10
156.25
 20
412.5
 30
0.0
 11
191.25
 21
412.5
 31
0.0
  0
LINE
  5
79
  8
DIMNSIONS
  6
CONTINUOUS
 62
     7
 10
156.25
 20
412.5
 30
0.0
 11
163.7518676757812
 21
414.51011938545071
 31
0.0
  0
LINE
  5
7A
  8
DIMNSIONS
  6
CONTINUOUS
 62
     7
 10
156.25
 20
412.5
 30
0.0
 11
163.7518676757812
 21
410.48988061454918
 31
0.0
  0
LINE
  5
7B
  8
DIMNSIONS
  6
CONTINUOUS
 62
     7
 10
191.25
 20
412.5
 30
0.0
 11
183.74813232421869
 21
410.48988061454918
 31
0.0
  0
LINE
  5
7C
  8
DIMNSIONS
  6
CONTINUOUS
 62
     7
 10
191.25
 20
412.5
 30
0.0
 11
183.74813232421869
 21
414.51011938545071
 31
0.0
  0
TEXT
  5
7D
  8
DIMNSIONS
 62
     7
 10
168.45833333333329
 20
415.48166666666663
 30
0.0
 40
8.1442057291666661
  1
35
 41
0.7
 11
168.45833333333329
 21
423.6258723958332
 31
0.0
 73
     3
  0
LINE
  5
7E
  8
DIMNSIONS
  6
CONTINUOUS
 62
     7
 10
156.5
 20
428.24999999999989
 30
0.0
 11
131.5
 21
428.24999999999989
 31
0.0
  0
LINE
  5
7F
  8
DIMNSIONS
  6
CONTINUOUS
 62
     7
 10
145.16263876916929
 20
431.25382330114189
 30
0.0
 11
131.5
 21
431.25382330114189
 31
0.0
  0
LINE
  5
80
  8
DIMNSIONS
  6
CONTINUOUS
 62
     7
 10
137.5
 20
431.25382330114189
 30
0.0
 11
137.5
 21
428.24999999999989
 31
0.0
  0
LINE
  5
81
  8
DIMNSIONS
  6
CONTINUOUS
 62
     7
 10
137.5
 20
428.24999999999989
 30
0.0
 11
137.5
 21
412.35833333333329
 31
0.0
  0
LINE
  5
82
  8
DIMNSIONS
  6
CONTINUOUS
 62
     7
 10
137.5
 20
428.24999999999989
 30
0.0
 11
139.51011938545071
 21
420.74813232421877
 31
0.0
  0
LINE
  5
83
  8
DIMNSIONS
  6
CONTINUOUS
 62
     7
 10
137.5
 20
428.24999999999989
 30
0.0
 11
135.48988061454921
 21
420.74813232421877
 31
0.0
  0
LINE
  5
84
  8
DIMNSIONS
  6
CONTINUOUS
 62
     7
 10
137.5
 20
431.25382330114189
 30
0.0
 11
137.5
 21
446.25382330114189
 31
0.0
  0
LINE
  5
85
  8
DIMNSIONS
  6
CONTINUOUS
 62
     7
 10
137.5
 20
431.25382330114189
 30
0.0
 11
135.48988061454921
 21
438.75569097692318
 31
0.0
  0
LINE
  5
86
  8
DIMNSIONS
  6
CONTINUOUS
 62
     7
 10
137.5
 20
431.25382330114189
 30
0.0
 11
139.51011938545071
 21
438.75569097692318
 31
0.0
  0
TEXT
  5
87
  8
DIMNSIONS
 62
     7
 10
134.51833333333329
 20
412.35833333333329
 30
0.0
 40
8.1442057291666661
  1
3
 50
90.0
 41
0.7
 11
126.3741276041666
 21
412.35833333333329
 31
0.0
 73
     3
  0
LINE
  5
88
  8
DIMNSIONS
  6
CONTINUOUS
 62
     7
 10
150.25
 20
468.75
 30
0.0
 11
131.5
 21
468.75
 31
0.0
  0
LINE
  5
89
  8
DIMNSIONS
  6
CONTINUOUS
 62
     7
 10
150.25
 20
562.75
 30
0.0
 11
131.5
 21
562.75
 31
0.0
  0
LINE
  5
8A
  8
DIMNSIONS
  6
CONTINUOUS
 62
     7
 10
137.5
 20
468.75
 30
0.0
 11
137.5
 21
562.75
 31
0.0
  0
LINE
  5
8B
  8
DIMNSIONS
  6
CONTINUOUS
 62
     7
 10
137.5
 20
468.75
 30
0.0
 11
135.48988061454921
 21
476.25186767578111
 31
0.0
  0
LINE
  5
8C
  8
DIMNSIONS
  6
CONTINUOUS
 62
     7
 10
137.5
 20
468.75
 30
0.0
 11
139.51011938545071
 21
476.25186767578111
 31
0.0
  0
LINE
  5
8D
  8
DIMNSIONS
  6
CONTINUOUS
 62
     7
 10
137.5
 20
562.75
 30
0.0
 11
139.51011938545071
 21
555.24813232421866
 31
0.0
  0
LINE
  5
8E
  8
DIMNSIONS
  6
CONTINUOUS
 62
     7
 10
137.5
 20
562.75
 30
0.0
 11
135.48988061454921
 21
555.24813232421866
 31
0.0
  0
TEXT
  5
8F
  8
DIMNSIONS
 62
     7
 10
134.51833333333329
 20
510.4583333333332
 30
0.0
 40
8.1442057291666661
  1
94
 50
90.0
 41
0.7
 11
126.3741276041667
 21
510.4583333333332
 31
0.0
 73
     3
  0
LINE
  5
90
  8
DIMNSIONS
  6
CONTINUOUS
 62
     7
 10
150.25
 20
562.75
 30
0.0
 11
131.5
 21
562.75
 31
0.0
  0
LINE
  5
91
  8
DIMNSIONS
  6
CONTINUOUS
 62
     7
 10
152.81765920508909
 20
566.75
 30
0.0
 11
131.5
 21
566.75
 31
0.0
  0
LINE
  5
92
  8
DIMNSIONS
  6
CONTINUOUS
 62
     7
 10
137.5
 20
566.75
 30
0.0
 11
137.5
 21
562.75
 31
0.0
  0
LINE
  5
93
  8
DIMNSIONS
  6
CONTINUOUS
 62
     7
 10
137.5
 20
562.75
 30
0.0
 11
137.5
 21
547.75
 31
0.0
  0
LINE
  5
94
  8
DIMNSIONS
  6
CONTINUOUS
 62
     7
 10
137.5
 20
562.75
 30
0.0
 11
139.51011938545071
 21
555.24813232421866
 31
0.0
  0
LINE
  5
95
  8
DIMNSIONS
  6
CONTINUOUS
 62
     7
 10
137.5
 20
562.75
 30
0.0
 11
135.48988061454921
 21
555.24813232421866
 31
0.0
  0
LINE
  5
96
  8
DIMNSIONS
  6
CONTINUOUS
 62
     7
 10
137.5
 20
566.75
 30
0.0
 11
137.5
 21
579.29166666666674
 31
0.0
  0
LINE
  5
97
  8
DIMNSIONS
  6
CONTINUOUS
 62
     7
 10
137.5
 20
566.75
 30
0.0
 11
135.48988061454921
 21
574.25186767578123
 31
0.0
  0
LINE
  5
98
  8
DIMNSIONS
  6
CONTINUOUS
 62
     7
 10
137.5
 20
566.75
 30
0.0
 11
139.51011938545071
 21
574.25186767578123
 31
0.0
  0
TEXT
  5
99
  8
DIMNSIONS
 62
     7
 10
134.51833333333329
 20
574.0
 30
0.0
 40
8.1442057291666661
  1
4
 50
90.0
 41
0.7
 11
126.3741276041666
 21
574.0
 31
0.0
 73
     3
  0
LINE
  5
9A
  8
DIMNSIONS
  6
CONTINUOUS
 62
     7
 10
151.16263876916929
 20
168.75382330114201
 30
0.0
 11
131.5
 21
168.75382330114201
 31
0.0
  0
LINE
  5
9B
  8
DIMNSIONS
  6
CONTINUOUS
 62
     7
 10
151.25
 20
192.75
 30
0.0
 11
131.5
 21
192.75
 31
0.0
  0
LINE
  5
9C
  8
DIMNSIONS
  6
CONTINUOUS
 62
     7
 10
137.5
 20
168.75382330114201
 30
0.0
 11
137.5
 21
192.75
 31
0.0
  0
LINE
  5
9D
  8
DIMNSIONS
  6
CONTINUOUS
 62
     7
 10
137.5
 20
168.75382330114201
 30
0.0
 11
135.48988061454921
 21
176.25569097692309
 31
0.0
  0
LINE
  5
9E
  8
DIMNSIONS
  6
CONTINUOUS
 62
     7
 10
137.5
 20
168.75382330114201
 30
0.0
 11
139.51011938545071
 21
176.25569097692309
 31
0.0
  0
LINE
  5
9F
  8
DIMNSIONS
  6
CONTINUOUS
 62
     7
 10
137.5
 20
192.75
 30
0.0
 11
139.51011938545071
 21
185.24813232421869
 31
0.0
  0
LINE
  5
A0
  8
DIMNSIONS
  6
CONTINUOUS
 62
     7
 10
137.5
 20
192.75
 30
0.0
 11
135.48988061454921
 21
185.24813232421869
 31
0.0
  0
TEXT
  5
A1
  8
DIMNSIONS
 62
     7
 10
134.51833333333329
 20
175.46024498390429
 30
0.0
 40
8.1442057291666661
  1
24
 50
90.0
 41
0.7
 11
126.3741276041667
 21
175.46024498390429
 31
0.0
 73
     3
  0
LINE
  5
A2
  8
DIMNSIONS
  6
CONTINUOUS
 62
     7
 10
156.25
 20
163.75
 30
0.0
 11
156.25
 21
144.0
 31
0.0
  0
LINE
  5
A3
  8
DIMNSIONS
  6
CONTINUOUS
 62
     7
 10
191.25
 20
163.75
 30
0.0
 11
191.25
 21
144.0
 31
0.0
  0
LINE
  5
A4
  8
DIMNSIONS
  6
CONTINUOUS
 62
     7
 10
156.25
 20
150.0
 30
0.0
 11
191.25
 21
150.0
 31
0.0
  0
LINE
  5
A5
  8
DIMNSIONS
  6
CONTINUOUS
 62
     7
 10
156.25
 20
150.0
 30
0.0
 11
163.7518676757812
 21
152.01011938545071
 31
0.0
  0
LINE
  5
A6
  8
DIMNSIONS
  6
CONTINUOUS
 62
     7
 10
156.25
 20
150.0
 30
0.0
 11
163.7518676757812
 21
147.98988061454921
 31
0.0
  0
LINE
  5
A7
  8
DIMNSIONS
  6
CONTINUOUS
 62
     7
 10
191.25
 20
150.0
 30
0.0
 11
183.74813232421869
 21
147.98988061454921
 31
0.0
  0
LINE
  5
A8
  8
DIMNSIONS
  6
CONTINUOUS
 62
     7
 10
191.25
 20
150.0
 30
0.0
 11
183.74813232421869
 21
152.01011938545071
 31
0.0
  0
TEXT
  5
A9
  8
DIMNSIONS
 62
     7
 10
168.45833333333329
 20
152.9816666666666
 30
0.0
 40
8.1442057291666661
  1
35
 41
0.7
 11
168.45833333333329
 21
161.12587239583331
 31
0.0
 73
     3
  0
LINE
  5
AA
  8
DIMNSIONS
  6
CONTINUOUS
 62
     7
 10
156.5
 20
165.75
 30
0.0
 11
131.5
 21
165.75
 31
0.0
  0
LINE
  5
AB
  8
DIMNSIONS
  6
CONTINUOUS
 62
     7
 10
145.16263876916929
 20
168.75382330114201
 30
0.0
 11
131.5
 21
168.75382330114201
 31
0.0
  0
LINE
  5
AC
  8
DIMNSIONS
  6
CONTINUOUS
 62
     7
 10
137.5
 20
168.75382330114201
 30
0.0
 11
137.5
 21
165.75
 31
0.0
  0
LINE
  5
AD
  8
DIMNSIONS
  6
CONTINUOUS
 62
     7
 10
137.5
 20
165.75
 30
0.0
 11
137.5
 21
149.85833333333341
 31
0.0
  0
LINE
  5
AE
  8
DIMNSIONS
  6
CONTINUOUS
 62
     7
 10
137.5
 20
165.75
 30
0.0
 11
139.51011938545071
 21
158.24813232421869
 31
0.0
  0
LINE
  5
AF
  8
DIMNSIONS
  6
CONTINUOUS
 62
     7
 10
137.5
 20
165.75
 30
0.0
 11
135.48988061454921
 21
158.24813232421869
 31
0.0
  0
LINE
  5
B0
  8
DIMNSIONS
  6
CONTINUOUS
 62
     7
 10
137.5
 20
168.75382330114201
 30
0.0
 11
137.5
 21
183.75382330114201
 31
0.0
  0
LINE
  5
B1
  8
DIMNSIONS
  6
CONTINUOUS
 62
     7
 10
137.5
 20
168.75382330114201
 30
0.0
 11
135.48988061454921
 21
176.25569097692309
 31
0.0
  0
LINE
  5
B2
  8
DIMNSIONS
  6
CONTINUOUS
 62
     7
 10
137.5
 20
168.75382330114201
 30
0.0
 11
139.51011938545071
 21
176.25569097692309
 31
0.0
  0
TEXT
  5
B3
  8
DIMNSIONS
 62
     7
 10
134.51833333333329
 20
149.85833333333341
 30
0.0
 40
8.1442057291666661
  1
3
 50
90.0
 41
0.7
 11
126.3741276041666
 21
149.85833333333341
 31
0.0
 73
     3
  0
LINE
  5
B4
  8
DIMNSIONS
  6
CONTINUOUS
 62
     7
 10
150.25
 20
218.75
 30
0.0
 11
131.5
 21
218.75
 31
0.0
  0
LINE
  5
B5
  8
DIMNSIONS
  6
CONTINUOUS
 62
     7
 10
150.25
 20
312.75
 30
0.0
 11
131.5
 21
312.75
 31
0.0
  0
LINE
  5
B6
  8
DIMNSIONS
  6
CONTINUOUS
 62
     7
 10
137.5
 20
218.75
 30
0.0
 11
137.5
 21
312.75
 31
0.0
  0
LINE
  5
B7
  8
DIMNSIONS
  6
CONTINUOUS
 62
     7
 10
137.5
 20
218.75
 30
0.0
 11
135.48988061454921
 21
226.25186767578131
 31
0.0
  0
LINE
  5
B8
  8
DIMNSIONS
  6
CONTINUOUS
 62
     7
 10
137.5
 20
218.75
 30
0.0
 11
139.51011938545071
 21
226.25186767578131
 31
0.0
  0
LINE
  5
B9
  8
DIMNSIONS
  6
CONTINUOUS
 62
     7
 10
137.5
 20
312.75
 30
0.0
 11
139.51011938545071
 21
305.24813232421877
 31
0.0
  0
LINE
  5
BA
  8
DIMNSIONS
  6
CONTINUOUS
 62
     7
 10
137.5
 20
312.75
 30
0.0
 11
135.48988061454921
 21
305.24813232421877
 31
0.0
  0
TEXT
  5
BB
  8
DIMNSIONS
 62
     7
 10
134.51833333333329
 20
260.45833333333343
 30
0.0
 40
8.1442057291666661
  1
94
 50
90.0
 41
0.7
 11
126.3741276041667
 21
260.45833333333343
 31
0.0
 73
     3
  0
LINE
  5
BC
  8
DIMNSIONS
  6
CONTINUOUS
 62
     7
 10
152.81765920508909
 20
214.75
 30
0.0
 11
131.5
 21
214.75
 31
0.0
  0
LINE
  5
BD
  8
DIMNSIONS
  6
CONTINUOUS
 62
     7
 10
150.25
 20
218.75
 30
0.0
 11
131.5
 21
218.75
 31
0.0
  0
LINE
  5
BE
  8
DIMNSIONS
  6
CONTINUOUS
 62
     7
 10
137.5
 20
218.75
 30
0.0
 11
137.5
 21
214.75
 31
0.0
  0
LINE
  5
BF
  8
DIMNSIONS
  6
CONTINUOUS
 62
     7
 10
137.5
 20
214.75
 30
0.0
 11
137.5
 21
199.41666666666671
 31
0.0
  0
LINE
  5
C0
  8
DIMNSIONS
  6
CONTINUOUS
 62
     7
 10
137.5
 20
214.75
 30
0.0
 11
139.51011938545071
 21
207.24813232421869
 31
0.0
  0
LINE
  5
C1
  8
DIMNSIONS
  6
CONTINUOUS
 62
     7
 10
137.5
 20
214.75
 30
0.0
 11
135.48988061454921
 21
207.24813232421869
 31
0.0
  0
LINE
  5
C2
  8
DIMNSIONS
  6
CONTINUOUS
 62
     7
 10
137.5
 20
218.75
 30
0.0
 11
137.5
 21
233.75
 31
0.0
  0
LINE
  5
C3
  8
DIMNSIONS
  6
CONTINUOUS
 62
     7
 10
137.5
 20
218.75
 30
0.0
 11
135.48988061454921
 21
226.25186767578131
 31
0.0
  0
LINE
  5
C4
  8
DIMNSIONS
  6
CONTINUOUS
 62
     7
 10
137.5
 20
218.75
 30
0.0
 11
139.51011938545071
 21
226.25186767578131
 31
0.0
  0
TEXT
  5
C5
  8
DIMNSIONS
 62
     7
 10
134.51833333333329
 20
199.41666666666671
 30
0.0
 40
8.1442057291666661
  1
4
 50
90.0
 41
0.7
 11
126.3741276041666
 21
199.41666666666671
 31
0.0
 73
     3
  0
TEXT
  5
C6
  8
DATA
 62
     7
 10
449.99999999999989
 20
62.926524856753723
 30
0.0
 40
7.3297851562499989
  1
EXT-RS232
 41
0.7
 11
449.99999999999989
 21
70.256310013003713
 31
0.0
 73
     3
  0
TEXT
  5
C7
  8
DATA
 62
     7
 10
60.0
 20
42.713999999999977
 30
0.0
 40
4.8865234374999993
  1
仕様および外観は予告なく変更されることがありますので、ご了承ください。
 41
0.7
 11
60.0
 21
47.600523437499987
 31
0.0
 73
     3
  0
TEXT
  5
C8
  8
DATA
 62
     7
 10
449.9713515443359
 20
85.047561257843299
 30
0.0
 40
7.3297851562499989
  1
Gefen
 41
0.7
 11
449.9713515443359
 21
92.377346414093296
 31
0.0
 73
     3
  0
TEXT
  5
C9
  8
DATA
 62
     7
 10
445.3494740600226
 20
74.972854856753685
 30
0.0
 40
4.8865234374999993
  1
RS232延長機
 41
0.7
 11
445.3494740600226
 21
79.859378294253702
 31
0.0
 73
     3
  0
TEXT
  5
CA
  8
DATA
 62
     7
 10
118.33706700447171
 20
389.24804516449302
 30
0.0
 40
8.1442057291666661
  1
EXT-RS232 S(センダー)
 41
0.7
 11
118.33706700447171
 21
397.39225089365959
 31
0.0
 73
     3
  0
LINE
  5
CB
  8
DATA
  6
CONTINUOUS
 62
     7
 10
156.25
 20
432.24999999999989
 30
0.0
 11
156.25
 21
454.25
 31
0.0
  0
LINE
  5
CC
  8
DATA
  6
CONTINUOUS
 62
     7
 10
190.25
 20
431.25
 30
0.0
 11
180.25
 21
431.25
 31
0.0
  0
LINE
  5
CD
  8
DATA
  6
CONTINUOUS
 62
     7
 10
167.25
 20
431.25
 30
0.0
 11
157.25
 21
431.25
 31
0.0
  0
LINE
  5
CE
  8
DATA
  6
CONTINUOUS
 62
     7
 10
191.25
 20
454.25
 30
0.0
 11
191.25
 21
432.24999999999989
 31
0.0
  0
LINE
  5
CF
  8
DATA
  6
CONTINUOUS
 62
     7
 10
157.25
 20
455.25
 30
0.0
 11
190.25
 21
455.25
 31
0.0
  0
LINE
  5
D0
  8
DATA
  6
CONTINUOUS
 62
     7
 10
188.75
 20
432.74999999999989
 30
0.0
 11
158.75
 21
432.74999999999989
 31
0.0
  0
LINE
  5
D1
  8
DATA
  6
CONTINUOUS
 62
     7
 10
158.75
 20
453.75
 30
0.0
 11
188.75
 21
453.75
 31
0.0
  0
LINE
  5
D2
  8
DATA
  6
CONTINUOUS
 62
     7
 10
157.75
 20
433.75
 30
0.0
 11
157.75
 21
452.74999999999989
 31
0.0
  0
LINE
  5
D3
  8
DATA
  6
CONTINUOUS
 62
     7
 10
189.75
 20
452.74999999999989
 30
0.0
 11
189.75
 21
433.75
 31
0.0
  0
LINE
  5
D4
  8
DATA
  6
CONTINUOUS
 62
     7
 10
180.25
 20
432.74999999999989
 30
0.0
 11
180.25
 21
431.25
 31
0.0
  0
LINE
  5
D5
  8
DATA
  6
CONTINUOUS
 62
     7
 10
167.25
 20
431.25
 30
0.0
 11
167.25
 21
432.74999999999989
 31
0.0
  0
ARC
  5
D6
  8
DATA
  6
CONTINUOUS
 62
     7
 10
157.25
 20
432.24999999999989
 30
0.0
 40
1.0
 50
180.0
 51
270.0
  0
ARC
  5
D7
  8
DATA
  6
CONTINUOUS
 62
     7
 10
157.25
 20
454.25
 30
0.0
 40
1.0
 50
90.0
 51
180.0
  0
ARC
  5
D8
  8
DATA
  6
CONTINUOUS
 62
     7
 10
158.75
 20
452.74999999999989
 30
0.0
 40
1.0
 50
90.0
 51
180.0
  0
ARC
  5
D9
  8
DATA
  6
CONTINUOUS
 62
     7
 10
158.75
 20
433.75
 30
0.0
 40
1.0
 50
180.0
 51
270.0
  0
ARC
  5
DA
  8
DATA
  6
CONTINUOUS
 62
     7
 10
188.75
 20
452.74999999999989
 30
0.0
 40
1.0
 50
0.0
 51
90.0
  0
ARC
  5
DB
  8
DATA
  6
CONTINUOUS
 62
     7
 10
190.25
 20
454.25
 30
0.0
 40
1.0
 50
0.0
 51
90.0
  0
ARC
  5
DC
  8
DATA
  6
CONTINUOUS
 62
     7
 10
188.75
 20
433.75
 30
0.0
 40
1.0
 50
270.0
 51
0.0
  0
ARC
  5
DD
  8
DATA
  6
CONTINUOUS
 62
     7
 10
190.25
 20
432.24999999999989
 30
0.0
 40
1.0
 50
270.0
 51
0.0
  0
LINE
  5
DE
  8
DATA
  6
CONTINUOUS
 62
     7
 10
156.25
 20
468.75
 30
0.0
 11
156.25
 21
562.75
 31
0.0
  0
LINE
  5
DF
  8
DATA
  6
CONTINUOUS
 62
     7
 10
191.25
 20
468.75
 30
0.0
 11
191.25
 21
562.75
 31
0.0
  0
LINE
  5
E0
  8
DATA
  6
CONTINUOUS
 62
     7
 10
156.25
 20
468.75
 30
0.0
 11
191.25
 21
468.75
 31
0.0
  0
LINE
  5
E1
  8
DATA
  6
CONTINUOUS
 62
     7
 10
156.25
 20
562.75
 30
0.0
 11
191.25
 21
562.75
 31
0.0
  0
LINE
  5
E2
  8
DATA
  6
CONTINUOUS
 62
     7
 10
188.27197201557561
 20
453.75000000019708
 30
0.0
 11
188.27197201557561
 21
440.45000000019718
 31
0.0
  0
LINE
  5
E3
  8
DATA
  6
CONTINUOUS
 62
     7
 10
172.5719720155756
 20
453.75000000019708
 30
0.0
 11
172.5719720155756
 21
440.45000000019718
 31
0.0
  0
LINE
  5
E4
  8
DATA
  6
CONTINUOUS
 62
     7
 10
172.5719720155756
 20
440.45000000019718
 30
0.0
 11
188.27197201557561
 21
440.45000000019718
 31
0.0
  0
LINE
  5
E5
  8
DATA
  6
CONTINUOUS
 62
     7
 10
172.5719720155756
 20
453.75000000019708
 30
0.0
 11
188.27197201557561
 21
453.75000000019708
 31
0.0
  0
LINE
  5
E6
  8
DATA
  6
CONTINUOUS
 62
     7
 10
174.2719720155755
 20
450.75000000019719
 30
0.0
 11
186.5719720155756
 21
450.75000000019719
 31
0.0
  0
LINE
  5
E7
  8
DATA
  6
CONTINUOUS
 62
     7
 10
174.2719720155755
 20
450.75000000019719
 30
0.0
 11
174.2719720155755
 21
443.45000000019718
 31
0.0
  0
LINE
  5
E8
  8
DATA
  6
CONTINUOUS
 62
     7
 10
186.5719720155756
 20
450.75000000019719
 30
0.0
 11
186.5719720155756
 21
443.45000000019718
 31
0.0
  0
LINE
  5
E9
  8
DATA
  6
CONTINUOUS
 62
     7
 10
178.1969720155756
 20
440.45000000019718
 30
0.0
 11
178.1969720155756
 21
441.95000000019718
 31
0.0
  0
LINE
  5
EA
  8
DATA
  6
CONTINUOUS
 62
     7
 10
182.64697201557561
 20
441.95000000019718
 30
0.0
 11
182.64697201557561
 21
440.45000000019718
 31
0.0
  0
LINE
  5
EB
  8
DATA
  6
CONTINUOUS
 62
     7
 10
177.0719720155756
 20
441.95000000019718
 30
0.0
 11
178.1969720155756
 21
441.95000000019718
 31
0.0
  0
LINE
  5
EC
  8
DATA
  6
CONTINUOUS
 62
     7
 10
182.64697201557561
 20
441.95000000019718
 30
0.0
 11
183.77197201557561
 21
441.95000000019718
 31
0.0
  0
LINE
  5
ED
  8
DATA
  6
CONTINUOUS
 62
     7
 10
174.2719720155755
 20
443.45000000019718
 30
0.0
 11
177.0719720155756
 21
443.45000000019718
 31
0.0
  0
LINE
  5
EE
  8
DATA
  6
CONTINUOUS
 62
     7
 10
183.77197201557561
 20
443.45000000019718
 30
0.0
 11
186.5719720155756
 21
443.45000000019718
 31
0.0
  0
LINE
  5
EF
  8
DATA
  6
CONTINUOUS
 62
     7
 10
177.0719720155756
 20
441.95000000019718
 30
0.0
 11
177.0719720155756
 21
443.45000000019718
 31
0.0
  0
LINE
  5
F0
  8
DATA
  6
CONTINUOUS
 62
     7
 10
183.77197201557561
 20
443.45000000019718
 30
0.0
 11
183.77197201557561
 21
441.95000000019718
 31
0.0
  0
CIRCLE
  5
F1
  8
DATA
  6
CONTINUOUS
 62
     7
 10
165.25
 20
447.35000000000002
 30
0.0
 40
3.25
  0
CIRCLE
  5
F2
  8
DATA
  6
CONTINUOUS
 62
     7
 10
165.25
 20
447.35000000000002
 30
0.0
 40
0.5999999999999944
  0
ARC
  5
F3
  8
DATA
  6
CONTINUOUS
 62
     7
 10
162.5
 20
432.09375
 30
0.0
 40
3.84375
 50
192.68038349181981
 51
347.31961650818022
  0
ARC
  5
F4
  8
DATA
  6
CONTINUOUS
 62
     7
 10
185.0
 20
432.09375
 30
0.0
 40
3.84375
 50
192.68038349181981
 51
347.31961650818022
  0
LINE
  5
F5
  8
DATA
  6
CONTINUOUS
 62
     7
 10
156.25
 20
604.25000000016007
 30
0.0
 11
156.25
 21
582.25000000016018
 31
0.0
  0
LINE
  5
F6
  8
DATA
  6
CONTINUOUS
 62
     7
 10
190.25
 20
605.25000000016007
 30
0.0
 11
180.25
 21
605.25000000016007
 31
0.0
  0
LINE
  5
F7
  8
DATA
  6
CONTINUOUS
 62
     7
 10
167.25
 20
605.25000000016007
 30
0.0
 11
157.25
 21
605.25000000016007
 31
0.0
  0
LINE
  5
F8
  8
DATA
  6
CONTINUOUS
 62
     7
 10
191.25
 20
582.25000000016018
 30
0.0
 11
191.25
 21
604.25000000016007
 31
0.0
  0
LINE
  5
F9
  8
DATA
  6
CONTINUOUS
 62
     7
 10
157.25
 20
581.25000000016018
 30
0.0
 11
190.25
 21
581.25000000016018
 31
0.0
  0
LINE
  5
FA
  8
DATA
  6
CONTINUOUS
 62
     7
 10
188.75
 20
603.75000000016007
 30
0.0
 11
158.75
 21
603.75000000016007
 31
0.0
  0
LINE
  5
FB
  8
DATA
  6
CONTINUOUS
 62
     7
 10
158.75
 20
582.75000000016007
 30
0.0
 11
188.75
 21
582.75000000016007
 31
0.0
  0
LINE
  5
FC
  8
DATA
  6
CONTINUOUS
 62
     7
 10
157.75
 20
602.75000000016018
 30
0.0
 11
157.75
 21
583.75000000016007
 31
0.0
  0
LINE
  5
FD
  8
DATA
  6
CONTINUOUS
 62
     7
 10
189.75
 20
583.75000000016007
 30
0.0
 11
189.75
 21
602.75000000016018
 31
0.0
  0
LINE
  5
FE
  8
DATA
  6
CONTINUOUS
 62
     7
 10
180.25
 20
603.75000000016007
 30
0.0
 11
180.25
 21
605.25000000016007
 31
0.0
  0
LINE
  5
FF
  8
DATA
  6
CONTINUOUS
 62
     7
 10
167.25
 20
605.25000000016007
 30
0.0
 11
167.25
 21
603.75000000016007
 31
0.0
  0
ARC
  5
100
  8
DATA
  6
CONTINUOUS
 62
     7
 10
157.25
 20
604.25000000016007
 30
0.0
 40
1.0
 50
90.0
 51
180.0
  0
ARC
  5
101
  8
DATA
  6
CONTINUOUS
 62
     7
 10
157.25
 20
582.25000000016018
 30
0.0
 40
1.0
 50
180.0
 51
270.0
  0
ARC
  5
102
  8
DATA
  6
CONTINUOUS
 62
     7
 10
158.75
 20
583.75000000016007
 30
0.0
 40
1.0
 50
180.0
 51
270.0
  0
ARC
  5
103
  8
DATA
  6
CONTINUOUS
 62
     7
 10
158.75
 20
602.75000000016018
 30
0.0
 40
1.0
 50
90.0
 51
180.0
  0
ARC
  5
104
  8
DATA
  6
CONTINUOUS
 62
     7
 10
188.75
 20
583.75000000016007
 30
0.0
 40
1.0
 50
270.0
 51
0.0
  0
ARC
  5
105
  8
DATA
  6
CONTINUOUS
 62
     7
 10
190.25
 20
582.25000000016018
 30
0.0
 40
1.0
 50
270.0
 51
0.0
  0
ARC
  5
106
  8
DATA
  6
CONTINUOUS
 62
     7
 10
188.75
 20
602.75000000016018
 30
0.0
 40
1.0
 50
0.0
 51
90.0
  0
ARC
  5
107
  8
DATA
  6
CONTINUOUS
 62
     7
 10
190.25
 20
604.25000000016007
 30
0.0
 40
1.0
 50
0.0
 51
90.0
  0
LINE
  5
108
  8
DATA
  6
CONTINUOUS
 62
     7
 10
172.5719720155756
 20
582.74999999996305
 30
0.0
 11
188.27197201557561
 21
582.74999999996305
 31
0.0
  0
ARC
  5
109
  8
DATA
  6
CONTINUOUS
 62
     7
 10
162.5
 20
604.40625000016018
 30
0.0
 40
3.84375
 50
12.680383491819819
 51
167.3196165081801
  0
ARC
  5
10A
  8
DATA
  6
CONTINUOUS
 62
     7
 10
185.0
 20
604.40625000016018
 30
0.0
 40
3.84375
 50
12.680383491819819
 51
167.3196165081801
  0
LINE
  5
10B
  8
DATA
  6
CONTINUOUS
 62
     7
 10
158.817659205089
 20
566.75
 30
0.0
 11
163.4941963855251
 21
566.75
 31
0.0
  0
LINE
  5
10C
  8
DATA
  6
CONTINUOUS
 62
     7
 10
165.84591988992241
 20
566.75
 30
0.0
 11
181.46511817566119
 21
566.75
 31
0.0
  0
LINE
  5
10D
  8
DATA
  6
CONTINUOUS
 62
     7
 10
183.8176592050892
 20
566.75
 30
0.0
 11
188.4941963855251
 21
566.75
 31
0.0
  0
TEXT
  5
10E
  8
DATA
 62
     7
 10
176.09883333333329
 20
512.02491100847055
 30
0.0
 40
9.7730468749999986
  1
RS232
 50
270.0
 41
0.7
 11
185.87188020833329
 21
512.02491100847055
 31
0.0
 73
     3
  0
TEXT
  5
10F
  8
DATA
 62
     7
 10
166.19374974211831
 20
511.55065117016409
 30
0.0
 40
4.8865234374999993
  1
extender
 50
270.0
 41
0.7
 11
171.0802731796183
 21
511.55065117016409
 31
0.0
 73
     3
  0
TEXT
  5
110
  8
DATA
 62
     7
 10
164.4892677877086
 20
484.48811885498401
 30
0.0
 40
6.5153645833333327
  1
S
 50
270.0
 41
0.7
 11
171.00463237104191
 21
484.48811885498401
 31
0.0
 73
     3
  0
TEXT
  5
111
  8
DATA
 62
     7
 10
178.03982422588689
 20
470.5171968451773
 30
0.0
 40
2.7103916666666672
  1
CAT-5
 41
0.7
 11
178.03982422588689
 21
473.22758851184398
 31
0.0
 73
     3
  0
TEXT
  5
112
  8
DATA
 62
     7
 10
163.2818387978011
 20
470.5171968451773
 30
0.0
 40
2.7103916666666672
  1
5VDC
 41
0.7
 11
163.2818387978011
 21
473.22758851184398
 31
0.0
 73
     3
  0
TEXT
  5
113
  8
DATA
 62
     7
 10
182.24317058096611
 20
560.97945498835315
 30
0.0
 40
2.7010546875000001
  1
RS-232 In
 50
180.0
 41
0.7
 11
182.24317058096611
 21
558.27840030085326
 31
0.0
 73
     3
  0
CIRCLE
  5
114
  8
DATA
  6
CONTINUOUS
 62
     7
 10
161.15592779530721
 20
592.16907220469295
 30
0.0
 40
1.1750000000001251
  0
POLYLINE
  5
115
  8
DATA
  6
CONTINUOUS
 62
     7
 66
     1
 10
0.0
 20
0.0
 30
0.0
 70
     1
  0
VERTEX
  5
265
  8
DATA
  6
CONTINUOUS
 62
     7
 10
161.15592779530721
 20
589.46907220469302
 30
0.0
  0
VERTEX
  5
266
  8
DATA
  6
CONTINUOUS
 62
     7
 10
163.4941963855251
 20
590.81907220469282
 30
0.0
  0
VERTEX
  5
267
  8
DATA
  6
CONTINUOUS
 62
     7
 10
163.4941963855251
 20
593.51907220469297
 30
0.0
  0
VERTEX
  5
268
  8
DATA
  6
CONTINUOUS
 62
     7
 10
161.15592779530721
 20
594.86907220469277
 30
0.0
  0
VERTEX
  5
269
  8
DATA
  6
CONTINUOUS
 62
     7
 10
158.817659205089
 20
593.51907220469297
 30
0.0
  0
VERTEX
  5
26A
  8
DATA
  6
CONTINUOUS
 62
     7
 10
158.817659205089
 20
590.81907220469282
 30
0.0
  0
SEQEND
  5
26B
  8
DATA
  6
CONTINUOUS
 62
     7
  0
CIRCLE
  5
11E
  8
DATA
  6
CONTINUOUS
 62
     7
 10
186.15592779530721
 20
592.16907220469295
 30
0.0
 40
1.175000000000068
  0
POLYLINE
  5
11F
  8
DATA
  6
CONTINUOUS
 62
     7
 66
     1
 10
0.0
 20
0.0
 30
0.0
 70
     1
  0
VERTEX
  5
26C
  8
DATA
  6
CONTINUOUS
 62
     7
 10
186.15592779530721
 20
589.46907220469302
 30
0.0
  0
VERTEX
  5
26D
  8
DATA
  6
CONTINUOUS
 62
     7
 10
188.4941963855251
 20
590.81907220469282
 30
0.0
  0
VERTEX
  5
26E
  8
DATA
  6
CONTINUOUS
 62
     7
 10
188.4941963855251
 20
593.51907220469297
 30
0.0
  0
VERTEX
  5
26F
  8
DATA
  6
CONTINUOUS
 62
     7
 10
186.15592779530721
 20
594.86907220469277
 30
0.0
  0
VERTEX
  5
270
  8
DATA
  6
CONTINUOUS
 62
     7
 10
183.8176592050892
 20
593.51907220469297
 30
0.0
  0
VERTEX
  5
271
  8
DATA
  6
CONTINUOUS
 62
     7
 10
183.8176592050892
 20
590.81907220469282
 30
0.0
  0
SEQEND
  5
272
  8
DATA
  6
CONTINUOUS
 62
     7
  0
LINE
  5
128
  8
DATA
  6
CONTINUOUS
 62
     7
 10
168.05416458511871
 20
596.16907220469272
 30
0.0
 11
179.2576910054959
 21
596.16907220469272
 31
0.0
  0
LINE
  5
129
  8
DATA
  6
CONTINUOUS
 62
     7
 10
180.07019100549579
 20
588.16907220469272
 30
0.0
 11
167.24166458511871
 21
588.16907220469272
 31
0.0
  0
LINE
  5
12A
  8
DATA
  6
CONTINUOUS
 62
     7
 10
180.6409078527474
 20
594.98519983707592
 30
0.0
 11
181.4534078527474
 21
589.78519983707599
 31
0.0
  0
LINE
  5
12B
  8
DATA
  6
CONTINUOUS
 62
     7
 10
165.8584477378671
 20
589.78519983707599
 30
0.0
 11
166.6709477378671
 21
594.98519983707592
 31
0.0
  0
CIRCLE
  5
12C
  8
DATA
  6
CONTINUOUS
 62
     7
 10
173.68255756578219
 20
590.53276403353925
 30
0.0
 40
0.5
  0
ARC
  5
12D
  8
DATA
  6
CONTINUOUS
 62
     7
 10
180.07019100549579
 20
589.56907220469282
 30
0.0
 40
1.4000000000000341
 50
270.0
 51
8.8806591505205574
  0
ARC
  5
12E
  8
DATA
  6
CONTINUOUS
 62
     7
 10
167.24166458511871
 20
589.56907220469282
 30
0.0
 40
1.400000000000019
 50
171.1193408494795
 51
270.0
  0
ARC
  5
12F
  8
DATA
  6
CONTINUOUS
 62
     7
 10
179.2576910054959
 20
594.76907220469286
 30
0.0
 40
1.400000000000019
 50
8.8806591505205308
 51
90.0
  0
ARC
  5
130
  8
DATA
  6
CONTINUOUS
 62
     7
 10
168.05416458511871
 20
594.76907220469286
 30
0.0
 40
1.399999999999977
 50
90.0
 51
171.1193408494795
  0
CIRCLE
  5
131
  8
DATA
  6
CONTINUOUS
 62
     7
 10
176.18255756578219
 20
590.53276403353925
 30
0.0
 40
0.5
  0
CIRCLE
  5
132
  8
DATA
  6
CONTINUOUS
 62
     7
 10
178.68255756578219
 20
590.53276403353925
 30
0.0
 40
0.5
  0
CIRCLE
  5
133
  8
DATA
  6
CONTINUOUS
 62
     7
 10
171.18255756578219
 20
590.53276403353925
 30
0.0
 40
0.5
  0
CIRCLE
  5
134
  8
DATA
  6
CONTINUOUS
 62
     7
 10
168.68255756578219
 20
590.53276403353925
 30
0.0
 40
0.5
  0
CIRCLE
  5
135
  8
DATA
  6
CONTINUOUS
 62
     7
 10
174.8780687418535
 20
594.15128445230187
 30
0.0
 40
0.5
  0
CIRCLE
  5
136
  8
DATA
  6
CONTINUOUS
 62
     7
 10
177.3780687418535
 20
594.15128445230187
 30
0.0
 40
0.5
  0
CIRCLE
  5
137
  8
DATA
  6
CONTINUOUS
 62
     7
 10
172.3780687418535
 20
594.15128445230187
 30
0.0
 40
0.5
  0
CIRCLE
  5
138
  8
DATA
  6
CONTINUOUS
 62
     7
 10
169.8780687418535
 20
594.15128445230187
 30
0.0
 40
0.5
  0
LINE
  5
139
  8
DATA
  6
CONTINUOUS
 62
     7
 10
158.817659205089
 20
566.75
 30
0.0
 11
158.817659205089
 21
562.75
 31
0.0
  0
LINE
  5
13A
  8
DATA
  6
CONTINUOUS
 62
     7
 10
163.4941963855251
 20
566.75
 30
0.0
 11
163.4941963855251
 21
562.75
 31
0.0
  0
LINE
  5
13B
  8
DATA
  6
CONTINUOUS
 62
     7
 10
165.84591988992241
 20
566.75
 30
0.0
 11
165.84591988992241
 21
562.75
 31
0.0
  0
LINE
  5
13C
  8
DATA
  6
CONTINUOUS
 62
     7
 10
181.46511817566119
 20
566.75
 30
0.0
 11
181.46511817566119
 21
562.75
 31
0.0
  0
LINE
  5
13D
  8
DATA
  6
CONTINUOUS
 62
     7
 10
183.8176592050892
 20
566.75
 30
0.0
 11
183.8176592050892
 21
562.75
 31
0.0
  0
LINE
  5
13E
  8
DATA
  6
CONTINUOUS
 62
     7
 10
188.4941963855251
 20
566.75
 30
0.0
 11
188.4941963855251
 21
562.75
 31
0.0
  0
LINE
  5
13F
  8
DATA
  6
CONTINUOUS
 62
     7
 10
268.75
 20
455.25
 30
0.0
 11
362.75
 21
455.25
 31
0.0
  0
LINE
  5
140
  8
DATA
  6
CONTINUOUS
 62
     7
 10
268.75
 20
431.25
 30
0.0
 11
268.75
 21
455.25
 31
0.0
  0
LINE
  5
141
  8
DATA
  6
CONTINUOUS
 62
     7
 10
362.75
 20
431.25
 30
0.0
 11
362.75
 21
455.25
 31
0.0
  0
LINE
  5
142
  8
DATA
  6
CONTINUOUS
 62
     7
 10
268.75
 20
431.25
 30
0.0
 11
362.75
 21
431.25
 31
0.0
  0
ARC
  5
143
  8
DATA
  6
CONTINUOUS
 62
     7
 10
274.35721463893748
 20
432.09375
 30
0.0
 40
3.84375
 50
192.68038349181981
 51
347.31961650818022
  0
ARC
  5
144
  8
DATA
  6
CONTINUOUS
 62
     7
 10
357.14278536106252
 20
432.09375
 30
0.0
 40
3.84375
 50
192.68038349181981
 51
347.31961650818022
  0
LINE
  5
145
  8
DATA
  6
CONTINUOUS
 62
     7
 10
366.75
 20
442.06947649702988
 30
0.0
 11
362.75
 21
442.06947649702988
 31
0.0
  0
LINE
  5
146
  8
DATA
  6
CONTINUOUS
 62
     7
 10
362.75
 20
447.26947649702998
 30
0.0
 11
366.75
 21
447.26947649702998
 31
0.0
  0
LINE
  5
147
  8
DATA
  6
CONTINUOUS
 62
     7
 10
366.75
 20
440.66947649703002
 30
0.0
 11
362.75
 21
440.66947649703002
 31
0.0
  0
LINE
  5
148
  8
DATA
  6
CONTINUOUS
 62
     7
 10
362.75
 20
448.66947649703002
 30
0.0
 11
366.75
 21
448.66947649703002
 31
0.0
  0
LINE
  5
149
  8
DATA
  6
CONTINUOUS
 62
     7
 10
366.75
 20
448.66947649703002
 30
0.0
 11
366.75
 21
440.66947649703002
 31
0.0
  0
LINE
  5
14A
  8
DATA
  6
CONTINUOUS
 62
     7
 10
362.75
 20
444.32999999999993
 30
0.0
 11
366.75
 21
444.32999999999993
 31
0.0
  0
TEXT
  5
14B
  8
DATA
 62
     7
 10
111.5009037703871
 20
127.1242313586969
 30
0.0
 40
8.1442057291666661
  1
EXT-RS232 R(レシーバー)
 41
0.7
 11
111.5009037703871
 21
135.2684370878635
 31
0.0
 73
     3
  0
LINE
  5
14C
  8
DATA
  6
CONTINUOUS
 62
     7
 10
156.25
 20
169.75
 30
0.0
 11
156.25
 21
191.75
 31
0.0
  0
LINE
  5
14D
  8
DATA
  6
CONTINUOUS
 62
     7
 10
190.25
 20
168.75
 30
0.0
 11
180.25
 21
168.75
 31
0.0
  0
LINE
  5
14E
  8
DATA
  6
CONTINUOUS
 62
     7
 10
167.25
 20
168.75
 30
0.0
 11
157.25
 21
168.75
 31
0.0
  0
LINE
  5
14F
  8
DATA
  6
CONTINUOUS
 62
     7
 10
191.25
 20
191.75
 30
0.0
 11
191.25
 21
169.75
 31
0.0
  0
LINE
  5
150
  8
DATA
  6
CONTINUOUS
 62
     7
 10
157.25
 20
192.75
 30
0.0
 11
190.25
 21
192.75
 31
0.0
  0
LINE
  5
151
  8
DATA
  6
CONTINUOUS
 62
     7
 10
188.75
 20
170.25
 30
0.0
 11
158.75
 21
170.25
 31
0.0
  0
LINE
  5
152
  8
DATA
  6
CONTINUOUS
 62
     7
 10
158.75
 20
191.25
 30
0.0
 11
188.75
 21
191.25
 31
0.0
  0
LINE
  5
153
  8
DATA
  6
CONTINUOUS
 62
     7
 10
157.75
 20
171.25
 30
0.0
 11
157.75
 21
190.25
 31
0.0
  0
LINE
  5
154
  8
DATA
  6
CONTINUOUS
 62
     7
 10
189.75
 20
190.25
 30
0.0
 11
189.75
 21
171.25
 31
0.0
  0
LINE
  5
155
  8
DATA
  6
CONTINUOUS
 62
     7
 10
180.25
 20
170.25
 30
0.0
 11
180.25
 21
168.75
 31
0.0
  0
LINE
  5
156
  8
DATA
  6
CONTINUOUS
 62
     7
 10
167.25
 20
168.75
 30
0.0
 11
167.25
 21
170.25
 31
0.0
  0
ARC
  5
157
  8
DATA
  6
CONTINUOUS
 62
     7
 10
157.25
 20
169.75
 30
0.0
 40
1.0
 50
180.0
 51
270.0
  0
ARC
  5
158
  8
DATA
  6
CONTINUOUS
 62
     7
 10
157.25
 20
191.75
 30
0.0
 40
1.0
 50
90.0
 51
180.0
  0
ARC
  5
159
  8
DATA
  6
CONTINUOUS
 62
     7
 10
158.75
 20
190.25
 30
0.0
 40
1.0
 50
90.0
 51
180.0
  0
ARC
  5
15A
  8
DATA
  6
CONTINUOUS
 62
     7
 10
158.75
 20
171.25
 30
0.0
 40
1.0
 50
180.0
 51
270.0
  0
ARC
  5
15B
  8
DATA
  6
CONTINUOUS
 62
     7
 10
188.75
 20
190.25
 30
0.0
 40
1.0
 50
0.0
 51
90.0
  0
ARC
  5
15C
  8
DATA
  6
CONTINUOUS
 62
     7
 10
190.25
 20
191.75
 30
0.0
 40
1.0
 50
0.0
 51
90.0
  0
ARC
  5
15D
  8
DATA
  6
CONTINUOUS
 62
     7
 10
188.75
 20
171.25
 30
0.0
 40
1.0
 50
270.0
 51
0.0
  0
ARC
  5
15E
  8
DATA
  6
CONTINUOUS
 62
     7
 10
190.25
 20
169.75
 30
0.0
 40
1.0
 50
270.0
 51
0.0
  0
LINE
  5
15F
  8
DATA
  6
CONTINUOUS
 62
     7
 10
156.25
 20
218.75
 30
0.0
 11
156.25
 21
312.75
 31
0.0
  0
LINE
  5
160
  8
DATA
  6
CONTINUOUS
 62
     7
 10
191.25
 20
218.75
 30
0.0
 11
191.25
 21
312.75
 31
0.0
  0
LINE
  5
161
  8
DATA
  6
CONTINUOUS
 62
     7
 10
156.25
 20
218.75
 30
0.0
 11
191.25
 21
218.75
 31
0.0
  0
LINE
  5
162
  8
DATA
  6
CONTINUOUS
 62
     7
 10
156.25
 20
312.75
 30
0.0
 11
191.25
 21
312.75
 31
0.0
  0
LINE
  5
163
  8
DATA
  6
CONTINUOUS
 62
     7
 10
172.5719720155756
 20
191.2500000001971
 30
0.0
 11
188.27197201557561
 21
191.2500000001971
 31
0.0
  0
ARC
  5
164
  8
DATA
  6
CONTINUOUS
 62
     7
 10
162.5
 20
169.59375
 30
0.0
 40
3.84375
 50
192.68038349181981
 51
347.31961650818022
  0
ARC
  5
165
  8
DATA
  6
CONTINUOUS
 62
     7
 10
185.0
 20
169.59375
 30
0.0
 40
3.84375
 50
192.68038349181981
 51
347.31961650818022
  0
LINE
  5
166
  8
DATA
  6
CONTINUOUS
 62
     7
 10
156.25
 20
354.2500000001603
 30
0.0
 11
156.25
 21
332.25000000016018
 31
0.0
  0
LINE
  5
167
  8
DATA
  6
CONTINUOUS
 62
     7
 10
190.25
 20
355.25000000016018
 30
0.0
 11
180.25
 21
355.25000000016018
 31
0.0
  0
LINE
  5
168
  8
DATA
  6
CONTINUOUS
 62
     7
 10
167.25
 20
355.25000000016018
 30
0.0
 11
157.25
 21
355.25000000016018
 31
0.0
  0
LINE
  5
169
  8
DATA
  6
CONTINUOUS
 62
     7
 10
191.25
 20
332.25000000016018
 30
0.0
 11
191.25
 21
354.2500000001603
 31
0.0
  0
LINE
  5
16A
  8
DATA
  6
CONTINUOUS
 62
     7
 10
157.25
 20
331.25000000016018
 30
0.0
 11
190.25
 21
331.25000000016018
 31
0.0
  0
LINE
  5
16B
  8
DATA
  6
CONTINUOUS
 62
     7
 10
188.75
 20
353.75000000016018
 30
0.0
 11
158.75
 21
353.75000000016018
 31
0.0
  0
LINE
  5
16C
  8
DATA
  6
CONTINUOUS
 62
     7
 10
158.75
 20
332.75000000016018
 30
0.0
 11
188.75
 21
332.75000000016018
 31
0.0
  0
LINE
  5
16D
  8
DATA
  6
CONTINUOUS
 62
     7
 10
157.75
 20
352.7500000001603
 30
0.0
 11
157.75
 21
333.75000000016018
 31
0.0
  0
LINE
  5
16E
  8
DATA
  6
CONTINUOUS
 62
     7
 10
189.75
 20
333.75000000016018
 30
0.0
 11
189.75
 21
352.7500000001603
 31
0.0
  0
LINE
  5
16F
  8
DATA
  6
CONTINUOUS
 62
     7
 10
180.25
 20
353.75000000016018
 30
0.0
 11
180.25
 21
355.25000000016018
 31
0.0
  0
LINE
  5
170
  8
DATA
  6
CONTINUOUS
 62
     7
 10
167.25
 20
355.25000000016018
 30
0.0
 11
167.25
 21
353.75000000016018
 31
0.0
  0
ARC
  5
171
  8
DATA
  6
CONTINUOUS
 62
     7
 10
157.25
 20
354.2500000001603
 30
0.0
 40
1.0
 50
90.0
 51
180.0
  0
ARC
  5
172
  8
DATA
  6
CONTINUOUS
 62
     7
 10
157.25
 20
332.25000000016018
 30
0.0
 40
1.0
 50
180.0
 51
270.0
  0
ARC
  5
173
  8
DATA
  6
CONTINUOUS
 62
     7
 10
158.75
 20
333.75000000016018
 30
0.0
 40
1.0
 50
180.0
 51
270.0
  0
ARC
  5
174
  8
DATA
  6
CONTINUOUS
 62
     7
 10
158.75
 20
352.7500000001603
 30
0.0
 40
1.0
 50
90.0
 51
180.0
  0
ARC
  5
175
  8
DATA
  6
CONTINUOUS
 62
     7
 10
188.75
 20
333.75000000016018
 30
0.0
 40
1.0
 50
270.0
 51
0.0
  0
ARC
  5
176
  8
DATA
  6
CONTINUOUS
 62
     7
 10
190.25
 20
332.25000000016018
 30
0.0
 40
1.0
 50
270.0
 51
0.0
  0
ARC
  5
177
  8
DATA
  6
CONTINUOUS
 62
     7
 10
188.75
 20
352.7500000001603
 30
0.0
 40
1.0
 50
0.0
 51
90.0
  0
ARC
  5
178
  8
DATA
  6
CONTINUOUS
 62
     7
 10
190.25
 20
354.2500000001603
 30
0.0
 40
1.0
 50
0.0
 51
90.0
  0
LINE
  5
179
  8
DATA
  6
CONTINUOUS
 62
     7
 10
172.5719720155756
 20
332.74999999996311
 30
0.0
 11
188.27197201557561
 21
332.74999999996311
 31
0.0
  0
ARC
  5
17A
  8
DATA
  6
CONTINUOUS
 62
     7
 10
162.5
 20
354.4062500001603
 30
0.0
 40
3.84375
 50
12.680383491819819
 51
167.3196165081801
  0
ARC
  5
17B
  8
DATA
  6
CONTINUOUS
 62
     7
 10
185.0
 20
354.4062500001603
 30
0.0
 40
3.84375
 50
12.680383491819819
 51
167.3196165081801
  0
TEXT
  5
17C
  8
DATA
 62
     7
 10
176.09883333333329
 20
260.32125782634768
 30
0.0
 40
9.7730468749999986
  1
RS232
 50
270.0
 41
0.7
 11
185.87188020833329
 21
260.32125782634768
 31
0.0
 73
     3
  0
TEXT
  5
17D
  8
DATA
 62
     7
 10
166.19374974211831
 20
259.84699798804121
 30
0.0
 40
4.8865234374999993
  1
extender
 50
270.0
 41
0.7
 11
171.0802731796183
 21
259.84699798804121
 31
0.0
 73
     3
  0
TEXT
  5
17E
  8
DATA
 62
     7
 10
164.4892677877086
 20
232.7844656728611
 30
0.0
 40
6.5153645833333327
  1
R
 50
270.0
 41
0.7
 11
171.00463237104191
 21
232.7844656728611
 31
0.0
 73
     3
  0
TEXT
  5
17F
  8
DATA
 62
     7
 10
175.85508968885651
 20
310.81361101428291
 30
0.0
 40
2.7103916666666672
  1
CAT-5
 50
180.0
 41
0.7
 11
175.85508968885651
 21
308.10321934761618
 31
0.0
 73
     3
  0
TEXT
  5
180
  8
DATA
 62
     7
 10
165.03899469947049
 20
221.02010596868331
 30
0.0
 40
2.7010546875000001
  1
RS-232 Out
 41
0.7
 11
165.03899469947049
 21
223.72116065618329
 31
0.0
 73
     3
  0
LINE
  5
181
  8
DATA
  6
CONTINUOUS
 62
     7
 10
268.75
 20
192.75
 30
0.0
 11
362.75
 21
192.75
 31
0.0
  0
LINE
  5
182
  8
DATA
  6
CONTINUOUS
 62
     7
 10
268.75
 20
168.75
 30
0.0
 11
268.75
 21
192.75
 31
0.0
  0
LINE
  5
183
  8
DATA
  6
CONTINUOUS
 62
     7
 10
362.75
 20
168.75
 30
0.0
 11
362.75
 21
192.75
 31
0.0
  0
LINE
  5
184
  8
DATA
  6
CONTINUOUS
 62
     7
 10
268.75
 20
168.75
 30
0.0
 11
362.75
 21
168.75
 31
0.0
  0
ARC
  5
185
  8
DATA
  6
CONTINUOUS
 62
     7
 10
274.35721463893748
 20
169.59375
 30
0.0
 40
3.84375
 50
192.68038349181981
 51
347.31961650818022
  0
ARC
  5
186
  8
DATA
  6
CONTINUOUS
 62
     7
 10
357.14278536106252
 20
169.59375
 30
0.0
 40
3.84375
 50
192.68038349181981
 51
347.31961650818022
  0
CIRCLE
  5
187
  8
DATA
  6
CONTINUOUS
 62
     7
 10
186.3436511821823
 20
182.76680365532511
 30
0.0
 40
1.1750000000001251
  0
POLYLINE
  5
188
  8
DATA
  6
CONTINUOUS
 62
     7
 66
     1
 10
0.0
 20
0.0
 30
0.0
 70
     1
  0
VERTEX
  5
273
  8
DATA
  6
CONTINUOUS
 62
     7
 10
186.3436511821823
 20
185.46680365532509
 30
0.0
  0
VERTEX
  5
274
  8
DATA
  6
CONTINUOUS
 62
     7
 10
184.00538259196429
 20
184.1168036553251
 30
0.0
  0
VERTEX
  5
275
  8
DATA
  6
CONTINUOUS
 62
     7
 10
184.00538259196429
 20
181.41680365532511
 30
0.0
  0
VERTEX
  5
276
  8
DATA
  6
CONTINUOUS
 62
     7
 10
186.3436511821823
 20
180.06680365532509
 30
0.0
  0
VERTEX
  5
277
  8
DATA
  6
CONTINUOUS
 62
     7
 10
188.68191977240039
 20
181.41680365532511
 30
0.0
  0
VERTEX
  5
278
  8
DATA
  6
CONTINUOUS
 62
     7
 10
188.68191977240039
 20
184.1168036553251
 30
0.0
  0
SEQEND
  5
279
  8
DATA
  6
CONTINUOUS
 62
     7
  0
CIRCLE
  5
191
  8
DATA
  6
CONTINUOUS
 62
     7
 10
161.34365118218221
 20
182.76680365532511
 30
0.0
 40
1.175000000000068
  0
POLYLINE
  5
192
  8
DATA
  6
CONTINUOUS
 62
     7
 66
     1
 10
0.0
 20
0.0
 30
0.0
 70
     1
  0
VERTEX
  5
27A
  8
DATA
  6
CONTINUOUS
 62
     7
 10
161.34365118218221
 20
185.46680365532509
 30
0.0
  0
VERTEX
  5
27B
  8
DATA
  6
CONTINUOUS
 62
     7
 10
159.00538259196429
 20
184.1168036553251
 30
0.0
  0
VERTEX
  5
27C
  8
DATA
  6
CONTINUOUS
 62
     7
 10
159.00538259196429
 20
181.41680365532511
 30
0.0
  0
VERTEX
  5
27D
  8
DATA
  6
CONTINUOUS
 62
     7
 10
161.34365118218221
 20
180.06680365532509
 30
0.0
  0
VERTEX
  5
27E
  8
DATA
  6
CONTINUOUS
 62
     7
 10
163.68191977240019
 20
181.41680365532511
 30
0.0
  0
VERTEX
  5
27F
  8
DATA
  6
CONTINUOUS
 62
     7
 10
163.68191977240019
 20
184.1168036553251
 30
0.0
  0
SEQEND
  5
280
  8
DATA
  6
CONTINUOUS
 62
     7
  0
LINE
  5
19B
  8
DATA
  6
CONTINUOUS
 62
     7
 10
179.44541439237071
 20
178.76680365532511
 30
0.0
 11
168.24188797199349
 21
178.76680365532511
 31
0.0
  0
LINE
  5
19C
  8
DATA
  6
CONTINUOUS
 62
     7
 10
167.42938797199361
 20
186.76680365532519
 30
0.0
 11
180.25791439237079
 21
186.76680365532519
 31
0.0
  0
LINE
  5
19D
  8
DATA
  6
CONTINUOUS
 62
     7
 10
166.85867112474199
 20
179.95067602294199
 30
0.0
 11
166.0461711247421
 21
185.15067602294209
 31
0.0
  0
LINE
  5
19E
  8
DATA
  6
CONTINUOUS
 62
     7
 10
181.6411312396223
 20
185.15067602294209
 30
0.0
 11
180.82863123962241
 21
179.95067602294199
 31
0.0
  0
CIRCLE
  5
19F
  8
DATA
  6
CONTINUOUS
 62
     7
 10
173.8170214117072
 20
184.40311182647881
 30
0.0
 40
0.5
  0
ARC
  5
1A0
  8
DATA
  6
CONTINUOUS
 62
     7
 10
167.42938797199361
 20
185.3668036553251
 30
0.0
 40
1.4000000000000341
 50
90.0
 51
188.88065915052059
  0
ARC
  5
1A1
  8
DATA
  6
CONTINUOUS
 62
     7
 10
180.25791439237079
 20
185.3668036553251
 30
0.0
 40
1.400000000000019
 50
351.11934084947939
 51
90.0
  0
ARC
  5
1A2
  8
DATA
  6
CONTINUOUS
 62
     7
 10
168.24188797199349
 20
180.1668036553252
 30
0.0
 40
1.400000000000019
 50
188.88065915052059
 51
270.0
  0
ARC
  5
1A3
  8
DATA
  6
CONTINUOUS
 62
     7
 10
179.44541439237071
 20
180.1668036553252
 30
0.0
 40
1.399999999999977
 50
270.0
 51
351.1193408494795
  0
CIRCLE
  5
1A4
  8
DATA
  6
CONTINUOUS
 62
     7
 10
171.3170214117072
 20
184.40311182647881
 30
0.0
 40
0.5
  0
CIRCLE
  5
1A5
  8
DATA
  6
CONTINUOUS
 62
     7
 10
168.8170214117072
 20
184.40311182647881
 30
0.0
 40
0.5
  0
CIRCLE
  5
1A6
  8
DATA
  6
CONTINUOUS
 62
     7
 10
176.3170214117072
 20
184.40311182647881
 30
0.0
 40
0.5
  0
CIRCLE
  5
1A7
  8
DATA
  6
CONTINUOUS
 62
     7
 10
178.8170214117072
 20
184.40311182647881
 30
0.0
 40
0.5
  0
CIRCLE
  5
1A8
  8
DATA
  6
CONTINUOUS
 62
     7
 10
172.62151023563601
 20
180.78459140771611
 30
0.0
 40
0.5
  0
CIRCLE
  5
1A9
  8
DATA
  6
CONTINUOUS
 62
     7
 10
170.12151023563601
 20
180.78459140771611
 30
0.0
 40
0.5
  0
CIRCLE
  5
1AA
  8
DATA
  6
CONTINUOUS
 62
     7
 10
175.12151023563601
 20
180.78459140771611
 30
0.0
 40
0.5
  0
CIRCLE
  5
1AB
  8
DATA
  6
CONTINUOUS
 62
     7
 10
177.62151023563601
 20
180.78459140771611
 30
0.0
 40
0.5
  0
LINE
  5
1AC
  8
DATA
  6
CONTINUOUS
 62
     7
 10
163.28471637812541
 20
332.74999999970709
 30
0.0
 11
163.28471637812541
 21
346.04999999970693
 31
0.0
  0
LINE
  5
1AD
  8
DATA
  6
CONTINUOUS
 62
     7
 10
178.9847163781258
 20
332.74999999970709
 30
0.0
 11
178.9847163781258
 21
346.04999999970693
 31
0.0
  0
LINE
  5
1AE
  8
DATA
  6
CONTINUOUS
 62
     7
 10
178.9847163781258
 20
346.04999999970693
 30
0.0
 11
163.28471637812541
 21
346.04999999970693
 31
0.0
  0
LINE
  5
1AF
  8
DATA
  6
CONTINUOUS
 62
     7
 10
178.9847163781258
 20
332.74999999970709
 30
0.0
 11
163.28471637812541
 21
332.74999999970709
 31
0.0
  0
LINE
  5
1B0
  8
DATA
  6
CONTINUOUS
 62
     7
 10
177.28471637812581
 20
335.74999999970709
 30
0.0
 11
164.98471637812531
 21
335.74999999970709
 31
0.0
  0
LINE
  5
1B1
  8
DATA
  6
CONTINUOUS
 62
     7
 10
177.28471637812581
 20
335.74999999970709
 30
0.0
 11
177.28471637812581
 21
343.04999999970693
 31
0.0
  0
LINE
  5
1B2
  8
DATA
  6
CONTINUOUS
 62
     7
 10
164.98471637812531
 20
335.74999999970709
 30
0.0
 11
164.98471637812531
 21
343.04999999970693
 31
0.0
  0
LINE
  5
1B3
  8
DATA
  6
CONTINUOUS
 62
     7
 10
173.3597163781256
 20
346.04999999970693
 30
0.0
 11
173.3597163781256
 21
344.54999999970693
 31
0.0
  0
LINE
  5
1B4
  8
DATA
  6
CONTINUOUS
 62
     7
 10
168.90971637812541
 20
344.54999999970693
 30
0.0
 11
168.90971637812541
 21
346.04999999970693
 31
0.0
  0
LINE
  5
1B5
  8
DATA
  6
CONTINUOUS
 62
     7
 10
174.48471637812571
 20
344.54999999970693
 30
0.0
 11
173.3597163781256
 21
344.54999999970693
 31
0.0
  0
LINE
  5
1B6
  8
DATA
  6
CONTINUOUS
 62
     7
 10
168.90971637812541
 20
344.54999999970693
 30
0.0
 11
167.78471637812541
 21
344.54999999970693
 31
0.0
  0
LINE
  5
1B7
  8
DATA
  6
CONTINUOUS
 62
     7
 10
177.28471637812581
 20
343.04999999970693
 30
0.0
 11
174.48471637812571
 21
343.04999999970693
 31
0.0
  0
LINE
  5
1B8
  8
DATA
  6
CONTINUOUS
 62
     7
 10
167.78471637812541
 20
343.04999999970693
 30
0.0
 11
164.98471637812531
 21
343.04999999970693
 31
0.0
  0
LINE
  5
1B9
  8
DATA
  6
CONTINUOUS
 62
     7
 10
174.48471637812571
 20
344.54999999970693
 30
0.0
 11
174.48471637812571
 21
343.04999999970693
 31
0.0
  0
LINE
  5
1BA
  8
DATA
  6
CONTINUOUS
 62
     7
 10
167.78471637812541
 20
343.04999999970693
 30
0.0
 11
167.78471637812541
 21
344.54999999970693
 31
0.0
  0
LINE
  5
1BB
  8
DATA
  6
CONTINUOUS
 62
     7
 10
158.817659205089
 20
214.75
 30
0.0
 11
163.4941963855251
 21
214.75
 31
0.0
  0
LINE
  5
1BC
  8
DATA
  6
CONTINUOUS
 62
     7
 10
165.84591988992241
 20
214.75
 30
0.0
 11
181.46511817566119
 21
214.75
 31
0.0
  0
LINE
  5
1BD
  8
DATA
  6
CONTINUOUS
 62
     7
 10
183.8176592050892
 20
214.75
 30
0.0
 11
188.4941963855251
 21
214.75
 31
0.0
  0
LINE
  5
1BE
  8
DATA
  6
CONTINUOUS
 62
     7
 10
158.817659205089
 20
214.75
 30
0.0
 11
158.817659205089
 21
218.75
 31
0.0
  0
LINE
  5
1BF
  8
DATA
  6
CONTINUOUS
 62
     7
 10
163.4941963855251
 20
214.75
 30
0.0
 11
163.4941963855251
 21
218.75
 31
0.0
  0
LINE
  5
1C0
  8
DATA
  6
CONTINUOUS
 62
     7
 10
165.84591988992241
 20
214.75
 30
0.0
 11
165.84591988992241
 21
218.75
 31
0.0
  0
LINE
  5
1C1
  8
DATA
  6
CONTINUOUS
 62
     7
 10
181.46511817566119
 20
214.75
 30
0.0
 11
181.46511817566119
 21
218.75
 31
0.0
  0
LINE
  5
1C2
  8
DATA
  6
CONTINUOUS
 62
     7
 10
183.8176592050892
 20
214.75
 30
0.0
 11
183.8176592050892
 21
218.75
 31
0.0
  0
LINE
  5
1C3
  8
DATA
  6
CONTINUOUS
 62
     7
 10
188.4941963855251
 20
214.75
 30
0.0
 11
188.4941963855251
 21
218.75
 31
0.0
  0
CIRCLE
  5
1C4
  8
DATA
  6
CONTINUOUS
 62
     7
 10
160.52599693293871
 20
340.88596626232572
 30
0.0
 40
1.25
  0
LINE
  5
1C5
  8
DATA
  6
CONTINUOUS
 62
     7
 10
264.75
 20
179.56947649702991
 30
0.0
 11
268.75
 21
179.56947649702991
 31
0.0
  0
LINE
  5
1C6
  8
DATA
  6
CONTINUOUS
 62
     7
 10
268.75
 20
184.76947649703001
 30
0.0
 11
264.75
 21
184.76947649703001
 31
0.0
  0
LINE
  5
1C7
  8
DATA
  6
CONTINUOUS
 62
     7
 10
264.75
 20
178.1694764970299
 30
0.0
 11
268.75
 21
178.1694764970299
 31
0.0
  0
LINE
  5
1C8
  8
DATA
  6
CONTINUOUS
 62
     7
 10
268.75
 20
186.16947649702999
 30
0.0
 11
264.75
 21
186.16947649702999
 31
0.0
  0
LINE
  5
1C9
  8
DATA
  6
CONTINUOUS
 62
     7
 10
264.75
 20
186.16947649702999
 30
0.0
 11
264.75
 21
178.1694764970299
 31
0.0
  0
LINE
  5
1CA
  8
DATA
  6
CONTINUOUS
 62
     7
 10
268.75
 20
181.83000000000001
 30
0.0
 11
264.75
 21
181.83000000000001
 31
0.0
  0
ENDSEC
  0
EOF
