  0
SECTION
  2
HEADER
  9
$ACADVER
  1
AC1009
  9
$INSBASE
 10
0.0
 20
0.0
 30
0.0
  9
$EXTMIN
 10
14.994507516960759
 20
3.633728974538144
 30
-0.0015258207003583
  9
$EXTMAX
 10
285.00869817334308
 20
405.012360562119
 30
0.0000000349246037
  9
$LIMMIN
 10
0.0
 20
0.0
  9
$LIMMAX
 10
0.0
 20
0.0
  9
$ORTHOMODE
 70
     0
  9
$REGENMODE
 70
     1
  9
$FILLMODE
 70
     1
  9
$QTEXTMODE
 70
     0
  9
$MIRRTEXT
 70
     1
  9
$DRAGMODE
 70
     2
  9
$LTSCALE
 40
7.6199999999999983
  9
$OSMODE
 70
   231
  9
$ATTMODE
 70
     1
  9
$TEXTSIZE
 40
0.0
  9
$TRACEWID
 40
1.0
  9
$TEXTSTYLE
  7
STANDARD
  9
$CLAYER
  8
DATA
  9
$CELTYPE
  6
BYLAYER
  9
$CECOLOR
 62
   256
  9
$DIMSCALE
 40
1.0
  9
$DIMASZ
 40
0.18
  9
$DIMEXO
 40
0.0625
  9
$DIMDLI
 40
0.38
  9
$DIMRND
 40
0.0
  9
$DIMDLE
 40
0.0
  9
$DIMEXE
 40
0.18
  9
$DIMTP
 40
0.0
  9
$DIMTM
 40
0.0
  9
$DIMTXT
 40
0.18
  9
$DIMCEN
 40
0.09
  9
$DIMTSZ
 40
0.0
  9
$DIMTOL
 70
     0
  9
$DIMLIM
 70
     0
  9
$DIMTIH
 70
     1
  9
$DIMTOH
 70
     1
  9
$DIMSE1
 70
     0
  9
$DIMSE2
 70
     0
  9
$DIMTAD
 70
     0
  9
$DIMZIN
 70
     0
  9
$DIMBLK
  1

  9
$DIMASO
 70
     1
  9
$DIMSHO
 70
     1
  9
$DIMPOST
  1

  9
$DIMAPOST
  1

  9
$DIMALT
 70
     0
  9
$DIMALTD
 70
     2
  9
$DIMALTF
 40
25.399999999999999
  9
$DIMLFAC
 40
1.0
  9
$DIMTOFL
 70
     0
  9
$DIMTVP
 40
0.0
  9
$DIMTIX
 70
     0
  9
$DIMSOXD
 70
     0
  9
$DIMSAH
 70
     0
  9
$DIMBLK1
  1

  9
$DIMBLK2
  1

  9
$DIMSTYLE
  2
STANDARD
  9
$DIMCLRD
 70
     0
  9
$DIMCLRE
 70
     0
  9
$DIMCLRT
 70
     0
  9
$DIMTFAC
 40
1.0
  9
$DIMGAP
 40
0.09
  9
$LUNITS
 70
     2
  9
$LUPREC
 70
     4
  9
$SKETCHINC
 40
0.1
  9
$FILLETRAD
 40
0.0
  9
$AUNITS
 70
     0
  9
$AUPREC
 70
     0
  9
$MENU
  1
acad
  9
$ELEVATION
 40
0.0
  9
$PELEVATION
 40
0.0
  9
$THICKNESS
 40
0.0
  9
$LIMCHECK
 70
     0
  9
$BLIPMODE
 70
     0
  9
$CHAMFERA
 40
0.0
  9
$CHAMFERB
 40
0.0
  9
$SKPOLY
 70
     0
  9
$TDCREATE
 40
2455202.6425578711
  9
$TDUPDATE
 40
2455202.643068797
  9
$TDINDWG
 40
0.0002985648
  9
$TDUSRTIMER
 40
0.000298206
  9
$USRTIMER
 70
     1
  9
$ANGBASE
 50
0.0
  9
$ANGDIR
 70
     0
  9
$PDMODE
 70
     1
  9
$PDSIZE
 40
-2.0
  9
$PLINEWID
 40
0.0
  9
$COORDS
 70
     0
  9
$SPLFRAME
 70
     0
  9
$SPLINETYPE
 70
     6
  9
$SPLINESEGS
 70
     8
  9
$ATTDIA
 70
     0
  9
$ATTREQ
 70
     1
  9
$HANDLING
 70
     1
  9
$HANDSEED
  5
25E
  9
$SURFTAB1
 70
     6
  9
$SURFTAB2
 70
     6
  9
$SURFTYPE
 70
     6
  9
$SURFU
 70
     6
  9
$SURFV
 70
     6
  9
$UCSNAME
  2

  9
$UCSORG
 10
0.0
 20
0.0
 30
0.0
  9
$UCSXDIR
 10
1.0
 20
0.0
 30
0.0
  9
$UCSYDIR
 10
0.0
 20
1.0
 30
0.0
  9
$PUCSNAME
  2

  9
$PUCSORG
 10
0.0
 20
0.0
 30
0.0
  9
$PUCSXDIR
 10
1.0
 20
0.0
 30
0.0
  9
$PUCSYDIR
 10
0.0
 20
1.0
 30
0.0
  9
$USERI1
 70
     0
  9
$USERI2
 70
     0
  9
$USERI3
 70
     0
  9
$USERI4
 70
     0
  9
$USERI5
 70
     0
  9
$USERR1
 40
0.0
  9
$USERR2
 40
0.0
  9
$USERR3
 40
0.0
  9
$USERR4
 40
0.0
  9
$USERR5
 40
0.0
  9
$WORLDVIEW
 70
     1
  9
$SHADEDGE
 70
     3
  9
$SHADEDIF
 70
    70
  9
$TILEMODE
 70
     1
  9
$MAXACTVP
 70
    64
  9
$PLIMCHECK
 70
     0
  9
$PEXTMIN
 10
1.0000000000000000E+020
 20
1.0000000000000000E+020
 30
1.0000000000000000E+020
  9
$PEXTMAX
 10
-1.0000000000000000E+020
 20
-1.0000000000000000E+020
 30
-1.0000000000000000E+020
  9
$PLIMMIN
 10
0.0
 20
0.0
  9
$PLIMMAX
 10
12.0
 20
9.0
  9
$UNITMODE
 70
     0
  9
$VISRETAIN
 70
     0
  9
$PLINEGEN
 70
     1
  9
$PSLTSCALE
 70
     0
  0
ENDSEC
  0
SECTION
  2
TABLES
  0
TABLE
  2
VPORT
 70
     1
  0
VPORT
  2
*ACTIVE
 70
     0
 10
0.0
 20
0.0
 11
1.0
 21
1.0
 12
150.00160284515189
 22
204.3230447683286
 13
0.0
 23
0.0
 14
1.0
 24
1.0
 15
0.0
 25
0.0
 16
0.0
 26
0.0
 36
1.0
 17
0.0
 27
0.0
 37
0.0
 40
404.33719643957778
 41
1.964329643296433
 42
50.0
 43
0.0
 44
0.0
 50
0.0
 51
0.0
 71
     0
 72
  2000
 73
     1
 74
     1
 75
     0
 76
     0
 77
     0
 78
     0
  0
ENDTAB
  0
TABLE
  2
LTYPE
 70
    11
  0
LTYPE
  2
CONTINUOUS
 70
     0
  3
Solid line
 72
    65
 73
     0
 40
0.0
  0
ENDTAB
  0
TABLE
  2
LAYER
 70
     5
  0
LAYER
  2
0
 70
     0
 62
     7
  6
CONTINUOUS
  0
LAYER
  2
DATA
 70
     0
 62
     7
  6
CONTINUOUS
  0
LAYER
  2
HIBINO-BASE
 70
     0
 62
     7
  6
CONTINUOUS
  0
LAYER
  2
SPEC
 70
     0
 62
     7
  6
CONTINUOUS
  0
LAYER
  2
DIMNSIONS
 70
     0
 62
     7
  6
CONTINUOUS
  0
ENDTAB
  0
TABLE
  2
STYLE
 70
     3
  0
STYLE
  2
STANDARD
 70
     0
 40
0.0
 41
1.0
 50
0.0
 71
     0
 42
0.0
  3
txt
  4
BIGFONT.SHX
  0
ENDTAB
  0
TABLE
  2
VIEW
 70
     0
  0
ENDTAB
  0
TABLE
  2
UCS
 70
     0
  0
ENDTAB
  0
TABLE
  2
APPID
 70
     3
  0
APPID
  2
ACAD
 70
     0
  0
APPID
  2
ACADANNOTATIVE
 70
     0
  0
APPID
  2
ACAD_MLEADERVER
 70
     0
  0
ENDTAB
  0
TABLE
  2
DIMSTYLE
 70
     2
  0
DIMSTYLE
  2
STANDARD
 70
     0
  3

  4

  5

  6

  7

 40
1.0
 41
0.18
 42
0.0625
 43
0.38
 44
0.18
 45
0.0
 46
0.0
 47
0.0
 48
0.0
140
0.18
141
0.09
142
0.0
143
25.399999999999999
144
1.0
145
0.0
146
1.0
147
0.09
 71
     0
 72
     0
 73
     1
 74
     1
 75
     0
 76
     0
 77
     0
 78
     0
170
     0
171
     2
172
     0
173
     0
174
     0
175
     0
176
     0
177
     0
178
     0
  0
ENDTAB
  0
ENDSEC
  0
SECTION
  2
BLOCKS
  0
BLOCK
  8
0
  2
$MODEL_SPACE
 70
     0
 10
0.0
 20
0.0
 30
0.0
  3
$MODEL_SPACE
  1

  0
ENDBLK
  5
1FF
  8
0
  0
BLOCK
 67
     1
  8
0
  2
$PAPER_SPACE
 70
     0
 10
0.0
 20
0.0
 30
0.0
  3
$PAPER_SPACE
  1

  0
ENDBLK
  5
1FB
 67
     1
  8
0
  0
ENDSEC
  0
SECTION
  2
ENTITIES
  0
LINE
  5
2C
  8
HIBINO-BASE
  6
CONTINUOUS
 62
     7
 10
15.0
 20
405.0
 30
0.0
 11
285.0
 21
405.0
 31
0.0
  0
LINE
  5
2D
  8
HIBINO-BASE
  6
CONTINUOUS
 62
     7
 10
285.0
 20
15.0
 30
0.0
 11
15.0
 21
15.0
 31
0.0
  0
LINE
  5
2E
  8
HIBINO-BASE
  6
CONTINUOUS
 62
     7
 10
15.0
 20
15.0
 30
0.0
 11
15.0
 21
405.0
 31
0.0
  0
LINE
  5
2F
  8
HIBINO-BASE
  6
CONTINUOUS
 62
     7
 10
285.0
 20
405.0
 30
0.0
 11
285.0
 21
15.0
 31
0.0
  0
LINE
  5
30
  8
HIBINO-BASE
  6
CONTINUOUS
 62
     7
 10
150.0
 20
48.750000000000021
 30
0.0
 11
285.0
 21
48.750000000000021
 31
0.0
  0
LINE
  5
31
  8
HIBINO-BASE
  6
CONTINUOUS
 62
     7
 10
150.0
 20
15.0
 30
0.0
 11
150.0
 21
48.750000000000021
 31
0.0
  0
TEXT
  5
32
  8
HIBINO-BASE
 62
     7
 10
151.34999999999991
 20
44.98696000000001
 30
0.0
 40
2.4432617187500001
  1
NOTE
 41
0.7
 11
151.34999999999991
 21
47.430221718750012
 31
0.0
 73
     3
  0
LINE
  5
33
  8
HIBINO-BASE
  6
CONTINUOUS
 62
     7
 10
202.5
 20
15.0
 30
0.0
 11
202.5
 21
48.750000000000021
 31
0.0
  0
TEXT
  5
34
  8
HIBINO-BASE
 62
     7
 10
203.84999999999999
 20
44.98696000000001
 30
0.0
 40
2.4432617187500001
  1
TITLE
 41
0.7
 11
203.84999999999999
 21
47.430221718750012
 31
0.0
 73
     3
  0
LINE
  5
35
  8
HIBINO-BASE
  6
CONTINUOUS
 62
     7
 10
150.0
 20
30.000000000000028
 30
0.0
 11
285.0
 21
30.000000000000028
 31
0.0
  0
TEXT
  5
36
  8
HIBINO-BASE
 62
     7
 10
222.59999999999999
 20
26.321439999999988
 30
0.0
 40
2.4432617187500001
  1
DRAWN
 41
0.7
 11
222.59999999999999
 21
28.76470171874999
 31
0.0
 73
     3
  0
TEXT
  5
37
  8
HIBINO-BASE
 62
     7
 10
185.09999999999999
 20
26.321439999999988
 30
0.0
 40
2.4432617187500001
  1
DATE
 41
0.7
 11
185.09999999999999
 21
28.76470171874999
 31
0.0
 73
     3
  0
TEXT
  5
38
  8
HIBINO-BASE
 62
     7
 10
170.09999999999991
 20
26.321439999999988
 30
0.0
 40
2.4432617187500001
  1
SCALE
 41
0.7
 11
170.09999999999991
 21
28.76470171874999
 31
0.0
 73
     3
  0
TEXT
  5
39
  8
HIBINO-BASE
 62
     7
 10
203.84999999999999
 20
26.321439999999988
 30
0.0
 40
2.4432617187500001
  1
DESIGN
 41
0.7
 11
203.84999999999999
 21
28.76470171874999
 31
0.0
 73
     3
  0
TEXT
  5
3A
  8
HIBINO-BASE
 62
     7
 10
260.10000000000002
 20
26.321439999999988
 30
0.0
 40
2.4432617187500001
  1
DRAWING NO.
 41
0.7
 11
260.10000000000002
 21
28.76470171874999
 31
0.0
 73
     3
  0
TEXT
  5
3B
  8
HIBINO-BASE
 62
     7
 10
241.34999999999999
 20
26.321439999999988
 30
0.0
 40
2.4432617187500001
  1
CHECK
 41
0.7
 11
241.34999999999999
 21
28.76470171874999
 31
0.0
 73
     3
  0
LINE
  5
3C
  8
HIBINO-BASE
  6
CONTINUOUS
 62
     7
 10
171.5625
 20
16.875
 30
0.0
 11
177.18749999999989
 21
22.500000000000028
 31
0.0
  0
TEXT
  5
3D
  8
HIBINO-BASE
 62
     7
 10
170.625
 20
20.83658500000001
 30
0.0
 40
2.4432617187500001
  1
1
 41
0.7
 11
170.625
 21
23.279846718750012
 31
0.0
 73
     3
  0
LINE
  5
3E
  8
HIBINO-BASE
  6
CONTINUOUS
 62
     7
 10
168.75
 20
15.0
 30
0.0
 11
168.75
 21
30.000000000000028
 31
0.0
  0
LINE
  5
3F
  8
HIBINO-BASE
  6
CONTINUOUS
 62
     7
 10
183.75
 20
15.0
 30
0.0
 11
183.75
 21
30.000000000000028
 31
0.0
  0
LINE
  5
40
  8
HIBINO-BASE
  6
CONTINUOUS
 62
     7
 10
221.25
 20
30.000000000000028
 30
0.0
 11
221.25
 21
15.0
 31
0.0
  0
LINE
  5
41
  8
HIBINO-BASE
  6
CONTINUOUS
 62
     7
 10
258.75
 20
30.000000000000028
 30
0.0
 11
258.75
 21
15.0
 31
0.0
  0
LINE
  5
42
  8
HIBINO-BASE
  6
CONTINUOUS
 62
     7
 10
240.0
 20
15.0
 30
0.0
 11
240.0
 21
30.000000000000028
 31
0.0
  0
TEXT
  5
43
  8
HIBINO-BASE
 62
     7
 10
185.03480999999999
 20
19.295469999999991
 30
0.0
 40
2.4432617187500001
  1
'09.10.
 41
0.7
 11
185.03480999999999
 21
21.738731718749989
 31
0.0
 73
     3
  0
TEXT
  5
44
  8
HIBINO-BASE
 62
     7
 10
176.25
 20
18.02408500000001
 30
0.0
 40
2.4432617187500001
  1
1.5
 41
0.7
 11
176.25
 21
20.467346718750012
 31
0.0
 73
     3
  0
TEXT
  5
45
  8
HIBINO-BASE
 62
     7
 10
155.82499999999999
 20
17.964000000000009
 30
0.0
 40
4.8865234374999993
  1
A4
 41
0.7
 11
155.82499999999999
 21
22.850523437500019
 31
0.0
 73
     3
  0
TEXT
  5
46
  8
HIBINO-BASE
 62
     7
 10
151.4375
 20
26.070817500000029
 30
0.0
 40
2.4432617187500001
  1
PAPER SIZE
 41
0.7
 11
151.4375
 21
28.51407921875003
 31
0.0
 73
     3
  0
TEXT
  5
47
  8
HIBINO-BASE
 62
     7
 10
19.371316120197179
 20
5.408259692617797
 30
0.0
 40
5.293733723958332
  1
Hibino-Intersound Corporation
 41
0.7
 11
19.371316120197179
 21
10.70199341657613
 31
0.0
 73
     3
  0
TEXT
  5
48
  8
HIBINO-BASE
 62
     7
 10
180.9689499059817
 20
5.8737681933067387
 30
0.0
 40
5.293733723958332
  1
ヒビノインターサウンド株式会社
 41
0.7
 11
180.9689499059817
 21
11.167501917265071
 31
0.0
 73
     3
  0
TEXT
  5
49
  8
HIBINO-BASE
 62
     7
 10
224.4003416977045
 20
19.424252062764499
 30
0.0
 40
2.4432617187500001
  1
T.Ootake
 41
0.7
 11
224.4003416977045
 21
21.8675137815145
 31
0.0
 73
     3
  0
TEXT
  5
4A
  8
SPEC
 62
     7
 10
28.125
 20
392.08990499999999
 30
0.0
 40
3.664892578124999
  1
仕様
 41
0.7
 11
28.125
 21
395.75479757812491
 31
0.0
 73
     3
  0
LINE
  5
4B
  8
SPEC
  6
CONTINUOUS
 62
     7
 10
26.249999999999972
 20
389.99999999983282
 30
0.0
 11
211.62181333603399
 21
389.99999999983282
 31
0.0
  0
LINE
  5
4C
  8
SPEC
  6
CONTINUOUS
 62
     7
 10
26.249999999999972
 20
384.37499999983282
 30
0.0
 11
211.62181333603399
 21
384.37499999983282
 31
0.0
  0
LINE
  5
4D
  8
SPEC
  6
CONTINUOUS
 62
     7
 10
26.249999999999972
 20
361.87499999983282
 30
0.0
 11
211.62181333603399
 21
361.87499999983282
 31
0.0
  0
LINE
  5
4E
  8
SPEC
  6
CONTINUOUS
 62
     7
 10
26.249999999999972
 20
367.49999999983282
 30
0.0
 11
211.62181333603399
 21
367.49999999983282
 31
0.0
  0
LINE
  5
4F
  8
SPEC
  6
CONTINUOUS
 62
     7
 10
26.249999999999972
 20
373.12499999983282
 30
0.0
 11
211.62181333603399
 21
373.12499999983282
 31
0.0
  0
LINE
  5
50
  8
SPEC
  6
CONTINUOUS
 62
     7
 10
211.62181333603399
 20
356.24999999983282
 30
0.0
 11
26.249999999999972
 21
356.24999999983282
 31
0.0
  0
LINE
  5
51
  8
SPEC
  6
CONTINUOUS
 62
     7
 10
26.249999999999972
 20
378.74999999983282
 30
0.0
 11
211.62181333603399
 21
378.74999999983282
 31
0.0
  0
LINE
  5
52
  8
SPEC
  6
CONTINUOUS
 62
     7
 10
26.249999999999972
 20
389.99999999983282
 30
0.0
 11
26.249999999999972
 21
339.35999999983278
 31
0.0
  0
LINE
  5
53
  8
SPEC
  6
CONTINUOUS
 62
     7
 10
74.999999999999972
 20
389.99999999983282
 30
0.0
 11
74.999999999999972
 21
356.24999999983282
 31
0.0
  0
LINE
  5
54
  8
SPEC
  6
CONTINUOUS
 62
     7
 10
211.62181333603399
 20
389.99999999983282
 30
0.0
 11
211.62181333603399
 21
339.35999999983278
 31
0.0
  0
TEXT
  5
55
  8
SPEC
 62
     7
 10
27.506974273775509
 20
385.62507891714989
 30
0.0
 40
2.850466875
  1
形式
 41
0.7
 11
27.506974273775509
 21
388.47554579215
 31
0.0
 73
     3
  0
LINE
  5
56
  8
SPEC
  6
CONTINUOUS
 62
     7
 10
74.999999999999972
 20
389.99999999983282
 30
0.0
 11
74.999999999999972
 21
339.35999999983278
 31
0.0
  0
TEXT
  5
57
  8
SPEC
 62
     7
 10
76.174002241851241
 20
385.69023569776459
 30
0.0
 40
2.8504720052083332
  1
デジタルオーディオ延長機
 41
0.7
 11
76.174002241851241
 21
388.5407077029729
 31
0.0
 73
     3
  0
TEXT
  5
58
  8
SPEC
 62
     7
 10
27.384294170954892
 20
380.1676183398003
 30
0.0
 40
2.850466875
  1
データ転送レート
 41
0.7
 11
27.384294170954892
 21
383.01808521480018
 31
0.0
 73
     3
  0
TEXT
  5
59
  8
SPEC
 62
     7
 10
76.190325554075301
 20
380.01656955653561
 30
0.0
 40
2.8504720052083332
  1
12.8Mb/s
 41
0.7
 11
76.190325554075301
 21
382.86704156174392
 31
0.0
 73
     3
  0
TEXT
  5
5A
  8
SPEC
 62
     7
 10
27.633971003786201
 20
374.49782327013008
 30
0.0
 40
2.850466875
  1
S/PDIF(Digital Coax)
 41
0.7
 11
27.633971003786201
 21
377.34829014513019
 31
0.0
 73
     3
  0
TEXT
  5
5B
  8
SPEC
 62
     7
 10
76.396002537754185
 20
374.39460014413578
 30
0.0
 40
2.8504720052083332
  1
96kHz
 41
0.7
 11
76.396002537754185
 21
377.2450721493442
 31
0.0
 73
     3
  0
LINE
  5
5C
  8
SPEC
  6
CONTINUOUS
 62
     7
 10
211.62181333603399
 20
350.61999999983283
 30
0.0
 11
26.249999999999972
 21
350.61999999983283
 31
0.0
  0
LINE
  5
5D
  8
SPEC
  6
CONTINUOUS
 62
     7
 10
211.62181333603399
 20
344.98999999983278
 30
0.0
 11
26.249999999999972
 21
344.98999999983278
 31
0.0
  0
LINE
  5
5E
  8
SPEC
  6
CONTINUOUS
 62
     7
 10
211.62181333603399
 20
339.35999999983278
 30
0.0
 11
26.249999999999972
 21
339.35999999983278
 31
0.0
  0
TEXT
  5
5F
  8
SPEC
 62
     7
 10
27.564232531424089
 20
368.9479468539817
 30
0.0
 40
2.850466875
  1
入出力端子
 41
0.7
 11
27.564232531424089
 21
371.79841372898159
 31
0.0
 73
     3
  0
TEXT
  5
60
  8
SPEC
 62
     7
 10
76.469665453725057
 20
368.80920436432939
 30
0.0
 40
2.8504720052083332
  1
S/PDIF(digital coax)、TOSLINK(optical)
 41
0.7
 11
76.469665453725057
 21
371.65967636953781
 31
0.0
 73
     3
  0
TEXT
  5
61
  8
SPEC
 62
     7
 10
26.904537672579782
 20
363.26812932775238
 30
0.0
 40
2.850466875
  1
リンクコネクター
 41
0.7
 11
26.904537672579782
 21
366.11859620275243
 31
0.0
 73
     3
  0
TEXT
  5
62
  8
SPEC
 62
     7
 10
76.40708500164429
 20
363.32125698826093
 30
0.0
 40
2.8504720052083332
  1
RJ－45
 41
0.7
 11
76.40708500164429
 21
366.17172899346929
 31
0.0
 73
     3
  0
TEXT
  5
63
  8
SPEC
 62
     7
 10
27.493156795145921
 20
357.82702525020687
 30
0.0
 40
2.850466875
  1
電源
 41
0.7
 11
27.493156795145921
 21
360.67749212520692
 31
0.0
 73
     3
  0
TEXT
  5
64
  8
SPEC
 62
     7
 10
76.405371234582987
 20
357.5884537053584
 30
0.0
 40
2.8504720052083332
  1
5V DC
 41
0.7
 11
76.405371234582987
 21
360.43892571056682
 31
0.0
 73
     3
  0
TEXT
  5
65
  8
SPEC
 62
     7
 10
27.552602683811049
 20
352.1770111312207
 30
0.0
 40
2.850466875
  1
消費電力
 41
0.7
 11
27.552602683811049
 21
355.02747800622069
 31
0.0
 73
     3
  0
TEXT
  5
66
  8
SPEC
 62
     7
 10
76.38743344920465
 20
352.01736399957281
 30
0.0
 40
2.8504720052083332
  1
5W(最大)
 41
0.7
 11
76.38743344920465
 21
354.86783600478111
 31
0.0
 73
     3
  0
TEXT
  5
67
  8
SPEC
 62
     7
 10
27.470160297196522
 20
346.65592684306893
 30
0.0
 40
2.8504720052083332
  1
寸法
 41
0.7
 11
27.470160297196522
 21
349.50639884827717
 31
0.0
 73
     3
  0
TEXT
  5
68
  8
SPEC
 62
     7
 10
27.525884275865039
 20
340.91214928261053
 30
0.0
 40
2.8504720052083332
  1
重量
 41
0.7
 11
27.525884275865039
 21
343.76262128781889
 31
0.0
 73
     3
  0
TEXT
  5
69
  8
SPEC
 62
     7
 10
76.416943408338057
 20
346.49705380341652
 30
0.0
 40
2.8504720052083332
  1
37(W)\U+00D730(H)\U+00D791(D)mm(突起部含まず)、(センダー、レシーバー共に)
 41
0.7
 11
76.416943408338057
 21
349.34752580862482
 31
0.0
 73
     3
  0
TEXT
  5
6A
  8
SPEC
 62
     7
 10
76.392783050374774
 20
341.03915800696888
 30
0.0
 40
2.8504720052083332
  1
約80g(センダー、レシーバー共に)
 41
0.7
 11
76.392783050374774
 21
343.88963001217729
 31
0.0
 73
     3
  0
TEXT
  5
6B
  8
DIMNSIONS
 62
     7
 10
119.9999999999999
 20
33.404235000000021
 30
0.0
 40
3.664892578124999
  1
(単位：mm)
 41
0.7
 11
119.9999999999999
 21
37.06912757812502
 31
0.0
 73
     3
  0
LINE
  5
6C
  8
DIMNSIONS
  6
CONTINUOUS
 62
     7
 10
53.249999999768342
 20
149.9999999999026
 30
0.0
 11
40.75
 21
149.9999999999026
 31
0.0
  0
LINE
  5
6D
  8
DIMNSIONS
  6
CONTINUOUS
 62
     7
 10
53.249999999768342
 20
240.9999999999026
 30
0.0
 11
40.75
 21
240.9999999999026
 31
0.0
  0
LINE
  5
6E
  8
DIMNSIONS
  6
CONTINUOUS
 62
     7
 10
43.75
 20
149.9999999999026
 30
0.0
 11
43.75
 21
240.9999999999026
 31
0.0
  0
LINE
  5
6F
  8
DIMNSIONS
  6
CONTINUOUS
 62
     7
 10
43.75
 20
149.9999999999026
 30
0.0
 11
42.744940307274632
 21
153.75093383779321
 31
0.0
  0
LINE
  5
70
  8
DIMNSIONS
  6
CONTINUOUS
 62
     7
 10
43.75
 20
149.9999999999026
 30
0.0
 11
44.755059692725361
 21
153.75093383779321
 31
0.0
  0
LINE
  5
71
  8
DIMNSIONS
  6
CONTINUOUS
 62
     7
 10
43.75
 20
240.9999999999026
 30
0.0
 11
44.755059692725361
 21
237.24906616201201
 31
0.0
  0
LINE
  5
72
  8
DIMNSIONS
  6
CONTINUOUS
 62
     7
 10
43.75
 20
240.9999999999026
 30
0.0
 11
42.744940307274632
 21
237.24906616201201
 31
0.0
  0
TEXT
  5
73
  8
DIMNSIONS
 62
     7
 10
42.25916666666668
 20
192.85416666656931
 30
0.0
 40
4.072102864583333
  1
91
 50
90.0
 41
0.7
 11
38.187063802083351
 21
192.85416666656931
 31
0.0
 73
     3
  0
LINE
  5
74
  8
DIMNSIONS
  6
CONTINUOUS
 62
     7
 10
178.24999999976831
 20
149.9999999999026
 30
0.0
 11
165.75
 21
149.9999999999026
 31
0.0
  0
LINE
  5
75
  8
DIMNSIONS
  6
CONTINUOUS
 62
     7
 10
178.24999999976831
 20
240.9999999999026
 30
0.0
 11
165.75
 21
240.9999999999026
 31
0.0
  0
LINE
  5
76
  8
DIMNSIONS
  6
CONTINUOUS
 62
     7
 10
168.75
 20
149.9999999999026
 30
0.0
 11
168.75
 21
240.9999999999026
 31
0.0
  0
LINE
  5
77
  8
DIMNSIONS
  6
CONTINUOUS
 62
     7
 10
168.75
 20
149.9999999999026
 30
0.0
 11
167.74494030727459
 21
153.75093383779321
 31
0.0
  0
LINE
  5
78
  8
DIMNSIONS
  6
CONTINUOUS
 62
     7
 10
168.75
 20
149.9999999999026
 30
0.0
 11
169.75505969272541
 21
153.75093383779321
 31
0.0
  0
LINE
  5
79
  8
DIMNSIONS
  6
CONTINUOUS
 62
     7
 10
168.75
 20
240.9999999999026
 30
0.0
 11
169.75505969272541
 21
237.24906616201201
 31
0.0
  0
LINE
  5
7A
  8
DIMNSIONS
  6
CONTINUOUS
 62
     7
 10
168.75
 20
240.9999999999026
 30
0.0
 11
167.74494030727459
 21
237.24906616201201
 31
0.0
  0
TEXT
  5
7B
  8
DIMNSIONS
 62
     7
 10
167.25916666666669
 20
192.85416666656931
 30
0.0
 40
4.072102864583333
  1
91
 50
90.0
 41
0.7
 11
163.18706380208329
 21
192.85416666656931
 31
0.0
 73
     3
  0
LINE
  5
7C
  8
DIMNSIONS
  6
CONTINUOUS
 62
     7
 10
56.249999999768342
 20
92.250000000102588
 30
0.0
 11
56.249999999768342
 21
78.25
 31
0.0
  0
LINE
  5
7D
  8
DIMNSIONS
  6
CONTINUOUS
 62
     7
 10
93.24999999976832
 20
92.250000000102588
 30
0.0
 11
93.24999999976832
 21
78.25
 31
0.0
  0
LINE
  5
7E
  8
DIMNSIONS
  6
CONTINUOUS
 62
     7
 10
56.249999999768342
 20
81.25
 30
0.0
 11
93.24999999976832
 21
81.25
 31
0.0
  0
LINE
  5
7F
  8
DIMNSIONS
  6
CONTINUOUS
 62
     7
 10
56.249999999768342
 20
81.25
 30
0.0
 11
60.000933837658962
 21
82.255059692725368
 31
0.0
  0
LINE
  5
80
  8
DIMNSIONS
  6
CONTINUOUS
 62
     7
 10
56.249999999768342
 20
81.25
 30
0.0
 11
60.000933837658962
 21
80.244940307274632
 31
0.0
  0
LINE
  5
81
  8
DIMNSIONS
  6
CONTINUOUS
 62
     7
 10
93.24999999976832
 20
81.25
 30
0.0
 11
89.499066161877707
 21
80.244940307274632
 31
0.0
  0
LINE
  5
82
  8
DIMNSIONS
  6
CONTINUOUS
 62
     7
 10
93.24999999976832
 20
81.25
 30
0.0
 11
89.499066161877707
 21
82.255059692725368
 31
0.0
  0
TEXT
  5
83
  8
DIMNSIONS
 62
     7
 10
72.104166666435006
 20
82.740833333333356
 30
0.0
 40
4.072102864583333
  1
37
 41
0.7
 11
72.104166666435006
 21
86.812936197916684
 31
0.0
 73
     3
  0
LINE
  5
84
  8
DIMNSIONS
  6
CONTINUOUS
 62
     7
 10
53.249999999768342
 20
149.9999999999026
 30
0.0
 11
40.75
 21
149.9999999999026
 31
0.0
  0
LINE
  5
85
  8
DIMNSIONS
  6
CONTINUOUS
 62
     7
 10
62.099999999768322
 20
142.9999999999026
 30
0.0
 11
40.75
 21
142.9999999999026
 31
0.0
  0
LINE
  5
86
  8
DIMNSIONS
  6
CONTINUOUS
 62
     7
 10
43.75
 20
142.9999999999026
 30
0.0
 11
43.75
 21
149.9999999999026
 31
0.0
  0
LINE
  5
87
  8
DIMNSIONS
  6
CONTINUOUS
 62
     7
 10
43.75
 20
149.9999999999026
 30
0.0
 11
43.75
 21
157.4999999999026
 31
0.0
  0
LINE
  5
88
  8
DIMNSIONS
  6
CONTINUOUS
 62
     7
 10
43.75
 20
149.9999999999026
 30
0.0
 11
42.744940307274632
 21
153.75093383779321
 31
0.0
  0
LINE
  5
89
  8
DIMNSIONS
  6
CONTINUOUS
 62
     7
 10
43.75
 20
149.9999999999026
 30
0.0
 11
44.755059692725361
 21
153.75093383779321
 31
0.0
  0
LINE
  5
8A
  8
DIMNSIONS
  6
CONTINUOUS
 62
     7
 10
43.75
 20
142.9999999999026
 30
0.0
 11
43.75
 21
135.4999999999026
 31
0.0
  0
LINE
  5
8B
  8
DIMNSIONS
  6
CONTINUOUS
 62
     7
 10
43.75
 20
142.9999999999026
 30
0.0
 11
44.755059692725361
 21
139.24906616201201
 31
0.0
  0
LINE
  5
8C
  8
DIMNSIONS
  6
CONTINUOUS
 62
     7
 10
43.75
 20
142.9999999999026
 30
0.0
 11
42.744940307274632
 21
139.24906616201201
 31
0.0
  0
TEXT
  5
8D
  8
DIMNSIONS
 62
     7
 10
42.259166666666658
 20
145.17708333323591
 30
0.0
 40
4.072102864583333
  1
7
 50
90.0
 41
0.7
 11
38.18706380208333
 21
145.17708333323591
 31
0.0
 73
     3
  0
LINE
  5
8E
  8
DIMNSIONS
  6
CONTINUOUS
 62
     7
 10
54.616936462448422
 20
93.750000000102602
 30
0.0
 11
40.75
 21
93.750000000102602
 31
0.0
  0
LINE
  5
8F
  8
DIMNSIONS
  6
CONTINUOUS
 62
     7
 10
54.749999999768342
 20
123.7500000001026
 30
0.0
 11
40.75
 21
123.7500000001026
 31
0.0
  0
LINE
  5
90
  8
DIMNSIONS
  6
CONTINUOUS
 62
     7
 10
43.75
 20
93.750000000102602
 30
0.0
 11
43.75
 21
123.7500000001026
 31
0.0
  0
LINE
  5
91
  8
DIMNSIONS
  6
CONTINUOUS
 62
     7
 10
43.75
 20
93.750000000102602
 30
0.0
 11
42.744940307274632
 21
97.500933837993244
 31
0.0
  0
LINE
  5
92
  8
DIMNSIONS
  6
CONTINUOUS
 62
     7
 10
43.75
 20
93.750000000102602
 30
0.0
 11
44.755059692725361
 21
97.500933837993244
 31
0.0
  0
LINE
  5
93
  8
DIMNSIONS
  6
CONTINUOUS
 62
     7
 10
43.75
 20
123.7500000001026
 30
0.0
 11
44.755059692725361
 21
119.9990661622119
 31
0.0
  0
LINE
  5
94
  8
DIMNSIONS
  6
CONTINUOUS
 62
     7
 10
43.75
 20
123.7500000001026
 30
0.0
 11
42.744940307274632
 21
119.9990661622119
 31
0.0
  0
TEXT
  5
95
  8
DIMNSIONS
 62
     7
 10
42.25916666666668
 20
106.1041666667692
 30
0.0
 40
4.072102864583333
  1
30
 50
90.0
 41
0.7
 11
38.187063802083351
 21
106.1041666667692
 31
0.0
 73
     3
  0
LINE
  5
96
  8
DIMNSIONS
  6
CONTINUOUS
 62
     7
 10
54.616936462448422
 20
93.750000000102602
 30
0.0
 11
40.75
 21
93.750000000102602
 31
0.0
  0
LINE
  5
97
  8
DIMNSIONS
  6
CONTINUOUS
 62
     7
 10
58.499999999768342
 20
91.751960941307203
 30
0.0
 11
40.75
 21
91.751960941307203
 31
0.0
  0
LINE
  5
98
  8
DIMNSIONS
  6
CONTINUOUS
 62
     7
 10
43.75
 20
91.751960941307203
 30
0.0
 11
43.75
 21
93.750000000102602
 31
0.0
  0
LINE
  5
99
  8
DIMNSIONS
  6
CONTINUOUS
 62
     7
 10
43.75
 20
93.750000000102602
 30
0.0
 11
43.75
 21
101.2500000001026
 31
0.0
  0
LINE
  5
9A
  8
DIMNSIONS
  6
CONTINUOUS
 62
     7
 10
43.75
 20
93.750000000102602
 30
0.0
 11
42.744940307274632
 21
97.500933837993244
 31
0.0
  0
LINE
  5
9B
  8
DIMNSIONS
  6
CONTINUOUS
 62
     7
 10
43.75
 20
93.750000000102602
 30
0.0
 11
44.755059692725361
 21
97.500933837993244
 31
0.0
  0
LINE
  5
9C
  8
DIMNSIONS
  6
CONTINUOUS
 62
     7
 10
43.75
 20
91.751960941307203
 30
0.0
 11
43.75
 21
84.855368620275513
 31
0.0
  0
LINE
  5
9D
  8
DIMNSIONS
  6
CONTINUOUS
 62
     7
 10
43.75
 20
91.751960941307203
 30
0.0
 11
44.755059692725361
 21
88.001027103416604
 31
0.0
  0
LINE
  5
9E
  8
DIMNSIONS
  6
CONTINUOUS
 62
     7
 10
43.75
 20
91.751960941307203
 30
0.0
 11
42.744940307274632
 21
88.001027103416604
 31
0.0
  0
TEXT
  5
9F
  8
DIMNSIONS
 62
     7
 10
42.259166666666658
 20
84.855368620275513
 30
0.0
 40
4.072102864583333
  1
2
 50
90.0
 41
0.7
 11
38.18706380208333
 21
84.855368620275513
 31
0.0
 73
     3
  0
LINE
  5
A0
  8
DIMNSIONS
  6
CONTINUOUS
 62
     7
 10
181.24999999976831
 20
92.250000000102588
 30
0.0
 11
181.24999999976831
 21
78.25
 31
0.0
  0
LINE
  5
A1
  8
DIMNSIONS
  6
CONTINUOUS
 62
     7
 10
218.24999999976839
 20
92.250000000102588
 30
0.0
 11
218.24999999976839
 21
78.25
 31
0.0
  0
LINE
  5
A2
  8
DIMNSIONS
  6
CONTINUOUS
 62
     7
 10
181.24999999976831
 20
81.25
 30
0.0
 11
218.24999999976839
 21
81.25
 31
0.0
  0
LINE
  5
A3
  8
DIMNSIONS
  6
CONTINUOUS
 62
     7
 10
181.24999999976831
 20
81.25
 30
0.0
 11
185.00093383765889
 21
82.255059692725368
 31
0.0
  0
LINE
  5
A4
  8
DIMNSIONS
  6
CONTINUOUS
 62
     7
 10
181.24999999976831
 20
81.25
 30
0.0
 11
185.00093383765889
 21
80.244940307274632
 31
0.0
  0
LINE
  5
A5
  8
DIMNSIONS
  6
CONTINUOUS
 62
     7
 10
218.24999999976839
 20
81.25
 30
0.0
 11
214.49906616187769
 21
80.244940307274632
 31
0.0
  0
LINE
  5
A6
  8
DIMNSIONS
  6
CONTINUOUS
 62
     7
 10
218.24999999976839
 20
81.25
 30
0.0
 11
214.49906616187769
 21
82.255059692725368
 31
0.0
  0
TEXT
  5
A7
  8
DIMNSIONS
 62
     7
 10
197.10416666643491
 20
82.740833333333356
 30
0.0
 40
4.072102864583333
  1
37
 41
0.7
 11
197.10416666643491
 21
86.812936197916684
 31
0.0
 73
     3
  0
LINE
  5
A8
  8
DIMNSIONS
  6
CONTINUOUS
 62
     7
 10
178.24999999976831
 20
149.9999999999026
 30
0.0
 11
165.75
 21
149.9999999999026
 31
0.0
  0
LINE
  5
A9
  8
DIMNSIONS
  6
CONTINUOUS
 62
     7
 10
187.0999999997683
 20
142.9999999999026
 30
0.0
 11
165.75
 21
142.9999999999026
 31
0.0
  0
LINE
  5
AA
  8
DIMNSIONS
  6
CONTINUOUS
 62
     7
 10
168.75
 20
142.9999999999026
 30
0.0
 11
168.75
 21
149.9999999999026
 31
0.0
  0
LINE
  5
AB
  8
DIMNSIONS
  6
CONTINUOUS
 62
     7
 10
168.75
 20
149.9999999999026
 30
0.0
 11
168.75
 21
157.4999999999026
 31
0.0
  0
LINE
  5
AC
  8
DIMNSIONS
  6
CONTINUOUS
 62
     7
 10
168.75
 20
149.9999999999026
 30
0.0
 11
167.74494030727459
 21
153.75093383779321
 31
0.0
  0
LINE
  5
AD
  8
DIMNSIONS
  6
CONTINUOUS
 62
     7
 10
168.75
 20
149.9999999999026
 30
0.0
 11
169.75505969272541
 21
153.75093383779321
 31
0.0
  0
LINE
  5
AE
  8
DIMNSIONS
  6
CONTINUOUS
 62
     7
 10
168.75
 20
142.9999999999026
 30
0.0
 11
168.75
 21
135.4999999999026
 31
0.0
  0
LINE
  5
AF
  8
DIMNSIONS
  6
CONTINUOUS
 62
     7
 10
168.75
 20
142.9999999999026
 30
0.0
 11
169.75505969272541
 21
139.24906616201201
 31
0.0
  0
LINE
  5
B0
  8
DIMNSIONS
  6
CONTINUOUS
 62
     7
 10
168.75
 20
142.9999999999026
 30
0.0
 11
167.74494030727459
 21
139.24906616201201
 31
0.0
  0
TEXT
  5
B1
  8
DIMNSIONS
 62
     7
 10
167.25916666666669
 20
145.17708333323591
 30
0.0
 40
4.072102864583333
  1
7
 50
90.0
 41
0.7
 11
163.18706380208329
 21
145.17708333323591
 31
0.0
 73
     3
  0
LINE
  5
B2
  8
DIMNSIONS
  6
CONTINUOUS
 62
     7
 10
179.74999999976831
 20
93.750000000102602
 30
0.0
 11
165.75
 21
93.750000000102602
 31
0.0
  0
LINE
  5
B3
  8
DIMNSIONS
  6
CONTINUOUS
 62
     7
 10
179.74999999976831
 20
123.7500000001026
 30
0.0
 11
165.75
 21
123.7500000001026
 31
0.0
  0
LINE
  5
B4
  8
DIMNSIONS
  6
CONTINUOUS
 62
     7
 10
168.75
 20
93.750000000102602
 30
0.0
 11
168.75
 21
123.7500000001026
 31
0.0
  0
LINE
  5
B5
  8
DIMNSIONS
  6
CONTINUOUS
 62
     7
 10
168.75
 20
93.750000000102602
 30
0.0
 11
167.74494030727459
 21
97.500933837993244
 31
0.0
  0
LINE
  5
B6
  8
DIMNSIONS
  6
CONTINUOUS
 62
     7
 10
168.75
 20
93.750000000102602
 30
0.0
 11
169.75505969272541
 21
97.500933837993244
 31
0.0
  0
LINE
  5
B7
  8
DIMNSIONS
  6
CONTINUOUS
 62
     7
 10
168.75
 20
123.7500000001026
 30
0.0
 11
169.75505969272541
 21
119.9990661622119
 31
0.0
  0
LINE
  5
B8
  8
DIMNSIONS
  6
CONTINUOUS
 62
     7
 10
168.75
 20
123.7500000001026
 30
0.0
 11
167.74494030727459
 21
119.9990661622119
 31
0.0
  0
TEXT
  5
B9
  8
DIMNSIONS
 62
     7
 10
167.25916666666669
 20
106.1041666667692
 30
0.0
 40
4.072102864583333
  1
30
 50
90.0
 41
0.7
 11
163.18706380208329
 21
106.1041666667692
 31
0.0
 73
     3
  0
LINE
  5
BA
  8
DIMNSIONS
  6
CONTINUOUS
 62
     7
 10
179.74999999976831
 20
93.750000000102602
 30
0.0
 11
165.75
 21
93.750000000102602
 31
0.0
  0
LINE
  5
BB
  8
DIMNSIONS
  6
CONTINUOUS
 62
     7
 10
183.49999999976831
 20
91.751960941307203
 30
0.0
 11
165.75
 21
91.751960941307203
 31
0.0
  0
LINE
  5
BC
  8
DIMNSIONS
  6
CONTINUOUS
 62
     7
 10
168.75
 20
91.751960941307203
 30
0.0
 11
168.75
 21
93.750000000102602
 31
0.0
  0
LINE
  5
BD
  8
DIMNSIONS
  6
CONTINUOUS
 62
     7
 10
168.75
 20
93.750000000102602
 30
0.0
 11
168.75
 21
101.2500000001026
 31
0.0
  0
LINE
  5
BE
  8
DIMNSIONS
  6
CONTINUOUS
 62
     7
 10
168.75
 20
93.750000000102602
 30
0.0
 11
167.74494030727459
 21
97.500933837993244
 31
0.0
  0
LINE
  5
BF
  8
DIMNSIONS
  6
CONTINUOUS
 62
     7
 10
168.75
 20
93.750000000102602
 30
0.0
 11
169.75505969272541
 21
97.500933837993244
 31
0.0
  0
LINE
  5
C0
  8
DIMNSIONS
  6
CONTINUOUS
 62
     7
 10
168.75
 20
91.751960941307203
 30
0.0
 11
168.75
 21
84.855368620275513
 31
0.0
  0
LINE
  5
C1
  8
DIMNSIONS
  6
CONTINUOUS
 62
     7
 10
168.75
 20
91.751960941307203
 30
0.0
 11
169.75505969272541
 21
88.001027103416604
 31
0.0
  0
LINE
  5
C2
  8
DIMNSIONS
  6
CONTINUOUS
 62
     7
 10
168.75
 20
91.751960941307203
 30
0.0
 11
167.74494030727459
 21
88.001027103416604
 31
0.0
  0
TEXT
  5
C3
  8
DIMNSIONS
 62
     7
 10
167.25916666666669
 20
84.855368620275513
 30
0.0
 40
4.072102864583333
  1
2
 50
90.0
 41
0.7
 11
163.18706380208329
 21
84.855368620275513
 31
0.0
 73
     3
  0
TEXT
  5
C4
  8
DATA
 62
     7
 10
30.0
 20
21.356999999999989
 30
0.0
 40
2.4432617187500001
  1
仕様および外観は予告なく変更されることがありますので、ご了承ください。
 41
0.7
 11
30.0
 21
23.80026171874999
 31
0.0
 73
     3
  0
LINE
  5
C5
  8
DATA
  6
CONTINUOUS
 62
     7
 10
56.249999999768342
 20
149.9999999999026
 30
0.0
 11
56.249999999768342
 21
240.9999999999026
 31
0.0
  0
LINE
  5
C6
  8
DATA
  6
CONTINUOUS
 62
     7
 10
93.24999999976832
 20
149.9999999999026
 30
0.0
 11
56.249999999768342
 21
149.9999999999026
 31
0.0
  0
LINE
  5
C7
  8
DATA
  6
CONTINUOUS
 62
     7
 10
56.249999999768342
 20
95.250000000102602
 30
0.0
 11
56.249999999768342
 21
122.2500000001026
 31
0.0
  0
LINE
  5
C8
  8
DATA
  6
CONTINUOUS
 62
     7
 10
65.249999999768335
 20
93.750000000102602
 30
0.0
 11
57.749999999768342
 21
93.750000000102602
 31
0.0
  0
TEXT
  5
C9
  8
DATA
 62
     7
 10
66.239837930818283
 20
207.01121196115929
 30
0.0
 40
5.7009440104166647
  1
DIGITAL
 50
90.0
 41
0.7
 11
60.538893920401613
 21
207.01121196115929
 31
0.0
 73
     3
  0
TEXT
  5
CA
  8
DATA
 62
     7
 10
87.283283608583062
 20
209.10381878634519
 30
0.0
 40
4.072102864583333
  1
extender
 50
90.0
 41
0.7
 11
83.211180743999734
 21
209.10381878634519
 31
0.0
 73
     3
  0
TEXT
  5
CB
  8
DATA
 62
     7
 10
88.210367307392715
 20
231.07507785250081
 30
0.0
 40
4.8865234374999993
  1
S
 50
90.0
 41
0.7
 11
83.323843869892698
 21
231.07507785250081
 31
0.0
 73
     3
  0
TEXT
  5
CC
  8
DATA
 62
     7
 10
79.482873034419811
 20
150.73231737188769
 30
0.0
 40
2.0360514322916661
  1
OPT
 41
0.7
 11
79.482873034419811
 21
152.7683688041794
 31
0.0
 73
     3
  0
ARC
  5
CD
  8
DATA
  6
CONTINUOUS
 62
     7
 10
61.366936462448429
 20
96.265625000102602
 30
0.0
 40
4.515625
 50
213.8550261282941
 51
326.14497387170587
  0
TEXT
  5
CE
  8
DATA
 62
     7
 10
85.862392813319872
 20
239.860744298903
 30
0.0
 40
2.0360514322916661
  1
+5V
 50
180.0
 41
0.7
 11
85.862392813319872
 21
237.82469286661129
 31
0.0
 73
     3
  0
TEXT
  5
CF
  8
DATA
 62
     7
 10
71.393626136676701
 20
239.60170499857981
 30
0.0
 40
2.0360514322916661
  1
CAT-5
 50
180.0
 41
0.7
 11
71.393626136676701
 21
237.56565356628809
 31
0.0
 73
     3
  0
ARC
  5
D0
  8
DATA
  6
CONTINUOUS
 62
     7
 10
133.7361488429683
 20
156.40344220867229
 30
0.0
 40
4.5156249999999796
 50
303.85502612829418
 51
56.144973871705957
  0
ARC
  5
D1
  8
DATA
  6
CONTINUOUS
 62
     7
 10
133.7361488429683
 20
233.90640319437341
 30
0.0
 40
4.515624999999992
 50
303.85502612829413
 51
56.144973871705957
  0
TEXT
  5
D2
  8
DATA
 62
     7
 10
64.397171945255906
 20
70.4584744885844
 30
0.0
 40
4.072102864583333
  1
センダー
 41
0.7
 11
64.397171945255906
 21
74.530577353167729
 31
0.0
 73
     3
  0
TEXT
  5
D3
  8
DATA
 62
     7
 10
224.77500000000001
 20
31.828326576499649
 30
0.0
 40
3.664892578124999
  1
EXT-DIGAUD-141
 41
0.7
 11
224.77500000000001
 21
35.493219154624647
 31
0.0
 73
     3
  0
TEXT
  5
D4
  8
DATA
 62
     7
 10
224.8320650654141
 20
43.516508316566217
 30
0.0
 40
3.664892578124999
  1
GEFEN
 41
0.7
 11
224.8320650654141
 21
47.181400894691222
 31
0.0
 73
     3
  0
TEXT
  5
D5
  8
DATA
 62
     7
 10
221.84999999999999
 20
37.983158215963527
 30
0.0
 40
2.4432617187500001
  1
デジタルオーディオ延長機
 41
0.7
 11
221.84999999999999
 21
40.426419934713522
 31
0.0
 73
     3
  0
LINE
  5
D6
  8
DATA
  6
CONTINUOUS
 62
     7
 10
55.902874734461669
 20
68.75
 30
0.0
 11
93.402874734461633
 21
68.75
 31
0.0
  0
LINE
  5
D7
  8
DATA
  6
CONTINUOUS
 62
     7
 10
93.24999999976832
 20
149.9999999999026
 30
0.0
 11
93.24999999976832
 21
240.9999999999026
 31
0.0
  0
LINE
  5
D8
  8
DATA
  6
CONTINUOUS
 62
     7
 10
93.24999999976832
 20
95.250000000102602
 30
0.0
 11
93.24999999976832
 21
122.2500000001026
 31
0.0
  0
LINE
  5
D9
  8
DATA
  6
CONTINUOUS
 62
     7
 10
93.24999999976832
 20
240.9999999999026
 30
0.0
 11
56.249999999768342
 21
240.9999999999026
 31
0.0
  0
LINE
  5
DA
  8
DATA
  6
CONTINUOUS
 62
     7
 10
65.099999999768329
 20
142.9999999999026
 30
0.0
 11
65.099999999768329
 21
149.9999999999026
 31
0.0
  0
LINE
  5
DB
  8
DATA
  6
CONTINUOUS
 62
     7
 10
73.399999999768312
 20
149.9999999999026
 30
0.0
 11
73.399999999768312
 21
142.9999999999026
 31
0.0
  0
LINE
  5
DC
  8
DATA
  6
CONTINUOUS
 62
     7
 10
73.399999999768312
 20
142.9999999999026
 30
0.0
 11
65.099999999768329
 21
142.9999999999026
 31
0.0
  0
LINE
  5
DD
  8
DATA
  6
CONTINUOUS
 62
     7
 10
86.249999999768335
 20
149.9999999999026
 30
0.0
 11
86.249999999768335
 21
149.8999999999026
 31
0.0
  0
LINE
  5
DE
  8
DATA
  6
CONTINUOUS
 62
     7
 10
76.749999999768349
 20
149.9999999999026
 30
0.0
 11
76.749999999768349
 21
149.8999999999026
 31
0.0
  0
LINE
  5
DF
  8
DATA
  6
CONTINUOUS
 62
     7
 10
76.749999999768349
 20
149.8999999999026
 30
0.0
 11
86.249999999768335
 21
149.8999999999026
 31
0.0
  0
TEXT
  5
E0
  8
DATA
 62
     7
 10
66.220709069414639
 20
150.73231737188769
 30
0.0
 40
2.0360514322916661
  1
SPIDF
 41
0.7
 11
66.220709069414639
 21
152.7683688041794
 31
0.0
 73
     3
  0
LINE
  5
E1
  8
DATA
  6
CONTINUOUS
 62
     7
 10
60.249999999768342
 20
240.9999999999026
 30
0.0
 11
60.249999999768342
 21
241.09999999990259
 31
0.0
  0
LINE
  5
E2
  8
DATA
  6
CONTINUOUS
 62
     7
 10
76.249999999768349
 20
240.9999999999026
 30
0.0
 11
76.249999999768349
 21
241.09999999990259
 31
0.0
  0
LINE
  5
E3
  8
DATA
  6
CONTINUOUS
 62
     7
 10
60.249999999768342
 20
241.09999999990259
 30
0.0
 11
76.249999999768349
 21
241.09999999990259
 31
0.0
  0
LINE
  5
E4
  8
DATA
  6
CONTINUOUS
 62
     7
 10
57.749999999768342
 20
123.7500000001026
 30
0.0
 11
91.749999999768306
 21
123.7500000001026
 31
0.0
  0
LINE
  5
E5
  8
DATA
  6
CONTINUOUS
 62
     7
 10
65.249999999768335
 20
93.750000000102602
 30
0.0
 11
65.249999999768335
 21
95.250000000102602
 31
0.0
  0
LINE
  5
E6
  8
DATA
  6
CONTINUOUS
 62
     7
 10
84.249999999768349
 20
93.750000000102602
 30
0.0
 11
91.749999999768306
 21
93.750000000102602
 31
0.0
  0
ARC
  5
E7
  8
DATA
  6
CONTINUOUS
 62
     7
 10
88.116186697027217
 20
96.265625000102602
 30
0.0
 40
4.515625
 50
213.8550261282941
 51
326.14497387170587
  0
LINE
  5
E8
  8
DATA
  6
CONTINUOUS
 62
     7
 10
84.249999999768349
 20
93.750000000102602
 30
0.0
 11
84.249999999768349
 21
95.250000000102602
 31
0.0
  0
ARC
  5
E9
  8
DATA
  6
CONTINUOUS
 62
     7
 10
57.749999999768342
 20
122.2500000001026
 30
0.0
 40
1.5
 50
90.0
 51
180.0
  0
ARC
  5
EA
  8
DATA
  6
CONTINUOUS
 62
     7
 10
91.749999999768306
 20
122.2500000001026
 30
0.0
 40
1.5
 50
0.0
 51
90.0
  0
LINE
  5
EB
  8
DATA
  6
CONTINUOUS
 62
     7
 10
91.749999999768306
 20
95.250000000102602
 30
0.0
 11
57.749999999768342
 21
95.250000000102602
 31
0.0
  0
LINE
  5
EC
  8
DATA
  6
CONTINUOUS
 62
     7
 10
57.749999999768342
 20
95.250000000102602
 30
0.0
 11
57.749999999768342
 21
122.2500000001026
 31
0.0
  0
LINE
  5
ED
  8
DATA
  6
CONTINUOUS
 62
     7
 10
91.749999999768306
 20
95.250000000102602
 30
0.0
 11
91.749999999768306
 21
122.2500000001026
 31
0.0
  0
ARC
  5
EE
  8
DATA
  6
CONTINUOUS
 62
     7
 10
57.749999999768342
 20
95.250000000102602
 30
0.0
 40
1.5
 50
180.0
 51
270.0
  0
ARC
  5
EF
  8
DATA
  6
CONTINUOUS
 62
     7
 10
91.749999999768306
 20
95.250000000102602
 30
0.0
 40
1.5
 50
270.0
 51
0.0
  0
LINE
  5
F0
  8
DATA
  6
CONTINUOUS
 62
     7
 10
76.749999999768349
 20
112.7500000001026
 30
0.0
 11
76.749999999768349
 21
103.7500000001026
 31
0.0
  0
LINE
  5
F1
  8
DATA
  6
CONTINUOUS
 62
     7
 10
86.249999999768335
 20
112.7500000001026
 30
0.0
 11
86.249999999768335
 21
103.7500000001026
 31
0.0
  0
CIRCLE
  5
F2
  8
DATA
  6
CONTINUOUS
 62
     7
 10
69.249999999768349
 20
109.7500000001026
 30
0.0
 40
4.1500000000000048
  0
CIRCLE
  5
F3
  8
DATA
  6
CONTINUOUS
 62
     7
 10
69.249999999768349
 20
109.7500000001026
 30
0.0
 40
1.75
  0
LINE
  5
F4
  8
DATA
  6
CONTINUOUS
 62
     7
 10
76.749999999768349
 20
112.7500000001026
 30
0.0
 11
86.249999999768335
 21
112.7500000001026
 31
0.0
  0
LINE
  5
F5
  8
DATA
  6
CONTINUOUS
 62
     7
 10
76.749999999768349
 20
103.7500000001026
 30
0.0
 11
86.249999999768335
 21
103.7500000001026
 31
0.0
  0
TEXT
  5
F6
  8
DATA
 62
     7
 10
77.748830403780602
 20
210.51474746643811
 30
0.0
 40
5.7009440104166647
  1
AUDIO
 50
90.0
 41
0.7
 11
72.047886393363939
 21
210.51474746643811
 31
0.0
 73
     3
  0
LINE
  5
F7
  8
DATA
  6
CONTINUOUS
 62
     7
 10
56.249999999768342
 20
284.75000000004741
 30
0.0
 11
56.249999999768342
 21
257.75000000004758
 31
0.0
  0
LINE
  5
F8
  8
DATA
  6
CONTINUOUS
 62
     7
 10
65.249999999768335
 20
286.25000000004741
 30
0.0
 11
57.749999999768342
 21
286.25000000004741
 31
0.0
  0
ARC
  5
F9
  8
DATA
  6
CONTINUOUS
 62
     7
 10
61.366936462448429
 20
283.73437500004729
 30
0.0
 40
4.515625
 50
33.855026128294092
 51
146.1449738717059
  0
LINE
  5
FA
  8
DATA
  6
CONTINUOUS
 62
     7
 10
93.24999999976832
 20
284.75000000004741
 30
0.0
 11
93.24999999976832
 21
257.75000000004758
 31
0.0
  0
LINE
  5
FB
  8
DATA
  6
CONTINUOUS
 62
     7
 10
57.749999999768342
 20
256.25000000004758
 30
0.0
 11
91.749999999768306
 21
256.25000000004758
 31
0.0
  0
LINE
  5
FC
  8
DATA
  6
CONTINUOUS
 62
     7
 10
65.249999999768335
 20
286.25000000004741
 30
0.0
 11
65.249999999768335
 21
284.75000000004741
 31
0.0
  0
LINE
  5
FD
  8
DATA
  6
CONTINUOUS
 62
     7
 10
84.249999999768349
 20
286.25000000004741
 30
0.0
 11
91.749999999768306
 21
286.25000000004741
 31
0.0
  0
ARC
  5
FE
  8
DATA
  6
CONTINUOUS
 62
     7
 10
88.116186697027217
 20
283.73437500004729
 30
0.0
 40
4.515625
 50
33.855026128294092
 51
146.1449738717059
  0
LINE
  5
FF
  8
DATA
  6
CONTINUOUS
 62
     7
 10
84.249999999768349
 20
286.25000000004741
 30
0.0
 11
84.249999999768349
 21
284.75000000004741
 31
0.0
  0
ARC
  5
100
  8
DATA
  6
CONTINUOUS
 62
     7
 10
57.749999999768342
 20
257.75000000004758
 30
0.0
 40
1.5
 50
180.0
 51
270.0
  0
ARC
  5
101
  8
DATA
  6
CONTINUOUS
 62
     7
 10
91.749999999768306
 20
257.75000000004758
 30
0.0
 40
1.5
 50
270.0
 51
0.0
  0
LINE
  5
102
  8
DATA
  6
CONTINUOUS
 62
     7
 10
91.749999999768306
 20
284.75000000004741
 30
0.0
 11
57.749999999768342
 21
284.75000000004741
 31
0.0
  0
LINE
  5
103
  8
DATA
  6
CONTINUOUS
 62
     7
 10
57.749999999768342
 20
284.75000000004741
 30
0.0
 11
57.749999999768342
 21
259.25000000004758
 31
0.0
  0
LINE
  5
104
  8
DATA
  6
CONTINUOUS
 62
     7
 10
91.749999999768306
 20
284.75000000004741
 30
0.0
 11
91.749999999768306
 21
259.25000000004758
 31
0.0
  0
ARC
  5
105
  8
DATA
  6
CONTINUOUS
 62
     7
 10
57.749999999768342
 20
284.75000000004741
 30
0.0
 40
1.5
 50
90.0
 51
180.0
  0
ARC
  5
106
  8
DATA
  6
CONTINUOUS
 62
     7
 10
91.749999999768306
 20
284.75000000004741
 30
0.0
 40
1.5
 50
0.0
 51
90.0
  0
LINE
  5
107
  8
DATA
  6
CONTINUOUS
 62
     7
 10
106.25
 20
240.9999999999026
 30
0.0
 11
136.25
 21
240.9999999999026
 31
0.0
  0
LINE
  5
108
  8
DATA
  6
CONTINUOUS
 62
     7
 10
106.25
 20
149.9999999999026
 30
0.0
 11
136.25
 21
149.9999999999026
 31
0.0
  0
LINE
  5
109
  8
DATA
  6
CONTINUOUS
 62
     7
 10
106.25
 20
149.9999999999026
 30
0.0
 11
106.25
 21
240.9999999999026
 31
0.0
  0
LINE
  5
10A
  8
DATA
  6
CONTINUOUS
 62
     7
 10
136.25
 20
149.9999999999026
 30
0.0
 11
136.25
 21
240.9999999999026
 31
0.0
  0
LINE
  5
10B
  8
DATA
  6
CONTINUOUS
 62
     7
 10
116.09999999999999
 20
142.9999999999026
 30
0.0
 11
124.40000000000001
 21
142.9999999999026
 31
0.0
  0
LINE
  5
10C
  8
DATA
  6
CONTINUOUS
 62
     7
 10
124.40000000000001
 20
149.8999999999026
 30
0.0
 11
124.40000000000001
 21
142.9999999999026
 31
0.0
  0
LINE
  5
10D
  8
DATA
  6
CONTINUOUS
 62
     7
 10
116.09999999999999
 20
142.9999999999026
 30
0.0
 11
116.09999999999999
 21
149.9999999999026
 31
0.0
  0
LINE
  5
10E
  8
DATA
  6
CONTINUOUS
 62
     7
 10
117.25
 20
149.9999999999026
 30
0.0
 11
117.25
 21
149.8999999999026
 31
0.0
  0
LINE
  5
10F
  8
DATA
  6
CONTINUOUS
 62
     7
 10
126.75
 20
149.9999999999026
 30
0.0
 11
126.75
 21
149.8999999999026
 31
0.0
  0
LINE
  5
110
  8
DATA
  6
CONTINUOUS
 62
     7
 10
117.25
 20
149.8999999999026
 30
0.0
 11
126.75
 21
149.8999999999026
 31
0.0
  0
LINE
  5
111
  8
DATA
  6
CONTINUOUS
 62
     7
 10
114.25
 20
241.09999999990259
 30
0.0
 11
127.75
 21
241.09999999990259
 31
0.0
  0
LINE
  5
112
  8
DATA
  6
CONTINUOUS
 62
     7
 10
114.25
 20
240.9999999999026
 30
0.0
 11
114.25
 21
241.09999999990259
 31
0.0
  0
LINE
  5
113
  8
DATA
  6
CONTINUOUS
 62
     7
 10
127.75
 20
240.9999999999026
 30
0.0
 11
127.75
 21
241.09999999990259
 31
0.0
  0
CIRCLE
  5
114
  8
DATA
  6
CONTINUOUS
 62
     7
 10
83.249999999768349
 20
271.25000000004758
 30
0.0
 40
3.200000000000002
  0
CIRCLE
  5
115
  8
DATA
  6
CONTINUOUS
 62
     7
 10
83.249999999768349
 20
271.25000000004758
 30
0.0
 40
0.7999999999999972
  0
LINE
  5
116
  8
DATA
  6
CONTINUOUS
 62
     7
 10
60.410333819597597
 20
264.20622140948001
 30
0.0
 11
60.410333819597597
 21
277.50622140948002
 31
0.0
  0
LINE
  5
117
  8
DATA
  6
CONTINUOUS
 62
     7
 10
76.110333819597543
 20
264.20622140948001
 30
0.0
 11
76.110333819597543
 21
277.50622140948002
 31
0.0
  0
LINE
  5
118
  8
DATA
  6
CONTINUOUS
 62
     7
 10
74.410333819597625
 20
267.20622140947978
 30
0.0
 11
74.410333819597625
 21
274.50622140948002
 31
0.0
  0
LINE
  5
119
  8
DATA
  6
CONTINUOUS
 62
     7
 10
62.110333819597471
 20
267.20622140947978
 30
0.0
 11
62.110333819597471
 21
274.50622140948002
 31
0.0
  0
LINE
  5
11A
  8
DATA
  6
CONTINUOUS
 62
     7
 10
74.410333819597625
 20
267.20622140947978
 30
0.0
 11
62.110333819597471
 21
267.20622140947978
 31
0.0
  0
LINE
  5
11B
  8
DATA
  6
CONTINUOUS
 62
     7
 10
70.485333819597486
 20
277.50622140948002
 30
0.0
 11
70.485333819597486
 21
276.00622140948002
 31
0.0
  0
LINE
  5
11C
  8
DATA
  6
CONTINUOUS
 62
     7
 10
66.035333819597525
 20
276.00622140948002
 30
0.0
 11
66.035333819597525
 21
277.50622140948002
 31
0.0
  0
LINE
  5
11D
  8
DATA
  6
CONTINUOUS
 62
     7
 10
71.6103338195975
 20
276.00622140948002
 30
0.0
 11
70.485333819597486
 21
276.00622140948002
 31
0.0
  0
LINE
  5
11E
  8
DATA
  6
CONTINUOUS
 62
     7
 10
66.035333819597525
 20
276.00622140948002
 30
0.0
 11
64.910333819597511
 21
276.00622140948002
 31
0.0
  0
LINE
  5
11F
  8
DATA
  6
CONTINUOUS
 62
     7
 10
74.410333819597625
 20
274.50622140948002
 30
0.0
 11
71.6103338195975
 21
274.50622140948002
 31
0.0
  0
LINE
  5
120
  8
DATA
  6
CONTINUOUS
 62
     7
 10
64.910333819597511
 20
274.50622140948002
 30
0.0
 11
62.110333819597471
 21
274.50622140948002
 31
0.0
  0
LINE
  5
121
  8
DATA
  6
CONTINUOUS
 62
     7
 10
71.6103338195975
 20
276.00622140948002
 30
0.0
 11
71.6103338195975
 21
274.50622140948002
 31
0.0
  0
LINE
  5
122
  8
DATA
  6
CONTINUOUS
 62
     7
 10
64.910333819597511
 20
274.50622140948002
 30
0.0
 11
64.910333819597511
 21
276.00622140948002
 31
0.0
  0
LINE
  5
123
  8
DATA
  6
CONTINUOUS
 62
     7
 10
60.410333819597597
 20
277.50622140948002
 30
0.0
 11
76.110333819597543
 21
277.50622140948002
 31
0.0
  0
LINE
  5
124
  8
DATA
  6
CONTINUOUS
 62
     7
 10
60.410333819597597
 20
264.20622140948001
 30
0.0
 11
76.110333819597543
 21
264.20622140948001
 31
0.0
  0
LINE
  5
125
  8
DATA
  6
CONTINUOUS
 62
     7
 10
181.24999999976831
 20
149.9999999999026
 30
0.0
 11
181.24999999976831
 21
240.9999999999026
 31
0.0
  0
LINE
  5
126
  8
DATA
  6
CONTINUOUS
 62
     7
 10
218.24999999976839
 20
149.9999999999026
 30
0.0
 11
181.24999999976831
 21
149.9999999999026
 31
0.0
  0
LINE
  5
127
  8
DATA
  6
CONTINUOUS
 62
     7
 10
181.24999999976831
 20
95.250000000102602
 30
0.0
 11
181.24999999976831
 21
122.2500000001026
 31
0.0
  0
LINE
  5
128
  8
DATA
  6
CONTINUOUS
 62
     7
 10
190.24999999976831
 20
93.750000000102602
 30
0.0
 11
182.74999999976839
 21
93.750000000102602
 31
0.0
  0
TEXT
  5
129
  8
DATA
 62
     7
 10
191.23983793081831
 20
207.01121196115929
 30
0.0
 40
5.7009440104166647
  1
DIGITAL
 50
90.0
 41
0.7
 11
185.53889392040159
 21
207.01121196115929
 31
0.0
 73
     3
  0
TEXT
  5
12A
  8
DATA
 62
     7
 10
212.28328360858299
 20
209.10381878634519
 30
0.0
 40
4.072102864583333
  1
extender
 50
90.0
 41
0.7
 11
208.21118074399971
 21
209.10381878634519
 31
0.0
 73
     3
  0
TEXT
  5
12B
  8
DATA
 62
     7
 10
213.21036730739269
 20
231.07507785250081
 30
0.0
 40
4.8865234374999993
  1
R
 50
90.0
 41
0.7
 11
208.3238438698927
 21
231.07507785250081
 31
0.0
 73
     3
  0
TEXT
  5
12C
  8
DATA
 62
     7
 10
204.48287303441981
 20
150.73231737188769
 30
0.0
 40
2.0360514322916661
  1
OPT
 41
0.7
 11
204.48287303441981
 21
152.7683688041794
 31
0.0
 73
     3
  0
ARC
  5
12D
  8
DATA
  6
CONTINUOUS
 62
     7
 10
186.36693646244839
 20
96.265625000102602
 30
0.0
 40
4.515625
 50
213.8550261282941
 51
326.14497387170587
  0
TEXT
  5
12E
  8
DATA
 62
     7
 10
199.79788179042521
 20
239.711336055891
 30
0.0
 40
2.0360514322916661
  1
CAT-5
 50
180.0
 41
0.7
 11
199.79788179042521
 21
237.67528462359931
 31
0.0
 73
     3
  0
ARC
  5
12F
  8
DATA
  6
CONTINUOUS
 62
     7
 10
258.73614884296842
 20
156.40344220867229
 30
0.0
 40
4.5156249999999822
 50
303.8550261282943
 51
56.144973871705957
  0
ARC
  5
130
  8
DATA
  6
CONTINUOUS
 62
     7
 10
258.73614884296842
 20
233.90640319437341
 30
0.0
 40
4.5156249999999929
 50
303.85502612829413
 51
56.144973871705957
  0
TEXT
  5
131
  8
DATA
 62
     7
 10
185.89448006285909
 20
70.4584744885844
 30
0.0
 40
4.072102864583333
  1
レシーバー
 41
0.7
 11
185.89448006285909
 21
74.530577353167729
 31
0.0
 73
     3
  0
LINE
  5
132
  8
DATA
  6
CONTINUOUS
 62
     7
 10
180.90287473446159
 20
68.75
 30
0.0
 11
218.40287473446159
 21
68.75
 31
0.0
  0
LINE
  5
133
  8
DATA
  6
CONTINUOUS
 62
     7
 10
218.24999999976839
 20
149.9999999999026
 30
0.0
 11
218.24999999976839
 21
240.9999999999026
 31
0.0
  0
LINE
  5
134
  8
DATA
  6
CONTINUOUS
 62
     7
 10
218.24999999976839
 20
95.250000000102602
 30
0.0
 11
218.24999999976839
 21
122.2500000001026
 31
0.0
  0
LINE
  5
135
  8
DATA
  6
CONTINUOUS
 62
     7
 10
218.24999999976839
 20
240.9999999999026
 30
0.0
 11
181.24999999976831
 21
240.9999999999026
 31
0.0
  0
LINE
  5
136
  8
DATA
  6
CONTINUOUS
 62
     7
 10
190.0999999997683
 20
142.9999999999026
 30
0.0
 11
190.0999999997683
 21
149.9999999999026
 31
0.0
  0
LINE
  5
137
  8
DATA
  6
CONTINUOUS
 62
     7
 10
198.39999999976831
 20
149.9999999999026
 30
0.0
 11
198.39999999976831
 21
142.9999999999026
 31
0.0
  0
LINE
  5
138
  8
DATA
  6
CONTINUOUS
 62
     7
 10
198.39999999976831
 20
142.9999999999026
 30
0.0
 11
190.0999999997683
 21
142.9999999999026
 31
0.0
  0
LINE
  5
139
  8
DATA
  6
CONTINUOUS
 62
     7
 10
211.24999999976831
 20
149.9999999999026
 30
0.0
 11
211.24999999976831
 21
149.8999999999026
 31
0.0
  0
LINE
  5
13A
  8
DATA
  6
CONTINUOUS
 62
     7
 10
201.74999999976839
 20
149.9999999999026
 30
0.0
 11
201.74999999976839
 21
149.8999999999026
 31
0.0
  0
LINE
  5
13B
  8
DATA
  6
CONTINUOUS
 62
     7
 10
201.74999999976839
 20
149.8999999999026
 30
0.0
 11
211.24999999976831
 21
149.8999999999026
 31
0.0
  0
TEXT
  5
13C
  8
DATA
 62
     7
 10
191.2207090694146
 20
150.73231737188769
 30
0.0
 40
2.0360514322916661
  1
SPIDF
 41
0.7
 11
191.2207090694146
 21
152.7683688041794
 31
0.0
 73
     3
  0
LINE
  5
13D
  8
DATA
  6
CONTINUOUS
 62
     7
 10
189.08708700566271
 20
240.9999999999026
 30
0.0
 11
189.08708700566271
 21
241.09999999990259
 31
0.0
  0
LINE
  5
13E
  8
DATA
  6
CONTINUOUS
 62
     7
 10
205.0870870056628
 20
240.9999999999026
 30
0.0
 11
205.0870870056628
 21
241.09999999990259
 31
0.0
  0
LINE
  5
13F
  8
DATA
  6
CONTINUOUS
 62
     7
 10
189.08708700566271
 20
241.09999999990259
 30
0.0
 11
205.0870870056628
 21
241.09999999990259
 31
0.0
  0
LINE
  5
140
  8
DATA
  6
CONTINUOUS
 62
     7
 10
182.74999999976839
 20
123.7500000001026
 30
0.0
 11
216.74999999976839
 21
123.7500000001026
 31
0.0
  0
LINE
  5
141
  8
DATA
  6
CONTINUOUS
 62
     7
 10
190.24999999976831
 20
93.750000000102602
 30
0.0
 11
190.24999999976831
 21
95.250000000102602
 31
0.0
  0
LINE
  5
142
  8
DATA
  6
CONTINUOUS
 62
     7
 10
209.24999999976839
 20
93.750000000102602
 30
0.0
 11
216.74999999976839
 21
93.750000000102602
 31
0.0
  0
ARC
  5
143
  8
DATA
  6
CONTINUOUS
 62
     7
 10
213.11618669702719
 20
96.265625000102602
 30
0.0
 40
4.515625
 50
213.8550261282941
 51
326.14497387170587
  0
LINE
  5
144
  8
DATA
  6
CONTINUOUS
 62
     7
 10
209.24999999976839
 20
93.750000000102602
 30
0.0
 11
209.24999999976839
 21
95.250000000102602
 31
0.0
  0
ARC
  5
145
  8
DATA
  6
CONTINUOUS
 62
     7
 10
182.74999999976839
 20
122.2500000001026
 30
0.0
 40
1.5
 50
90.0
 51
180.0
  0
ARC
  5
146
  8
DATA
  6
CONTINUOUS
 62
     7
 10
216.74999999976839
 20
122.2500000001026
 30
0.0
 40
1.5
 50
0.0
 51
90.0
  0
LINE
  5
147
  8
DATA
  6
CONTINUOUS
 62
     7
 10
216.74999999976839
 20
95.250000000102602
 30
0.0
 11
182.74999999976839
 21
95.250000000102602
 31
0.0
  0
LINE
  5
148
  8
DATA
  6
CONTINUOUS
 62
     7
 10
182.74999999976839
 20
95.250000000102602
 30
0.0
 11
182.74999999976839
 21
122.2500000001026
 31
0.0
  0
LINE
  5
149
  8
DATA
  6
CONTINUOUS
 62
     7
 10
216.74999999976839
 20
95.250000000102602
 30
0.0
 11
216.74999999976839
 21
122.2500000001026
 31
0.0
  0
ARC
  5
14A
  8
DATA
  6
CONTINUOUS
 62
     7
 10
182.74999999976839
 20
95.250000000102602
 30
0.0
 40
1.5
 50
180.0
 51
270.0
  0
ARC
  5
14B
  8
DATA
  6
CONTINUOUS
 62
     7
 10
216.74999999976839
 20
95.250000000102602
 30
0.0
 40
1.5
 50
270.0
 51
0.0
  0
LINE
  5
14C
  8
DATA
  6
CONTINUOUS
 62
     7
 10
201.74999999976839
 20
112.7500000001026
 30
0.0
 11
201.74999999976839
 21
103.7500000001026
 31
0.0
  0
LINE
  5
14D
  8
DATA
  6
CONTINUOUS
 62
     7
 10
211.24999999976831
 20
112.7500000001026
 30
0.0
 11
211.24999999976831
 21
103.7500000001026
 31
0.0
  0
CIRCLE
  5
14E
  8
DATA
  6
CONTINUOUS
 62
     7
 10
194.24999999976839
 20
109.7500000001026
 30
0.0
 40
4.1500000000000048
  0
CIRCLE
  5
14F
  8
DATA
  6
CONTINUOUS
 62
     7
 10
194.24999999976839
 20
109.7500000001026
 30
0.0
 40
1.75
  0
LINE
  5
150
  8
DATA
  6
CONTINUOUS
 62
     7
 10
201.74999999976839
 20
112.7500000001026
 30
0.0
 11
211.24999999976831
 21
112.7500000001026
 31
0.0
  0
LINE
  5
151
  8
DATA
  6
CONTINUOUS
 62
     7
 10
201.74999999976839
 20
103.7500000001026
 30
0.0
 11
211.24999999976831
 21
103.7500000001026
 31
0.0
  0
TEXT
  5
152
  8
DATA
 62
     7
 10
202.74883040378049
 20
210.51474746643811
 30
0.0
 40
5.7009440104166647
  1
AUDIO
 50
90.0
 41
0.7
 11
197.04788639336391
 21
210.51474746643811
 31
0.0
 73
     3
  0
LINE
  5
153
  8
DATA
  6
CONTINUOUS
 62
     7
 10
181.24999999976831
 20
284.75000000004741
 30
0.0
 11
181.24999999976831
 21
257.75000000004758
 31
0.0
  0
LINE
  5
154
  8
DATA
  6
CONTINUOUS
 62
     7
 10
190.24999999976831
 20
286.25000000004741
 30
0.0
 11
182.74999999976839
 21
286.25000000004741
 31
0.0
  0
ARC
  5
155
  8
DATA
  6
CONTINUOUS
 62
     7
 10
186.36693646244839
 20
283.73437500004729
 30
0.0
 40
4.515625
 50
33.855026128294092
 51
146.1449738717059
  0
LINE
  5
156
  8
DATA
  6
CONTINUOUS
 62
     7
 10
218.24999999976839
 20
284.75000000004741
 30
0.0
 11
218.24999999976839
 21
257.75000000004758
 31
0.0
  0
LINE
  5
157
  8
DATA
  6
CONTINUOUS
 62
     7
 10
182.74999999976839
 20
256.25000000004758
 30
0.0
 11
216.74999999976839
 21
256.25000000004758
 31
0.0
  0
LINE
  5
158
  8
DATA
  6
CONTINUOUS
 62
     7
 10
190.24999999976831
 20
286.25000000004741
 30
0.0
 11
190.24999999976831
 21
284.75000000004741
 31
0.0
  0
LINE
  5
159
  8
DATA
  6
CONTINUOUS
 62
     7
 10
209.24999999976839
 20
286.25000000004741
 30
0.0
 11
216.74999999976839
 21
286.25000000004741
 31
0.0
  0
ARC
  5
15A
  8
DATA
  6
CONTINUOUS
 62
     7
 10
213.11618669702719
 20
283.73437500004729
 30
0.0
 40
4.515625
 50
33.855026128294092
 51
146.1449738717059
  0
LINE
  5
15B
  8
DATA
  6
CONTINUOUS
 62
     7
 10
209.24999999976839
 20
286.25000000004741
 30
0.0
 11
209.24999999976839
 21
284.75000000004741
 31
0.0
  0
ARC
  5
15C
  8
DATA
  6
CONTINUOUS
 62
     7
 10
182.74999999976839
 20
257.75000000004758
 30
0.0
 40
1.5
 50
180.0
 51
270.0
  0
ARC
  5
15D
  8
DATA
  6
CONTINUOUS
 62
     7
 10
216.74999999976839
 20
257.75000000004758
 30
0.0
 40
1.5
 50
270.0
 51
0.0
  0
LINE
  5
15E
  8
DATA
  6
CONTINUOUS
 62
     7
 10
216.74999999976839
 20
284.75000000004741
 30
0.0
 11
182.74999999976839
 21
284.75000000004741
 31
0.0
  0
LINE
  5
15F
  8
DATA
  6
CONTINUOUS
 62
     7
 10
182.74999999976839
 20
284.75000000004741
 30
0.0
 11
182.74999999976839
 21
259.25000000004758
 31
0.0
  0
LINE
  5
160
  8
DATA
  6
CONTINUOUS
 62
     7
 10
216.74999999976839
 20
284.75000000004741
 30
0.0
 11
216.74999999976839
 21
259.25000000004758
 31
0.0
  0
ARC
  5
161
  8
DATA
  6
CONTINUOUS
 62
     7
 10
182.74999999976839
 20
284.75000000004741
 30
0.0
 40
1.5
 50
90.0
 51
180.0
  0
ARC
  5
162
  8
DATA
  6
CONTINUOUS
 62
     7
 10
216.74999999976839
 20
284.75000000004741
 30
0.0
 40
1.5
 50
0.0
 51
90.0
  0
LINE
  5
163
  8
DATA
  6
CONTINUOUS
 62
     7
 10
231.25
 20
240.9999999999026
 30
0.0
 11
261.25
 21
240.9999999999026
 31
0.0
  0
LINE
  5
164
  8
DATA
  6
CONTINUOUS
 62
     7
 10
231.25
 20
149.9999999999026
 30
0.0
 11
261.25
 21
149.9999999999026
 31
0.0
  0
LINE
  5
165
  8
DATA
  6
CONTINUOUS
 62
     7
 10
231.25
 20
149.9999999999026
 30
0.0
 11
231.25
 21
240.9999999999026
 31
0.0
  0
LINE
  5
166
  8
DATA
  6
CONTINUOUS
 62
     7
 10
261.25
 20
149.9999999999026
 30
0.0
 11
261.25
 21
240.9999999999026
 31
0.0
  0
LINE
  5
167
  8
DATA
  6
CONTINUOUS
 62
     7
 10
241.09999999999999
 20
142.9999999999026
 30
0.0
 11
249.40000000000001
 21
142.9999999999026
 31
0.0
  0
LINE
  5
168
  8
DATA
  6
CONTINUOUS
 62
     7
 10
249.40000000000001
 20
149.8999999999026
 30
0.0
 11
249.40000000000001
 21
142.9999999999026
 31
0.0
  0
LINE
  5
169
  8
DATA
  6
CONTINUOUS
 62
     7
 10
241.09999999999999
 20
142.9999999999026
 30
0.0
 11
241.09999999999999
 21
149.9999999999026
 31
0.0
  0
LINE
  5
16A
  8
DATA
  6
CONTINUOUS
 62
     7
 10
242.25
 20
149.9999999999026
 30
0.0
 11
242.25
 21
149.8999999999026
 31
0.0
  0
LINE
  5
16B
  8
DATA
  6
CONTINUOUS
 62
     7
 10
251.75
 20
149.9999999999026
 30
0.0
 11
251.75
 21
149.8999999999026
 31
0.0
  0
LINE
  5
16C
  8
DATA
  6
CONTINUOUS
 62
     7
 10
242.25
 20
149.8999999999026
 30
0.0
 11
251.75
 21
149.8999999999026
 31
0.0
  0
LINE
  5
16D
  8
DATA
  6
CONTINUOUS
 62
     7
 10
239.25
 20
241.09999999990259
 30
0.0
 11
252.75
 21
241.09999999990259
 31
0.0
  0
LINE
  5
16E
  8
DATA
  6
CONTINUOUS
 62
     7
 10
239.25
 20
240.9999999999026
 30
0.0
 11
239.25
 21
241.09999999990259
 31
0.0
  0
LINE
  5
16F
  8
DATA
  6
CONTINUOUS
 62
     7
 10
252.75
 20
240.9999999999026
 30
0.0
 11
252.75
 21
241.09999999990259
 31
0.0
  0
LINE
  5
170
  8
DATA
  6
CONTINUOUS
 62
     7
 10
189.22888204975291
 20
264.20622140948001
 30
0.0
 11
189.22888204975291
 21
277.50622140948002
 31
0.0
  0
LINE
  5
171
  8
DATA
  6
CONTINUOUS
 62
     7
 10
204.9288820497529
 20
264.20622140948001
 30
0.0
 11
204.9288820497529
 21
277.50622140948002
 31
0.0
  0
LINE
  5
172
  8
DATA
  6
CONTINUOUS
 62
     7
 10
203.22888204975291
 20
267.20622140947978
 30
0.0
 11
203.22888204975291
 21
274.50622140948002
 31
0.0
  0
LINE
  5
173
  8
DATA
  6
CONTINUOUS
 62
     7
 10
190.92888204975279
 20
267.20622140947978
 30
0.0
 11
190.92888204975279
 21
274.50622140948002
 31
0.0
  0
LINE
  5
174
  8
DATA
  6
CONTINUOUS
 62
     7
 10
203.22888204975291
 20
267.20622140947978
 30
0.0
 11
190.92888204975279
 21
267.20622140947978
 31
0.0
  0
LINE
  5
175
  8
DATA
  6
CONTINUOUS
 62
     7
 10
199.30388204975279
 20
277.50622140948002
 30
0.0
 11
199.30388204975279
 21
276.00622140948002
 31
0.0
  0
LINE
  5
176
  8
DATA
  6
CONTINUOUS
 62
     7
 10
194.8538820497528
 20
276.00622140948002
 30
0.0
 11
194.8538820497528
 21
277.50622140948002
 31
0.0
  0
LINE
  5
177
  8
DATA
  6
CONTINUOUS
 62
     7
 10
200.42888204975279
 20
276.00622140948002
 30
0.0
 11
199.30388204975279
 21
276.00622140948002
 31
0.0
  0
LINE
  5
178
  8
DATA
  6
CONTINUOUS
 62
     7
 10
194.8538820497528
 20
276.00622140948002
 30
0.0
 11
193.7288820497528
 21
276.00622140948002
 31
0.0
  0
LINE
  5
179
  8
DATA
  6
CONTINUOUS
 62
     7
 10
203.22888204975291
 20
274.50622140948002
 30
0.0
 11
200.42888204975279
 21
274.50622140948002
 31
0.0
  0
LINE
  5
17A
  8
DATA
  6
CONTINUOUS
 62
     7
 10
193.7288820497528
 20
274.50622140948002
 30
0.0
 11
190.92888204975279
 21
274.50622140948002
 31
0.0
  0
LINE
  5
17B
  8
DATA
  6
CONTINUOUS
 62
     7
 10
200.42888204975279
 20
276.00622140948002
 30
0.0
 11
200.42888204975279
 21
274.50622140948002
 31
0.0
  0
LINE
  5
17C
  8
DATA
  6
CONTINUOUS
 62
     7
 10
193.7288820497528
 20
274.50622140948002
 30
0.0
 11
193.7288820497528
 21
276.00622140948002
 31
0.0
  0
LINE
  5
17D
  8
DATA
  6
CONTINUOUS
 62
     7
 10
189.22888204975291
 20
277.50622140948002
 30
0.0
 11
204.9288820497529
 21
277.50622140948002
 31
0.0
  0
LINE
  5
17E
  8
DATA
  6
CONTINUOUS
 62
     7
 10
189.22888204975291
 20
264.20622140948001
 30
0.0
 11
204.9288820497529
 21
264.20622140948001
 31
0.0
  0
CIRCLE
  5
17F
  8
DATA
  6
CONTINUOUS
 62
     7
 10
186.61949042324639
 20
272.75000000004758
 30
0.0
 40
1.3999999999999979
  0
LINE
  5
180
  8
DATA
  6
CONTINUOUS
 62
     7
 10
59.249999999768342
 20
257.75000000004758
 30
0.0
 11
90.249999999768335
 21
257.75000000004758
 31
0.0
  0
LINE
  5
181
  8
DATA
  6
CONTINUOUS
 62
     7
 10
184.24999999976831
 20
257.75000000004758
 30
0.0
 11
215.24999999976831
 21
257.75000000004758
 31
0.0
  0
ARC
  5
182
  8
DATA
  6
CONTINUOUS
 62
     7
 10
184.24999999976831
 20
259.25000000004758
 30
0.0
 40
1.5
 50
180.0
 51
270.0
  0
ARC
  5
183
  8
DATA
  6
CONTINUOUS
 62
     7
 10
215.24999999976831
 20
259.25000000004758
 30
0.0
 40
1.5
 50
270.0
 51
0.0
  0
ARC
  5
184
  8
DATA
  6
CONTINUOUS
 62
     7
 10
59.249999999768342
 20
259.25000000004758
 30
0.0
 40
1.5
 50
180.0
 51
270.0
  0
ARC
  5
185
  8
DATA
  6
CONTINUOUS
 62
     7
 10
90.249999999768335
 20
259.25000000004758
 30
0.0
 40
1.5
 50
270.0
 51
0.0
  0
ENDSEC
  0
EOF
