  0
SECTION
  2
HEADER
  9
$ACADVER
  1
AC1009
  9
$INSBASE
 10
0.0
 20
0.0
 30
0.0
  9
$EXTMIN
 10
49.981691723202402
 20
11.90643626254314
 30
-0.0015258207003583
  9
$EXTMAX
 10
950.02899391114363
 20
1350.04120187373
 30
0.0000000349246037
  9
$LIMMIN
 10
0.0
 20
0.0
  9
$LIMMAX
 10
0.0
 20
0.0
  9
$ORTHOMODE
 70
     0
  9
$REGENMODE
 70
     1
  9
$FILLMODE
 70
     1
  9
$QTEXTMODE
 70
     0
  9
$MIRRTEXT
 70
     1
  9
$DRAGMODE
 70
     2
  9
$LTSCALE
 40
25.399999999999999
  9
$OSMODE
 70
   231
  9
$ATTMODE
 70
     1
  9
$TEXTSIZE
 40
0.0
  9
$TRACEWID
 40
1.0
  9
$TEXTSTYLE
  7
STANDARD
  9
$CLAYER
  8
DATA
  9
$CELTYPE
  6
BYLAYER
  9
$CECOLOR
 62
   256
  9
$DIMSCALE
 40
1.0
  9
$DIMASZ
 40
0.18
  9
$DIMEXO
 40
0.0625
  9
$DIMDLI
 40
0.38
  9
$DIMRND
 40
0.0
  9
$DIMDLE
 40
0.0
  9
$DIMEXE
 40
0.18
  9
$DIMTP
 40
0.0
  9
$DIMTM
 40
0.0
  9
$DIMTXT
 40
0.18
  9
$DIMCEN
 40
0.09
  9
$DIMTSZ
 40
0.0
  9
$DIMTOL
 70
     0
  9
$DIMLIM
 70
     0
  9
$DIMTIH
 70
     1
  9
$DIMTOH
 70
     1
  9
$DIMSE1
 70
     0
  9
$DIMSE2
 70
     0
  9
$DIMTAD
 70
     0
  9
$DIMZIN
 70
     0
  9
$DIMBLK
  1

  9
$DIMASO
 70
     1
  9
$DIMSHO
 70
     1
  9
$DIMPOST
  1

  9
$DIMAPOST
  1

  9
$DIMALT
 70
     0
  9
$DIMALTD
 70
     2
  9
$DIMALTF
 40
25.399999999999999
  9
$DIMLFAC
 40
1.0
  9
$DIMTOFL
 70
     0
  9
$DIMTVP
 40
0.0
  9
$DIMTIX
 70
     0
  9
$DIMSOXD
 70
     0
  9
$DIMSAH
 70
     0
  9
$DIMBLK1
  1

  9
$DIMBLK2
  1

  9
$DIMSTYLE
  2
STANDARD
  9
$DIMCLRD
 70
     0
  9
$DIMCLRE
 70
     0
  9
$DIMCLRT
 70
     0
  9
$DIMTFAC
 40
1.0
  9
$DIMGAP
 40
0.09
  9
$LUNITS
 70
     2
  9
$LUPREC
 70
     4
  9
$SKETCHINC
 40
0.1
  9
$FILLETRAD
 40
0.0
  9
$AUNITS
 70
     0
  9
$AUPREC
 70
     0
  9
$MENU
  1
acad
  9
$ELEVATION
 40
0.0
  9
$PELEVATION
 40
0.0
  9
$THICKNESS
 40
0.0
  9
$LIMCHECK
 70
     0
  9
$BLIPMODE
 70
     0
  9
$CHAMFERA
 40
0.0
  9
$CHAMFERB
 40
0.0
  9
$SKPOLY
 70
     0
  9
$TDCREATE
 40
2455202.6539930562
  9
$TDUPDATE
 40
2455202.6630886928
  9
$TDINDWG
 40
0.0002554745
  9
$TDUSRTIMER
 40
0.0002552894
  9
$USRTIMER
 70
     1
  9
$ANGBASE
 50
0.0
  9
$ANGDIR
 70
     0
  9
$PDMODE
 70
     1
  9
$PDSIZE
 40
-2.0
  9
$PLINEWID
 40
0.0
  9
$COORDS
 70
     0
  9
$SPLFRAME
 70
     0
  9
$SPLINETYPE
 70
     6
  9
$SPLINESEGS
 70
     8
  9
$ATTDIA
 70
     0
  9
$ATTREQ
 70
     1
  9
$HANDLING
 70
     1
  9
$HANDSEED
  5
6ED
  9
$SURFTAB1
 70
     6
  9
$SURFTAB2
 70
     6
  9
$SURFTYPE
 70
     6
  9
$SURFU
 70
     6
  9
$SURFV
 70
     6
  9
$UCSNAME
  2

  9
$UCSORG
 10
0.0
 20
0.0
 30
0.0
  9
$UCSXDIR
 10
1.0
 20
0.0
 30
0.0
  9
$UCSYDIR
 10
0.0
 20
1.0
 30
0.0
  9
$PUCSNAME
  2

  9
$PUCSORG
 10
0.0
 20
0.0
 30
0.0
  9
$PUCSXDIR
 10
1.0
 20
0.0
 30
0.0
  9
$PUCSYDIR
 10
0.0
 20
1.0
 30
0.0
  9
$USERI1
 70
     0
  9
$USERI2
 70
     0
  9
$USERI3
 70
     0
  9
$USERI4
 70
     0
  9
$USERI5
 70
     0
  9
$USERR1
 40
0.0
  9
$USERR2
 40
0.0
  9
$USERR3
 40
0.0
  9
$USERR4
 40
0.0
  9
$USERR5
 40
0.0
  9
$WORLDVIEW
 70
     1
  9
$SHADEDGE
 70
     3
  9
$SHADEDIF
 70
    70
  9
$TILEMODE
 70
     1
  9
$MAXACTVP
 70
    64
  9
$PLIMCHECK
 70
     0
  9
$PEXTMIN
 10
1.0000000000000000E+020
 20
1.0000000000000000E+020
 30
1.0000000000000000E+020
  9
$PEXTMAX
 10
-1.0000000000000000E+020
 20
-1.0000000000000000E+020
 30
-1.0000000000000000E+020
  9
$PLIMMIN
 10
0.0
 20
0.0
  9
$PLIMMAX
 10
12.0
 20
9.0
  9
$UNITMODE
 70
     0
  9
$VISRETAIN
 70
     0
  9
$PLINEGEN
 70
     1
  9
$PSLTSCALE
 70
     0
  0
ENDSEC
  0
SECTION
  2
TABLES
  0
TABLE
  2
VPORT
 70
     1
  0
VPORT
  2
*ACTIVE
 70
     0
 10
0.0
 20
0.0
 11
1.0
 21
1.0
 12
500.00534281717307
 22
680.97381906813655
 13
0.0
 23
0.0
 14
1.0
 24
1.0
 15
0.0
 25
0.0
 16
0.0
 26
0.0
 36
1.0
 17
0.0
 27
0.0
 37
0.0
 40
1347.9981668319081
 41
1.964329643296433
 42
50.0
 43
0.0
 44
0.0
 50
0.0
 51
0.0
 71
     0
 72
  2000
 73
     1
 74
     1
 75
     0
 76
     0
 77
     0
 78
     0
  0
ENDTAB
  0
TABLE
  2
LTYPE
 70
    11
  0
LTYPE
  2
CONTINUOUS
 70
     0
  3
Solid line
 72
    65
 73
     0
 40
0.0
  0
ENDTAB
  0
TABLE
  2
LAYER
 70
     5
  0
LAYER
  2
0
 70
     0
 62
     7
  6
CONTINUOUS
  0
LAYER
  2
DATA
 70
     0
 62
     7
  6
CONTINUOUS
  0
LAYER
  2
HIBINO-BASE
 70
     0
 62
     7
  6
CONTINUOUS
  0
LAYER
  2
SPEC
 70
     0
 62
     7
  6
CONTINUOUS
  0
LAYER
  2
DIMNSIONS
 70
     0
 62
     7
  6
CONTINUOUS
  0
ENDTAB
  0
TABLE
  2
STYLE
 70
     3
  0
STYLE
  2
STANDARD
 70
     0
 40
0.0
 41
1.0
 50
0.0
 71
     0
 42
0.0
  3
txt
  4
BIGFONT.SHX
  0
ENDTAB
  0
TABLE
  2
VIEW
 70
     0
  0
ENDTAB
  0
TABLE
  2
UCS
 70
     0
  0
ENDTAB
  0
TABLE
  2
APPID
 70
     3
  0
APPID
  2
ACAD
 70
     0
  0
APPID
  2
ACADANNOTATIVE
 70
     0
  0
APPID
  2
ACAD_MLEADERVER
 70
     0
  0
ENDTAB
  0
TABLE
  2
DIMSTYLE
 70
     2
  0
DIMSTYLE
  2
STANDARD
 70
     0
  3

  4

  5

  6

  7

 40
1.0
 41
0.18
 42
0.0625
 43
0.38
 44
0.18
 45
0.0
 46
0.0
 47
0.0
 48
0.0
140
0.18
141
0.09
142
0.0
143
25.399999999999999
144
1.0
145
0.0
146
1.0
147
0.09
 71
     0
 72
     0
 73
     1
 74
     1
 75
     0
 76
     0
 77
     0
 78
     0
170
     0
171
     2
172
     0
173
     0
174
     0
175
     0
176
     0
177
     0
178
     0
  0
ENDTAB
  0
ENDSEC
  0
SECTION
  2
BLOCKS
  0
BLOCK
  8
0
  2
$MODEL_SPACE
 70
     0
 10
0.0
 20
0.0
 30
0.0
  3
$MODEL_SPACE
  1

  0
ENDBLK
  5
4F8
  8
0
  0
BLOCK
 67
     1
  8
0
  2
$PAPER_SPACE
 70
     0
 10
0.0
 20
0.0
 30
0.0
  3
$PAPER_SPACE
  1

  0
ENDBLK
  5
4F4
 67
     1
  8
0
  0
ENDSEC
  0
SECTION
  2
ENTITIES
  0
LINE
  5
2C
  8
HIBINO-BASE
  6
CONTINUOUS
 62
     7
 10
50.0
 20
1350.0
 30
0.0
 11
950.0
 21
1350.0
 31
0.0
  0
LINE
  5
2D
  8
HIBINO-BASE
  6
CONTINUOUS
 62
     7
 10
950.0
 20
50.0
 30
0.0
 11
50.0
 21
50.0
 31
0.0
  0
LINE
  5
2E
  8
HIBINO-BASE
  6
CONTINUOUS
 62
     7
 10
50.0
 20
50.0
 30
0.0
 11
50.0
 21
1350.0
 31
0.0
  0
TEXT
  5
2F
  8
HIBINO-BASE
 62
     7
 10
62.82012861104743
 20
17.956611000000098
 30
0.0
 40
18.00022089843749
  1
Hibino-Intersound Corporation
 41
0.7
 11
62.82012861104743
 21
35.956831898437599
 31
0.0
 73
     3
  0
LINE
  5
30
  8
HIBINO-BASE
  6
CONTINUOUS
 62
     7
 10
950.0
 20
1350.0
 30
0.0
 11
950.0
 21
50.0
 31
0.0
  0
LINE
  5
31
  8
HIBINO-BASE
  6
CONTINUOUS
 62
     7
 10
500.0
 20
162.50000000000011
 30
0.0
 11
950.0
 21
162.50000000000011
 31
0.0
  0
LINE
  5
32
  8
HIBINO-BASE
  6
CONTINUOUS
 62
     7
 10
500.0
 20
50.0
 30
0.0
 11
500.0
 21
162.50000000000011
 31
0.0
  0
TEXT
  5
33
  8
HIBINO-BASE
 62
     7
 10
504.49999999999989
 20
149.9565333333334
 30
0.0
 40
8.1442057291666661
  1
NOTE
 41
0.7
 11
504.49999999999989
 21
158.10073906250011
 31
0.0
 73
     3
  0
LINE
  5
34
  8
HIBINO-BASE
  6
CONTINUOUS
 62
     7
 10
675.0
 20
50.0
 30
0.0
 11
675.0
 21
162.50000000000011
 31
0.0
  0
TEXT
  5
35
  8
HIBINO-BASE
 62
     7
 10
679.49999999999989
 20
149.9565333333334
 30
0.0
 40
8.1442057291666661
  1
TITLE
 41
0.7
 11
679.49999999999989
 21
158.10073906250011
 31
0.0
 73
     3
  0
TEXT
  5
36
  8
HIBINO-BASE
 62
     7
 10
595.06609521503515
 20
16.861363937191111
 30
0.0
 40
18.00022089843749
  1
ヒビノインターサウンド株式会社
 41
0.7
 11
595.06609521503515
 21
34.861584835628598
 31
0.0
 73
     3
  0
LINE
  5
37
  8
HIBINO-BASE
  6
CONTINUOUS
 62
     7
 10
500.0
 20
100.0000000000001
 30
0.0
 11
950.0
 21
100.0000000000001
 31
0.0
  0
TEXT
  5
38
  8
HIBINO-BASE
 62
     7
 10
742.0
 20
87.738133333333465
 30
0.0
 40
8.1442057291666661
  1
DRAWN
 41
0.7
 11
742.0
 21
95.882339062500137
 31
0.0
 73
     3
  0
TEXT
  5
39
  8
HIBINO-BASE
 62
     7
 10
617.0
 20
87.738133333333465
 30
0.0
 40
8.1442057291666661
  1
DATE
 41
0.7
 11
617.0
 21
95.882339062500137
 31
0.0
 73
     3
  0
TEXT
  5
3A
  8
HIBINO-BASE
 62
     7
 10
567.0
 20
87.738133333333465
 30
0.0
 40
8.1442057291666661
  1
SCALE
 41
0.7
 11
567.0
 21
95.882339062500137
 31
0.0
 73
     3
  0
TEXT
  5
3B
  8
HIBINO-BASE
 62
     7
 10
679.49999999999989
 20
87.738133333333465
 30
0.0
 40
8.1442057291666661
  1
DESIGN
 41
0.7
 11
679.49999999999989
 21
95.882339062500137
 31
0.0
 73
     3
  0
TEXT
  5
3C
  8
HIBINO-BASE
 62
     7
 10
867.0
 20
87.738133333333465
 30
0.0
 40
8.1442057291666661
  1
DRAWING NO.
 41
0.7
 11
867.0
 21
95.882339062500137
 31
0.0
 73
     3
  0
TEXT
  5
3D
  8
HIBINO-BASE
 62
     7
 10
804.49999999999989
 20
87.738133333333465
 30
0.0
 40
8.1442057291666661
  1
CHECK
 41
0.7
 11
804.49999999999989
 21
95.882339062500137
 31
0.0
 73
     3
  0
LINE
  5
3E
  8
HIBINO-BASE
  6
CONTINUOUS
 62
     7
 10
571.87499999999989
 20
56.25
 30
0.0
 11
590.625
 21
75.000000000000099
 31
0.0
  0
TEXT
  5
3F
  8
HIBINO-BASE
 62
     7
 10
568.74999999999989
 20
69.455283333333384
 30
0.0
 40
8.1442057291666661
  1
1
 41
0.7
 11
568.74999999999989
 21
77.599489062500069
 31
0.0
 73
     3
  0
LINE
  5
40
  8
HIBINO-BASE
  6
CONTINUOUS
 62
     7
 10
562.49999999999989
 20
50.0
 30
0.0
 11
562.49999999999989
 21
100.0000000000001
 31
0.0
  0
LINE
  5
41
  8
HIBINO-BASE
  6
CONTINUOUS
 62
     7
 10
612.49999999999989
 20
50.0
 30
0.0
 11
612.49999999999989
 21
100.0000000000001
 31
0.0
  0
LINE
  5
42
  8
HIBINO-BASE
  6
CONTINUOUS
 62
     7
 10
737.5
 20
100.0000000000001
 30
0.0
 11
737.5
 21
50.0
 31
0.0
  0
LINE
  5
43
  8
HIBINO-BASE
  6
CONTINUOUS
 62
     7
 10
862.5
 20
100.0000000000001
 30
0.0
 11
862.5
 21
50.0
 31
0.0
  0
LINE
  5
44
  8
HIBINO-BASE
  6
CONTINUOUS
 62
     7
 10
800.0
 20
50.0
 30
0.0
 11
800.0
 21
100.0000000000001
 31
0.0
  0
TEXT
  5
45
  8
HIBINO-BASE
 62
     7
 10
616.78269999999986
 20
64.318233333333382
 30
0.0
 40
8.1442057291666661
  1
'09.09.
 41
0.7
 11
616.78269999999986
 21
72.462439062500053
 31
0.0
 73
     3
  0
TEXT
  5
46
  8
HIBINO-BASE
 62
     7
 10
587.5
 20
60.080283333333398
 30
0.0
 40
8.1442057291666661
  1
5
 41
0.7
 11
587.5
 21
68.224489062500069
 31
0.0
 73
     3
  0
TEXT
  5
47
  8
HIBINO-BASE
 62
     7
 10
745.029050055173
 20
64.318233333333382
 30
0.0
 40
8.1442057291666661
  1
T.Ootake
 41
0.7
 11
745.029050055173
 21
72.462439062500053
 31
0.0
 73
     3
  0
TEXT
  5
48
  8
HIBINO-BASE
 62
     7
 10
519.41666666666674
 20
59.880000000000031
 30
0.0
 40
16.288411458333329
  1
A4
 41
0.7
 11
519.41666666666674
 21
76.168411458333352
 31
0.0
 73
     3
  0
TEXT
  5
49
  8
HIBINO-BASE
 62
     7
 10
504.79166666666652
 20
86.902725000000103
 30
0.0
 40
8.1442057291666661
  1
PAPER SIZE
 41
0.7
 11
504.79166666666652
 21
95.046930729166775
 31
0.0
 73
     3
  0
LINE
  5
4A
  8
SPEC
  6
CONTINUOUS
 62
     7
 10
87.5
 20
1300.0
 30
0.0
 11
825.0
 21
1300.0
 31
0.0
  0
LINE
  5
4B
  8
SPEC
  6
CONTINUOUS
 62
     7
 10
87.5
 20
1281.25
 30
0.0
 11
825.0
 21
1281.25
 31
0.0
  0
LINE
  5
4C
  8
SPEC
  6
CONTINUOUS
 62
     7
 10
87.5
 20
1206.25
 30
0.0
 11
825.0
 21
1206.25
 31
0.0
  0
LINE
  5
4D
  8
SPEC
  6
CONTINUOUS
 62
     7
 10
87.5
 20
1225.0
 30
0.0
 11
825.0
 21
1225.0
 31
0.0
  0
LINE
  5
4E
  8
SPEC
  6
CONTINUOUS
 62
     7
 10
87.5
 20
1243.75
 30
0.0
 11
825.0
 21
1243.75
 31
0.0
  0
LINE
  5
4F
  8
SPEC
  6
CONTINUOUS
 62
     7
 10
87.5
 20
1187.5
 30
0.0
 11
825.0
 21
1187.5
 31
0.0
  0
LINE
  5
50
  8
SPEC
  6
CONTINUOUS
 62
     7
 10
87.5
 20
1150.0
 30
0.0
 11
825.0
 21
1150.0
 31
0.0
  0
LINE
  5
51
  8
SPEC
  6
CONTINUOUS
 62
     7
 10
87.5
 20
1168.75
 30
0.0
 11
825.0
 21
1168.75
 31
0.0
  0
LINE
  5
52
  8
SPEC
  6
CONTINUOUS
 62
     7
 10
87.5
 20
1131.25
 30
0.0
 11
825.0
 21
1131.25
 31
0.0
  0
LINE
  5
53
  8
SPEC
  6
CONTINUOUS
 62
     7
 10
87.5
 20
1112.5
 30
0.0
 11
825.0
 21
1112.5
 31
0.0
  0
LINE
  5
54
  8
SPEC
  6
CONTINUOUS
 62
     7
 10
87.5
 20
1262.5
 30
0.0
 11
825.0
 21
1262.5
 31
0.0
  0
TEXT
  5
55
  8
SPEC
 62
     7
 10
329.58724811424372
 20
1286.059907110317
 30
0.0
 40
9.5015562499999984
  1
DVI延長機
 41
0.7
 11
329.58724811424372
 21
1295.561463360317
 31
0.0
 73
     3
  0
TEXT
  5
56
  8
SPEC
 62
     7
 10
93.75
 20
1306.9663499999999
 30
0.0
 40
12.21630859375
  1
仕様
 41
0.7
 11
93.75
 21
1319.1826585937499
 31
0.0
 73
     3
  0
TEXT
  5
57
  8
SPEC
 62
     7
 10
91.705073456335569
 20
1286.1888336544939
 30
0.0
 40
9.5015562499999984
  1
形式
 41
0.7
 11
91.705073456335569
 21
1295.6903899044939
 31
0.0
 73
     3
  0
LINE
  5
58
  8
SPEC
  6
CONTINUOUS
 62
     7
 10
325.0
 20
1300.0
 30
0.0
 11
325.0
 21
925.0
 31
0.0
  0
LINE
  5
59
  8
SPEC
  6
CONTINUOUS
 62
     7
 10
87.5
 20
1093.75
 30
0.0
 11
825.0
 21
1093.75
 31
0.0
  0
TEXT
  5
5A
  8
SPEC
 62
     7
 10
91.516829539432663
 20
949.15702154009784
 30
0.0
 40
9.5015562499999984
  1
寸法
 41
0.7
 11
91.516829539432663
 21
958.65857779009775
 31
0.0
 73
     3
  0
TEXT
  5
5B
  8
SPEC
 62
     7
 10
329.47975936193882
 20
948.70049255935305
 30
0.0
 40
9.5015562499999984
  1
260(W)\U+00D731(H)\U+00D7130(D)mm(突起部含まず)、(センダー、レシバー共に)
 41
0.7
 11
329.47975936193882
 21
958.20204880935307
 31
0.0
 73
     3
  0
LINE
  5
5C
  8
SPEC
  6
CONTINUOUS
 62
     7
 10
825.0
 20
1300.0
 30
0.0
 11
825.0
 21
925.0
 31
0.0
  0
TEXT
  5
5D
  8
SPEC
 62
     7
 10
329.41534484026818
 20
930.45122355056117
 30
0.0
 40
9.5015562499999984
  1
約480g(センダー、レシーバー共に)
 41
0.7
 11
329.41534484026818
 21
939.95277980056119
 31
0.0
 73
     3
  0
TEXT
  5
5E
  8
SPEC
 62
     7
 10
91.725764358271078
 20
929.83516013440294
 30
0.0
 40
9.5015562499999984
  1
重量
 41
0.7
 11
91.725764358271078
 21
939.33671638440285
 31
0.0
 73
     3
  0
TEXT
  5
5F
  8
SPEC
 62
     7
 10
328.90693002181649
 20
1004.441654599211
 30
0.0
 40
9.5015562499999984
  1
12V DC\U+00D72 72W
 41
0.7
 11
328.90693002181649
 21
1013.943210849211
 31
0.0
 73
     3
  0
LINE
  5
60
  8
SPEC
  6
CONTINUOUS
 62
     7
 10
87.5
 20
1300.0
 30
0.0
 11
87.5
 21
925.0
 31
0.0
  0
TEXT
  5
61
  8
SPEC
 62
     7
 10
91.615117060880834
 20
1004.946304187858
 30
0.0
 40
9.5015562499999984
  1
電源
 41
0.7
 11
91.615117060880834
 21
1014.447860437858
 31
0.0
 73
     3
  0
TEXT
  5
62
  8
SPEC
 62
     7
 10
89.860474878410784
 20
1267.5418930969311
 30
0.0
 40
9.5015562499999984
  1
ビデオアンプ帯域
 41
0.7
 11
89.860474878410784
 21
1277.0434493469311
 31
0.0
 73
     3
  0
TEXT
  5
63
  8
SPEC
 62
     7
 10
328.84569497085357
 20
1267.4179679551919
 30
0.0
 40
9.5015562499999984
  1
165MHz
 41
0.7
 11
328.84569497085357
 21
1276.9195242051919
 31
0.0
 73
     3
  0
TEXT
  5
64
  8
SPEC
 62
     7
 10
92.052315029305717
 20
1248.6423243385029
 30
0.0
 40
9.5015733506944464
  1
最大対応解像度
 41
0.7
 11
92.052315029305717
 21
1258.143897689197
 31
0.0
 73
     3
  0
TEXT
  5
65
  8
SPEC
 62
     7
 10
328.91204853008759
 20
1248.3149437672121
 30
0.0
 40
9.5015733506944464
  1
1920\U+00D71200/1080p
 41
0.7
 11
328.91204853008759
 21
1257.8165171179071
 31
0.0
 73
     3
  0
TEXT
  5
66
  8
SPEC
 62
     7
 10
91.800910868900644
 20
1230.0148701223079
 30
0.0
 40
9.5015733506944464
  1
入力コネクター(アナログオーディオ)
 41
0.7
 11
91.800910868900644
 21
1239.516443473002
 31
0.0
 73
     3
  0
TEXT
  5
67
  8
SPEC
 62
     7
 10
328.86694332508762
 20
1229.4246039604609
 30
0.0
 40
9.5015733506944464
  1
1\U+00D7Pair RCA L+R stereo
 41
0.7
 11
328.86694332508762
 21
1238.926177311155
 31
0.0
 73
     3
  0
TEXT
  5
68
  8
SPEC
 62
     7
 10
329.8812217768924
 20
985.90464953793355
 30
0.0
 40
9.5015562499999984
  1
0℃～50℃
 41
0.7
 11
329.8812217768924
 21
995.40620578793369
 31
0.0
 73
     3
  0
TEXT
  5
69
  8
SPEC
 62
     7
 10
91.919379807002997
 20
1211.4512012469841
 30
0.0
 40
9.5015733506944464
  1
入力コネクター(デジタ ルオーディオ)
 41
0.7
 11
91.919379807002997
 21
1220.9527745976779
 31
0.0
 73
     3
  0
TEXT
  5
6A
  8
SPEC
 62
     7
 10
328.80973584944269
 20
1211.0647067790831
 30
0.0
 40
9.5015733506944464
  1
1\U+00D7S/PDIF digital audio
 41
0.7
 11
328.80973584944269
 21
1220.5662801297769
 31
0.0
 73
     3
  0
TEXT
  5
6B
  8
SPEC
 62
     7
 10
91.786134757280593
 20
1192.668797759263
 30
0.0
 40
9.5015733506944464
  1
入力コネクター(デジタ ルオーディオ)
 41
0.7
 11
91.786134757280593
 21
1202.1703711099581
 31
0.0
 73
     3
  0
TEXT
  5
6C
  8
SPEC
 62
     7
 10
328.84818833554021
 20
1192.236000603682
 30
0.0
 40
9.5015733506944464
  1
1\U+00D7TOSlink optical digital audio
 41
0.7
 11
328.84818833554021
 21
1201.737573954377
 31
0.0
 73
     3
  0
TEXT
  5
6D
  8
SPEC
 62
     7
 10
91.211233546382417
 20
1155.144239735356
 30
0.0
 40
9.5015733506944464
  1
出力コネクター(アナログオーディオ)
 41
0.7
 11
91.211233546382417
 21
1164.645813086051
 31
0.0
 73
     3
  0
TEXT
  5
6E
  8
SPEC
 62
     7
 10
328.84567071085849
 20
1154.8432362195831
 30
0.0
 40
9.5015733506944464
  1
1\U+00D7Pair RCA L+R stereo
 41
0.7
 11
328.84567071085849
 21
1164.344809570277
 31
0.0
 73
     3
  0
TEXT
  5
6F
  8
SPEC
 62
     7
 10
91.16415114389946
 20
1136.1957587757761
 30
0.0
 40
9.5015733506944464
  1
出力コネクター(デジタ ルオーディオ)
 41
0.7
 11
91.16415114389946
 21
1145.6973321264711
 31
0.0
 73
     3
  0
TEXT
  5
70
  8
SPEC
 62
     7
 10
328.81917405141519
 20
1135.8936171962521
 30
0.0
 40
9.5015733506944464
  1
1\U+00D7S/PDIF digital audio
 41
0.7
 11
328.81917405141519
 21
1145.395190546946
 31
0.0
 73
     3
  0
TEXT
  5
71
  8
SPEC
 62
     7
 10
91.172603626165866
 20
1117.3396743089011
 30
0.0
 40
9.5015733506944464
  1
出力コネクター(デジタ ルオーディオ)
 41
0.7
 11
91.172603626165866
 21
1126.841247659595
 31
0.0
 73
     3
  0
TEXT
  5
72
  8
SPEC
 62
     7
 10
328.8420439660062
 20
1117.4738485451071
 30
0.0
 40
9.5015733506944464
  1
1\U+00D7TOSlink optical digital audio
 41
0.7
 11
328.8420439660062
 21
1126.9754218958019
 31
0.0
 73
     3
  0
TEXT
  5
73
  8
SPEC
 62
     7
 10
91.776052152947585
 20
986.65095461555973
 30
0.0
 40
9.5015562499999984
  1
動作温度
 41
0.7
 11
91.776052152947585
 21
996.15251086555975
 31
0.0
 73
     3
  0
TEXT
  5
74
  8
SPEC
 62
     7
 10
91.189858639303793
 20
1098.838744971742
 30
0.0
 40
9.5015733506944464
  1
出力コネクター(デジタ ルビデオ)
 41
0.7
 11
91.189858639303793
 21
1108.3403183224359
 31
0.0
 73
     3
  0
TEXT
  5
75
  8
SPEC
 62
     7
 10
328.8207140183244
 20
1099.0203770627661
 30
0.0
 40
9.5015733506944464
  1
1\U+00D7DVI、29-pin メス
 41
0.7
 11
328.8207140183244
 21
1108.52195041346
 31
0.0
 73
     3
  0
TEXT
  5
76
  8
SPEC
 62
     7
 10
91.991803280209865
 20
1080.001809425599
 30
0.0
 40
9.5015733506944464
  1
RS232 コネクター(入力、出力)
 41
0.7
 11
91.991803280209865
 21
1089.5033827762929
 31
0.0
 73
     3
  0
TEXT
  5
77
  8
SPEC
 62
     7
 10
329.55528746042887
 20
1080.0003950346429
 30
0.0
 40
9.5015733506944464
  1
9-pin Serial、メス
 41
0.7
 11
329.55528746042887
 21
1089.501968385337
 31
0.0
 73
     3
  0
TEXT
  5
78
  8
SPEC
 62
     7
 10
89.420332929162896
 20
1061.424972559716
 30
0.0
 40
9.5015733506944464
  1
リンクコネクター
 41
0.7
 11
89.420332929162896
 21
1070.9265459104099
 31
0.0
 73
     3
  0
TEXT
  5
79
  8
SPEC
 62
     7
 10
329.75499302290922
 20
1060.6545629937
 30
0.0
 40
9.5015733506944464
  1
4-strand LC-LC fiber optic cable(シングルorマルチモード)
 41
0.7
 11
329.75499302290922
 21
1070.1561363443941
 31
0.0
 73
     3
  0
LINE
  5
7A
  8
SPEC
  6
CONTINUOUS
 62
     7
 10
87.5
 20
1075.0
 30
0.0
 11
825.0
 21
1075.0
 31
0.0
  0
LINE
  5
7B
  8
SPEC
  6
CONTINUOUS
 62
     7
 10
87.5
 20
1056.25
 30
0.0
 11
825.0
 21
1056.25
 31
0.0
  0
LINE
  5
7C
  8
SPEC
  6
CONTINUOUS
 62
     7
 10
87.5
 20
1037.5
 30
0.0
 11
825.0
 21
1037.5
 31
0.0
  0
LINE
  5
7D
  8
SPEC
  6
CONTINUOUS
 62
     7
 10
87.5
 20
1018.75
 30
0.0
 11
825.0
 21
1018.75
 31
0.0
  0
LINE
  5
7E
  8
SPEC
  6
CONTINUOUS
 62
     7
 10
87.5
 20
1000.0
 30
0.0
 11
825.0
 21
1000.0
 31
0.0
  0
LINE
  5
7F
  8
SPEC
  6
CONTINUOUS
 62
     7
 10
87.5
 20
981.25
 30
0.0
 11
825.0
 21
981.25
 31
0.0
  0
TEXT
  5
80
  8
SPEC
 62
     7
 10
91.816318800339999
 20
1042.5816654999981
 30
0.0
 40
9.5015733506944464
  1
入力ビデオ信号
 41
0.7
 11
91.816318800339999
 21
1052.0832388506919
 31
0.0
 73
     3
  0
TEXT
  5
81
  8
SPEC
 62
     7
 10
328.85309228268181
 20
1042.8427841644709
 30
0.0
 40
9.5015562499999984
  1
1.2V p-p
 41
0.7
 11
328.85309228268181
 21
1052.3443404144709
 31
0.0
 73
     3
  0
TEXT
  5
82
  8
SPEC
 62
     7
 10
91.853951701892569
 20
1023.85669805283
 30
0.0
 40
9.5015733506944464
  1
入力DDC信号
 41
0.7
 11
91.853951701892569
 21
1033.358271403524
 31
0.0
 73
     3
  0
TEXT
  5
83
  8
SPEC
 62
     7
 10
329.57060824470818
 20
1023.535949992902
 30
0.0
 40
9.5015562499999984
  1
5V p-p(TTL)
 41
0.7
 11
329.57060824470818
 21
1033.0375062429021
 31
0.0
 73
     3
  0
TEXT
  5
84
  8
SPEC
 62
     7
 10
328.8768550261326
 20
967.24900514273679
 30
0.0
 40
9.5015562499999984
  1
10％～85％
 41
0.7
 11
328.8768550261326
 21
976.7505613927367
 31
0.0
 73
     3
  0
TEXT
  5
85
  8
SPEC
 62
     7
 10
91.812765937382153
 20
967.70070402308045
 30
0.0
 40
9.5015562499999984
  1
動作湿度
 41
0.7
 11
91.812765937382153
 21
977.20226027308047
 31
0.0
 73
     3
  0
LINE
  5
86
  8
SPEC
  6
CONTINUOUS
 62
     7
 10
87.5
 20
962.5
 30
0.0
 11
825.0
 21
962.5
 31
0.0
  0
LINE
  5
87
  8
SPEC
  6
CONTINUOUS
 62
     7
 10
87.5
 20
943.75
 30
0.0
 11
825.0
 21
943.75
 31
0.0
  0
LINE
  5
88
  8
SPEC
  6
CONTINUOUS
 62
     7
 10
87.5
 20
925.0
 30
0.0
 11
825.0
 21
925.0
 31
0.0
  0
TEXT
  5
89
  8
SPEC
 62
     7
 10
91.806000794198667
 20
1174.0777260546081
 30
0.0
 40
9.5015733506944464
  1
入力コネクター(デジタ ルビデオ)
 41
0.7
 11
91.806000794198667
 21
1183.579299405302
 31
0.0
 73
     3
  0
TEXT
  5
8A
  8
SPEC
 62
     7
 10
328.84818833554021
 20
1173.486000603682
 30
0.0
 40
9.5015733506944464
  1
1\U+00D7DVI、29-pinメス
 41
0.7
 11
328.84818833554021
 21
1182.987573954377
 31
0.0
 73
     3
  0
TEXT
  5
8B
  8
DIMNSIONS
 62
     7
 10
400.0
 20
111.34744999999999
 30
0.0
 40
12.21630859375
  1
(単位：mm)
 41
0.7
 11
400.0
 21
123.5637585937499
 31
0.0
 73
     3
  0
LINE
  5
8C
  8
DIMNSIONS
  6
CONTINUOUS
 62
     7
 10
227.5
 20
625.0
 30
0.0
 11
190.0
 21
625.0
 31
0.0
  0
LINE
  5
8D
  8
DIMNSIONS
  6
CONTINUOUS
 62
     7
 10
227.5
 20
656.0
 30
0.0
 11
190.0
 21
656.0
 31
0.0
  0
LINE
  5
8E
  8
DIMNSIONS
  6
CONTINUOUS
 62
     7
 10
200.0
 20
625.0
 30
0.0
 11
200.0
 21
656.0
 31
0.0
  0
LINE
  5
8F
  8
DIMNSIONS
  6
CONTINUOUS
 62
     7
 10
200.0
 20
625.0
 30
0.0
 11
196.6498010242488
 21
637.50311279296875
 31
0.0
  0
LINE
  5
90
  8
DIMNSIONS
  6
CONTINUOUS
 62
     7
 10
200.0
 20
625.0
 30
0.0
 11
203.3501989757512
 21
637.50311279296875
 31
0.0
  0
LINE
  5
91
  8
DIMNSIONS
  6
CONTINUOUS
 62
     7
 10
200.0
 20
656.0
 30
0.0
 11
203.3501989757512
 21
643.49688720703125
 31
0.0
  0
LINE
  5
92
  8
DIMNSIONS
  6
CONTINUOUS
 62
     7
 10
200.0
 20
656.0
 30
0.0
 11
196.6498010242488
 21
643.49688720703125
 31
0.0
  0
TEXT
  5
93
  8
DIMNSIONS
 62
     7
 10
195.03055555555551
 20
631.68055555555554
 30
0.0
 40
13.57367621527778
  1
31
 50
90.0
 41
0.7
 11
181.45687934027771
 21
631.68055555555554
 31
0.0
 73
     3
  0
LINE
  5
94
  8
DIMNSIONS
  6
CONTINUOUS
 62
     7
 10
237.5
 20
615.0
 30
0.0
 11
237.5
 21
577.5
 31
0.0
  0
LINE
  5
95
  8
DIMNSIONS
  6
CONTINUOUS
 62
     7
 10
497.5
 20
615.0
 30
0.0
 11
497.5
 21
577.5
 31
0.0
  0
LINE
  5
96
  8
DIMNSIONS
  6
CONTINUOUS
 62
     7
 10
237.5
 20
587.5
 30
0.0
 11
497.5
 21
587.5
 31
0.0
  0
LINE
  5
97
  8
DIMNSIONS
  6
CONTINUOUS
 62
     7
 10
237.5
 20
587.5
 30
0.0
 11
250.00311279296881
 21
590.85019897575125
 31
0.0
  0
LINE
  5
98
  8
DIMNSIONS
  6
CONTINUOUS
 62
     7
 10
237.5
 20
587.5
 30
0.0
 11
250.00311279296881
 21
584.14980102424875
 31
0.0
  0
LINE
  5
99
  8
DIMNSIONS
  6
CONTINUOUS
 62
     7
 10
497.5
 20
587.5
 30
0.0
 11
484.99688720703119
 21
584.14980102424875
 31
0.0
  0
LINE
  5
9A
  8
DIMNSIONS
  6
CONTINUOUS
 62
     7
 10
497.5
 20
587.5
 30
0.0
 11
484.99688720703119
 21
590.85019897575125
 31
0.0
  0
TEXT
  5
9B
  8
DIMNSIONS
 62
     7
 10
354.27083333333343
 20
592.46944444444455
 30
0.0
 40
13.57367621527778
  1
260
 41
0.7
 11
354.27083333333343
 21
606.04312065972238
 31
0.0
 73
     3
  0
LINE
  5
9C
  8
DIMNSIONS
  6
CONTINUOUS
 62
     7
 10
227.5
 20
621.49999999999989
 30
0.0
 11
190.0
 21
621.49999999999989
 31
0.0
  0
LINE
  5
9D
  8
DIMNSIONS
  6
CONTINUOUS
 62
     7
 10
227.5
 20
625.0
 30
0.0
 11
190.0
 21
625.0
 31
0.0
  0
LINE
  5
9E
  8
DIMNSIONS
  6
CONTINUOUS
 62
     7
 10
200.0
 20
625.0
 30
0.0
 11
200.0
 21
621.49999999999989
 31
0.0
  0
LINE
  5
9F
  8
DIMNSIONS
  6
CONTINUOUS
 62
     7
 10
200.0
 20
621.49999999999989
 30
0.0
 11
200.0
 21
603.68055555555554
 31
0.0
  0
LINE
  5
A0
  8
DIMNSIONS
  6
CONTINUOUS
 62
     7
 10
200.0
 20
621.49999999999989
 30
0.0
 11
203.3501989757512
 21
608.99688720703125
 31
0.0
  0
LINE
  5
A1
  8
DIMNSIONS
  6
CONTINUOUS
 62
     7
 10
200.0
 20
621.49999999999989
 30
0.0
 11
196.6498010242488
 21
608.99688720703125
 31
0.0
  0
LINE
  5
A2
  8
DIMNSIONS
  6
CONTINUOUS
 62
     7
 10
200.0
 20
625.0
 30
0.0
 11
200.0
 21
650.0
 31
0.0
  0
LINE
  5
A3
  8
DIMNSIONS
  6
CONTINUOUS
 62
     7
 10
200.0
 20
625.0
 30
0.0
 11
196.6498010242488
 21
637.50311279296875
 31
0.0
  0
LINE
  5
A4
  8
DIMNSIONS
  6
CONTINUOUS
 62
     7
 10
200.0
 20
625.0
 30
0.0
 11
203.3501989757512
 21
637.50311279296875
 31
0.0
  0
TEXT
  5
A5
  8
DIMNSIONS
 62
     7
 10
195.03055555555551
 20
603.68055555555554
 30
0.0
 40
13.57367621527778
  1
4
 50
90.0
 41
0.7
 11
181.45687934027771
 21
603.68055555555554
 31
0.0
 73
     3
  0
LINE
  5
A6
  8
DIMNSIONS
  6
CONTINUOUS
 62
     7
 10
227.5
 20
250.0
 30
0.0
 11
190.0
 21
250.0
 31
0.0
  0
LINE
  5
A7
  8
DIMNSIONS
  6
CONTINUOUS
 62
     7
 10
227.5
 20
281.0
 30
0.0
 11
190.0
 21
281.0
 31
0.0
  0
LINE
  5
A8
  8
DIMNSIONS
  6
CONTINUOUS
 62
     7
 10
200.0
 20
250.0
 30
0.0
 11
200.0
 21
281.0
 31
0.0
  0
LINE
  5
A9
  8
DIMNSIONS
  6
CONTINUOUS
 62
     7
 10
200.0
 20
250.0
 30
0.0
 11
196.6498010242488
 21
262.50311279296881
 31
0.0
  0
LINE
  5
AA
  8
DIMNSIONS
  6
CONTINUOUS
 62
     7
 10
200.0
 20
250.0
 30
0.0
 11
203.3501989757512
 21
262.50311279296881
 31
0.0
  0
LINE
  5
AB
  8
DIMNSIONS
  6
CONTINUOUS
 62
     7
 10
200.0
 20
281.0
 30
0.0
 11
203.3501989757512
 21
268.49688720703119
 31
0.0
  0
LINE
  5
AC
  8
DIMNSIONS
  6
CONTINUOUS
 62
     7
 10
200.0
 20
281.0
 30
0.0
 11
196.6498010242488
 21
268.49688720703119
 31
0.0
  0
TEXT
  5
AD
  8
DIMNSIONS
 62
     7
 10
195.03055555555551
 20
256.6805555555556
 30
0.0
 40
13.57367621527778
  1
31
 50
90.0
 41
0.7
 11
181.45687934027771
 21
256.6805555555556
 31
0.0
 73
     3
  0
LINE
  5
AE
  8
DIMNSIONS
  6
CONTINUOUS
 62
     7
 10
227.5
 20
312.5
 30
0.0
 11
190.0
 21
312.5
 31
0.0
  0
LINE
  5
AF
  8
DIMNSIONS
  6
CONTINUOUS
 62
     7
 10
227.5
 20
442.49999999999989
 30
0.0
 11
190.0
 21
442.49999999999989
 31
0.0
  0
LINE
  5
B0
  8
DIMNSIONS
  6
CONTINUOUS
 62
     7
 10
200.0
 20
312.5
 30
0.0
 11
200.0
 21
442.49999999999989
 31
0.0
  0
LINE
  5
B1
  8
DIMNSIONS
  6
CONTINUOUS
 62
     7
 10
200.0
 20
312.5
 30
0.0
 11
196.6498010242488
 21
325.00311279296881
 31
0.0
  0
LINE
  5
B2
  8
DIMNSIONS
  6
CONTINUOUS
 62
     7
 10
200.0
 20
312.5
 30
0.0
 11
203.3501989757512
 21
325.00311279296881
 31
0.0
  0
LINE
  5
B3
  8
DIMNSIONS
  6
CONTINUOUS
 62
     7
 10
200.0
 20
442.49999999999989
 30
0.0
 11
203.3501989757512
 21
429.99688720703119
 31
0.0
  0
LINE
  5
B4
  8
DIMNSIONS
  6
CONTINUOUS
 62
     7
 10
200.0
 20
442.49999999999989
 30
0.0
 11
196.6498010242488
 21
429.99688720703119
 31
0.0
  0
TEXT
  5
B5
  8
DIMNSIONS
 62
     7
 10
195.03055555555551
 20
364.27083333333331
 30
0.0
 40
13.57367621527778
  1
130
 50
90.0
 41
0.7
 11
181.45687934027771
 21
364.27083333333331
 31
0.0
 73
     3
  0
LINE
  5
B6
  8
DIMNSIONS
  6
CONTINUOUS
 62
     7
 10
237.5
 20
240.0
 30
0.0
 11
237.5
 21
202.5
 31
0.0
  0
LINE
  5
B7
  8
DIMNSIONS
  6
CONTINUOUS
 62
     7
 10
497.5
 20
240.0
 30
0.0
 11
497.5
 21
202.5
 31
0.0
  0
LINE
  5
B8
  8
DIMNSIONS
  6
CONTINUOUS
 62
     7
 10
237.5
 20
212.5
 30
0.0
 11
497.5
 21
212.5
 31
0.0
  0
LINE
  5
B9
  8
DIMNSIONS
  6
CONTINUOUS
 62
     7
 10
237.5
 20
212.5
 30
0.0
 11
250.00311279296881
 21
215.8501989757512
 31
0.0
  0
LINE
  5
BA
  8
DIMNSIONS
  6
CONTINUOUS
 62
     7
 10
237.5
 20
212.5
 30
0.0
 11
250.00311279296881
 21
209.1498010242488
 31
0.0
  0
LINE
  5
BB
  8
DIMNSIONS
  6
CONTINUOUS
 62
     7
 10
497.5
 20
212.5
 30
0.0
 11
484.99688720703119
 21
209.1498010242488
 31
0.0
  0
LINE
  5
BC
  8
DIMNSIONS
  6
CONTINUOUS
 62
     7
 10
497.5
 20
212.5
 30
0.0
 11
484.99688720703119
 21
215.8501989757512
 31
0.0
  0
TEXT
  5
BD
  8
DIMNSIONS
 62
     7
 10
354.27083333333343
 20
217.46944444444449
 30
0.0
 40
13.57367621527778
  1
260
 41
0.7
 11
354.27083333333343
 21
231.04312065972229
 31
0.0
 73
     3
  0
LINE
  5
BE
  8
DIMNSIONS
  6
CONTINUOUS
 62
     7
 10
227.5
 20
246.5
 30
0.0
 11
190.0
 21
246.5
 31
0.0
  0
LINE
  5
BF
  8
DIMNSIONS
  6
CONTINUOUS
 62
     7
 10
227.5
 20
250.0
 30
0.0
 11
190.0
 21
250.0
 31
0.0
  0
LINE
  5
C0
  8
DIMNSIONS
  6
CONTINUOUS
 62
     7
 10
200.0
 20
250.0
 30
0.0
 11
200.0
 21
246.5
 31
0.0
  0
LINE
  5
C1
  8
DIMNSIONS
  6
CONTINUOUS
 62
     7
 10
200.0
 20
246.5
 30
0.0
 11
200.0
 21
228.6805555555556
 31
0.0
  0
LINE
  5
C2
  8
DIMNSIONS
  6
CONTINUOUS
 62
     7
 10
200.0
 20
246.5
 30
0.0
 11
203.3501989757512
 21
233.99688720703131
 31
0.0
  0
LINE
  5
C3
  8
DIMNSIONS
  6
CONTINUOUS
 62
     7
 10
200.0
 20
246.5
 30
0.0
 11
196.6498010242488
 21
233.99688720703131
 31
0.0
  0
LINE
  5
C4
  8
DIMNSIONS
  6
CONTINUOUS
 62
     7
 10
200.0
 20
250.0
 30
0.0
 11
200.0
 21
275.0
 31
0.0
  0
LINE
  5
C5
  8
DIMNSIONS
  6
CONTINUOUS
 62
     7
 10
200.0
 20
250.0
 30
0.0
 11
196.6498010242488
 21
262.50311279296881
 31
0.0
  0
LINE
  5
C6
  8
DIMNSIONS
  6
CONTINUOUS
 62
     7
 10
200.0
 20
250.0
 30
0.0
 11
203.3501989757512
 21
262.50311279296881
 31
0.0
  0
TEXT
  5
C7
  8
DIMNSIONS
 62
     7
 10
195.03055555555551
 20
228.6805555555556
 30
0.0
 40
13.57367621527778
  1
4
 50
90.0
 41
0.7
 11
181.45687934027771
 21
228.6805555555556
 31
0.0
 73
     3
  0
LINE
  5
C8
  8
DIMNSIONS
  6
CONTINUOUS
 62
     7
 10
227.5
 20
442.49999999999989
 30
0.0
 11
190.0
 21
442.49999999999989
 31
0.0
  0
LINE
  5
C9
  8
DIMNSIONS
  6
CONTINUOUS
 62
     7
 10
432.5
 20
450.0
 30
0.0
 11
190.0
 21
450.0
 31
0.0
  0
LINE
  5
CA
  8
DIMNSIONS
  6
CONTINUOUS
 62
     7
 10
200.0
 20
450.0
 30
0.0
 11
200.0
 21
442.49999999999989
 31
0.0
  0
LINE
  5
CB
  8
DIMNSIONS
  6
CONTINUOUS
 62
     7
 10
200.0
 20
442.49999999999989
 30
0.0
 11
200.0
 21
417.49999999999989
 31
0.0
  0
LINE
  5
CC
  8
DIMNSIONS
  6
CONTINUOUS
 62
     7
 10
200.0
 20
442.49999999999989
 30
0.0
 11
203.3501989757512
 21
429.99688720703119
 31
0.0
  0
LINE
  5
CD
  8
DIMNSIONS
  6
CONTINUOUS
 62
     7
 10
200.0
 20
442.49999999999989
 30
0.0
 11
196.6498010242488
 21
429.99688720703119
 31
0.0
  0
LINE
  5
CE
  8
DIMNSIONS
  6
CONTINUOUS
 62
     7
 10
200.0
 20
450.0
 30
0.0
 11
200.0
 21
471.31944444444451
 31
0.0
  0
LINE
  5
CF
  8
DIMNSIONS
  6
CONTINUOUS
 62
     7
 10
200.0
 20
450.0
 30
0.0
 11
196.6498010242488
 21
462.50311279296881
 31
0.0
  0
LINE
  5
D0
  8
DIMNSIONS
  6
CONTINUOUS
 62
     7
 10
200.0
 20
450.0
 30
0.0
 11
203.3501989757512
 21
462.50311279296881
 31
0.0
  0
TEXT
  5
D1
  8
DIMNSIONS
 62
     7
 10
195.03055555555551
 20
462.5
 30
0.0
 40
13.57367621527778
  1
8
 50
90.0
 41
0.7
 11
181.45687934027771
 21
462.5
 31
0.0
 73
     3
  0
LINE
  5
D2
  8
DIMNSIONS
  6
CONTINUOUS
 62
     7
 10
227.5
 20
687.5
 30
0.0
 11
190.0
 21
687.5
 31
0.0
  0
LINE
  5
D3
  8
DIMNSIONS
  6
CONTINUOUS
 62
     7
 10
227.5
 20
817.5
 30
0.0
 11
190.0
 21
817.5
 31
0.0
  0
LINE
  5
D4
  8
DIMNSIONS
  6
CONTINUOUS
 62
     7
 10
200.0
 20
687.5
 30
0.0
 11
200.0
 21
817.5
 31
0.0
  0
LINE
  5
D5
  8
DIMNSIONS
  6
CONTINUOUS
 62
     7
 10
200.0
 20
687.5
 30
0.0
 11
196.6498010242488
 21
700.00311279296875
 31
0.0
  0
LINE
  5
D6
  8
DIMNSIONS
  6
CONTINUOUS
 62
     7
 10
200.0
 20
687.5
 30
0.0
 11
203.3501989757512
 21
700.00311279296875
 31
0.0
  0
LINE
  5
D7
  8
DIMNSIONS
  6
CONTINUOUS
 62
     7
 10
200.0
 20
817.5
 30
0.0
 11
203.3501989757512
 21
804.99688720703125
 31
0.0
  0
LINE
  5
D8
  8
DIMNSIONS
  6
CONTINUOUS
 62
     7
 10
200.0
 20
817.5
 30
0.0
 11
196.6498010242488
 21
804.99688720703125
 31
0.0
  0
TEXT
  5
D9
  8
DIMNSIONS
 62
     7
 10
195.03055555555551
 20
739.27083333333314
 30
0.0
 40
13.57367621527778
  1
130
 50
90.0
 41
0.7
 11
181.45687934027771
 21
739.27083333333314
 31
0.0
 73
     3
  0
LINE
  5
DA
  8
DIMNSIONS
  6
CONTINUOUS
 62
     7
 10
227.5
 20
817.5
 30
0.0
 11
190.0
 21
817.5
 31
0.0
  0
LINE
  5
DB
  8
DIMNSIONS
  6
CONTINUOUS
 62
     7
 10
432.5
 20
825.0
 30
0.0
 11
190.0
 21
825.0
 31
0.0
  0
LINE
  5
DC
  8
DIMNSIONS
  6
CONTINUOUS
 62
     7
 10
200.0
 20
825.0
 30
0.0
 11
200.0
 21
817.5
 31
0.0
  0
LINE
  5
DD
  8
DIMNSIONS
  6
CONTINUOUS
 62
     7
 10
200.0
 20
817.5
 30
0.0
 11
200.0
 21
792.49999999999989
 31
0.0
  0
LINE
  5
DE
  8
DIMNSIONS
  6
CONTINUOUS
 62
     7
 10
200.0
 20
817.5
 30
0.0
 11
203.3501989757512
 21
804.99688720703125
 31
0.0
  0
LINE
  5
DF
  8
DIMNSIONS
  6
CONTINUOUS
 62
     7
 10
200.0
 20
817.5
 30
0.0
 11
196.6498010242488
 21
804.99688720703125
 31
0.0
  0
LINE
  5
E0
  8
DIMNSIONS
  6
CONTINUOUS
 62
     7
 10
200.0
 20
825.0
 30
0.0
 11
200.0
 21
846.31944444444446
 31
0.0
  0
LINE
  5
E1
  8
DIMNSIONS
  6
CONTINUOUS
 62
     7
 10
200.0
 20
825.0
 30
0.0
 11
196.6498010242488
 21
837.50311279296864
 31
0.0
  0
LINE
  5
E2
  8
DIMNSIONS
  6
CONTINUOUS
 62
     7
 10
200.0
 20
825.0
 30
0.0
 11
203.3501989757512
 21
837.50311279296864
 31
0.0
  0
TEXT
  5
E3
  8
DIMNSIONS
 62
     7
 10
195.03055555555551
 20
837.5
 30
0.0
 40
13.57367621527778
  1
8
 50
90.0
 41
0.7
 11
181.45687934027771
 21
837.5
 31
0.0
 73
     3
  0
TEXT
  5
E4
  8
DATA
 62
     7
 10
750.0
 20
105.65445
 30
0.0
 40
12.21630859375
  1
EXT-DVI-1600HD
 41
0.7
 11
750.0
 21
117.87075859375
 31
0.0
 73
     3
  0
TEXT
  5
E5
  8
DATA
 62
     7
 10
750.0
 20
141.90445
 30
0.0
 40
12.21630859375
  1
Gefen
 41
0.7
 11
750.0
 21
154.12075859375
 31
0.0
 73
     3
  0
TEXT
  5
E6
  8
DATA
 62
     7
 10
737.5
 20
124.51966899999999
 30
0.0
 40
8.1442185546874981
  1
DVI延長機
 41
0.7
 11
737.5
 21
132.66388755468751
 31
0.0
 73
     3
  0
TEXT
  5
E7
  8
DATA
 62
     7
 10
100.0
 20
71.190000000000111
 30
0.0
 40
8.1442057291666661
  1
仕様および外観は予告なく変更されることがありますので、ご了承ください。
 41
0.7
 11
100.0
 21
79.334205729166783
 31
0.0
 73
     3
  0
LINE
  5
E8
  8
DATA
  6
CONTINUOUS
 62
     7
 10
497.5
 20
880.99999999975557
 30
0.0
 11
497.5
 21
851.49999999975557
 31
0.0
  0
LINE
  5
E9
  8
DATA
  6
CONTINUOUS
 62
     7
 10
237.5
 20
880.99999999975557
 30
0.0
 11
497.5
 21
880.99999999975557
 31
0.0
  0
LINE
  5
EA
  8
DATA
  6
CONTINUOUS
 62
     7
 10
237.5
 20
851.49999999975557
 30
0.0
 11
237.5
 21
880.99999999975557
 31
0.0
  0
LINE
  5
EB
  8
DATA
  6
CONTINUOUS
 62
     7
 10
496.0
 20
849.99999999975569
 30
0.0
 11
239.0
 21
849.99999999975569
 31
0.0
  0
LINE
  5
EC
  8
DATA
  6
CONTINUOUS
 62
     7
 10
237.5
 20
687.5
 30
0.0
 11
237.5
 21
817.5
 31
0.0
  0
LINE
  5
ED
  8
DATA
  6
CONTINUOUS
 62
     7
 10
497.5
 20
687.5
 30
0.0
 11
237.5
 21
687.5
 31
0.0
  0
LINE
  5
EE
  8
DATA
  6
CONTINUOUS
 62
     7
 10
497.5
 20
817.5
 30
0.0
 11
497.5
 21
687.5
 31
0.0
  0
LINE
  5
EF
  8
DATA
  6
CONTINUOUS
 62
     7
 10
237.5
 20
817.5
 30
0.0
 11
497.5
 21
817.5
 31
0.0
  0
LINE
  5
F0
  8
DATA
  6
CONTINUOUS
 62
     7
 10
587.5
 20
625.0
 30
0.0
 11
587.5
 21
656.0
 31
0.0
  0
LINE
  5
F1
  8
DATA
  6
CONTINUOUS
 62
     7
 10
717.49999999999989
 20
625.0
 30
0.0
 11
587.5
 21
625.0
 31
0.0
  0
LINE
  5
F2
  8
DATA
  6
CONTINUOUS
 62
     7
 10
717.49999999999989
 20
656.0
 30
0.0
 11
717.49999999999989
 21
625.0
 31
0.0
  0
LINE
  5
F3
  8
DATA
  6
CONTINUOUS
 62
     7
 10
587.5
 20
656.0
 30
0.0
 11
717.49999999999989
 21
656.0
 31
0.0
  0
LINE
  5
F4
  8
DATA
  6
CONTINUOUS
 62
     7
 10
494.79371397804391
 20
884.49999999975557
 30
0.0
 11
495.94371397804417
 21
880.99999999975557
 31
0.0
  0
LINE
  5
F5
  8
DATA
  6
CONTINUOUS
 62
     7
 10
484.79371397804391
 20
884.49999999975557
 30
0.0
 11
483.64371397804342
 21
880.99999999975557
 31
0.0
  0
LINE
  5
F6
  8
DATA
  6
CONTINUOUS
 62
     7
 10
494.79371397804391
 20
884.49999999975557
 30
0.0
 11
484.79371397804391
 21
884.49999999975557
 31
0.0
  0
LINE
  5
F7
  8
DATA
  6
CONTINUOUS
 62
     7
 10
240.2062860219562
 20
884.49999999975557
 30
0.0
 11
239.05628602195571
 21
880.99999999975557
 31
0.0
  0
LINE
  5
F8
  8
DATA
  6
CONTINUOUS
 62
     7
 10
250.20628602195609
 20
884.49999999975557
 30
0.0
 11
251.35628602195649
 21
880.99999999975557
 31
0.0
  0
LINE
  5
F9
  8
DATA
  6
CONTINUOUS
 62
     7
 10
240.2062860219562
 20
884.49999999975557
 30
0.0
 11
250.20628602195609
 21
884.49999999975557
 31
0.0
  0
LINE
  5
FA
  8
DATA
  6
CONTINUOUS
 62
     7
 10
257.5
 20
686.29999999999995
 30
0.0
 11
257.5
 21
687.5
 31
0.0
  0
LINE
  5
FB
  8
DATA
  6
CONTINUOUS
 62
     7
 10
261.5
 20
686.29999999999995
 30
0.0
 11
261.5
 21
687.5
 31
0.0
  0
LINE
  5
FC
  8
DATA
  6
CONTINUOUS
 62
     7
 10
257.5
 20
686.29999999999995
 30
0.0
 11
261.5
 21
686.29999999999995
 31
0.0
  0
LINE
  5
FD
  8
DATA
  6
CONTINUOUS
 62
     7
 10
288.30000000000001
 20
686.29999999999995
 30
0.0
 11
288.30000000000001
 21
687.5
 31
0.0
  0
LINE
  5
FE
  8
DATA
  6
CONTINUOUS
 62
     7
 10
294.69999999999999
 20
686.29999999999995
 30
0.0
 11
294.69999999999999
 21
687.5
 31
0.0
  0
LINE
  5
FF
  8
DATA
  6
CONTINUOUS
 62
     7
 10
288.30000000000001
 20
686.29999999999995
 30
0.0
 11
294.69999999999999
 21
686.29999999999995
 31
0.0
  0
LINE
  5
100
  8
DATA
  6
CONTINUOUS
 62
     7
 10
487.5
 20
862.49999999975569
 30
0.0
 11
487.5
 21
873.99999999975569
 31
0.0
  0
LINE
  5
101
  8
DATA
  6
CONTINUOUS
 62
     7
 10
478.5
 20
862.49999999975569
 30
0.0
 11
478.5
 21
873.99999999975569
 31
0.0
  0
LINE
  5
102
  8
DATA
  6
CONTINUOUS
 62
     7
 10
487.5
 20
873.99999999975569
 30
0.0
 11
478.5
 21
873.99999999975569
 31
0.0
  0
LINE
  5
103
  8
DATA
  6
CONTINUOUS
 62
     7
 10
487.5
 20
862.49999999975569
 30
0.0
 11
478.5
 21
862.49999999975569
 31
0.0
  0
CIRCLE
  5
104
  8
DATA
  6
CONTINUOUS
 62
     7
 10
483.0
 20
867.19999999975585
 30
0.0
 40
3.1500000000000048
  0
CIRCLE
  5
105
  8
DATA
  6
CONTINUOUS
 62
     7
 10
483.0
 20
867.19999999975585
 30
0.0
 40
0.2199999999999989
  0
POLYLINE
  5
106
  8
DATA
  6
CONTINUOUS
 62
     7
 66
     1
 10
0.0
 20
0.0
 30
0.0
 70
     1
  0
VERTEX
  5
524
  8
DATA
  6
CONTINUOUS
 62
     7
 10
257.5
 20
870.99999999975557
 30
0.0
  0
VERTEX
  5
525
  8
DATA
  6
CONTINUOUS
 62
     7
 10
270.5
 20
870.99999999975557
 30
0.0
  0
VERTEX
  5
526
  8
DATA
  6
CONTINUOUS
 62
     7
 10
270.5
 20
862.99999999975557
 30
0.0
  0
VERTEX
  5
527
  8
DATA
  6
CONTINUOUS
 62
     7
 10
257.5
 20
862.99999999975557
 30
0.0
  0
SEQEND
  5
528
  8
DATA
  6
CONTINUOUS
 62
     7
  0
POLYLINE
  5
10D
  8
DATA
  6
CONTINUOUS
 62
     7
 66
     1
 10
0.0
 20
0.0
 30
0.0
 70
     1
  0
VERTEX
  5
529
  8
DATA
  6
CONTINUOUS
 62
     7
 10
287.5
 20
870.99999999975557
 30
0.0
  0
VERTEX
  5
52A
  8
DATA
  6
CONTINUOUS
 62
     7
 10
300.5
 20
870.99999999975557
 30
0.0
  0
VERTEX
  5
52B
  8
DATA
  6
CONTINUOUS
 62
     7
 10
300.5
 20
862.99999999975557
 30
0.0
  0
VERTEX
  5
52C
  8
DATA
  6
CONTINUOUS
 62
     7
 10
287.5
 20
862.99999999975557
 30
0.0
  0
SEQEND
  5
52D
  8
DATA
  6
CONTINUOUS
 62
     7
  0
CIRCLE
  5
114
  8
DATA
  6
CONTINUOUS
 62
     7
 10
460.5
 20
866.99999999975569
 30
0.0
 40
4.0
  0
CIRCLE
  5
115
  8
DATA
  6
CONTINUOUS
 62
     7
 10
460.5
 20
866.99999999975569
 30
0.0
 40
1.75
  0
CIRCLE
  5
116
  8
DATA
  6
CONTINUOUS
 62
     7
 10
460.5
 20
866.99999999975569
 30
0.0
 40
5.9499999999999877
  0
CIRCLE
  5
117
  8
DATA
  6
CONTINUOUS
 62
     7
 10
446.49999999999989
 20
866.99999999975569
 30
0.0
 40
4.0
  0
CIRCLE
  5
118
  8
DATA
  6
CONTINUOUS
 62
     7
 10
446.49999999999989
 20
866.99999999975569
 30
0.0
 40
1.75
  0
CIRCLE
  5
119
  8
DATA
  6
CONTINUOUS
 62
     7
 10
446.49999999999989
 20
866.99999999975569
 30
0.0
 40
5.9499999999999877
  0
CIRCLE
  5
11A
  8
DATA
  6
CONTINUOUS
 62
     7
 10
425.49999999999989
 20
866.99999999975569
 30
0.0
 40
4.0
  0
CIRCLE
  5
11B
  8
DATA
  6
CONTINUOUS
 62
     7
 10
425.49999999999989
 20
866.99999999975569
 30
0.0
 40
1.75
  0
CIRCLE
  5
11C
  8
DATA
  6
CONTINUOUS
 62
     7
 10
425.49999999999989
 20
866.99999999975569
 30
0.0
 40
5.9499999999999877
  0
POLYLINE
  5
11D
  8
DATA
  6
CONTINUOUS
 62
     7
 66
     1
 10
0.0
 20
0.0
 30
0.0
 70
     1
  0
VERTEX
  5
52E
  8
DATA
  6
CONTINUOUS
 62
     7
 10
401.49999999999989
 20
871.99999999975557
 30
0.0
  0
VERTEX
  5
52F
  8
DATA
  6
CONTINUOUS
 62
     7
 10
411.5
 20
871.99999999975557
 30
0.0
  0
VERTEX
  5
530
  8
DATA
  6
CONTINUOUS
 62
     7
 10
411.5
 20
861.99999999975557
 30
0.0
  0
VERTEX
  5
531
  8
DATA
  6
CONTINUOUS
 62
     7
 10
401.49999999999989
 20
861.99999999975557
 30
0.0
  0
SEQEND
  5
532
  8
DATA
  6
CONTINUOUS
 62
     7
  0
CIRCLE
  5
124
  8
DATA
  6
CONTINUOUS
 62
     7
 10
353.76227479136031
 20
866.94848776330684
 30
0.0
 40
1.175000000000068
  0
POLYLINE
  5
125
  8
DATA
  6
CONTINUOUS
 62
     7
 66
     1
 10
0.0
 20
0.0
 30
0.0
 70
     1
  0
VERTEX
  5
533
  8
DATA
  6
CONTINUOUS
 62
     7
 10
353.76227479136031
 20
864.24848776330691
 30
0.0
  0
VERTEX
  5
534
  8
DATA
  6
CONTINUOUS
 62
     7
 10
356.10054338157829
 20
865.59848776330705
 30
0.0
  0
VERTEX
  5
535
  8
DATA
  6
CONTINUOUS
 62
     7
 10
356.10054338157829
 20
868.29848776330687
 30
0.0
  0
VERTEX
  5
536
  8
DATA
  6
CONTINUOUS
 62
     7
 10
353.76227479136031
 20
869.648487763307
 30
0.0
  0
VERTEX
  5
537
  8
DATA
  6
CONTINUOUS
 62
     7
 10
351.42400620114228
 20
868.29848776330687
 30
0.0
  0
VERTEX
  5
538
  8
DATA
  6
CONTINUOUS
 62
     7
 10
351.42400620114228
 20
865.59848776330705
 30
0.0
  0
SEQEND
  5
539
  8
DATA
  6
CONTINUOUS
 62
     7
  0
CIRCLE
  5
12E
  8
DATA
  6
CONTINUOUS
 62
     7
 10
321.2622747913598
 20
866.94848776330684
 30
0.0
 40
1.175000000000068
  0
POLYLINE
  5
12F
  8
DATA
  6
CONTINUOUS
 62
     7
 66
     1
 10
0.0
 20
0.0
 30
0.0
 70
     1
  0
VERTEX
  5
53A
  8
DATA
  6
CONTINUOUS
 62
     7
 10
321.2622747913598
 20
864.24848776330691
 30
0.0
  0
VERTEX
  5
53B
  8
DATA
  6
CONTINUOUS
 62
     7
 10
323.60054338157772
 20
865.59848776330705
 30
0.0
  0
VERTEX
  5
53C
  8
DATA
  6
CONTINUOUS
 62
     7
 10
323.60054338157772
 20
868.29848776330687
 30
0.0
  0
VERTEX
  5
53D
  8
DATA
  6
CONTINUOUS
 62
     7
 10
321.2622747913598
 20
869.648487763307
 30
0.0
  0
VERTEX
  5
53E
  8
DATA
  6
CONTINUOUS
 62
     7
 10
318.92400620114182
 20
868.29848776330687
 30
0.0
  0
VERTEX
  5
53F
  8
DATA
  6
CONTINUOUS
 62
     7
 10
318.92400620114182
 20
865.59848776330705
 30
0.0
  0
SEQEND
  5
540
  8
DATA
  6
CONTINUOUS
 62
     7
  0
LINE
  5
138
  8
DATA
  6
CONTINUOUS
 62
     7
 10
348.4621796785521
 20
863.02348776330689
 30
0.0
 11
326.56236990416789
 21
863.02348776330689
 31
0.0
  0
LINE
  5
139
  8
DATA
  6
CONTINUOUS
 62
     7
 10
327.12128710162028
 20
870.87348776330691
 30
0.0
 11
347.90326248109977
 21
870.87348776330691
 31
0.0
  0
POLYLINE
  5
13A
  8
DATA
  6
CONTINUOUS
 62
     7
 66
     1
 10
0.0
 20
0.0
 30
0.0
 70
     1
  0
VERTEX
  5
541
  8
DATA
  6
CONTINUOUS
 62
     7
 10
346.98234096253958
 20
867.71348776330694
 30
0.0
  0
VERTEX
  5
542
  8
DATA
  6
CONTINUOUS
 62
     7
 10
348.51234096253961
 20
867.71348776330694
 30
0.0
  0
VERTEX
  5
543
  8
DATA
  6
CONTINUOUS
 62
     7
 10
348.51234096253961
 20
866.18348776330686
 30
0.0
  0
VERTEX
  5
544
  8
DATA
  6
CONTINUOUS
 62
     7
 10
346.98234096253958
 20
866.18348776330686
 30
0.0
  0
SEQEND
  5
545
  8
DATA
  6
CONTINUOUS
 62
     7
  0
POLYLINE
  5
141
  8
DATA
  6
CONTINUOUS
 62
     7
 66
     1
 10
0.0
 20
0.0
 30
0.0
 70
     1
  0
VERTEX
  5
546
  8
DATA
  6
CONTINUOUS
 62
     7
 10
344.98234096253958
 20
867.71348776330694
 30
0.0
  0
VERTEX
  5
547
  8
DATA
  6
CONTINUOUS
 62
     7
 10
346.51234096253961
 20
867.71348776330694
 30
0.0
  0
VERTEX
  5
548
  8
DATA
  6
CONTINUOUS
 62
     7
 10
346.51234096253961
 20
866.18348776330686
 30
0.0
  0
VERTEX
  5
549
  8
DATA
  6
CONTINUOUS
 62
     7
 10
344.98234096253958
 20
866.18348776330686
 30
0.0
  0
SEQEND
  5
54A
  8
DATA
  6
CONTINUOUS
 62
     7
  0
POLYLINE
  5
148
  8
DATA
  6
CONTINUOUS
 62
     7
 66
     1
 10
0.0
 20
0.0
 30
0.0
 70
     1
  0
VERTEX
  5
54B
  8
DATA
  6
CONTINUOUS
 62
     7
 10
342.98234096253969
 20
867.71348776330694
 30
0.0
  0
VERTEX
  5
54C
  8
DATA
  6
CONTINUOUS
 62
     7
 10
344.51234096253961
 20
867.71348776330694
 30
0.0
  0
VERTEX
  5
54D
  8
DATA
  6
CONTINUOUS
 62
     7
 10
344.51234096253961
 20
866.18348776330686
 30
0.0
  0
VERTEX
  5
54E
  8
DATA
  6
CONTINUOUS
 62
     7
 10
342.98234096253969
 20
866.18348776330686
 30
0.0
  0
SEQEND
  5
54F
  8
DATA
  6
CONTINUOUS
 62
     7
  0
POLYLINE
  5
14F
  8
DATA
  6
CONTINUOUS
 62
     7
 66
     1
 10
0.0
 20
0.0
 30
0.0
 70
     1
  0
VERTEX
  5
550
  8
DATA
  6
CONTINUOUS
 62
     7
 10
340.98234096253958
 20
867.71348776330694
 30
0.0
  0
VERTEX
  5
551
  8
DATA
  6
CONTINUOUS
 62
     7
 10
342.5123409625395
 20
867.71348776330694
 30
0.0
  0
VERTEX
  5
552
  8
DATA
  6
CONTINUOUS
 62
     7
 10
342.5123409625395
 20
866.18348776330686
 30
0.0
  0
VERTEX
  5
553
  8
DATA
  6
CONTINUOUS
 62
     7
 10
340.98234096253958
 20
866.18348776330686
 30
0.0
  0
SEQEND
  5
554
  8
DATA
  6
CONTINUOUS
 62
     7
  0
POLYLINE
  5
156
  8
DATA
  6
CONTINUOUS
 62
     7
 66
     1
 10
0.0
 20
0.0
 30
0.0
 70
     1
  0
VERTEX
  5
555
  8
DATA
  6
CONTINUOUS
 62
     7
 10
338.98234096253958
 20
867.71348776330694
 30
0.0
  0
VERTEX
  5
556
  8
DATA
  6
CONTINUOUS
 62
     7
 10
340.5123409625395
 20
867.71348776330694
 30
0.0
  0
VERTEX
  5
557
  8
DATA
  6
CONTINUOUS
 62
     7
 10
340.5123409625395
 20
866.18348776330686
 30
0.0
  0
VERTEX
  5
558
  8
DATA
  6
CONTINUOUS
 62
     7
 10
338.98234096253958
 20
866.18348776330686
 30
0.0
  0
SEQEND
  5
559
  8
DATA
  6
CONTINUOUS
 62
     7
  0
POLYLINE
  5
15D
  8
DATA
  6
CONTINUOUS
 62
     7
 66
     1
 10
0.0
 20
0.0
 30
0.0
 70
     1
  0
VERTEX
  5
55A
  8
DATA
  6
CONTINUOUS
 62
     7
 10
336.98234096253958
 20
867.71348776330694
 30
0.0
  0
VERTEX
  5
55B
  8
DATA
  6
CONTINUOUS
 62
     7
 10
338.5123409625395
 20
867.71348776330694
 30
0.0
  0
VERTEX
  5
55C
  8
DATA
  6
CONTINUOUS
 62
     7
 10
338.5123409625395
 20
866.18348776330686
 30
0.0
  0
VERTEX
  5
55D
  8
DATA
  6
CONTINUOUS
 62
     7
 10
336.98234096253958
 20
866.18348776330686
 30
0.0
  0
SEQEND
  5
55E
  8
DATA
  6
CONTINUOUS
 62
     7
  0
POLYLINE
  5
164
  8
DATA
  6
CONTINUOUS
 62
     7
 66
     1
 10
0.0
 20
0.0
 30
0.0
 70
     1
  0
VERTEX
  5
55F
  8
DATA
  6
CONTINUOUS
 62
     7
 10
334.98234096253958
 20
867.71348776330694
 30
0.0
  0
VERTEX
  5
560
  8
DATA
  6
CONTINUOUS
 62
     7
 10
336.5123409625395
 20
867.71348776330694
 30
0.0
  0
VERTEX
  5
561
  8
DATA
  6
CONTINUOUS
 62
     7
 10
336.5123409625395
 20
866.18348776330686
 30
0.0
  0
VERTEX
  5
562
  8
DATA
  6
CONTINUOUS
 62
     7
 10
334.98234096253958
 20
866.18348776330686
 30
0.0
  0
SEQEND
  5
563
  8
DATA
  6
CONTINUOUS
 62
     7
  0
POLYLINE
  5
16B
  8
DATA
  6
CONTINUOUS
 62
     7
 66
     1
 10
0.0
 20
0.0
 30
0.0
 70
     1
  0
VERTEX
  5
564
  8
DATA
  6
CONTINUOUS
 62
     7
 10
332.98234096253958
 20
867.71348776330694
 30
0.0
  0
VERTEX
  5
565
  8
DATA
  6
CONTINUOUS
 62
     7
 10
334.5123409625395
 20
867.71348776330694
 30
0.0
  0
VERTEX
  5
566
  8
DATA
  6
CONTINUOUS
 62
     7
 10
334.5123409625395
 20
866.18348776330686
 30
0.0
  0
VERTEX
  5
567
  8
DATA
  6
CONTINUOUS
 62
     7
 10
332.98234096253958
 20
866.18348776330686
 30
0.0
  0
SEQEND
  5
568
  8
DATA
  6
CONTINUOUS
 62
     7
  0
POLYLINE
  5
172
  8
DATA
  6
CONTINUOUS
 62
     7
 66
     1
 10
0.0
 20
0.0
 30
0.0
 70
     1
  0
VERTEX
  5
569
  8
DATA
  6
CONTINUOUS
 62
     7
 10
346.98234096253958
 20
865.71348776330672
 30
0.0
  0
VERTEX
  5
56A
  8
DATA
  6
CONTINUOUS
 62
     7
 10
348.51234096253961
 20
865.71348776330672
 30
0.0
  0
VERTEX
  5
56B
  8
DATA
  6
CONTINUOUS
 62
     7
 10
348.51234096253961
 20
864.18348776330686
 30
0.0
  0
VERTEX
  5
56C
  8
DATA
  6
CONTINUOUS
 62
     7
 10
346.98234096253958
 20
864.18348776330686
 30
0.0
  0
SEQEND
  5
56D
  8
DATA
  6
CONTINUOUS
 62
     7
  0
POLYLINE
  5
179
  8
DATA
  6
CONTINUOUS
 62
     7
 66
     1
 10
0.0
 20
0.0
 30
0.0
 70
     1
  0
VERTEX
  5
56E
  8
DATA
  6
CONTINUOUS
 62
     7
 10
344.98234096253958
 20
865.71348776330672
 30
0.0
  0
VERTEX
  5
56F
  8
DATA
  6
CONTINUOUS
 62
     7
 10
346.51234096253961
 20
865.71348776330672
 30
0.0
  0
VERTEX
  5
570
  8
DATA
  6
CONTINUOUS
 62
     7
 10
346.51234096253961
 20
864.18348776330686
 30
0.0
  0
VERTEX
  5
571
  8
DATA
  6
CONTINUOUS
 62
     7
 10
344.98234096253958
 20
864.18348776330686
 30
0.0
  0
SEQEND
  5
572
  8
DATA
  6
CONTINUOUS
 62
     7
  0
POLYLINE
  5
180
  8
DATA
  6
CONTINUOUS
 62
     7
 66
     1
 10
0.0
 20
0.0
 30
0.0
 70
     1
  0
VERTEX
  5
573
  8
DATA
  6
CONTINUOUS
 62
     7
 10
342.98234096253969
 20
865.71348776330672
 30
0.0
  0
VERTEX
  5
574
  8
DATA
  6
CONTINUOUS
 62
     7
 10
344.51234096253961
 20
865.71348776330672
 30
0.0
  0
VERTEX
  5
575
  8
DATA
  6
CONTINUOUS
 62
     7
 10
344.51234096253961
 20
864.18348776330686
 30
0.0
  0
VERTEX
  5
576
  8
DATA
  6
CONTINUOUS
 62
     7
 10
342.98234096253969
 20
864.18348776330686
 30
0.0
  0
SEQEND
  5
577
  8
DATA
  6
CONTINUOUS
 62
     7
  0
POLYLINE
  5
187
  8
DATA
  6
CONTINUOUS
 62
     7
 66
     1
 10
0.0
 20
0.0
 30
0.0
 70
     1
  0
VERTEX
  5
578
  8
DATA
  6
CONTINUOUS
 62
     7
 10
340.98234096253958
 20
865.71348776330672
 30
0.0
  0
VERTEX
  5
579
  8
DATA
  6
CONTINUOUS
 62
     7
 10
342.5123409625395
 20
865.71348776330672
 30
0.0
  0
VERTEX
  5
57A
  8
DATA
  6
CONTINUOUS
 62
     7
 10
342.5123409625395
 20
864.18348776330686
 30
0.0
  0
VERTEX
  5
57B
  8
DATA
  6
CONTINUOUS
 62
     7
 10
340.98234096253958
 20
864.18348776330686
 30
0.0
  0
SEQEND
  5
57C
  8
DATA
  6
CONTINUOUS
 62
     7
  0
POLYLINE
  5
18E
  8
DATA
  6
CONTINUOUS
 62
     7
 66
     1
 10
0.0
 20
0.0
 30
0.0
 70
     1
  0
VERTEX
  5
57D
  8
DATA
  6
CONTINUOUS
 62
     7
 10
338.98234096253958
 20
865.71348776330672
 30
0.0
  0
VERTEX
  5
57E
  8
DATA
  6
CONTINUOUS
 62
     7
 10
340.5123409625395
 20
865.71348776330672
 30
0.0
  0
VERTEX
  5
57F
  8
DATA
  6
CONTINUOUS
 62
     7
 10
340.5123409625395
 20
864.18348776330686
 30
0.0
  0
VERTEX
  5
580
  8
DATA
  6
CONTINUOUS
 62
     7
 10
338.98234096253958
 20
864.18348776330686
 30
0.0
  0
SEQEND
  5
581
  8
DATA
  6
CONTINUOUS
 62
     7
  0
POLYLINE
  5
195
  8
DATA
  6
CONTINUOUS
 62
     7
 66
     1
 10
0.0
 20
0.0
 30
0.0
 70
     1
  0
VERTEX
  5
582
  8
DATA
  6
CONTINUOUS
 62
     7
 10
336.98234096253958
 20
865.71348776330672
 30
0.0
  0
VERTEX
  5
583
  8
DATA
  6
CONTINUOUS
 62
     7
 10
338.5123409625395
 20
865.71348776330672
 30
0.0
  0
VERTEX
  5
584
  8
DATA
  6
CONTINUOUS
 62
     7
 10
338.5123409625395
 20
864.18348776330686
 30
0.0
  0
VERTEX
  5
585
  8
DATA
  6
CONTINUOUS
 62
     7
 10
336.98234096253958
 20
864.18348776330686
 30
0.0
  0
SEQEND
  5
586
  8
DATA
  6
CONTINUOUS
 62
     7
  0
POLYLINE
  5
19C
  8
DATA
  6
CONTINUOUS
 62
     7
 66
     1
 10
0.0
 20
0.0
 30
0.0
 70
     1
  0
VERTEX
  5
587
  8
DATA
  6
CONTINUOUS
 62
     7
 10
334.98234096253958
 20
865.71348776330672
 30
0.0
  0
VERTEX
  5
588
  8
DATA
  6
CONTINUOUS
 62
     7
 10
336.5123409625395
 20
865.71348776330672
 30
0.0
  0
VERTEX
  5
589
  8
DATA
  6
CONTINUOUS
 62
     7
 10
336.5123409625395
 20
864.18348776330686
 30
0.0
  0
VERTEX
  5
58A
  8
DATA
  6
CONTINUOUS
 62
     7
 10
334.98234096253958
 20
864.18348776330686
 30
0.0
  0
SEQEND
  5
58B
  8
DATA
  6
CONTINUOUS
 62
     7
  0
POLYLINE
  5
1A3
  8
DATA
  6
CONTINUOUS
 62
     7
 66
     1
 10
0.0
 20
0.0
 30
0.0
 70
     1
  0
VERTEX
  5
58C
  8
DATA
  6
CONTINUOUS
 62
     7
 10
332.98234096253958
 20
865.71348776330672
 30
0.0
  0
VERTEX
  5
58D
  8
DATA
  6
CONTINUOUS
 62
     7
 10
334.5123409625395
 20
865.71348776330672
 30
0.0
  0
VERTEX
  5
58E
  8
DATA
  6
CONTINUOUS
 62
     7
 10
334.5123409625395
 20
864.18348776330686
 30
0.0
  0
VERTEX
  5
58F
  8
DATA
  6
CONTINUOUS
 62
     7
 10
332.98234096253958
 20
864.18348776330686
 30
0.0
  0
SEQEND
  5
590
  8
DATA
  6
CONTINUOUS
 62
     7
  0
POLYLINE
  5
1AA
  8
DATA
  6
CONTINUOUS
 62
     7
 66
     1
 10
0.0
 20
0.0
 30
0.0
 70
     1
  0
VERTEX
  5
591
  8
DATA
  6
CONTINUOUS
 62
     7
 10
346.98234096253958
 20
869.71348776330683
 30
0.0
  0
VERTEX
  5
592
  8
DATA
  6
CONTINUOUS
 62
     7
 10
348.51234096253961
 20
869.71348776330683
 30
0.0
  0
VERTEX
  5
593
  8
DATA
  6
CONTINUOUS
 62
     7
 10
348.51234096253961
 20
868.18348776330674
 30
0.0
  0
VERTEX
  5
594
  8
DATA
  6
CONTINUOUS
 62
     7
 10
346.98234096253958
 20
868.18348776330674
 30
0.0
  0
SEQEND
  5
595
  8
DATA
  6
CONTINUOUS
 62
     7
  0
POLYLINE
  5
1B1
  8
DATA
  6
CONTINUOUS
 62
     7
 66
     1
 10
0.0
 20
0.0
 30
0.0
 70
     1
  0
VERTEX
  5
596
  8
DATA
  6
CONTINUOUS
 62
     7
 10
344.98234096253958
 20
869.71348776330683
 30
0.0
  0
VERTEX
  5
597
  8
DATA
  6
CONTINUOUS
 62
     7
 10
346.51234096253961
 20
869.71348776330683
 30
0.0
  0
VERTEX
  5
598
  8
DATA
  6
CONTINUOUS
 62
     7
 10
346.51234096253961
 20
868.18348776330674
 30
0.0
  0
VERTEX
  5
599
  8
DATA
  6
CONTINUOUS
 62
     7
 10
344.98234096253958
 20
868.18348776330674
 30
0.0
  0
SEQEND
  5
59A
  8
DATA
  6
CONTINUOUS
 62
     7
  0
POLYLINE
  5
1B8
  8
DATA
  6
CONTINUOUS
 62
     7
 66
     1
 10
0.0
 20
0.0
 30
0.0
 70
     1
  0
VERTEX
  5
59B
  8
DATA
  6
CONTINUOUS
 62
     7
 10
342.98234096253969
 20
869.71348776330683
 30
0.0
  0
VERTEX
  5
59C
  8
DATA
  6
CONTINUOUS
 62
     7
 10
344.51234096253961
 20
869.71348776330683
 30
0.0
  0
VERTEX
  5
59D
  8
DATA
  6
CONTINUOUS
 62
     7
 10
344.51234096253961
 20
868.18348776330674
 30
0.0
  0
VERTEX
  5
59E
  8
DATA
  6
CONTINUOUS
 62
     7
 10
342.98234096253969
 20
868.18348776330674
 30
0.0
  0
SEQEND
  5
59F
  8
DATA
  6
CONTINUOUS
 62
     7
  0
POLYLINE
  5
1BF
  8
DATA
  6
CONTINUOUS
 62
     7
 66
     1
 10
0.0
 20
0.0
 30
0.0
 70
     1
  0
VERTEX
  5
5A0
  8
DATA
  6
CONTINUOUS
 62
     7
 10
340.98234096253958
 20
869.71348776330683
 30
0.0
  0
VERTEX
  5
5A1
  8
DATA
  6
CONTINUOUS
 62
     7
 10
342.5123409625395
 20
869.71348776330683
 30
0.0
  0
VERTEX
  5
5A2
  8
DATA
  6
CONTINUOUS
 62
     7
 10
342.5123409625395
 20
868.18348776330674
 30
0.0
  0
VERTEX
  5
5A3
  8
DATA
  6
CONTINUOUS
 62
     7
 10
340.98234096253958
 20
868.18348776330674
 30
0.0
  0
SEQEND
  5
5A4
  8
DATA
  6
CONTINUOUS
 62
     7
  0
POLYLINE
  5
1C6
  8
DATA
  6
CONTINUOUS
 62
     7
 66
     1
 10
0.0
 20
0.0
 30
0.0
 70
     1
  0
VERTEX
  5
5A5
  8
DATA
  6
CONTINUOUS
 62
     7
 10
338.98234096253958
 20
869.71348776330683
 30
0.0
  0
VERTEX
  5
5A6
  8
DATA
  6
CONTINUOUS
 62
     7
 10
340.5123409625395
 20
869.71348776330683
 30
0.0
  0
VERTEX
  5
5A7
  8
DATA
  6
CONTINUOUS
 62
     7
 10
340.5123409625395
 20
868.18348776330674
 30
0.0
  0
VERTEX
  5
5A8
  8
DATA
  6
CONTINUOUS
 62
     7
 10
338.98234096253958
 20
868.18348776330674
 30
0.0
  0
SEQEND
  5
5A9
  8
DATA
  6
CONTINUOUS
 62
     7
  0
POLYLINE
  5
1CD
  8
DATA
  6
CONTINUOUS
 62
     7
 66
     1
 10
0.0
 20
0.0
 30
0.0
 70
     1
  0
VERTEX
  5
5AA
  8
DATA
  6
CONTINUOUS
 62
     7
 10
336.98234096253958
 20
869.71348776330683
 30
0.0
  0
VERTEX
  5
5AB
  8
DATA
  6
CONTINUOUS
 62
     7
 10
338.5123409625395
 20
869.71348776330683
 30
0.0
  0
VERTEX
  5
5AC
  8
DATA
  6
CONTINUOUS
 62
     7
 10
338.5123409625395
 20
868.18348776330674
 30
0.0
  0
VERTEX
  5
5AD
  8
DATA
  6
CONTINUOUS
 62
     7
 10
336.98234096253958
 20
868.18348776330674
 30
0.0
  0
SEQEND
  5
5AE
  8
DATA
  6
CONTINUOUS
 62
     7
  0
POLYLINE
  5
1D4
  8
DATA
  6
CONTINUOUS
 62
     7
 66
     1
 10
0.0
 20
0.0
 30
0.0
 70
     1
  0
VERTEX
  5
5AF
  8
DATA
  6
CONTINUOUS
 62
     7
 10
334.98234096253958
 20
869.71348776330683
 30
0.0
  0
VERTEX
  5
5B0
  8
DATA
  6
CONTINUOUS
 62
     7
 10
336.5123409625395
 20
869.71348776330683
 30
0.0
  0
VERTEX
  5
5B1
  8
DATA
  6
CONTINUOUS
 62
     7
 10
336.5123409625395
 20
868.18348776330674
 30
0.0
  0
VERTEX
  5
5B2
  8
DATA
  6
CONTINUOUS
 62
     7
 10
334.98234096253958
 20
868.18348776330674
 30
0.0
  0
SEQEND
  5
5B3
  8
DATA
  6
CONTINUOUS
 62
     7
  0
POLYLINE
  5
1DB
  8
DATA
  6
CONTINUOUS
 62
     7
 66
     1
 10
0.0
 20
0.0
 30
0.0
 70
     1
  0
VERTEX
  5
5B4
  8
DATA
  6
CONTINUOUS
 62
     7
 10
332.98234096253958
 20
869.71348776330683
 30
0.0
  0
VERTEX
  5
5B5
  8
DATA
  6
CONTINUOUS
 62
     7
 10
334.5123409625395
 20
869.71348776330683
 30
0.0
  0
VERTEX
  5
5B6
  8
DATA
  6
CONTINUOUS
 62
     7
 10
334.5123409625395
 20
868.18348776330674
 30
0.0
  0
VERTEX
  5
5B7
  8
DATA
  6
CONTINUOUS
 62
     7
 10
332.98234096253958
 20
868.18348776330674
 30
0.0
  0
SEQEND
  5
5B8
  8
DATA
  6
CONTINUOUS
 62
     7
  0
POLYLINE
  5
1E2
  8
DATA
  6
CONTINUOUS
 62
     7
 66
     1
 10
0.0
 20
0.0
 30
0.0
  0
VERTEX
  5
5B9
  8
DATA
  6
CONTINUOUS
 62
     7
 10
328.96227479135968
 20
866.54848776330687
 30
0.0
  0
VERTEX
  5
5BA
  8
DATA
  6
CONTINUOUS
 62
     7
 10
326.8622747913596
 20
866.54848776330687
 30
0.0
  0
VERTEX
  5
5BB
  8
DATA
  6
CONTINUOUS
 62
     7
 10
326.8622747913596
 20
867.34848776330705
 30
0.0
  0
VERTEX
  5
5BC
  8
DATA
  6
CONTINUOUS
 62
     7
 10
328.96227479135968
 20
867.34848776330705
 30
0.0
  0
SEQEND
  5
5BD
  8
DATA
  6
CONTINUOUS
 62
     7
  0
POLYLINE
  5
1E9
  8
DATA
  6
CONTINUOUS
 62
     7
 66
     1
 10
0.0
 20
0.0
 30
0.0
  0
VERTEX
  5
5BE
  8
DATA
  6
CONTINUOUS
 62
     7
 10
329.76227479135991
 20
867.34848776330705
 30
0.0
  0
VERTEX
  5
5BF
  8
DATA
  6
CONTINUOUS
 62
     7
 10
331.86227479136022
 20
867.34848776330705
 30
0.0
  0
VERTEX
  5
5C0
  8
DATA
  6
CONTINUOUS
 62
     7
 10
331.86227479136022
 20
866.54848776330687
 30
0.0
  0
VERTEX
  5
5C1
  8
DATA
  6
CONTINUOUS
 62
     7
 10
329.76227479135991
 20
866.54848776330687
 30
0.0
  0
SEQEND
  5
5C2
  8
DATA
  6
CONTINUOUS
 62
     7
  0
POLYLINE
  5
1F0
  8
DATA
  6
CONTINUOUS
 62
     7
 66
     1
 10
0.0
 20
0.0
 30
0.0
  0
VERTEX
  5
5C3
  8
DATA
  6
CONTINUOUS
 62
     7
 10
328.96227479135968
 20
867.34848776330705
 30
0.0
  0
VERTEX
  5
5C4
  8
DATA
  6
CONTINUOUS
 62
     7
 10
328.96227479135968
 20
869.44848776330684
 30
0.0
  0
VERTEX
  5
5C5
  8
DATA
  6
CONTINUOUS
 62
     7
 10
329.76227479135991
 20
869.44848776330684
 30
0.0
  0
VERTEX
  5
5C6
  8
DATA
  6
CONTINUOUS
 62
     7
 10
329.76227479135991
 20
867.34848776330705
 30
0.0
  0
SEQEND
  5
5C7
  8
DATA
  6
CONTINUOUS
 62
     7
  0
POLYLINE
  5
1F7
  8
DATA
  6
CONTINUOUS
 62
     7
 66
     1
 10
0.0
 20
0.0
 30
0.0
  0
VERTEX
  5
5C8
  8
DATA
  6
CONTINUOUS
 62
     7
 10
329.76227479135991
 20
866.54848776330687
 30
0.0
  0
VERTEX
  5
5C9
  8
DATA
  6
CONTINUOUS
 62
     7
 10
329.76227479135991
 20
864.44848776330684
 30
0.0
  0
VERTEX
  5
5CA
  8
DATA
  6
CONTINUOUS
 62
     7
 10
328.96227479135968
 20
864.44848776330684
 30
0.0
  0
VERTEX
  5
5CB
  8
DATA
  6
CONTINUOUS
 62
     7
 10
328.96227479135968
 20
866.54848776330687
 30
0.0
  0
SEQEND
  5
5CC
  8
DATA
  6
CONTINUOUS
 62
     7
  0
POLYLINE
  5
1FE
  8
DATA
  6
CONTINUOUS
 62
     7
 66
     1
 10
0.0
 20
0.0
 30
0.0
 70
     1
  0
VERTEX
  5
5CD
  8
DATA
  6
CONTINUOUS
 62
     7
 10
330.22255922183172
 20
866.1890599526572
 30
0.0
  0
VERTEX
  5
5CE
  8
DATA
  6
CONTINUOUS
 62
     7
 10
331.22255922183189
 20
866.1890599526572
 30
0.0
  0
VERTEX
  5
5CF
  8
DATA
  6
CONTINUOUS
 62
     7
 10
331.22255922183189
 20
865.1890599526572
 30
0.0
  0
VERTEX
  5
5D0
  8
DATA
  6
CONTINUOUS
 62
     7
 10
330.22255922183172
 20
865.1890599526572
 30
0.0
  0
SEQEND
  5
5D1
  8
DATA
  6
CONTINUOUS
 62
     7
  0
POLYLINE
  5
205
  8
DATA
  6
CONTINUOUS
 62
     7
 66
     1
 10
0.0
 20
0.0
 30
0.0
 70
     1
  0
VERTEX
  5
5D2
  8
DATA
  6
CONTINUOUS
 62
     7
 10
327.50199036088787
 20
866.1890599526572
 30
0.0
  0
VERTEX
  5
5D3
  8
DATA
  6
CONTINUOUS
 62
     7
 10
328.50199036088787
 20
866.1890599526572
 30
0.0
  0
VERTEX
  5
5D4
  8
DATA
  6
CONTINUOUS
 62
     7
 10
328.50199036088787
 20
865.1890599526572
 30
0.0
  0
VERTEX
  5
5D5
  8
DATA
  6
CONTINUOUS
 62
     7
 10
327.50199036088787
 20
865.1890599526572
 30
0.0
  0
SEQEND
  5
5D6
  8
DATA
  6
CONTINUOUS
 62
     7
  0
POLYLINE
  5
20C
  8
DATA
  6
CONTINUOUS
 62
     7
 66
     1
 10
0.0
 20
0.0
 30
0.0
 70
     1
  0
VERTEX
  5
5D7
  8
DATA
  6
CONTINUOUS
 62
     7
 10
330.22255922183172
 20
868.70791557395705
 30
0.0
  0
VERTEX
  5
5D8
  8
DATA
  6
CONTINUOUS
 62
     7
 10
331.22255922183189
 20
868.70791557395705
 30
0.0
  0
VERTEX
  5
5D9
  8
DATA
  6
CONTINUOUS
 62
     7
 10
331.22255922183189
 20
867.70791557395705
 30
0.0
  0
VERTEX
  5
5DA
  8
DATA
  6
CONTINUOUS
 62
     7
 10
330.22255922183172
 20
867.70791557395705
 30
0.0
  0
SEQEND
  5
5DB
  8
DATA
  6
CONTINUOUS
 62
     7
  0
POLYLINE
  5
213
  8
DATA
  6
CONTINUOUS
 62
     7
 66
     1
 10
0.0
 20
0.0
 30
0.0
 70
     1
  0
VERTEX
  5
5DC
  8
DATA
  6
CONTINUOUS
 62
     7
 10
327.50199036088787
 20
868.70791557395705
 30
0.0
  0
VERTEX
  5
5DD
  8
DATA
  6
CONTINUOUS
 62
     7
 10
328.50199036088787
 20
868.70791557395705
 30
0.0
  0
VERTEX
  5
5DE
  8
DATA
  6
CONTINUOUS
 62
     7
 10
328.50199036088787
 20
867.70791557395705
 30
0.0
  0
VERTEX
  5
5DF
  8
DATA
  6
CONTINUOUS
 62
     7
 10
327.50199036088787
 20
867.70791557395705
 30
0.0
  0
SEQEND
  5
5E0
  8
DATA
  6
CONTINUOUS
 62
     7
  0
LINE
  5
21A
  8
DATA
  6
CONTINUOUS
 62
     7
 10
349.4576466093074
 20
864.11859606879318
 30
0.0
 11
348.89872941185519
 21
869.96859606879309
 31
0.0
  0
LINE
  5
21B
  8
DATA
  6
CONTINUOUS
 62
     7
 10
325.5669029734126
 20
864.11859606879318
 30
0.0
 11
326.12582017086493
 21
869.96859606879309
 31
0.0
  0
ARC
  5
21C
  8
DATA
  6
CONTINUOUS
 62
     7
 10
348.4621796785521
 20
864.02348776330689
 30
0.0
 40
0.9999999999999431
 50
270.0
 51
5.4575534851073844
  0
ARC
  5
21D
  8
DATA
  6
CONTINUOUS
 62
     7
 10
326.56236990416789
 20
864.02348776330689
 30
0.0
 40
0.9999999999999703
 50
174.54244651489549
 51
270.0
  0
ARC
  5
21E
  8
DATA
  6
CONTINUOUS
 62
     7
 10
347.90326248109977
 20
869.87348776330703
 30
0.0
 40
1.000000000000026
 50
5.4575534851041603
 51
89.999999999999986
  0
ARC
  5
21F
  8
DATA
  6
CONTINUOUS
 62
     7
 10
327.12128710162028
 20
869.87348776330703
 30
0.0
 40
1.0
 50
90.0
 51
174.54244651489549
  0
CIRCLE
  5
220
  8
DATA
  6
CONTINUOUS
 62
     7
 10
366.0544960992313
 20
867.04042440736396
 30
0.0
 40
1.175000000000068
  0
POLYLINE
  5
221
  8
DATA
  6
CONTINUOUS
 62
     7
 66
     1
 10
0.0
 20
0.0
 30
0.0
 70
     1
  0
VERTEX
  5
5E1
  8
DATA
  6
CONTINUOUS
 62
     7
 10
366.0544960992313
 20
864.34042440736425
 30
0.0
  0
VERTEX
  5
5E2
  8
DATA
  6
CONTINUOUS
 62
     7
 10
368.39276468944922
 20
865.69042440736416
 30
0.0
  0
VERTEX
  5
5E3
  8
DATA
  6
CONTINUOUS
 62
     7
 10
368.39276468944922
 20
868.39042440736387
 30
0.0
  0
VERTEX
  5
5E4
  8
DATA
  6
CONTINUOUS
 62
     7
 10
366.0544960992313
 20
869.740424407364
 30
0.0
  0
VERTEX
  5
5E5
  8
DATA
  6
CONTINUOUS
 62
     7
 10
363.71622750901338
 20
868.39042440736387
 30
0.0
  0
VERTEX
  5
5E6
  8
DATA
  6
CONTINUOUS
 62
     7
 10
363.71622750901338
 20
865.69042440736416
 30
0.0
  0
SEQEND
  5
5E7
  8
DATA
  6
CONTINUOUS
 62
     7
  0
CIRCLE
  5
22A
  8
DATA
  6
CONTINUOUS
 62
     7
 10
391.0544960992317
 20
867.04042440736396
 30
0.0
 40
1.175000000000068
  0
POLYLINE
  5
22B
  8
DATA
  6
CONTINUOUS
 62
     7
 66
     1
 10
0.0
 20
0.0
 30
0.0
 70
     1
  0
VERTEX
  5
5E8
  8
DATA
  6
CONTINUOUS
 62
     7
 10
391.0544960992317
 20
864.34042440736425
 30
0.0
  0
VERTEX
  5
5E9
  8
DATA
  6
CONTINUOUS
 62
     7
 10
393.39276468944962
 20
865.69042440736416
 30
0.0
  0
VERTEX
  5
5EA
  8
DATA
  6
CONTINUOUS
 62
     7
 10
393.39276468944962
 20
868.39042440736387
 30
0.0
  0
VERTEX
  5
5EB
  8
DATA
  6
CONTINUOUS
 62
     7
 10
391.0544960992317
 20
869.740424407364
 30
0.0
  0
VERTEX
  5
5EC
  8
DATA
  6
CONTINUOUS
 62
     7
 10
388.71622750901361
 20
868.39042440736387
 30
0.0
  0
VERTEX
  5
5ED
  8
DATA
  6
CONTINUOUS
 62
     7
 10
388.71622750901361
 20
865.69042440736416
 30
0.0
  0
SEQEND
  5
5EE
  8
DATA
  6
CONTINUOUS
 62
     7
  0
LINE
  5
234
  8
DATA
  6
CONTINUOUS
 62
     7
 10
372.95273288904298
 20
871.04042440736407
 30
0.0
 11
384.15625930942019
 21
871.04042440736407
 31
0.0
  0
LINE
  5
235
  8
DATA
  6
CONTINUOUS
 62
     7
 10
384.96875930942008
 20
863.04042440736407
 30
0.0
 11
372.14023288904292
 21
863.04042440736407
 31
0.0
  0
LINE
  5
236
  8
DATA
  6
CONTINUOUS
 62
     7
 10
385.53947615667181
 20
869.85655203974704
 30
0.0
 11
386.3519761566717
 21
864.65655203974734
 31
0.0
  0
LINE
  5
237
  8
DATA
  6
CONTINUOUS
 62
     7
 10
370.7570160417913
 20
864.65655203974734
 30
0.0
 11
371.56951604179142
 21
869.85655203974704
 31
0.0
  0
CIRCLE
  5
238
  8
DATA
  6
CONTINUOUS
 62
     7
 10
378.5811258697064
 20
865.40411623621048
 30
0.0
 40
0.5
  0
ARC
  5
239
  8
DATA
  6
CONTINUOUS
 62
     7
 10
384.96875930942008
 20
864.44042440736405
 30
0.0
 40
1.4000000000000341
 50
270.0
 51
8.8806591505205574
  0
ARC
  5
23A
  8
DATA
  6
CONTINUOUS
 62
     7
 10
372.14023288904292
 20
864.44042440736405
 30
0.0
 40
1.4000000000000481
 50
171.1193408494797
 51
270.0
  0
ARC
  5
23B
  8
DATA
  6
CONTINUOUS
 62
     7
 10
384.15625930942019
 20
869.64042440736375
 30
0.0
 40
1.400000000000019
 50
8.8806591505205308
 51
90.0
  0
ARC
  5
23C
  8
DATA
  6
CONTINUOUS
 62
     7
 10
372.95273288904298
 20
869.64042440736375
 30
0.0
 40
1.4000000000000341
 50
90.0
 51
171.1193408494797
  0
LINE
  5
23D
  8
DATA
  6
CONTINUOUS
 62
     7
 10
371.39569216857728
 20
873.04042440736373
 30
0.0
 11
385.71330002988572
 21
873.04042440736373
 31
0.0
  0
LINE
  5
23E
  8
DATA
  6
CONTINUOUS
 62
     7
 10
386.73214175048201
 20
861.04042440736396
 30
0.0
 11
370.37685044798093
 21
861.04042440736396
 31
0.0
  0
LINE
  5
23F
  8
DATA
  6
CONTINUOUS
 62
     7
 10
388.70398697762528
 20
863.37482895307505
 30
0.0
 11
387.29077621160019
 21
871.70794804393267
 31
0.0
  0
LINE
  5
240
  8
DATA
  6
CONTINUOUS
 62
     7
 10
368.40500522083772
 20
863.37482895307505
 30
0.0
 11
369.8182159868627
 21
871.70794804393267
 31
0.0
  0
ARC
  5
241
  8
DATA
  6
CONTINUOUS
 62
     7
 10
386.73214175048201
 20
863.04042440736407
 30
0.0
 40
2.000000000000056
 50
270.0
 51
9.6251929436219843
  0
ARC
  5
242
  8
DATA
  6
CONTINUOUS
 62
     7
 10
370.37685044798093
 20
863.04042440736407
 30
0.0
 40
1.999999999999968
 50
170.37480705637719
 51
270.0
  0
ARC
  5
243
  8
DATA
  6
CONTINUOUS
 62
     7
 10
385.71330002988572
 20
871.44042440736393
 30
0.0
 40
1.600000000000114
 50
9.6251929436206716
 51
89.999999999995936
  0
ARC
  5
244
  8
DATA
  6
CONTINUOUS
 62
     7
 10
371.39569216857728
 20
871.44042440736393
 30
0.0
 40
1.599999999999965
 50
90.0
 51
170.3748070563783
  0
CIRCLE
  5
245
  8
DATA
  6
CONTINUOUS
 62
     7
 10
381.08112586970628
 20
865.40411623621048
 30
0.0
 40
0.5
  0
CIRCLE
  5
246
  8
DATA
  6
CONTINUOUS
 62
     7
 10
383.58112586970628
 20
865.40411623621048
 30
0.0
 40
0.5
  0
CIRCLE
  5
247
  8
DATA
  6
CONTINUOUS
 62
     7
 10
376.0811258697064
 20
865.40411623621048
 30
0.0
 40
0.5
  0
CIRCLE
  5
248
  8
DATA
  6
CONTINUOUS
 62
     7
 10
373.58112586970628
 20
865.40411623621048
 30
0.0
 40
0.5
  0
CIRCLE
  5
249
  8
DATA
  6
CONTINUOUS
 62
     7
 10
379.7766370457777
 20
869.0226366549731
 30
0.0
 40
0.5
  0
CIRCLE
  5
24A
  8
DATA
  6
CONTINUOUS
 62
     7
 10
382.27663704577782
 20
869.0226366549731
 30
0.0
 40
0.5
  0
CIRCLE
  5
24B
  8
DATA
  6
CONTINUOUS
 62
     7
 10
377.27663704577782
 20
869.0226366549731
 30
0.0
 40
0.5
  0
CIRCLE
  5
24C
  8
DATA
  6
CONTINUOUS
 62
     7
 10
374.77663704577782
 20
869.0226366549731
 30
0.0
 40
0.5
  0
TEXT
  5
24D
  8
DATA
 62
     7
 10
383.79130224865401
 20
877.88350555178056
 30
0.0
 40
2.4432617187500001
  1
RS-232
 50
180.0
 41
0.7
 11
383.79130224865401
 21
875.44024383303065
 31
0.0
 73
     3
  0
TEXT
  5
24E
  8
DATA
 62
     7
 10
342.27175050984329
 20
877.88350555178056
 30
0.0
 40
2.4432617187500001
  1
DVI In
 50
180.0
 41
0.7
 11
342.27175050984329
 21
875.44024383303065
 31
0.0
 73
     3
  0
TEXT
  5
24F
  8
DATA
 62
     7
 10
414.29740509659479
 20
877.88350555178056
 30
0.0
 40
2.4432617187500001
  1
Optical In
 50
180.0
 41
0.7
 11
414.29740509659479
 21
875.44024383303065
 31
0.0
 73
     3
  0
TEXT
  5
250
  8
DATA
 62
     7
 10
431.2536424863477
 20
877.88350555178056
 30
0.0
 40
2.4432617187500001
  1
Coax In
 50
180.0
 41
0.7
 11
431.2536424863477
 21
875.44024383303065
 31
0.0
 73
     3
  0
TEXT
  5
251
  8
DATA
 62
     7
 10
459.9838377963186
 20
877.88350555178056
 30
0.0
 40
2.4432617187500001
  1
Audio In
 50
180.0
 41
0.7
 11
459.9838377963186
 21
875.44024383303065
 31
0.0
 73
     3
  0
TEXT
  5
252
  8
DATA
 62
     7
 10
489.5298945396612
 20
877.88350555178056
 30
0.0
 40
2.4432617187500001
  1
+12V DC
 50
180.0
 41
0.7
 11
489.5298945396612
 21
875.44024383303065
 31
0.0
 73
     3
  0
CIRCLE
  5
253
  8
DATA
  6
CONTINUOUS
 62
     7
 10
453.5
 20
860.01665243857394
 30
0.0
 40
2.5999999999999939
  0
LINE
  5
254
  8
DATA
  6
CONTINUOUS
 62
     7
 10
452.5
 20
861.01665243857394
 30
0.0
 11
454.49999999999989
 21
859.01665243857406
 31
0.0
  0
LINE
  5
255
  8
DATA
  6
CONTINUOUS
 62
     7
 10
454.5
 20
861.01665243857394
 30
0.0
 11
452.5
 21
859.0166524385736
 31
0.0
  0
CIRCLE
  5
256
  8
DATA
  6
CONTINUOUS
 62
     7
 10
406.4282820015278
 20
856.30951079328725
 30
0.0
 40
2.5999999999999939
  0
LINE
  5
257
  8
DATA
  6
CONTINUOUS
 62
     7
 10
405.4282820015278
 20
857.30951079328713
 30
0.0
 11
407.4282820015278
 21
855.30951079328725
 31
0.0
  0
LINE
  5
258
  8
DATA
  6
CONTINUOUS
 62
     7
 10
407.4282820015278
 20
857.30951079328713
 30
0.0
 11
405.4282820015278
 21
855.30951079328725
 31
0.0
  0
TEXT
  5
259
  8
DATA
 62
     7
 10
297.88815555060307
 20
877.88350555178056
 30
0.0
 40
2.4432617187500001
  1
1
 50
180.0
 41
0.7
 11
297.88815555060307
 21
875.44024383303065
 31
0.0
 73
     3
  0
TEXT
  5
25A
  8
DATA
 62
     7
 10
291.80807765814927
 20
877.88350555178056
 30
0.0
 40
2.4432617187500001
  1
2
 50
180.0
 41
0.7
 11
291.80807765814927
 21
875.44024383303065
 31
0.0
 73
     3
  0
TEXT
  5
25B
  8
DATA
 62
     7
 10
267.88815555060307
 20
877.88350555178056
 30
0.0
 40
2.4432617187500001
  1
3
 50
180.0
 41
0.7
 11
267.88815555060307
 21
875.44024383303065
 31
0.0
 73
     3
  0
TEXT
  5
25C
  8
DATA
 62
     7
 10
261.80807765814927
 20
877.88350555178056
 30
0.0
 40
2.4432617187500001
  1
4
 50
180.0
 41
0.7
 11
261.80807765814927
 21
875.44024383303065
 31
0.0
 73
     3
  0
TEXT
  5
25D
  8
DATA
 62
     7
 10
294.78398442150922
 20
860.23049999975558
 30
0.0
 40
2.4432617187500001
  1
A
 50
180.0
 41
0.7
 11
294.78398442150922
 21
857.78723828100556
 31
0.0
 73
     3
  0
TEXT
  5
25E
  8
DATA
 62
     7
 10
264.7839844215091
 20
860.23049999975558
 30
0.0
 40
2.4432617187500001
  1
B
 50
180.0
 41
0.7
 11
264.7839844215091
 21
857.78723828100556
 31
0.0
 73
     3
  0
TEXT
  5
25F
  8
DATA
 62
     7
 10
461.15088392662722
 20
859.12494651699114
 30
0.0
 40
2.4432617187500001
  1
R
 50
180.0
 41
0.7
 11
461.15088392662722
 21
856.68168479824124
 31
0.0
 73
     3
  0
TEXT
  5
260
  8
DATA
 62
     7
 10
447.37051224689583
 20
859.12494651699114
 30
0.0
 40
2.4432617187500001
  1
L
 50
180.0
 41
0.7
 11
447.37051224689583
 21
856.68168479824124
 31
0.0
 73
     3
  0
LINE
  5
261
  8
DATA
  6
CONTINUOUS
 62
     7
 10
497.5
 20
699.5
 30
0.0
 11
237.5
 21
699.5
 31
0.0
  0
LINE
  5
262
  8
DATA
  6
CONTINUOUS
 62
     7
 10
237.5
 20
624.9999999996262
 30
0.0
 11
237.5
 21
654.4999999996262
 31
0.0
  0
LINE
  5
263
  8
DATA
  6
CONTINUOUS
 62
     7
 10
497.5
 20
624.9999999996262
 30
0.0
 11
237.5
 21
624.9999999996262
 31
0.0
  0
LINE
  5
264
  8
DATA
  6
CONTINUOUS
 62
     7
 10
497.5
 20
654.4999999996262
 30
0.0
 11
497.5
 21
624.9999999996262
 31
0.0
  0
LINE
  5
265
  8
DATA
  6
CONTINUOUS
 62
     7
 10
239.0
 20
655.9999999996262
 30
0.0
 11
496.0
 21
655.9999999996262
 31
0.0
  0
LINE
  5
266
  8
DATA
  6
CONTINUOUS
 62
     7
 10
240.2062860219562
 20
621.4999999996262
 30
0.0
 11
239.05628602195571
 21
624.9999999996262
 31
0.0
  0
LINE
  5
267
  8
DATA
  6
CONTINUOUS
 62
     7
 10
250.20628602195609
 20
621.4999999996262
 30
0.0
 11
251.35628602195649
 21
624.9999999996262
 31
0.0
  0
LINE
  5
268
  8
DATA
  6
CONTINUOUS
 62
     7
 10
240.2062860219562
 20
621.4999999996262
 30
0.0
 11
250.20628602195609
 21
621.4999999996262
 31
0.0
  0
LINE
  5
269
  8
DATA
  6
CONTINUOUS
 62
     7
 10
494.79371397804391
 20
621.4999999996262
 30
0.0
 11
495.94371397804417
 21
624.9999999996262
 31
0.0
  0
LINE
  5
26A
  8
DATA
  6
CONTINUOUS
 62
     7
 10
484.79371397804391
 20
621.4999999996262
 30
0.0
 11
483.64371397804342
 21
624.9999999996262
 31
0.0
  0
LINE
  5
26B
  8
DATA
  6
CONTINUOUS
 62
     7
 10
494.79371397804391
 20
621.4999999996262
 30
0.0
 11
484.79371397804391
 21
621.4999999996262
 31
0.0
  0
LINE
  5
26C
  8
DATA
  6
CONTINUOUS
 62
     7
 10
393.1602094550866
 20
822.0
 30
0.0
 11
388.48367227465059
 21
822.0
 31
0.0
  0
LINE
  5
26D
  8
DATA
  6
CONTINUOUS
 62
     7
 10
387.2238370861873
 20
822.0
 30
0.0
 11
369.40296408808791
 21
822.0
 31
0.0
  0
LINE
  5
26E
  8
DATA
  6
CONTINUOUS
 62
     7
 10
393.1602094550866
 20
822.0
 30
0.0
 11
393.1602094550866
 21
817.49999999963893
 31
0.0
  0
LINE
  5
26F
  8
DATA
  6
CONTINUOUS
 62
     7
 10
368.1602094550866
 20
822.0
 30
0.0
 11
368.1602094550866
 21
817.49999999963893
 31
0.0
  0
LINE
  5
270
  8
DATA
  6
CONTINUOUS
 62
     7
 10
388.48367227465059
 20
822.0
 30
0.0
 11
388.48367227465059
 21
817.49999999963893
 31
0.0
  0
LINE
  5
271
  8
DATA
  6
CONTINUOUS
 62
     7
 10
369.40296408808791
 20
822.0
 30
0.0
 11
369.40296408808791
 21
817.49999999963893
 31
0.0
  0
LINE
  5
272
  8
DATA
  6
CONTINUOUS
 62
     7
 10
387.2238370861873
 20
822.0
 30
0.0
 11
387.2238370861873
 21
817.49999999963893
 31
0.0
  0
LINE
  5
273
  8
DATA
  6
CONTINUOUS
 62
     7
 10
363.4836722746507
 20
822.0
 30
0.0
 11
363.4836722746507
 21
817.49999999963893
 31
0.0
  0
LINE
  5
274
  8
DATA
  6
CONTINUOUS
 62
     7
 10
363.4836722746507
 20
822.0
 30
0.0
 11
368.1602094550866
 21
822.0
 31
0.0
  0
LINE
  5
275
  8
DATA
  6
CONTINUOUS
 62
     7
 10
318.77043616546808
 20
822.50000000029991
 30
0.0
 11
318.77043616546808
 21
817.50000000030002
 31
0.0
  0
LINE
  5
276
  8
DATA
  6
CONTINUOUS
 62
     7
 10
323.4469733459041
 20
822.50000000029991
 30
0.0
 11
323.4469733459041
 21
817.50000000030002
 31
0.0
  0
LINE
  5
277
  8
DATA
  6
CONTINUOUS
 62
     7
 10
325.40897770197267
 20
822.50000000029991
 30
0.0
 11
325.40897770197267
 21
817.50000000030002
 31
0.0
  0
LINE
  5
278
  8
DATA
  6
CONTINUOUS
 62
     7
 10
349.29591103645521
 20
822.50000000029991
 30
0.0
 11
349.29591103645521
 21
817.50000000030002
 31
0.0
  0
LINE
  5
279
  8
DATA
  6
CONTINUOUS
 62
     7
 10
351.2704361654686
 20
822.50000000029991
 30
0.0
 11
351.2704361654686
 21
817.50000000030002
 31
0.0
  0
LINE
  5
27A
  8
DATA
  6
CONTINUOUS
 62
     7
 10
355.9469733459045
 20
822.50000000029991
 30
0.0
 11
355.9469733459045
 21
817.50000000030002
 31
0.0
  0
LINE
  5
27B
  8
DATA
  6
CONTINUOUS
 62
     7
 10
355.9469733459045
 20
822.50000000029991
 30
0.0
 11
351.2704361654686
 21
822.50000000029991
 31
0.0
  0
LINE
  5
27C
  8
DATA
  6
CONTINUOUS
 62
     7
 10
349.29591103645521
 20
822.50000000029991
 30
0.0
 11
325.40897770197267
 21
822.50000000029991
 31
0.0
  0
LINE
  5
27D
  8
DATA
  6
CONTINUOUS
 62
     7
 10
323.4469733459041
 20
822.50000000029991
 30
0.0
 11
318.77043616546808
 21
822.50000000029991
 31
0.0
  0
ARC
  5
27E
  8
DATA
  6
CONTINUOUS
 62
     7
 10
406.4282820015278
 20
817.1849599352787
 30
0.0
 40
2.5999999999999961
 50
6.9595884388737197
 51
173.04041156112629
  0
ARC
  5
27F
  8
DATA
  6
CONTINUOUS
 62
     7
 10
453.50606031136198
 20
817.1849599352787
 30
0.0
 40
2.5999999999999961
 50
6.9595884388737197
 51
173.04041156112629
  0
LINE
  5
280
  8
DATA
  6
CONTINUOUS
 62
     7
 10
421.50450476933918
 20
822.49999999999989
 30
0.0
 11
429.4982060801745
 21
822.49999999999989
 31
0.0
  0
LINE
  5
281
  8
DATA
  6
CONTINUOUS
 62
     7
 10
421.50450476933918
 20
822.49999999999989
 30
0.0
 11
421.50450476933918
 21
817.5
 31
0.0
  0
LINE
  5
282
  8
DATA
  6
CONTINUOUS
 62
     7
 10
429.4982060801745
 20
822.49999999999989
 30
0.0
 11
429.4982060801745
 21
817.5
 31
0.0
  0
LINE
  5
283
  8
DATA
  6
CONTINUOUS
 62
     7
 10
442.49999999999989
 20
825.0
 30
0.0
 11
442.49999999999989
 21
817.5
 31
0.0
  0
LINE
  5
284
  8
DATA
  6
CONTINUOUS
 62
     7
 10
450.49999999999989
 20
825.0
 30
0.0
 11
450.49999999999989
 21
817.5
 31
0.0
  0
LINE
  5
285
  8
DATA
  6
CONTINUOUS
 62
     7
 10
456.5
 20
825.0
 30
0.0
 11
456.5
 21
817.5
 31
0.0
  0
LINE
  5
286
  8
DATA
  6
CONTINUOUS
 62
     7
 10
464.5
 20
825.0
 30
0.0
 11
464.5
 21
817.5
 31
0.0
  0
LINE
  5
287
  8
DATA
  6
CONTINUOUS
 62
     7
 10
442.49999999999989
 20
825.0
 30
0.0
 11
450.49999999999989
 21
825.0
 31
0.0
  0
LINE
  5
288
  8
DATA
  6
CONTINUOUS
 62
     7
 10
456.5
 20
825.0
 30
0.0
 11
464.5
 21
825.0
 31
0.0
  0
LINE
  5
289
  8
DATA
  6
CONTINUOUS
 62
     7
 10
401.49999999999989
 20
817.67469508511874
 30
0.0
 11
401.49999999999989
 21
817.5
 31
0.0
  0
LINE
  5
28A
  8
DATA
  6
CONTINUOUS
 62
     7
 10
411.5
 20
817.67469508511874
 30
0.0
 11
411.5
 21
817.5
 31
0.0
  0
LINE
  5
28B
  8
DATA
  6
CONTINUOUS
 62
     7
 10
401.49999999999989
 20
817.67469508511874
 30
0.0
 11
403.87482170557439
 21
817.67469508511874
 31
0.0
  0
LINE
  5
28C
  8
DATA
  6
CONTINUOUS
 62
     7
 10
408.98174229748111
 20
817.67469508511874
 30
0.0
 11
411.5
 21
817.67469508511874
 31
0.0
  0
LINE
  5
28D
  8
DATA
  6
CONTINUOUS
 62
     7
 10
257.5
 20
639.9999999996262
 30
0.0
 11
257.5
 21
634.9999999996262
 31
0.0
  0
LINE
  5
28E
  8
DATA
  6
CONTINUOUS
 62
     7
 10
261.5
 20
639.9999999996262
 30
0.0
 11
261.5
 21
634.9999999996262
 31
0.0
  0
LINE
  5
28F
  8
DATA
  6
CONTINUOUS
 62
     7
 10
265.19999999999999
 20
639.9999999996262
 30
0.0
 11
265.19999999999999
 21
634.9999999996262
 31
0.0
  0
LINE
  5
290
  8
DATA
  6
CONTINUOUS
 62
     7
 10
257.5
 20
634.9999999996262
 30
0.0
 11
265.19999999999999
 21
634.9999999996262
 31
0.0
  0
LINE
  5
291
  8
DATA
  6
CONTINUOUS
 62
     7
 10
257.5
 20
639.9999999996262
 30
0.0
 11
265.19999999999999
 21
639.9999999996262
 31
0.0
  0
CIRCLE
  5
292
  8
DATA
  6
CONTINUOUS
 62
     7
 10
291.5
 20
638.89471657506272
 30
0.0
 40
3.1999999999999882
  0
TEXT
  5
293
  8
DATA
 62
     7
 10
255.90340753745309
 20
630.90959408299102
 30
0.0
 40
2.1717881944444448
  1
DVI/HDMI
 41
0.7
 11
255.90340753745309
 21
633.08138227743541
 31
0.0
 73
     3
  0
CIRCLE
  5
294
  8
DATA
  6
CONTINUOUS
 62
     7
 10
309.5
 20
638.89471657506272
 30
0.0
 40
1.5
  0
CIRCLE
  5
295
  8
DATA
  6
CONTINUOUS
 62
     7
 10
321.5
 20
638.89471657506272
 30
0.0
 40
1.5
  0
CIRCLE
  5
296
  8
DATA
  6
CONTINUOUS
 62
     7
 10
333.5
 20
638.89471657506272
 30
0.0
 40
1.5
  0
TEXT
  5
297
  8
DATA
 62
     7
 10
286.91008489950798
 20
632.69003156853739
 30
0.0
 40
2.1717881944444448
  1
Select
 41
0.7
 11
286.91008489950798
 21
634.8618197629819
 31
0.0
 73
     3
  0
TEXT
  5
298
  8
DATA
 62
     7
 10
285.58638980860519
 20
629.41251007108644
 30
0.0
 40
2.1717881944444448
  1
Audio In
 41
0.7
 11
285.58638980860519
 21
631.58429826553083
 31
0.0
 73
     3
  0
TEXT
  5
299
  8
DATA
 62
     7
 10
305.79649984647739
 20
633.64491897793209
 30
0.0
 40
2.1717881944444448
  1
Audio
 41
0.7
 11
305.79649984647739
 21
635.81670717237637
 31
0.0
 73
     3
  0
TEXT
  5
29A
  8
DATA
 62
     7
 10
318.78303469449003
 20
633.64491897793209
 30
0.0
 40
2.1717881944444448
  1
Coax
 41
0.7
 11
318.78303469449003
 21
635.81670717237637
 31
0.0
 73
     3
  0
TEXT
  5
29B
  8
DATA
 62
     7
 10
328.27185508136711
 20
633.64491897793209
 30
0.0
 40
2.1717881944444448
  1
Optical
 41
0.7
 11
328.27185508136711
 21
635.81670717237637
 31
0.0
 73
     3
  0
LINE
  5
29C
  8
DATA
  6
CONTINUOUS
 62
     7
 10
450.0
 20
624.9999999996262
 30
0.0
 11
429.80000000000001
 21
624.9999999996262
 31
0.0
  0
CIRCLE
  5
29D
  8
DATA
  6
CONTINUOUS
 62
     7
 10
439.5
 20
636.99999999962608
 30
0.0
 40
2.0
  0
CIRCLE
  5
29E
  8
DATA
  6
CONTINUOUS
 62
     7
 10
468.5
 20
639.9999999996262
 30
0.0
 40
1.5
  0
CIRCLE
  5
29F
  8
DATA
  6
CONTINUOUS
 62
     7
 10
476.49999999999989
 20
639.9999999996262
 30
0.0
 40
1.5
  0
CIRCLE
  5
2A0
  8
DATA
  6
CONTINUOUS
 62
     7
 10
476.49999999999989
 20
634.9999999996262
 30
0.0
 40
1.5
  0
CIRCLE
  5
2A1
  8
DATA
  6
CONTINUOUS
 62
     7
 10
468.5
 20
634.9999999996262
 30
0.0
 40
1.5
  0
TEXT
  5
2A2
  8
DATA
 62
     7
 10
435.84173933807602
 20
631.03920271559457
 30
0.0
 40
2.1717881944444448
  1
Reset
 41
0.7
 11
435.84173933807602
 21
633.21099091003884
 31
0.0
 73
     3
  0
TEXT
  5
2A3
  8
DATA
 62
     7
 10
479.14298814358852
 20
633.99751172317224
 30
0.0
 40
2.1717881944444448
  1
Optic A
 41
0.7
 11
479.14298814358852
 21
636.16929991761663
 31
0.0
 73
     3
  0
TEXT
  5
2A4
  8
DATA
 62
     7
 10
479.14298814358852
 20
638.99751172317224
 30
0.0
 40
2.1717881944444448
  1
Power
 41
0.7
 11
479.14298814358852
 21
641.16929991761663
 31
0.0
 73
     3
  0
TEXT
  5
2A5
  8
DATA
 62
     7
 10
455.81036124538213
 20
639.18814987233804
 30
0.0
 40
2.1717881944444448
  1
Optic B
 41
0.7
 11
455.81036124538213
 21
641.35993806678255
 31
0.0
 73
     3
  0
TEXT
  5
2A6
  8
DATA
 62
     7
 10
457.34060232765643
 20
634.18814987233804
 30
0.0
 40
2.1717881944444448
  1
Status
 41
0.7
 11
457.34060232765643
 21
636.35993806678255
 31
0.0
 73
     3
  0
TEXT
  5
2A7
  8
DATA
 62
     7
 10
446.60000000000002
 20
647.41527777777765
 30
0.0
 40
6.7868381076388884
  1
DVI1600HDS
 41
0.7
 11
446.60000000000002
 21
654.20211588541667
 31
0.0
 73
     3
  0
LINE
  5
2A8
  8
DATA
  6
CONTINUOUS
 62
     7
 10
586.29999999999995
 20
635.69471657506256
 30
0.0
 11
586.29999999999995
 21
642.09471657506288
 31
0.0
  0
LINE
  5
2A9
  8
DATA
  6
CONTINUOUS
 62
     7
 10
587.5
 20
642.09471657506288
 30
0.0
 11
586.29999999999995
 21
642.09471657506288
 31
0.0
  0
LINE
  5
2AA
  8
DATA
  6
CONTINUOUS
 62
     7
 10
587.5
 20
635.69471657506256
 30
0.0
 11
586.29999999999995
 21
635.69471657506256
 31
0.0
  0
LINE
  5
2AB
  8
DATA
  6
CONTINUOUS
 62
     7
 10
599.5
 20
625.0
 30
0.0
 11
599.5
 21
656.0
 31
0.0
  0
LINE
  5
2AC
  8
DATA
  6
CONTINUOUS
 62
     7
 10
613.76664908761848
 20
621.4999999996262
 30
0.0
 11
614.91664908761913
 21
624.9999999996262
 31
0.0
  0
LINE
  5
2AD
  8
DATA
  6
CONTINUOUS
 62
     7
 10
603.76664908761836
 20
621.4999999996262
 30
0.0
 11
602.61664908761838
 21
624.9999999996262
 31
0.0
  0
LINE
  5
2AE
  8
DATA
  6
CONTINUOUS
 62
     7
 10
613.76664908761848
 20
621.4999999996262
 30
0.0
 11
603.76664908761836
 21
621.4999999996262
 31
0.0
  0
LINE
  5
2AF
  8
DATA
  6
CONTINUOUS
 62
     7
 10
696.51546895808735
 20
621.4999999996262
 30
0.0
 11
697.66546895808767
 21
624.9999999996262
 31
0.0
  0
LINE
  5
2B0
  8
DATA
  6
CONTINUOUS
 62
     7
 10
686.51546895808724
 20
621.4999999996262
 30
0.0
 11
685.36546895808681
 21
624.9999999996262
 31
0.0
  0
LINE
  5
2B1
  8
DATA
  6
CONTINUOUS
 62
     7
 10
696.51546895808735
 20
621.4999999996262
 30
0.0
 11
686.51546895808724
 21
621.4999999996262
 31
0.0
  0
CIRCLE
  5
2B2
  8
DATA
  6
CONTINUOUS
 62
     7
 10
699.5
 20
636.0
 30
0.0
 40
2.5
  0
LINE
  5
2B3
  8
DATA
  6
CONTINUOUS
 62
     7
 10
698.49590837071514
 20
634.99590837071526
 30
0.0
 11
700.50409162928474
 21
637.00409162928486
 31
0.0
  0
LINE
  5
2B4
  8
DATA
  6
CONTINUOUS
 62
     7
 10
700.50409162928474
 20
634.99590837071526
 30
0.0
 11
698.49590837071514
 21
637.00409162928486
 31
0.0
  0
LINE
  5
2B5
  8
DATA
  6
CONTINUOUS
 62
     7
 10
725.0
 20
643.0
 30
0.0
 11
725.0
 21
635.0
 31
0.0
  0
LINE
  5
2B6
  8
DATA
  6
CONTINUOUS
 62
     7
 10
725.0
 20
635.0
 30
0.0
 11
717.49999999999989
 21
635.0
 31
0.0
  0
LINE
  5
2B7
  8
DATA
  6
CONTINUOUS
 62
     7
 10
717.49999999999989
 20
643.0
 30
0.0
 11
725.0
 21
643.0
 31
0.0
  0
ARC
  5
2B8
  8
DATA
  6
CONTINUOUS
 62
     7
 10
717.18495993549243
 20
650.30397309380271
 30
0.0
 40
2.599999999999989
 50
276.95958843887371
 51
83.040411561126874
  0
TEXT
  5
2B9
  8
DATA
 62
     7
 10
278.91313514585079
 20
554.44304296620055
 30
0.0
 40
13.57367621527778
  1
DVI1600HDS(センダー）
 41
0.7
 11
278.91313514585079
 21
568.01671918147827
 31
0.0
 73
     3
  0
LINE
  5
2BA
  8
DATA
  6
CONTINUOUS
 62
     7
 10
497.5
 20
505.9999999997558
 30
0.0
 11
497.5
 21
476.4999999997558
 31
0.0
  0
LINE
  5
2BB
  8
DATA
  6
CONTINUOUS
 62
     7
 10
237.5
 20
505.9999999997558
 30
0.0
 11
497.5
 21
505.9999999997558
 31
0.0
  0
LINE
  5
2BC
  8
DATA
  6
CONTINUOUS
 62
     7
 10
237.5
 20
476.4999999997558
 30
0.0
 11
237.5
 21
505.9999999997558
 31
0.0
  0
LINE
  5
2BD
  8
DATA
  6
CONTINUOUS
 62
     7
 10
496.0
 20
474.9999999997558
 30
0.0
 11
239.0
 21
474.9999999997558
 31
0.0
  0
LINE
  5
2BE
  8
DATA
  6
CONTINUOUS
 62
     7
 10
237.5
 20
312.5
 30
0.0
 11
237.5
 21
442.49999999999989
 31
0.0
  0
LINE
  5
2BF
  8
DATA
  6
CONTINUOUS
 62
     7
 10
497.5
 20
312.5
 30
0.0
 11
237.5
 21
312.5
 31
0.0
  0
LINE
  5
2C0
  8
DATA
  6
CONTINUOUS
 62
     7
 10
497.5
 20
442.49999999999989
 30
0.0
 11
497.5
 21
312.5
 31
0.0
  0
LINE
  5
2C1
  8
DATA
  6
CONTINUOUS
 62
     7
 10
237.5
 20
442.49999999999989
 30
0.0
 11
497.5
 21
442.49999999999989
 31
0.0
  0
LINE
  5
2C2
  8
DATA
  6
CONTINUOUS
 62
     7
 10
587.5
 20
250.0
 30
0.0
 11
587.5
 21
281.0
 31
0.0
  0
LINE
  5
2C3
  8
DATA
  6
CONTINUOUS
 62
     7
 10
717.49999999999989
 20
250.0
 30
0.0
 11
587.5
 21
250.0
 31
0.0
  0
LINE
  5
2C4
  8
DATA
  6
CONTINUOUS
 62
     7
 10
717.49999999999989
 20
281.0
 30
0.0
 11
717.49999999999989
 21
250.0
 31
0.0
  0
LINE
  5
2C5
  8
DATA
  6
CONTINUOUS
 62
     7
 10
587.5
 20
281.0
 30
0.0
 11
717.49999999999989
 21
281.0
 31
0.0
  0
LINE
  5
2C6
  8
DATA
  6
CONTINUOUS
 62
     7
 10
494.79371397804391
 20
509.4999999997558
 30
0.0
 11
495.94371397804417
 21
505.9999999997558
 31
0.0
  0
LINE
  5
2C7
  8
DATA
  6
CONTINUOUS
 62
     7
 10
484.79371397804391
 20
509.4999999997558
 30
0.0
 11
483.64371397804342
 21
505.9999999997558
 31
0.0
  0
LINE
  5
2C8
  8
DATA
  6
CONTINUOUS
 62
     7
 10
494.79371397804391
 20
509.4999999997558
 30
0.0
 11
484.79371397804391
 21
509.4999999997558
 31
0.0
  0
LINE
  5
2C9
  8
DATA
  6
CONTINUOUS
 62
     7
 10
240.2062860219562
 20
509.4999999997558
 30
0.0
 11
239.05628602195571
 21
505.9999999997558
 31
0.0
  0
LINE
  5
2CA
  8
DATA
  6
CONTINUOUS
 62
     7
 10
250.20628602195609
 20
509.4999999997558
 30
0.0
 11
251.35628602195649
 21
505.9999999997558
 31
0.0
  0
LINE
  5
2CB
  8
DATA
  6
CONTINUOUS
 62
     7
 10
240.2062860219562
 20
509.4999999997558
 30
0.0
 11
250.20628602195609
 21
509.4999999997558
 31
0.0
  0
LINE
  5
2CC
  8
DATA
  6
CONTINUOUS
 62
     7
 10
487.5
 20
487.4999999997558
 30
0.0
 11
487.5
 21
498.99999999975569
 31
0.0
  0
LINE
  5
2CD
  8
DATA
  6
CONTINUOUS
 62
     7
 10
478.5
 20
487.4999999997558
 30
0.0
 11
478.5
 21
498.99999999975569
 31
0.0
  0
LINE
  5
2CE
  8
DATA
  6
CONTINUOUS
 62
     7
 10
487.5
 20
498.99999999975569
 30
0.0
 11
478.5
 21
498.99999999975569
 31
0.0
  0
LINE
  5
2CF
  8
DATA
  6
CONTINUOUS
 62
     7
 10
487.5
 20
487.4999999997558
 30
0.0
 11
478.5
 21
487.4999999997558
 31
0.0
  0
CIRCLE
  5
2D0
  8
DATA
  6
CONTINUOUS
 62
     7
 10
483.0
 20
492.19999999975579
 30
0.0
 40
3.1500000000000048
  0
CIRCLE
  5
2D1
  8
DATA
  6
CONTINUOUS
 62
     7
 10
483.0
 20
492.19999999975579
 30
0.0
 40
0.2199999999999989
  0
POLYLINE
  5
2D2
  8
DATA
  6
CONTINUOUS
 62
     7
 66
     1
 10
0.0
 20
0.0
 30
0.0
 70
     1
  0
VERTEX
  5
5EF
  8
DATA
  6
CONTINUOUS
 62
     7
 10
257.5
 20
495.9999999997558
 30
0.0
  0
VERTEX
  5
5F0
  8
DATA
  6
CONTINUOUS
 62
     7
 10
270.5
 20
495.9999999997558
 30
0.0
  0
VERTEX
  5
5F1
  8
DATA
  6
CONTINUOUS
 62
     7
 10
270.5
 20
487.9999999997558
 30
0.0
  0
VERTEX
  5
5F2
  8
DATA
  6
CONTINUOUS
 62
     7
 10
257.5
 20
487.9999999997558
 30
0.0
  0
SEQEND
  5
5F3
  8
DATA
  6
CONTINUOUS
 62
     7
  0
POLYLINE
  5
2D9
  8
DATA
  6
CONTINUOUS
 62
     7
 66
     1
 10
0.0
 20
0.0
 30
0.0
 70
     1
  0
VERTEX
  5
5F4
  8
DATA
  6
CONTINUOUS
 62
     7
 10
287.5
 20
495.9999999997558
 30
0.0
  0
VERTEX
  5
5F5
  8
DATA
  6
CONTINUOUS
 62
     7
 10
300.5
 20
495.9999999997558
 30
0.0
  0
VERTEX
  5
5F6
  8
DATA
  6
CONTINUOUS
 62
     7
 10
300.5
 20
487.9999999997558
 30
0.0
  0
VERTEX
  5
5F7
  8
DATA
  6
CONTINUOUS
 62
     7
 10
287.5
 20
487.9999999997558
 30
0.0
  0
SEQEND
  5
5F8
  8
DATA
  6
CONTINUOUS
 62
     7
  0
CIRCLE
  5
2E0
  8
DATA
  6
CONTINUOUS
 62
     7
 10
460.5
 20
491.9999999997558
 30
0.0
 40
4.0
  0
CIRCLE
  5
2E1
  8
DATA
  6
CONTINUOUS
 62
     7
 10
460.5
 20
491.9999999997558
 30
0.0
 40
1.75
  0
CIRCLE
  5
2E2
  8
DATA
  6
CONTINUOUS
 62
     7
 10
460.5
 20
491.9999999997558
 30
0.0
 40
5.9499999999999877
  0
CIRCLE
  5
2E3
  8
DATA
  6
CONTINUOUS
 62
     7
 10
446.49999999999989
 20
491.9999999997558
 30
0.0
 40
4.0
  0
CIRCLE
  5
2E4
  8
DATA
  6
CONTINUOUS
 62
     7
 10
446.49999999999989
 20
491.9999999997558
 30
0.0
 40
1.75
  0
CIRCLE
  5
2E5
  8
DATA
  6
CONTINUOUS
 62
     7
 10
446.49999999999989
 20
491.9999999997558
 30
0.0
 40
5.9499999999999877
  0
CIRCLE
  5
2E6
  8
DATA
  6
CONTINUOUS
 62
     7
 10
425.49999999999989
 20
491.9999999997558
 30
0.0
 40
4.0
  0
CIRCLE
  5
2E7
  8
DATA
  6
CONTINUOUS
 62
     7
 10
425.49999999999989
 20
491.9999999997558
 30
0.0
 40
1.75
  0
CIRCLE
  5
2E8
  8
DATA
  6
CONTINUOUS
 62
     7
 10
425.49999999999989
 20
491.9999999997558
 30
0.0
 40
5.9499999999999877
  0
POLYLINE
  5
2E9
  8
DATA
  6
CONTINUOUS
 62
     7
 66
     1
 10
0.0
 20
0.0
 30
0.0
 70
     1
  0
VERTEX
  5
5F9
  8
DATA
  6
CONTINUOUS
 62
     7
 10
401.49999999999989
 20
496.9999999997558
 30
0.0
  0
VERTEX
  5
5FA
  8
DATA
  6
CONTINUOUS
 62
     7
 10
411.5
 20
496.9999999997558
 30
0.0
  0
VERTEX
  5
5FB
  8
DATA
  6
CONTINUOUS
 62
     7
 10
411.5
 20
486.9999999997558
 30
0.0
  0
VERTEX
  5
5FC
  8
DATA
  6
CONTINUOUS
 62
     7
 10
401.49999999999989
 20
486.9999999997558
 30
0.0
  0
SEQEND
  5
5FD
  8
DATA
  6
CONTINUOUS
 62
     7
  0
CIRCLE
  5
2F0
  8
DATA
  6
CONTINUOUS
 62
     7
 10
353.76227479136031
 20
491.9484877633069
 30
0.0
 40
1.175000000000068
  0
POLYLINE
  5
2F1
  8
DATA
  6
CONTINUOUS
 62
     7
 66
     1
 10
0.0
 20
0.0
 30
0.0
 70
     1
  0
VERTEX
  5
5FE
  8
DATA
  6
CONTINUOUS
 62
     7
 10
353.76227479136031
 20
489.24848776330703
 30
0.0
  0
VERTEX
  5
5FF
  8
DATA
  6
CONTINUOUS
 62
     7
 10
356.10054338157829
 20
490.59848776330682
 30
0.0
  0
VERTEX
  5
600
  8
DATA
  6
CONTINUOUS
 62
     7
 10
356.10054338157829
 20
493.29848776330692
 30
0.0
  0
VERTEX
  5
601
  8
DATA
  6
CONTINUOUS
 62
     7
 10
353.76227479136031
 20
494.64848776330689
 30
0.0
  0
VERTEX
  5
602
  8
DATA
  6
CONTINUOUS
 62
     7
 10
351.42400620114228
 20
493.29848776330692
 30
0.0
  0
VERTEX
  5
603
  8
DATA
  6
CONTINUOUS
 62
     7
 10
351.42400620114228
 20
490.59848776330682
 30
0.0
  0
SEQEND
  5
604
  8
DATA
  6
CONTINUOUS
 62
     7
  0
CIRCLE
  5
2FA
  8
DATA
  6
CONTINUOUS
 62
     7
 10
321.2622747913598
 20
491.9484877633069
 30
0.0
 40
1.175000000000068
  0
POLYLINE
  5
2FB
  8
DATA
  6
CONTINUOUS
 62
     7
 66
     1
 10
0.0
 20
0.0
 30
0.0
 70
     1
  0
VERTEX
  5
605
  8
DATA
  6
CONTINUOUS
 62
     7
 10
321.2622747913598
 20
489.24848776330703
 30
0.0
  0
VERTEX
  5
606
  8
DATA
  6
CONTINUOUS
 62
     7
 10
323.60054338157772
 20
490.59848776330682
 30
0.0
  0
VERTEX
  5
607
  8
DATA
  6
CONTINUOUS
 62
     7
 10
323.60054338157772
 20
493.29848776330692
 30
0.0
  0
VERTEX
  5
608
  8
DATA
  6
CONTINUOUS
 62
     7
 10
321.2622747913598
 20
494.64848776330689
 30
0.0
  0
VERTEX
  5
609
  8
DATA
  6
CONTINUOUS
 62
     7
 10
318.92400620114182
 20
493.29848776330692
 30
0.0
  0
VERTEX
  5
60A
  8
DATA
  6
CONTINUOUS
 62
     7
 10
318.92400620114182
 20
490.59848776330682
 30
0.0
  0
SEQEND
  5
60B
  8
DATA
  6
CONTINUOUS
 62
     7
  0
LINE
  5
304
  8
DATA
  6
CONTINUOUS
 62
     7
 10
348.4621796785521
 20
488.023487763307
 30
0.0
 11
326.56236990416789
 21
488.023487763307
 31
0.0
  0
LINE
  5
305
  8
DATA
  6
CONTINUOUS
 62
     7
 10
327.12128710162028
 20
495.87348776330691
 30
0.0
 11
347.90326248109977
 21
495.87348776330691
 31
0.0
  0
POLYLINE
  5
306
  8
DATA
  6
CONTINUOUS
 62
     7
 66
     1
 10
0.0
 20
0.0
 30
0.0
 70
     1
  0
VERTEX
  5
60C
  8
DATA
  6
CONTINUOUS
 62
     7
 10
346.98234096253958
 20
492.71348776330689
 30
0.0
  0
VERTEX
  5
60D
  8
DATA
  6
CONTINUOUS
 62
     7
 10
348.51234096253961
 20
492.71348776330689
 30
0.0
  0
VERTEX
  5
60E
  8
DATA
  6
CONTINUOUS
 62
     7
 10
348.51234096253961
 20
491.18348776330703
 30
0.0
  0
VERTEX
  5
60F
  8
DATA
  6
CONTINUOUS
 62
     7
 10
346.98234096253958
 20
491.18348776330703
 30
0.0
  0
SEQEND
  5
610
  8
DATA
  6
CONTINUOUS
 62
     7
  0
POLYLINE
  5
30D
  8
DATA
  6
CONTINUOUS
 62
     7
 66
     1
 10
0.0
 20
0.0
 30
0.0
 70
     1
  0
VERTEX
  5
611
  8
DATA
  6
CONTINUOUS
 62
     7
 10
344.98234096253958
 20
492.71348776330689
 30
0.0
  0
VERTEX
  5
612
  8
DATA
  6
CONTINUOUS
 62
     7
 10
346.51234096253961
 20
492.71348776330689
 30
0.0
  0
VERTEX
  5
613
  8
DATA
  6
CONTINUOUS
 62
     7
 10
346.51234096253961
 20
491.18348776330703
 30
0.0
  0
VERTEX
  5
614
  8
DATA
  6
CONTINUOUS
 62
     7
 10
344.98234096253958
 20
491.18348776330703
 30
0.0
  0
SEQEND
  5
615
  8
DATA
  6
CONTINUOUS
 62
     7
  0
POLYLINE
  5
314
  8
DATA
  6
CONTINUOUS
 62
     7
 66
     1
 10
0.0
 20
0.0
 30
0.0
 70
     1
  0
VERTEX
  5
616
  8
DATA
  6
CONTINUOUS
 62
     7
 10
342.98234096253969
 20
492.71348776330689
 30
0.0
  0
VERTEX
  5
617
  8
DATA
  6
CONTINUOUS
 62
     7
 10
344.51234096253961
 20
492.71348776330689
 30
0.0
  0
VERTEX
  5
618
  8
DATA
  6
CONTINUOUS
 62
     7
 10
344.51234096253961
 20
491.18348776330703
 30
0.0
  0
VERTEX
  5
619
  8
DATA
  6
CONTINUOUS
 62
     7
 10
342.98234096253969
 20
491.18348776330703
 30
0.0
  0
SEQEND
  5
61A
  8
DATA
  6
CONTINUOUS
 62
     7
  0
POLYLINE
  5
31B
  8
DATA
  6
CONTINUOUS
 62
     7
 66
     1
 10
0.0
 20
0.0
 30
0.0
 70
     1
  0
VERTEX
  5
61B
  8
DATA
  6
CONTINUOUS
 62
     7
 10
340.98234096253958
 20
492.71348776330689
 30
0.0
  0
VERTEX
  5
61C
  8
DATA
  6
CONTINUOUS
 62
     7
 10
342.5123409625395
 20
492.71348776330689
 30
0.0
  0
VERTEX
  5
61D
  8
DATA
  6
CONTINUOUS
 62
     7
 10
342.5123409625395
 20
491.18348776330703
 30
0.0
  0
VERTEX
  5
61E
  8
DATA
  6
CONTINUOUS
 62
     7
 10
340.98234096253958
 20
491.18348776330703
 30
0.0
  0
SEQEND
  5
61F
  8
DATA
  6
CONTINUOUS
 62
     7
  0
POLYLINE
  5
322
  8
DATA
  6
CONTINUOUS
 62
     7
 66
     1
 10
0.0
 20
0.0
 30
0.0
 70
     1
  0
VERTEX
  5
620
  8
DATA
  6
CONTINUOUS
 62
     7
 10
338.98234096253958
 20
492.71348776330689
 30
0.0
  0
VERTEX
  5
621
  8
DATA
  6
CONTINUOUS
 62
     7
 10
340.5123409625395
 20
492.71348776330689
 30
0.0
  0
VERTEX
  5
622
  8
DATA
  6
CONTINUOUS
 62
     7
 10
340.5123409625395
 20
491.18348776330703
 30
0.0
  0
VERTEX
  5
623
  8
DATA
  6
CONTINUOUS
 62
     7
 10
338.98234096253958
 20
491.18348776330703
 30
0.0
  0
SEQEND
  5
624
  8
DATA
  6
CONTINUOUS
 62
     7
  0
POLYLINE
  5
329
  8
DATA
  6
CONTINUOUS
 62
     7
 66
     1
 10
0.0
 20
0.0
 30
0.0
 70
     1
  0
VERTEX
  5
625
  8
DATA
  6
CONTINUOUS
 62
     7
 10
336.98234096253958
 20
492.71348776330689
 30
0.0
  0
VERTEX
  5
626
  8
DATA
  6
CONTINUOUS
 62
     7
 10
338.5123409625395
 20
492.71348776330689
 30
0.0
  0
VERTEX
  5
627
  8
DATA
  6
CONTINUOUS
 62
     7
 10
338.5123409625395
 20
491.18348776330703
 30
0.0
  0
VERTEX
  5
628
  8
DATA
  6
CONTINUOUS
 62
     7
 10
336.98234096253958
 20
491.18348776330703
 30
0.0
  0
SEQEND
  5
629
  8
DATA
  6
CONTINUOUS
 62
     7
  0
POLYLINE
  5
330
  8
DATA
  6
CONTINUOUS
 62
     7
 66
     1
 10
0.0
 20
0.0
 30
0.0
 70
     1
  0
VERTEX
  5
62A
  8
DATA
  6
CONTINUOUS
 62
     7
 10
334.98234096253958
 20
492.71348776330689
 30
0.0
  0
VERTEX
  5
62B
  8
DATA
  6
CONTINUOUS
 62
     7
 10
336.5123409625395
 20
492.71348776330689
 30
0.0
  0
VERTEX
  5
62C
  8
DATA
  6
CONTINUOUS
 62
     7
 10
336.5123409625395
 20
491.18348776330703
 30
0.0
  0
VERTEX
  5
62D
  8
DATA
  6
CONTINUOUS
 62
     7
 10
334.98234096253958
 20
491.18348776330703
 30
0.0
  0
SEQEND
  5
62E
  8
DATA
  6
CONTINUOUS
 62
     7
  0
POLYLINE
  5
337
  8
DATA
  6
CONTINUOUS
 62
     7
 66
     1
 10
0.0
 20
0.0
 30
0.0
 70
     1
  0
VERTEX
  5
62F
  8
DATA
  6
CONTINUOUS
 62
     7
 10
332.98234096253958
 20
492.71348776330689
 30
0.0
  0
VERTEX
  5
630
  8
DATA
  6
CONTINUOUS
 62
     7
 10
334.5123409625395
 20
492.71348776330689
 30
0.0
  0
VERTEX
  5
631
  8
DATA
  6
CONTINUOUS
 62
     7
 10
334.5123409625395
 20
491.18348776330703
 30
0.0
  0
VERTEX
  5
632
  8
DATA
  6
CONTINUOUS
 62
     7
 10
332.98234096253958
 20
491.18348776330703
 30
0.0
  0
SEQEND
  5
633
  8
DATA
  6
CONTINUOUS
 62
     7
  0
POLYLINE
  5
33E
  8
DATA
  6
CONTINUOUS
 62
     7
 66
     1
 10
0.0
 20
0.0
 30
0.0
 70
     1
  0
VERTEX
  5
634
  8
DATA
  6
CONTINUOUS
 62
     7
 10
346.98234096253958
 20
490.71348776330677
 30
0.0
  0
VERTEX
  5
635
  8
DATA
  6
CONTINUOUS
 62
     7
 10
348.51234096253961
 20
490.71348776330677
 30
0.0
  0
VERTEX
  5
636
  8
DATA
  6
CONTINUOUS
 62
     7
 10
348.51234096253961
 20
489.18348776330691
 30
0.0
  0
VERTEX
  5
637
  8
DATA
  6
CONTINUOUS
 62
     7
 10
346.98234096253958
 20
489.18348776330691
 30
0.0
  0
SEQEND
  5
638
  8
DATA
  6
CONTINUOUS
 62
     7
  0
POLYLINE
  5
345
  8
DATA
  6
CONTINUOUS
 62
     7
 66
     1
 10
0.0
 20
0.0
 30
0.0
 70
     1
  0
VERTEX
  5
639
  8
DATA
  6
CONTINUOUS
 62
     7
 10
344.98234096253958
 20
490.71348776330677
 30
0.0
  0
VERTEX
  5
63A
  8
DATA
  6
CONTINUOUS
 62
     7
 10
346.51234096253961
 20
490.71348776330677
 30
0.0
  0
VERTEX
  5
63B
  8
DATA
  6
CONTINUOUS
 62
     7
 10
346.51234096253961
 20
489.18348776330691
 30
0.0
  0
VERTEX
  5
63C
  8
DATA
  6
CONTINUOUS
 62
     7
 10
344.98234096253958
 20
489.18348776330691
 30
0.0
  0
SEQEND
  5
63D
  8
DATA
  6
CONTINUOUS
 62
     7
  0
POLYLINE
  5
34C
  8
DATA
  6
CONTINUOUS
 62
     7
 66
     1
 10
0.0
 20
0.0
 30
0.0
 70
     1
  0
VERTEX
  5
63E
  8
DATA
  6
CONTINUOUS
 62
     7
 10
342.98234096253969
 20
490.71348776330677
 30
0.0
  0
VERTEX
  5
63F
  8
DATA
  6
CONTINUOUS
 62
     7
 10
344.51234096253961
 20
490.71348776330677
 30
0.0
  0
VERTEX
  5
640
  8
DATA
  6
CONTINUOUS
 62
     7
 10
344.51234096253961
 20
489.18348776330691
 30
0.0
  0
VERTEX
  5
641
  8
DATA
  6
CONTINUOUS
 62
     7
 10
342.98234096253969
 20
489.18348776330691
 30
0.0
  0
SEQEND
  5
642
  8
DATA
  6
CONTINUOUS
 62
     7
  0
POLYLINE
  5
353
  8
DATA
  6
CONTINUOUS
 62
     7
 66
     1
 10
0.0
 20
0.0
 30
0.0
 70
     1
  0
VERTEX
  5
643
  8
DATA
  6
CONTINUOUS
 62
     7
 10
340.98234096253958
 20
490.71348776330677
 30
0.0
  0
VERTEX
  5
644
  8
DATA
  6
CONTINUOUS
 62
     7
 10
342.5123409625395
 20
490.71348776330677
 30
0.0
  0
VERTEX
  5
645
  8
DATA
  6
CONTINUOUS
 62
     7
 10
342.5123409625395
 20
489.18348776330691
 30
0.0
  0
VERTEX
  5
646
  8
DATA
  6
CONTINUOUS
 62
     7
 10
340.98234096253958
 20
489.18348776330691
 30
0.0
  0
SEQEND
  5
647
  8
DATA
  6
CONTINUOUS
 62
     7
  0
POLYLINE
  5
35A
  8
DATA
  6
CONTINUOUS
 62
     7
 66
     1
 10
0.0
 20
0.0
 30
0.0
 70
     1
  0
VERTEX
  5
648
  8
DATA
  6
CONTINUOUS
 62
     7
 10
338.98234096253958
 20
490.71348776330677
 30
0.0
  0
VERTEX
  5
649
  8
DATA
  6
CONTINUOUS
 62
     7
 10
340.5123409625395
 20
490.71348776330677
 30
0.0
  0
VERTEX
  5
64A
  8
DATA
  6
CONTINUOUS
 62
     7
 10
340.5123409625395
 20
489.18348776330691
 30
0.0
  0
VERTEX
  5
64B
  8
DATA
  6
CONTINUOUS
 62
     7
 10
338.98234096253958
 20
489.18348776330691
 30
0.0
  0
SEQEND
  5
64C
  8
DATA
  6
CONTINUOUS
 62
     7
  0
POLYLINE
  5
361
  8
DATA
  6
CONTINUOUS
 62
     7
 66
     1
 10
0.0
 20
0.0
 30
0.0
 70
     1
  0
VERTEX
  5
64D
  8
DATA
  6
CONTINUOUS
 62
     7
 10
336.98234096253958
 20
490.71348776330677
 30
0.0
  0
VERTEX
  5
64E
  8
DATA
  6
CONTINUOUS
 62
     7
 10
338.5123409625395
 20
490.71348776330677
 30
0.0
  0
VERTEX
  5
64F
  8
DATA
  6
CONTINUOUS
 62
     7
 10
338.5123409625395
 20
489.18348776330691
 30
0.0
  0
VERTEX
  5
650
  8
DATA
  6
CONTINUOUS
 62
     7
 10
336.98234096253958
 20
489.18348776330691
 30
0.0
  0
SEQEND
  5
651
  8
DATA
  6
CONTINUOUS
 62
     7
  0
POLYLINE
  5
368
  8
DATA
  6
CONTINUOUS
 62
     7
 66
     1
 10
0.0
 20
0.0
 30
0.0
 70
     1
  0
VERTEX
  5
652
  8
DATA
  6
CONTINUOUS
 62
     7
 10
334.98234096253958
 20
490.71348776330677
 30
0.0
  0
VERTEX
  5
653
  8
DATA
  6
CONTINUOUS
 62
     7
 10
336.5123409625395
 20
490.71348776330677
 30
0.0
  0
VERTEX
  5
654
  8
DATA
  6
CONTINUOUS
 62
     7
 10
336.5123409625395
 20
489.18348776330691
 30
0.0
  0
VERTEX
  5
655
  8
DATA
  6
CONTINUOUS
 62
     7
 10
334.98234096253958
 20
489.18348776330691
 30
0.0
  0
SEQEND
  5
656
  8
DATA
  6
CONTINUOUS
 62
     7
  0
POLYLINE
  5
36F
  8
DATA
  6
CONTINUOUS
 62
     7
 66
     1
 10
0.0
 20
0.0
 30
0.0
 70
     1
  0
VERTEX
  5
657
  8
DATA
  6
CONTINUOUS
 62
     7
 10
332.98234096253958
 20
490.71348776330677
 30
0.0
  0
VERTEX
  5
658
  8
DATA
  6
CONTINUOUS
 62
     7
 10
334.5123409625395
 20
490.71348776330677
 30
0.0
  0
VERTEX
  5
659
  8
DATA
  6
CONTINUOUS
 62
     7
 10
334.5123409625395
 20
489.18348776330691
 30
0.0
  0
VERTEX
  5
65A
  8
DATA
  6
CONTINUOUS
 62
     7
 10
332.98234096253958
 20
489.18348776330691
 30
0.0
  0
SEQEND
  5
65B
  8
DATA
  6
CONTINUOUS
 62
     7
  0
POLYLINE
  5
376
  8
DATA
  6
CONTINUOUS
 62
     7
 66
     1
 10
0.0
 20
0.0
 30
0.0
 70
     1
  0
VERTEX
  5
65C
  8
DATA
  6
CONTINUOUS
 62
     7
 10
346.98234096253958
 20
494.71348776330677
 30
0.0
  0
VERTEX
  5
65D
  8
DATA
  6
CONTINUOUS
 62
     7
 10
348.51234096253961
 20
494.71348776330677
 30
0.0
  0
VERTEX
  5
65E
  8
DATA
  6
CONTINUOUS
 62
     7
 10
348.51234096253961
 20
493.18348776330691
 30
0.0
  0
VERTEX
  5
65F
  8
DATA
  6
CONTINUOUS
 62
     7
 10
346.98234096253958
 20
493.18348776330691
 30
0.0
  0
SEQEND
  5
660
  8
DATA
  6
CONTINUOUS
 62
     7
  0
POLYLINE
  5
37D
  8
DATA
  6
CONTINUOUS
 62
     7
 66
     1
 10
0.0
 20
0.0
 30
0.0
 70
     1
  0
VERTEX
  5
661
  8
DATA
  6
CONTINUOUS
 62
     7
 10
344.98234096253958
 20
494.71348776330677
 30
0.0
  0
VERTEX
  5
662
  8
DATA
  6
CONTINUOUS
 62
     7
 10
346.51234096253961
 20
494.71348776330677
 30
0.0
  0
VERTEX
  5
663
  8
DATA
  6
CONTINUOUS
 62
     7
 10
346.51234096253961
 20
493.18348776330691
 30
0.0
  0
VERTEX
  5
664
  8
DATA
  6
CONTINUOUS
 62
     7
 10
344.98234096253958
 20
493.18348776330691
 30
0.0
  0
SEQEND
  5
665
  8
DATA
  6
CONTINUOUS
 62
     7
  0
POLYLINE
  5
384
  8
DATA
  6
CONTINUOUS
 62
     7
 66
     1
 10
0.0
 20
0.0
 30
0.0
 70
     1
  0
VERTEX
  5
666
  8
DATA
  6
CONTINUOUS
 62
     7
 10
342.98234096253969
 20
494.71348776330677
 30
0.0
  0
VERTEX
  5
667
  8
DATA
  6
CONTINUOUS
 62
     7
 10
344.51234096253961
 20
494.71348776330677
 30
0.0
  0
VERTEX
  5
668
  8
DATA
  6
CONTINUOUS
 62
     7
 10
344.51234096253961
 20
493.18348776330691
 30
0.0
  0
VERTEX
  5
669
  8
DATA
  6
CONTINUOUS
 62
     7
 10
342.98234096253969
 20
493.18348776330691
 30
0.0
  0
SEQEND
  5
66A
  8
DATA
  6
CONTINUOUS
 62
     7
  0
POLYLINE
  5
38B
  8
DATA
  6
CONTINUOUS
 62
     7
 66
     1
 10
0.0
 20
0.0
 30
0.0
 70
     1
  0
VERTEX
  5
66B
  8
DATA
  6
CONTINUOUS
 62
     7
 10
340.98234096253958
 20
494.71348776330677
 30
0.0
  0
VERTEX
  5
66C
  8
DATA
  6
CONTINUOUS
 62
     7
 10
342.5123409625395
 20
494.71348776330677
 30
0.0
  0
VERTEX
  5
66D
  8
DATA
  6
CONTINUOUS
 62
     7
 10
342.5123409625395
 20
493.18348776330691
 30
0.0
  0
VERTEX
  5
66E
  8
DATA
  6
CONTINUOUS
 62
     7
 10
340.98234096253958
 20
493.18348776330691
 30
0.0
  0
SEQEND
  5
66F
  8
DATA
  6
CONTINUOUS
 62
     7
  0
POLYLINE
  5
392
  8
DATA
  6
CONTINUOUS
 62
     7
 66
     1
 10
0.0
 20
0.0
 30
0.0
 70
     1
  0
VERTEX
  5
670
  8
DATA
  6
CONTINUOUS
 62
     7
 10
338.98234096253958
 20
494.71348776330677
 30
0.0
  0
VERTEX
  5
671
  8
DATA
  6
CONTINUOUS
 62
     7
 10
340.5123409625395
 20
494.71348776330677
 30
0.0
  0
VERTEX
  5
672
  8
DATA
  6
CONTINUOUS
 62
     7
 10
340.5123409625395
 20
493.18348776330691
 30
0.0
  0
VERTEX
  5
673
  8
DATA
  6
CONTINUOUS
 62
     7
 10
338.98234096253958
 20
493.18348776330691
 30
0.0
  0
SEQEND
  5
674
  8
DATA
  6
CONTINUOUS
 62
     7
  0
POLYLINE
  5
399
  8
DATA
  6
CONTINUOUS
 62
     7
 66
     1
 10
0.0
 20
0.0
 30
0.0
 70
     1
  0
VERTEX
  5
675
  8
DATA
  6
CONTINUOUS
 62
     7
 10
336.98234096253958
 20
494.71348776330677
 30
0.0
  0
VERTEX
  5
676
  8
DATA
  6
CONTINUOUS
 62
     7
 10
338.5123409625395
 20
494.71348776330677
 30
0.0
  0
VERTEX
  5
677
  8
DATA
  6
CONTINUOUS
 62
     7
 10
338.5123409625395
 20
493.18348776330691
 30
0.0
  0
VERTEX
  5
678
  8
DATA
  6
CONTINUOUS
 62
     7
 10
336.98234096253958
 20
493.18348776330691
 30
0.0
  0
SEQEND
  5
679
  8
DATA
  6
CONTINUOUS
 62
     7
  0
POLYLINE
  5
3A0
  8
DATA
  6
CONTINUOUS
 62
     7
 66
     1
 10
0.0
 20
0.0
 30
0.0
 70
     1
  0
VERTEX
  5
67A
  8
DATA
  6
CONTINUOUS
 62
     7
 10
334.98234096253958
 20
494.71348776330677
 30
0.0
  0
VERTEX
  5
67B
  8
DATA
  6
CONTINUOUS
 62
     7
 10
336.5123409625395
 20
494.71348776330677
 30
0.0
  0
VERTEX
  5
67C
  8
DATA
  6
CONTINUOUS
 62
     7
 10
336.5123409625395
 20
493.18348776330691
 30
0.0
  0
VERTEX
  5
67D
  8
DATA
  6
CONTINUOUS
 62
     7
 10
334.98234096253958
 20
493.18348776330691
 30
0.0
  0
SEQEND
  5
67E
  8
DATA
  6
CONTINUOUS
 62
     7
  0
POLYLINE
  5
3A7
  8
DATA
  6
CONTINUOUS
 62
     7
 66
     1
 10
0.0
 20
0.0
 30
0.0
 70
     1
  0
VERTEX
  5
67F
  8
DATA
  6
CONTINUOUS
 62
     7
 10
332.98234096253958
 20
494.71348776330677
 30
0.0
  0
VERTEX
  5
680
  8
DATA
  6
CONTINUOUS
 62
     7
 10
334.5123409625395
 20
494.71348776330677
 30
0.0
  0
VERTEX
  5
681
  8
DATA
  6
CONTINUOUS
 62
     7
 10
334.5123409625395
 20
493.18348776330691
 30
0.0
  0
VERTEX
  5
682
  8
DATA
  6
CONTINUOUS
 62
     7
 10
332.98234096253958
 20
493.18348776330691
 30
0.0
  0
SEQEND
  5
683
  8
DATA
  6
CONTINUOUS
 62
     7
  0
POLYLINE
  5
3AE
  8
DATA
  6
CONTINUOUS
 62
     7
 66
     1
 10
0.0
 20
0.0
 30
0.0
  0
VERTEX
  5
684
  8
DATA
  6
CONTINUOUS
 62
     7
 10
328.96227479135968
 20
491.54848776330692
 30
0.0
  0
VERTEX
  5
685
  8
DATA
  6
CONTINUOUS
 62
     7
 10
326.8622747913596
 20
491.54848776330692
 30
0.0
  0
VERTEX
  5
686
  8
DATA
  6
CONTINUOUS
 62
     7
 10
326.8622747913596
 20
492.34848776330682
 30
0.0
  0
VERTEX
  5
687
  8
DATA
  6
CONTINUOUS
 62
     7
 10
328.96227479135968
 20
492.34848776330682
 30
0.0
  0
SEQEND
  5
688
  8
DATA
  6
CONTINUOUS
 62
     7
  0
POLYLINE
  5
3B5
  8
DATA
  6
CONTINUOUS
 62
     7
 66
     1
 10
0.0
 20
0.0
 30
0.0
  0
VERTEX
  5
689
  8
DATA
  6
CONTINUOUS
 62
     7
 10
329.76227479135991
 20
492.34848776330682
 30
0.0
  0
VERTEX
  5
68A
  8
DATA
  6
CONTINUOUS
 62
     7
 10
331.86227479136022
 20
492.34848776330682
 30
0.0
  0
VERTEX
  5
68B
  8
DATA
  6
CONTINUOUS
 62
     7
 10
331.86227479136022
 20
491.54848776330692
 30
0.0
  0
VERTEX
  5
68C
  8
DATA
  6
CONTINUOUS
 62
     7
 10
329.76227479135991
 20
491.54848776330692
 30
0.0
  0
SEQEND
  5
68D
  8
DATA
  6
CONTINUOUS
 62
     7
  0
POLYLINE
  5
3BC
  8
DATA
  6
CONTINUOUS
 62
     7
 66
     1
 10
0.0
 20
0.0
 30
0.0
  0
VERTEX
  5
68E
  8
DATA
  6
CONTINUOUS
 62
     7
 10
328.96227479135968
 20
492.34848776330682
 30
0.0
  0
VERTEX
  5
68F
  8
DATA
  6
CONTINUOUS
 62
     7
 10
328.96227479135968
 20
494.4484877633069
 30
0.0
  0
VERTEX
  5
690
  8
DATA
  6
CONTINUOUS
 62
     7
 10
329.76227479135991
 20
494.4484877633069
 30
0.0
  0
VERTEX
  5
691
  8
DATA
  6
CONTINUOUS
 62
     7
 10
329.76227479135991
 20
492.34848776330682
 30
0.0
  0
SEQEND
  5
692
  8
DATA
  6
CONTINUOUS
 62
     7
  0
POLYLINE
  5
3C3
  8
DATA
  6
CONTINUOUS
 62
     7
 66
     1
 10
0.0
 20
0.0
 30
0.0
  0
VERTEX
  5
693
  8
DATA
  6
CONTINUOUS
 62
     7
 10
329.76227479135991
 20
491.54848776330692
 30
0.0
  0
VERTEX
  5
694
  8
DATA
  6
CONTINUOUS
 62
     7
 10
329.76227479135991
 20
489.4484877633069
 30
0.0
  0
VERTEX
  5
695
  8
DATA
  6
CONTINUOUS
 62
     7
 10
328.96227479135968
 20
489.4484877633069
 30
0.0
  0
VERTEX
  5
696
  8
DATA
  6
CONTINUOUS
 62
     7
 10
328.96227479135968
 20
491.54848776330692
 30
0.0
  0
SEQEND
  5
697
  8
DATA
  6
CONTINUOUS
 62
     7
  0
POLYLINE
  5
3CA
  8
DATA
  6
CONTINUOUS
 62
     7
 66
     1
 10
0.0
 20
0.0
 30
0.0
 70
     1
  0
VERTEX
  5
698
  8
DATA
  6
CONTINUOUS
 62
     7
 10
330.22255922183172
 20
491.18905995265709
 30
0.0
  0
VERTEX
  5
699
  8
DATA
  6
CONTINUOUS
 62
     7
 10
331.22255922183189
 20
491.18905995265709
 30
0.0
  0
VERTEX
  5
69A
  8
DATA
  6
CONTINUOUS
 62
     7
 10
331.22255922183189
 20
490.18905995265709
 30
0.0
  0
VERTEX
  5
69B
  8
DATA
  6
CONTINUOUS
 62
     7
 10
330.22255922183172
 20
490.18905995265709
 30
0.0
  0
SEQEND
  5
69C
  8
DATA
  6
CONTINUOUS
 62
     7
  0
POLYLINE
  5
3D1
  8
DATA
  6
CONTINUOUS
 62
     7
 66
     1
 10
0.0
 20
0.0
 30
0.0
 70
     1
  0
VERTEX
  5
69D
  8
DATA
  6
CONTINUOUS
 62
     7
 10
327.50199036088787
 20
491.18905995265709
 30
0.0
  0
VERTEX
  5
69E
  8
DATA
  6
CONTINUOUS
 62
     7
 10
328.50199036088787
 20
491.18905995265709
 30
0.0
  0
VERTEX
  5
69F
  8
DATA
  6
CONTINUOUS
 62
     7
 10
328.50199036088787
 20
490.18905995265709
 30
0.0
  0
VERTEX
  5
6A0
  8
DATA
  6
CONTINUOUS
 62
     7
 10
327.50199036088787
 20
490.18905995265709
 30
0.0
  0
SEQEND
  5
6A1
  8
DATA
  6
CONTINUOUS
 62
     7
  0
POLYLINE
  5
3D8
  8
DATA
  6
CONTINUOUS
 62
     7
 66
     1
 10
0.0
 20
0.0
 30
0.0
 70
     1
  0
VERTEX
  5
6A2
  8
DATA
  6
CONTINUOUS
 62
     7
 10
330.22255922183172
 20
493.70791557395683
 30
0.0
  0
VERTEX
  5
6A3
  8
DATA
  6
CONTINUOUS
 62
     7
 10
331.22255922183189
 20
493.70791557395683
 30
0.0
  0
VERTEX
  5
6A4
  8
DATA
  6
CONTINUOUS
 62
     7
 10
331.22255922183189
 20
492.70791557395683
 30
0.0
  0
VERTEX
  5
6A5
  8
DATA
  6
CONTINUOUS
 62
     7
 10
330.22255922183172
 20
492.70791557395683
 30
0.0
  0
SEQEND
  5
6A6
  8
DATA
  6
CONTINUOUS
 62
     7
  0
POLYLINE
  5
3DF
  8
DATA
  6
CONTINUOUS
 62
     7
 66
     1
 10
0.0
 20
0.0
 30
0.0
 70
     1
  0
VERTEX
  5
6A7
  8
DATA
  6
CONTINUOUS
 62
     7
 10
327.50199036088787
 20
493.70791557395683
 30
0.0
  0
VERTEX
  5
6A8
  8
DATA
  6
CONTINUOUS
 62
     7
 10
328.50199036088787
 20
493.70791557395683
 30
0.0
  0
VERTEX
  5
6A9
  8
DATA
  6
CONTINUOUS
 62
     7
 10
328.50199036088787
 20
492.70791557395683
 30
0.0
  0
VERTEX
  5
6AA
  8
DATA
  6
CONTINUOUS
 62
     7
 10
327.50199036088787
 20
492.70791557395683
 30
0.0
  0
SEQEND
  5
6AB
  8
DATA
  6
CONTINUOUS
 62
     7
  0
LINE
  5
3E6
  8
DATA
  6
CONTINUOUS
 62
     7
 10
349.4576466093074
 20
489.11859606879312
 30
0.0
 11
348.89872941185519
 21
494.9685960687932
 31
0.0
  0
LINE
  5
3E7
  8
DATA
  6
CONTINUOUS
 62
     7
 10
325.5669029734126
 20
489.11859606879312
 30
0.0
 11
326.12582017086493
 21
494.9685960687932
 31
0.0
  0
ARC
  5
3E8
  8
DATA
  6
CONTINUOUS
 62
     7
 10
348.4621796785521
 20
489.02348776330678
 30
0.0
 40
0.9999999999999431
 50
270.0
 51
5.4575534851073844
  0
ARC
  5
3E9
  8
DATA
  6
CONTINUOUS
 62
     7
 10
326.56236990416789
 20
489.023487763307
 30
0.0
 40
0.9999999999999703
 50
174.54244651489549
 51
270.0
  0
ARC
  5
3EA
  8
DATA
  6
CONTINUOUS
 62
     7
 10
347.90326248109977
 20
494.87348776330703
 30
0.0
 40
1.000000000000026
 50
5.4575534851041603
 51
89.999999999999986
  0
ARC
  5
3EB
  8
DATA
  6
CONTINUOUS
 62
     7
 10
327.12128710162028
 20
494.87348776330703
 30
0.0
 40
1.0
 50
90.0
 51
174.54244651489549
  0
CIRCLE
  5
3EC
  8
DATA
  6
CONTINUOUS
 62
     7
 10
366.0544960992313
 20
492.04042440736401
 30
0.0
 40
1.175000000000068
  0
POLYLINE
  5
3ED
  8
DATA
  6
CONTINUOUS
 62
     7
 66
     1
 10
0.0
 20
0.0
 30
0.0
 70
     1
  0
VERTEX
  5
6AC
  8
DATA
  6
CONTINUOUS
 62
     7
 10
366.0544960992313
 20
489.3404244073642
 30
0.0
  0
VERTEX
  5
6AD
  8
DATA
  6
CONTINUOUS
 62
     7
 10
368.39276468944922
 20
490.69042440736422
 30
0.0
  0
VERTEX
  5
6AE
  8
DATA
  6
CONTINUOUS
 62
     7
 10
368.39276468944922
 20
493.39042440736392
 30
0.0
  0
VERTEX
  5
6AF
  8
DATA
  6
CONTINUOUS
 62
     7
 10
366.0544960992313
 20
494.74042440736389
 30
0.0
  0
VERTEX
  5
6B0
  8
DATA
  6
CONTINUOUS
 62
     7
 10
363.71622750901338
 20
493.39042440736392
 30
0.0
  0
VERTEX
  5
6B1
  8
DATA
  6
CONTINUOUS
 62
     7
 10
363.71622750901338
 20
490.69042440736422
 30
0.0
  0
SEQEND
  5
6B2
  8
DATA
  6
CONTINUOUS
 62
     7
  0
CIRCLE
  5
3F6
  8
DATA
  6
CONTINUOUS
 62
     7
 10
391.0544960992317
 20
492.04042440736401
 30
0.0
 40
1.175000000000068
  0
POLYLINE
  5
3F7
  8
DATA
  6
CONTINUOUS
 62
     7
 66
     1
 10
0.0
 20
0.0
 30
0.0
 70
     1
  0
VERTEX
  5
6B3
  8
DATA
  6
CONTINUOUS
 62
     7
 10
391.0544960992317
 20
489.3404244073642
 30
0.0
  0
VERTEX
  5
6B4
  8
DATA
  6
CONTINUOUS
 62
     7
 10
393.39276468944962
 20
490.69042440736422
 30
0.0
  0
VERTEX
  5
6B5
  8
DATA
  6
CONTINUOUS
 62
     7
 10
393.39276468944962
 20
493.39042440736392
 30
0.0
  0
VERTEX
  5
6B6
  8
DATA
  6
CONTINUOUS
 62
     7
 10
391.0544960992317
 20
494.74042440736389
 30
0.0
  0
VERTEX
  5
6B7
  8
DATA
  6
CONTINUOUS
 62
     7
 10
388.71622750901361
 20
493.39042440736392
 30
0.0
  0
VERTEX
  5
6B8
  8
DATA
  6
CONTINUOUS
 62
     7
 10
388.71622750901361
 20
490.69042440736422
 30
0.0
  0
SEQEND
  5
6B9
  8
DATA
  6
CONTINUOUS
 62
     7
  0
LINE
  5
400
  8
DATA
  6
CONTINUOUS
 62
     7
 10
372.95273288904298
 20
496.04042440736401
 30
0.0
 11
384.15625930942019
 21
496.04042440736401
 31
0.0
  0
LINE
  5
401
  8
DATA
  6
CONTINUOUS
 62
     7
 10
384.96875930942008
 20
488.04042440736401
 30
0.0
 11
372.14023288904292
 21
488.04042440736401
 31
0.0
  0
LINE
  5
402
  8
DATA
  6
CONTINUOUS
 62
     7
 10
385.53947615667181
 20
494.8565520397471
 30
0.0
 11
386.3519761566717
 21
489.65655203974711
 31
0.0
  0
LINE
  5
403
  8
DATA
  6
CONTINUOUS
 62
     7
 10
370.7570160417913
 20
489.65655203974711
 30
0.0
 11
371.56951604179142
 21
494.8565520397471
 31
0.0
  0
CIRCLE
  5
404
  8
DATA
  6
CONTINUOUS
 62
     7
 10
378.5811258697064
 20
490.40411623621043
 30
0.0
 40
0.5
  0
ARC
  5
405
  8
DATA
  6
CONTINUOUS
 62
     7
 10
384.96875930942008
 20
489.44042440736411
 30
0.0
 40
1.4000000000000341
 50
270.0
 51
8.8806591505205574
  0
ARC
  5
406
  8
DATA
  6
CONTINUOUS
 62
     7
 10
372.14023288904292
 20
489.44042440736411
 30
0.0
 40
1.4000000000000481
 50
171.1193408494797
 51
270.0
  0
ARC
  5
407
  8
DATA
  6
CONTINUOUS
 62
     7
 10
384.15625930942019
 20
494.64042440736392
 30
0.0
 40
1.400000000000019
 50
8.8806591505205308
 51
90.0
  0
ARC
  5
408
  8
DATA
  6
CONTINUOUS
 62
     7
 10
372.95273288904298
 20
494.64042440736392
 30
0.0
 40
1.4000000000000341
 50
90.0
 51
171.1193408494797
  0
LINE
  5
409
  8
DATA
  6
CONTINUOUS
 62
     7
 10
371.39569216857728
 20
498.0404244073639
 30
0.0
 11
385.71330002988572
 21
498.0404244073639
 31
0.0
  0
LINE
  5
40A
  8
DATA
  6
CONTINUOUS
 62
     7
 10
386.73214175048201
 20
486.04042440736413
 30
0.0
 11
370.37685044798093
 21
486.04042440736413
 31
0.0
  0
LINE
  5
40B
  8
DATA
  6
CONTINUOUS
 62
     7
 10
388.70398697762528
 20
488.37482895307522
 30
0.0
 11
387.29077621160019
 21
496.70794804393279
 31
0.0
  0
LINE
  5
40C
  8
DATA
  6
CONTINUOUS
 62
     7
 10
368.40500522083772
 20
488.37482895307522
 30
0.0
 11
369.8182159868627
 21
496.70794804393279
 31
0.0
  0
ARC
  5
40D
  8
DATA
  6
CONTINUOUS
 62
     7
 10
386.73214175048201
 20
488.04042440736401
 30
0.0
 40
2.000000000000056
 50
270.0
 51
9.6251929436219843
  0
ARC
  5
40E
  8
DATA
  6
CONTINUOUS
 62
     7
 10
370.37685044798093
 20
488.04042440736401
 30
0.0
 40
1.999999999999968
 50
170.37480705637719
 51
270.0
  0
ARC
  5
40F
  8
DATA
  6
CONTINUOUS
 62
     7
 10
385.71330002988572
 20
496.44042440736399
 30
0.0
 40
1.600000000000114
 50
9.6251929436206716
 51
89.999999999995936
  0
ARC
  5
410
  8
DATA
  6
CONTINUOUS
 62
     7
 10
371.39569216857728
 20
496.44042440736399
 30
0.0
 40
1.599999999999965
 50
90.0
 51
170.3748070563783
  0
CIRCLE
  5
411
  8
DATA
  6
CONTINUOUS
 62
     7
 10
381.08112586970628
 20
490.40411623621043
 30
0.0
 40
0.5
  0
CIRCLE
  5
412
  8
DATA
  6
CONTINUOUS
 62
     7
 10
383.58112586970628
 20
490.40411623621043
 30
0.0
 40
0.5
  0
CIRCLE
  5
413
  8
DATA
  6
CONTINUOUS
 62
     7
 10
376.0811258697064
 20
490.40411623621043
 30
0.0
 40
0.5
  0
CIRCLE
  5
414
  8
DATA
  6
CONTINUOUS
 62
     7
 10
373.58112586970628
 20
490.40411623621043
 30
0.0
 40
0.5
  0
CIRCLE
  5
415
  8
DATA
  6
CONTINUOUS
 62
     7
 10
379.7766370457777
 20
494.02263665497293
 30
0.0
 40
0.5
  0
CIRCLE
  5
416
  8
DATA
  6
CONTINUOUS
 62
     7
 10
382.27663704577782
 20
494.02263665497293
 30
0.0
 40
0.5
  0
CIRCLE
  5
417
  8
DATA
  6
CONTINUOUS
 62
     7
 10
377.27663704577782
 20
494.02263665497293
 30
0.0
 40
0.5
  0
CIRCLE
  5
418
  8
DATA
  6
CONTINUOUS
 62
     7
 10
374.77663704577782
 20
494.02263665497293
 30
0.0
 40
0.5
  0
TEXT
  5
419
  8
DATA
 62
     7
 10
383.79130224865401
 20
502.88350555178079
 30
0.0
 40
2.4432617187500001
  1
RS-232
 50
180.0
 41
0.7
 11
383.79130224865401
 21
500.44024383303071
 31
0.0
 73
     3
  0
TEXT
  5
41A
  8
DATA
 62
     7
 10
343.50643192847423
 20
502.88350555178079
 30
0.0
 40
2.4432617187500001
  1
DVI Out
 50
180.0
 41
0.7
 11
343.50643192847423
 21
500.44024383303071
 31
0.0
 73
     3
  0
TEXT
  5
41B
  8
DATA
 62
     7
 10
415.3721652387789
 20
502.88350555178079
 30
0.0
 40
2.4432617187500001
  1
Optical Out
 50
180.0
 41
0.7
 11
415.3721652387789
 21
500.44024383303071
 31
0.0
 73
     3
  0
TEXT
  5
41C
  8
DATA
 62
     7
 10
431.6444643562329
 20
502.88350555178079
 30
0.0
 40
2.4432617187500001
  1
Coax Out
 50
180.0
 41
0.7
 11
431.6444643562329
 21
500.44024383303071
 31
0.0
 73
     3
  0
TEXT
  5
41D
  8
DATA
 62
     7
 10
461.01055364244121
 20
502.88350555178079
 30
0.0
 40
2.4432617187500001
  1
Audio Out
 50
180.0
 41
0.7
 11
461.01055364244121
 21
500.44024383303071
 31
0.0
 73
     3
  0
TEXT
  5
41E
  8
DATA
 62
     7
 10
489.5298945396612
 20
502.88350555178079
 30
0.0
 40
2.4432617187500001
  1
+12V DC
 50
180.0
 41
0.7
 11
489.5298945396612
 21
500.44024383303071
 31
0.0
 73
     3
  0
CIRCLE
  5
41F
  8
DATA
  6
CONTINUOUS
 62
     7
 10
453.5
 20
485.01665243857389
 30
0.0
 40
2.5999999999999939
  0
LINE
  5
420
  8
DATA
  6
CONTINUOUS
 62
     7
 10
452.5
 20
486.01665243857377
 30
0.0
 11
454.49999999999989
 21
484.01665243857389
 31
0.0
  0
LINE
  5
421
  8
DATA
  6
CONTINUOUS
 62
     7
 10
454.5
 20
486.01665243857377
 30
0.0
 11
452.5
 21
484.01665243857377
 31
0.0
  0
CIRCLE
  5
422
  8
DATA
  6
CONTINUOUS
 62
     7
 10
406.4282820015278
 20
481.30951079328719
 30
0.0
 40
2.5999999999999939
  0
LINE
  5
423
  8
DATA
  6
CONTINUOUS
 62
     7
 10
405.4282820015278
 20
482.30951079328719
 30
0.0
 11
407.4282820015278
 21
480.3095107932873
 31
0.0
  0
LINE
  5
424
  8
DATA
  6
CONTINUOUS
 62
     7
 10
407.4282820015278
 20
482.30951079328719
 30
0.0
 11
405.4282820015278
 21
480.3095107932873
 31
0.0
  0
TEXT
  5
425
  8
DATA
 62
     7
 10
297.88815555060307
 20
502.88350555178079
 30
0.0
 40
2.4432617187500001
  1
2
 50
180.0
 41
0.7
 11
297.88815555060307
 21
500.44024383303071
 31
0.0
 73
     3
  0
TEXT
  5
426
  8
DATA
 62
     7
 10
291.80807765814927
 20
502.88350555178079
 30
0.0
 40
2.4432617187500001
  1
1
 50
180.0
 41
0.7
 11
291.80807765814927
 21
500.44024383303071
 31
0.0
 73
     3
  0
TEXT
  5
427
  8
DATA
 62
     7
 10
267.88815555060307
 20
502.88350555178079
 30
0.0
 40
2.4432617187500001
  1
4
 50
180.0
 41
0.7
 11
267.88815555060307
 21
500.44024383303071
 31
0.0
 73
     3
  0
TEXT
  5
428
  8
DATA
 62
     7
 10
261.80807765814927
 20
502.88350555178079
 30
0.0
 40
2.4432617187500001
  1
3
 50
180.0
 41
0.7
 11
261.80807765814927
 21
500.44024383303071
 31
0.0
 73
     3
  0
TEXT
  5
429
  8
DATA
 62
     7
 10
294.78398442150922
 20
485.23049999975569
 30
0.0
 40
2.4432617187500001
  1
A
 50
180.0
 41
0.7
 11
294.78398442150922
 21
482.78723828100573
 31
0.0
 73
     3
  0
TEXT
  5
42A
  8
DATA
 62
     7
 10
264.7839844215091
 20
485.23049999975569
 30
0.0
 40
2.4432617187500001
  1
B
 50
180.0
 41
0.7
 11
264.7839844215091
 21
482.78723828100573
 31
0.0
 73
     3
  0
TEXT
  5
42B
  8
DATA
 62
     7
 10
461.15088392662722
 20
484.12494651699132
 30
0.0
 40
2.4432617187500001
  1
R
 50
180.0
 41
0.7
 11
461.15088392662722
 21
481.68168479824129
 31
0.0
 73
     3
  0
TEXT
  5
42C
  8
DATA
 62
     7
 10
447.37051224689583
 20
484.12494651699132
 30
0.0
 40
2.4432617187500001
  1
L
 50
180.0
 41
0.7
 11
447.37051224689583
 21
481.68168479824129
 31
0.0
 73
     3
  0
LINE
  5
42D
  8
DATA
  6
CONTINUOUS
 62
     7
 10
497.5
 20
324.5
 30
0.0
 11
237.5
 21
324.5
 31
0.0
  0
LINE
  5
42E
  8
DATA
  6
CONTINUOUS
 62
     7
 10
237.5
 20
249.99999999962611
 30
0.0
 11
237.5
 21
279.4999999996262
 31
0.0
  0
LINE
  5
42F
  8
DATA
  6
CONTINUOUS
 62
     7
 10
497.5
 20
249.99999999962611
 30
0.0
 11
237.5
 21
249.99999999962611
 31
0.0
  0
LINE
  5
430
  8
DATA
  6
CONTINUOUS
 62
     7
 10
497.5
 20
279.4999999996262
 30
0.0
 11
497.5
 21
249.99999999962611
 31
0.0
  0
LINE
  5
431
  8
DATA
  6
CONTINUOUS
 62
     7
 10
239.0
 20
280.99999999962608
 30
0.0
 11
496.0
 21
280.99999999962608
 31
0.0
  0
LINE
  5
432
  8
DATA
  6
CONTINUOUS
 62
     7
 10
240.2062860219562
 20
246.49999999962611
 30
0.0
 11
239.05628602195571
 21
249.99999999962611
 31
0.0
  0
LINE
  5
433
  8
DATA
  6
CONTINUOUS
 62
     7
 10
250.20628602195609
 20
246.49999999962611
 30
0.0
 11
251.35628602195649
 21
249.99999999962611
 31
0.0
  0
LINE
  5
434
  8
DATA
  6
CONTINUOUS
 62
     7
 10
240.2062860219562
 20
246.49999999962611
 30
0.0
 11
250.20628602195609
 21
246.49999999962611
 31
0.0
  0
LINE
  5
435
  8
DATA
  6
CONTINUOUS
 62
     7
 10
494.79371397804391
 20
246.49999999962611
 30
0.0
 11
495.94371397804417
 21
249.99999999962611
 31
0.0
  0
LINE
  5
436
  8
DATA
  6
CONTINUOUS
 62
     7
 10
484.79371397804391
 20
246.49999999962611
 30
0.0
 11
483.64371397804342
 21
249.99999999962611
 31
0.0
  0
LINE
  5
437
  8
DATA
  6
CONTINUOUS
 62
     7
 10
494.79371397804391
 20
246.49999999962611
 30
0.0
 11
484.79371397804391
 21
246.49999999962611
 31
0.0
  0
LINE
  5
438
  8
DATA
  6
CONTINUOUS
 62
     7
 10
393.1602094550866
 20
447.0
 30
0.0
 11
388.48367227465059
 21
447.0
 31
0.0
  0
LINE
  5
439
  8
DATA
  6
CONTINUOUS
 62
     7
 10
387.2238370861873
 20
447.0
 30
0.0
 11
369.40296408808791
 21
447.0
 31
0.0
  0
LINE
  5
43A
  8
DATA
  6
CONTINUOUS
 62
     7
 10
393.1602094550866
 20
447.0
 30
0.0
 11
393.1602094550866
 21
442.49999999963921
 31
0.0
  0
LINE
  5
43B
  8
DATA
  6
CONTINUOUS
 62
     7
 10
368.1602094550866
 20
447.0
 30
0.0
 11
368.1602094550866
 21
442.49999999963921
 31
0.0
  0
LINE
  5
43C
  8
DATA
  6
CONTINUOUS
 62
     7
 10
388.48367227465059
 20
447.0
 30
0.0
 11
388.48367227465059
 21
442.49999999963921
 31
0.0
  0
LINE
  5
43D
  8
DATA
  6
CONTINUOUS
 62
     7
 10
369.40296408808791
 20
447.0
 30
0.0
 11
369.40296408808791
 21
442.49999999963921
 31
0.0
  0
LINE
  5
43E
  8
DATA
  6
CONTINUOUS
 62
     7
 10
387.2238370861873
 20
447.0
 30
0.0
 11
387.2238370861873
 21
442.49999999963921
 31
0.0
  0
LINE
  5
43F
  8
DATA
  6
CONTINUOUS
 62
     7
 10
363.4836722746507
 20
447.0
 30
0.0
 11
363.4836722746507
 21
442.49999999963921
 31
0.0
  0
LINE
  5
440
  8
DATA
  6
CONTINUOUS
 62
     7
 10
363.4836722746507
 20
447.0
 30
0.0
 11
368.1602094550866
 21
447.0
 31
0.0
  0
LINE
  5
441
  8
DATA
  6
CONTINUOUS
 62
     7
 10
318.77043616546808
 20
447.50000000029991
 30
0.0
 11
318.77043616546808
 21
442.50000000030002
 31
0.0
  0
LINE
  5
442
  8
DATA
  6
CONTINUOUS
 62
     7
 10
323.4469733459041
 20
447.50000000029991
 30
0.0
 11
323.4469733459041
 21
442.50000000030002
 31
0.0
  0
LINE
  5
443
  8
DATA
  6
CONTINUOUS
 62
     7
 10
325.40897770197267
 20
447.50000000029991
 30
0.0
 11
325.40897770197267
 21
442.50000000030002
 31
0.0
  0
LINE
  5
444
  8
DATA
  6
CONTINUOUS
 62
     7
 10
349.29591103645521
 20
447.50000000029991
 30
0.0
 11
349.29591103645521
 21
442.50000000030002
 31
0.0
  0
LINE
  5
445
  8
DATA
  6
CONTINUOUS
 62
     7
 10
351.2704361654686
 20
447.50000000029991
 30
0.0
 11
351.2704361654686
 21
442.50000000030002
 31
0.0
  0
LINE
  5
446
  8
DATA
  6
CONTINUOUS
 62
     7
 10
355.9469733459045
 20
447.50000000029991
 30
0.0
 11
355.9469733459045
 21
442.50000000030002
 31
0.0
  0
LINE
  5
447
  8
DATA
  6
CONTINUOUS
 62
     7
 10
355.9469733459045
 20
447.50000000029991
 30
0.0
 11
351.2704361654686
 21
447.50000000029991
 31
0.0
  0
LINE
  5
448
  8
DATA
  6
CONTINUOUS
 62
     7
 10
349.29591103645521
 20
447.50000000029991
 30
0.0
 11
325.40897770197267
 21
447.50000000029991
 31
0.0
  0
LINE
  5
449
  8
DATA
  6
CONTINUOUS
 62
     7
 10
323.4469733459041
 20
447.50000000029991
 30
0.0
 11
318.77043616546808
 21
447.50000000029991
 31
0.0
  0
ARC
  5
44A
  8
DATA
  6
CONTINUOUS
 62
     7
 10
406.4282820015278
 20
442.18495993527853
 30
0.0
 40
2.5999999999999961
 50
6.9595884388737197
 51
173.04041156112629
  0
ARC
  5
44B
  8
DATA
  6
CONTINUOUS
 62
     7
 10
453.50606031136198
 20
442.18495993527853
 30
0.0
 40
2.5999999999999961
 50
6.9595884388737197
 51
173.04041156112629
  0
LINE
  5
44C
  8
DATA
  6
CONTINUOUS
 62
     7
 10
421.50450476933918
 20
447.5
 30
0.0
 11
429.4982060801745
 21
447.5
 31
0.0
  0
LINE
  5
44D
  8
DATA
  6
CONTINUOUS
 62
     7
 10
421.50450476933918
 20
447.5
 30
0.0
 11
421.50450476933918
 21
442.49999999999989
 31
0.0
  0
LINE
  5
44E
  8
DATA
  6
CONTINUOUS
 62
     7
 10
429.4982060801745
 20
447.5
 30
0.0
 11
429.4982060801745
 21
442.49999999999989
 31
0.0
  0
LINE
  5
44F
  8
DATA
  6
CONTINUOUS
 62
     7
 10
442.49999999999989
 20
450.0
 30
0.0
 11
442.49999999999989
 21
442.49999999999989
 31
0.0
  0
LINE
  5
450
  8
DATA
  6
CONTINUOUS
 62
     7
 10
450.49999999999989
 20
450.0
 30
0.0
 11
450.49999999999989
 21
442.49999999999989
 31
0.0
  0
LINE
  5
451
  8
DATA
  6
CONTINUOUS
 62
     7
 10
456.5
 20
450.0
 30
0.0
 11
456.5
 21
442.49999999999989
 31
0.0
  0
LINE
  5
452
  8
DATA
  6
CONTINUOUS
 62
     7
 10
464.5
 20
450.0
 30
0.0
 11
464.5
 21
442.49999999999989
 31
0.0
  0
LINE
  5
453
  8
DATA
  6
CONTINUOUS
 62
     7
 10
442.49999999999989
 20
450.0
 30
0.0
 11
450.49999999999989
 21
450.0
 31
0.0
  0
LINE
  5
454
  8
DATA
  6
CONTINUOUS
 62
     7
 10
456.5
 20
450.0
 30
0.0
 11
464.5
 21
450.0
 31
0.0
  0
LINE
  5
455
  8
DATA
  6
CONTINUOUS
 62
     7
 10
401.49999999999989
 20
442.67469508511863
 30
0.0
 11
401.49999999999989
 21
442.49999999999989
 31
0.0
  0
LINE
  5
456
  8
DATA
  6
CONTINUOUS
 62
     7
 10
411.5
 20
442.67469508511863
 30
0.0
 11
411.5
 21
442.49999999999989
 31
0.0
  0
LINE
  5
457
  8
DATA
  6
CONTINUOUS
 62
     7
 10
401.49999999999989
 20
442.67469508511863
 30
0.0
 11
403.87482170557439
 21
442.67469508511863
 31
0.0
  0
LINE
  5
458
  8
DATA
  6
CONTINUOUS
 62
     7
 10
408.98174229748111
 20
442.67469508511863
 30
0.0
 11
411.5
 21
442.67469508511863
 31
0.0
  0
LINE
  5
459
  8
DATA
  6
CONTINUOUS
 62
     7
 10
450.0
 20
249.99999999962611
 30
0.0
 11
429.80000000000001
 21
249.99999999962611
 31
0.0
  0
CIRCLE
  5
45A
  8
DATA
  6
CONTINUOUS
 62
     7
 10
439.5
 20
261.99999999962608
 30
0.0
 40
2.0
  0
CIRCLE
  5
45B
  8
DATA
  6
CONTINUOUS
 62
     7
 10
468.5
 20
264.9999999996262
 30
0.0
 40
1.5
  0
CIRCLE
  5
45C
  8
DATA
  6
CONTINUOUS
 62
     7
 10
476.49999999999989
 20
264.9999999996262
 30
0.0
 40
1.5
  0
CIRCLE
  5
45D
  8
DATA
  6
CONTINUOUS
 62
     7
 10
476.49999999999989
 20
259.99999999962608
 30
0.0
 40
1.5
  0
CIRCLE
  5
45E
  8
DATA
  6
CONTINUOUS
 62
     7
 10
468.5
 20
259.99999999962608
 30
0.0
 40
1.5
  0
TEXT
  5
45F
  8
DATA
 62
     7
 10
435.84173933807602
 20
256.03920271559451
 30
0.0
 40
2.1717881944444448
  1
Reset
 41
0.7
 11
435.84173933807602
 21
258.2109909100389
 31
0.0
 73
     3
  0
TEXT
  5
460
  8
DATA
 62
     7
 10
479.14298814358852
 20
258.99751172317218
 30
0.0
 40
2.1717881944444448
  1
Optic A
 41
0.7
 11
479.14298814358852
 21
261.16929991761663
 31
0.0
 73
     3
  0
TEXT
  5
461
  8
DATA
 62
     7
 10
479.14298814358852
 20
263.99751172317218
 30
0.0
 40
2.1717881944444448
  1
Power
 41
0.7
 11
479.14298814358852
 21
266.16929991761663
 31
0.0
 73
     3
  0
TEXT
  5
462
  8
DATA
 62
     7
 10
455.81036124538213
 20
264.1881498723381
 30
0.0
 40
2.1717881944444448
  1
Optic B
 41
0.7
 11
455.81036124538213
 21
266.35993806678249
 31
0.0
 73
     3
  0
TEXT
  5
463
  8
DATA
 62
     7
 10
457.34060232765643
 20
259.1881498723381
 30
0.0
 40
2.1717881944444448
  1
Status
 41
0.7
 11
457.34060232765643
 21
261.35993806678249
 31
0.0
 73
     3
  0
TEXT
  5
464
  8
DATA
 62
     7
 10
446.60000000000002
 20
272.41527777777782
 30
0.0
 40
6.7868381076388884
  1
DVI1600HDR
 41
0.7
 11
446.60000000000002
 21
279.20211588541667
 31
0.0
 73
     3
  0
LINE
  5
465
  8
DATA
  6
CONTINUOUS
 62
     7
 10
599.5
 20
250.0
 30
0.0
 11
599.5
 21
281.0
 31
0.0
  0
LINE
  5
466
  8
DATA
  6
CONTINUOUS
 62
     7
 10
613.76664908761848
 20
246.49999999962611
 30
0.0
 11
614.91664908761913
 21
249.99999999962611
 31
0.0
  0
LINE
  5
467
  8
DATA
  6
CONTINUOUS
 62
     7
 10
603.76664908761836
 20
246.49999999962611
 30
0.0
 11
602.61664908761838
 21
249.99999999962611
 31
0.0
  0
LINE
  5
468
  8
DATA
  6
CONTINUOUS
 62
     7
 10
613.76664908761848
 20
246.49999999962611
 30
0.0
 11
603.76664908761836
 21
246.49999999962611
 31
0.0
  0
LINE
  5
469
  8
DATA
  6
CONTINUOUS
 62
     7
 10
696.51546895808735
 20
246.49999999962611
 30
0.0
 11
697.66546895808767
 21
249.99999999962611
 31
0.0
  0
LINE
  5
46A
  8
DATA
  6
CONTINUOUS
 62
     7
 10
686.51546895808724
 20
246.49999999962611
 30
0.0
 11
685.36546895808681
 21
249.99999999962611
 31
0.0
  0
LINE
  5
46B
  8
DATA
  6
CONTINUOUS
 62
     7
 10
696.51546895808735
 20
246.49999999962611
 30
0.0
 11
686.51546895808724
 21
246.49999999962611
 31
0.0
  0
CIRCLE
  5
46C
  8
DATA
  6
CONTINUOUS
 62
     7
 10
699.5
 20
261.0
 30
0.0
 40
2.5
  0
LINE
  5
46D
  8
DATA
  6
CONTINUOUS
 62
     7
 10
698.49590837071514
 20
259.9959083707152
 30
0.0
 11
700.50409162928474
 21
262.00409162928491
 31
0.0
  0
LINE
  5
46E
  8
DATA
  6
CONTINUOUS
 62
     7
 10
700.50409162928474
 20
259.9959083707152
 30
0.0
 11
698.49590837071514
 21
262.00409162928491
 31
0.0
  0
LINE
  5
46F
  8
DATA
  6
CONTINUOUS
 62
     7
 10
725.0
 20
268.0
 30
0.0
 11
725.0
 21
260.0
 31
0.0
  0
LINE
  5
470
  8
DATA
  6
CONTINUOUS
 62
     7
 10
725.0
 20
260.0
 30
0.0
 11
717.49999999999989
 21
260.0
 31
0.0
  0
LINE
  5
471
  8
DATA
  6
CONTINUOUS
 62
     7
 10
717.49999999999989
 20
268.0
 30
0.0
 11
725.0
 21
268.0
 31
0.0
  0
ARC
  5
472
  8
DATA
  6
CONTINUOUS
 62
     7
 10
717.18495993549243
 20
275.30397309380271
 30
0.0
 40
2.599999999999969
 50
276.95958843887382
 51
83.040411561126987
  0
TEXT
  5
473
  8
DATA
 62
     7
 10
267.65198972935002
 20
179.29920780167791
 30
0.0
 40
13.57367621527778
  1
DVI1600HDR(レシーバー）
 41
0.7
 11
267.65198972935002
 21
192.8728840169556
 31
0.0
 73
     3
  0
LINE
  5
474
  8
DATA
  6
CONTINUOUS
 62
     7
 10
262.5
 20
550.0
 30
0.0
 11
475.0
 21
550.0
 31
0.0
  0
LINE
  5
475
  8
DATA
  6
CONTINUOUS
 62
     7
 10
262.5
 20
175.0
 30
0.0
 11
462.5
 21
175.0
 31
0.0
  0
ARC
  5
476
  8
DATA
  6
CONTINUOUS
 62
     7
 10
239.0
 20
279.4999999996262
 30
0.0
 40
1.5
 50
90.0
 51
180.0
  0
ARC
  5
477
  8
DATA
  6
CONTINUOUS
 62
     7
 10
239.0
 20
279.4999999996262
 30
0.0
 40
1.5
 50
90.0
 51
180.0
  0
ARC
  5
478
  8
DATA
  6
CONTINUOUS
 62
     7
 10
496.0
 20
279.4999999996262
 30
0.0
 40
1.5
 50
0.0
 51
90.0
  0
ARC
  5
479
  8
DATA
  6
CONTINUOUS
 62
     7
 10
239.0
 20
476.4999999997558
 30
0.0
 40
1.5
 50
180.0
 51
270.0
  0
ARC
  5
47A
  8
DATA
  6
CONTINUOUS
 62
     7
 10
496.0
 20
476.4999999997558
 30
0.0
 40
1.5
 50
270.0
 51
0.0
  0
ARC
  5
47B
  8
DATA
  6
CONTINUOUS
 62
     7
 10
239.0
 20
654.4999999996262
 30
0.0
 40
1.5
 50
90.0
 51
180.0
  0
ARC
  5
47C
  8
DATA
  6
CONTINUOUS
 62
     7
 10
496.0
 20
654.4999999996262
 30
0.0
 40
1.5
 50
0.0
 51
90.0
  0
ARC
  5
47D
  8
DATA
  6
CONTINUOUS
 62
     7
 10
239.0
 20
851.49999999975557
 30
0.0
 40
1.5
 50
180.0
 51
270.0
  0
ARC
  5
47E
  8
DATA
  6
CONTINUOUS
 62
     7
 10
496.0
 20
851.49999999975557
 30
0.0
 40
1.5
 50
270.0
 51
0.0
  0
ENDSEC
  0
EOF
