  0
SECTION
  2
HEADER
  9
$ACADVER
  1
AC1009
  9
$INSBASE
 10
0.0
 20
0.0
 30
0.0
  9
$EXTMIN
 10
14.994507516960759
 20
3.633728974538144
 30
-0.0015258207003583
  9
$EXTMAX
 10
285.00869817334308
 20
405.012360562119
 30
0.0000000349246037
  9
$LIMMIN
 10
0.0
 20
0.0
  9
$LIMMAX
 10
0.0
 20
0.0
  9
$ORTHOMODE
 70
     0
  9
$REGENMODE
 70
     1
  9
$FILLMODE
 70
     1
  9
$QTEXTMODE
 70
     0
  9
$MIRRTEXT
 70
     1
  9
$DRAGMODE
 70
     2
  9
$LTSCALE
 40
7.6199999999999983
  9
$OSMODE
 70
   231
  9
$ATTMODE
 70
     1
  9
$TEXTSIZE
 40
0.0
  9
$TRACEWID
 40
1.0
  9
$TEXTSTYLE
  7
STANDARD
  9
$CLAYER
  8
DATA
  9
$CELTYPE
  6
BYLAYER
  9
$CECOLOR
 62
   256
  9
$DIMSCALE
 40
1.0
  9
$DIMASZ
 40
0.18
  9
$DIMEXO
 40
0.0625
  9
$DIMDLI
 40
0.38
  9
$DIMRND
 40
0.0
  9
$DIMDLE
 40
0.0
  9
$DIMEXE
 40
0.18
  9
$DIMTP
 40
0.0
  9
$DIMTM
 40
0.0
  9
$DIMTXT
 40
0.18
  9
$DIMCEN
 40
0.09
  9
$DIMTSZ
 40
0.0
  9
$DIMTOL
 70
     0
  9
$DIMLIM
 70
     0
  9
$DIMTIH
 70
     1
  9
$DIMTOH
 70
     1
  9
$DIMSE1
 70
     0
  9
$DIMSE2
 70
     0
  9
$DIMTAD
 70
     0
  9
$DIMZIN
 70
     0
  9
$DIMBLK
  1

  9
$DIMASO
 70
     1
  9
$DIMSHO
 70
     1
  9
$DIMPOST
  1

  9
$DIMAPOST
  1

  9
$DIMALT
 70
     0
  9
$DIMALTD
 70
     2
  9
$DIMALTF
 40
25.399999999999999
  9
$DIMLFAC
 40
1.0
  9
$DIMTOFL
 70
     0
  9
$DIMTVP
 40
0.0
  9
$DIMTIX
 70
     0
  9
$DIMSOXD
 70
     0
  9
$DIMSAH
 70
     0
  9
$DIMBLK1
  1

  9
$DIMBLK2
  1

  9
$DIMSTYLE
  2
STANDARD
  9
$DIMCLRD
 70
     0
  9
$DIMCLRE
 70
     0
  9
$DIMCLRT
 70
     0
  9
$DIMTFAC
 40
1.0
  9
$DIMGAP
 40
0.09
  9
$LUNITS
 70
     2
  9
$LUPREC
 70
     4
  9
$SKETCHINC
 40
0.1
  9
$FILLETRAD
 40
0.0
  9
$AUNITS
 70
     0
  9
$AUPREC
 70
     0
  9
$MENU
  1
acad
  9
$ELEVATION
 40
0.0
  9
$PELEVATION
 40
0.0
  9
$THICKNESS
 40
0.0
  9
$LIMCHECK
 70
     0
  9
$BLIPMODE
 70
     0
  9
$CHAMFERA
 40
0.0
  9
$CHAMFERB
 40
0.0
  9
$SKPOLY
 70
     0
  9
$TDCREATE
 40
2455202.6602546298
  9
$TDUPDATE
 40
2455202.6657893872
  9
$TDINDWG
 40
0.0003154977
  9
$TDUSRTIMER
 40
0.0003154977
  9
$USRTIMER
 70
     1
  9
$ANGBASE
 50
0.0
  9
$ANGDIR
 70
     0
  9
$PDMODE
 70
     1
  9
$PDSIZE
 40
-2.0
  9
$PLINEWID
 40
0.0
  9
$COORDS
 70
     0
  9
$SPLFRAME
 70
     0
  9
$SPLINETYPE
 70
     6
  9
$SPLINESEGS
 70
     8
  9
$ATTDIA
 70
     0
  9
$ATTREQ
 70
     1
  9
$HANDLING
 70
     1
  9
$HANDSEED
  5
5D3
  9
$SURFTAB1
 70
     6
  9
$SURFTAB2
 70
     6
  9
$SURFTYPE
 70
     6
  9
$SURFU
 70
     6
  9
$SURFV
 70
     6
  9
$UCSNAME
  2

  9
$UCSORG
 10
0.0
 20
0.0
 30
0.0
  9
$UCSXDIR
 10
1.0
 20
0.0
 30
0.0
  9
$UCSYDIR
 10
0.0
 20
1.0
 30
0.0
  9
$PUCSNAME
  2

  9
$PUCSORG
 10
0.0
 20
0.0
 30
0.0
  9
$PUCSXDIR
 10
1.0
 20
0.0
 30
0.0
  9
$PUCSYDIR
 10
0.0
 20
1.0
 30
0.0
  9
$USERI1
 70
     0
  9
$USERI2
 70
     0
  9
$USERI3
 70
     0
  9
$USERI4
 70
     0
  9
$USERI5
 70
     0
  9
$USERR1
 40
0.0
  9
$USERR2
 40
0.0
  9
$USERR3
 40
0.0
  9
$USERR4
 40
0.0
  9
$USERR5
 40
0.0
  9
$WORLDVIEW
 70
     1
  9
$SHADEDGE
 70
     3
  9
$SHADEDIF
 70
    70
  9
$TILEMODE
 70
     1
  9
$MAXACTVP
 70
    64
  9
$PLIMCHECK
 70
     0
  9
$PEXTMIN
 10
1.0000000000000000E+020
 20
1.0000000000000000E+020
 30
1.0000000000000000E+020
  9
$PEXTMAX
 10
-1.0000000000000000E+020
 20
-1.0000000000000000E+020
 30
-1.0000000000000000E+020
  9
$PLIMMIN
 10
0.0
 20
0.0
  9
$PLIMMAX
 10
12.0
 20
9.0
  9
$UNITMODE
 70
     0
  9
$VISRETAIN
 70
     0
  9
$PLINEGEN
 70
     1
  9
$PSLTSCALE
 70
     0
  0
ENDSEC
  0
SECTION
  2
TABLES
  0
TABLE
  2
VPORT
 70
     1
  0
VPORT
  2
*ACTIVE
 70
     0
 10
0.0
 20
0.0
 11
1.0
 21
1.0
 12
150.00160284515189
 22
204.3230447683286
 13
0.0
 23
0.0
 14
1.0
 24
1.0
 15
0.0
 25
0.0
 16
0.0
 26
0.0
 36
1.0
 17
0.0
 27
0.0
 37
0.0
 40
404.33719643957778
 41
1.964329643296433
 42
50.0
 43
0.0
 44
0.0
 50
0.0
 51
0.0
 71
     0
 72
  2000
 73
     1
 74
     1
 75
     0
 76
     0
 77
     0
 78
     0
  0
ENDTAB
  0
TABLE
  2
LTYPE
 70
    11
  0
LTYPE
  2
CONTINUOUS
 70
     0
  3
Solid line
 72
    65
 73
     0
 40
0.0
  0
ENDTAB
  0
TABLE
  2
LAYER
 70
     5
  0
LAYER
  2
0
 70
     0
 62
     7
  6
CONTINUOUS
  0
LAYER
  2
DATA
 70
     0
 62
     7
  6
CONTINUOUS
  0
LAYER
  2
HIBINO-BASE
 70
     0
 62
     7
  6
CONTINUOUS
  0
LAYER
  2
SPEC
 70
     0
 62
     7
  6
CONTINUOUS
  0
LAYER
  2
DIMNSIONS
 70
     0
 62
     7
  6
CONTINUOUS
  0
ENDTAB
  0
TABLE
  2
STYLE
 70
     3
  0
STYLE
  2
STANDARD
 70
     0
 40
0.0
 41
1.0
 50
0.0
 71
     0
 42
0.0
  3
txt
  4
BIGFONT.SHX
  0
ENDTAB
  0
TABLE
  2
VIEW
 70
     0
  0
ENDTAB
  0
TABLE
  2
UCS
 70
     0
  0
ENDTAB
  0
TABLE
  2
APPID
 70
     3
  0
APPID
  2
ACAD
 70
     0
  0
APPID
  2
ACADANNOTATIVE
 70
     0
  0
APPID
  2
ACAD_MLEADERVER
 70
     0
  0
ENDTAB
  0
TABLE
  2
DIMSTYLE
 70
     2
  0
DIMSTYLE
  2
STANDARD
 70
     0
  3

  4

  5

  6

  7

 40
1.0
 41
0.18
 42
0.0625
 43
0.38
 44
0.18
 45
0.0
 46
0.0
 47
0.0
 48
0.0
140
0.18
141
0.09
142
0.0
143
25.399999999999999
144
1.0
145
0.0
146
1.0
147
0.09
 71
     0
 72
     0
 73
     1
 74
     1
 75
     0
 76
     0
 77
     0
 78
     0
170
     0
171
     2
172
     0
173
     0
174
     0
175
     0
176
     0
177
     0
178
     0
  0
ENDTAB
  0
ENDSEC
  0
SECTION
  2
BLOCKS
  0
BLOCK
  8
0
  2
$MODEL_SPACE
 70
     0
 10
0.0
 20
0.0
 30
0.0
  3
$MODEL_SPACE
  1

  0
ENDBLK
  5
454
  8
0
  0
BLOCK
 67
     1
  8
0
  2
$PAPER_SPACE
 70
     0
 10
0.0
 20
0.0
 30
0.0
  3
$PAPER_SPACE
  1

  0
ENDBLK
  5
450
 67
     1
  8
0
  0
ENDSEC
  0
SECTION
  2
ENTITIES
  0
LINE
  5
2C
  8
HIBINO-BASE
  6
CONTINUOUS
 62
     7
 10
15.0
 20
405.0
 30
0.0
 11
285.0
 21
405.0
 31
0.0
  0
LINE
  5
2D
  8
HIBINO-BASE
  6
CONTINUOUS
 62
     7
 10
285.0
 20
15.0
 30
0.0
 11
15.0
 21
15.0
 31
0.0
  0
LINE
  5
2E
  8
HIBINO-BASE
  6
CONTINUOUS
 62
     7
 10
15.0
 20
15.0
 30
0.0
 11
15.0
 21
405.0
 31
0.0
  0
LINE
  5
2F
  8
HIBINO-BASE
  6
CONTINUOUS
 62
     7
 10
285.0
 20
405.0
 30
0.0
 11
285.0
 21
15.0
 31
0.0
  0
LINE
  5
30
  8
HIBINO-BASE
  6
CONTINUOUS
 62
     7
 10
150.0
 20
48.750000000000021
 30
0.0
 11
285.0
 21
48.750000000000021
 31
0.0
  0
LINE
  5
31
  8
HIBINO-BASE
  6
CONTINUOUS
 62
     7
 10
150.0
 20
15.0
 30
0.0
 11
150.0
 21
48.750000000000021
 31
0.0
  0
TEXT
  5
32
  8
HIBINO-BASE
 62
     7
 10
151.34999999999991
 20
44.98696000000001
 30
0.0
 40
2.4432617187500001
  1
NOTE
 41
0.7
 11
151.34999999999991
 21
47.430221718750012
 31
0.0
 73
     3
  0
LINE
  5
33
  8
HIBINO-BASE
  6
CONTINUOUS
 62
     7
 10
202.5
 20
15.0
 30
0.0
 11
202.5
 21
48.750000000000021
 31
0.0
  0
TEXT
  5
34
  8
HIBINO-BASE
 62
     7
 10
203.84999999999999
 20
44.98696000000001
 30
0.0
 40
2.4432617187500001
  1
TITLE
 41
0.7
 11
203.84999999999999
 21
47.430221718750012
 31
0.0
 73
     3
  0
LINE
  5
35
  8
HIBINO-BASE
  6
CONTINUOUS
 62
     7
 10
150.0
 20
30.000000000000028
 30
0.0
 11
285.0
 21
30.000000000000028
 31
0.0
  0
TEXT
  5
36
  8
HIBINO-BASE
 62
     7
 10
222.59999999999999
 20
26.321439999999988
 30
0.0
 40
2.4432617187500001
  1
DRAWN
 41
0.7
 11
222.59999999999999
 21
28.76470171874999
 31
0.0
 73
     3
  0
TEXT
  5
37
  8
HIBINO-BASE
 62
     7
 10
185.09999999999999
 20
26.321439999999988
 30
0.0
 40
2.4432617187500001
  1
DATE
 41
0.7
 11
185.09999999999999
 21
28.76470171874999
 31
0.0
 73
     3
  0
TEXT
  5
38
  8
HIBINO-BASE
 62
     7
 10
170.09999999999991
 20
26.321439999999988
 30
0.0
 40
2.4432617187500001
  1
SCALE
 41
0.7
 11
170.09999999999991
 21
28.76470171874999
 31
0.0
 73
     3
  0
TEXT
  5
39
  8
HIBINO-BASE
 62
     7
 10
203.84999999999999
 20
26.321439999999988
 30
0.0
 40
2.4432617187500001
  1
DESIGN
 41
0.7
 11
203.84999999999999
 21
28.76470171874999
 31
0.0
 73
     3
  0
TEXT
  5
3A
  8
HIBINO-BASE
 62
     7
 10
260.10000000000002
 20
26.321439999999988
 30
0.0
 40
2.4432617187500001
  1
DRAWING NO.
 41
0.7
 11
260.10000000000002
 21
28.76470171874999
 31
0.0
 73
     3
  0
TEXT
  5
3B
  8
HIBINO-BASE
 62
     7
 10
241.34999999999999
 20
26.321439999999988
 30
0.0
 40
2.4432617187500001
  1
CHECK
 41
0.7
 11
241.34999999999999
 21
28.76470171874999
 31
0.0
 73
     3
  0
LINE
  5
3C
  8
HIBINO-BASE
  6
CONTINUOUS
 62
     7
 10
171.5625
 20
16.875
 30
0.0
 11
177.18749999999989
 21
22.500000000000028
 31
0.0
  0
TEXT
  5
3D
  8
HIBINO-BASE
 62
     7
 10
170.625
 20
20.83658500000001
 30
0.0
 40
2.4432617187500001
  1
1
 41
0.7
 11
170.625
 21
23.279846718750012
 31
0.0
 73
     3
  0
LINE
  5
3E
  8
HIBINO-BASE
  6
CONTINUOUS
 62
     7
 10
168.75
 20
15.0
 30
0.0
 11
168.75
 21
30.000000000000028
 31
0.0
  0
LINE
  5
3F
  8
HIBINO-BASE
  6
CONTINUOUS
 62
     7
 10
183.75
 20
15.0
 30
0.0
 11
183.75
 21
30.000000000000028
 31
0.0
  0
LINE
  5
40
  8
HIBINO-BASE
  6
CONTINUOUS
 62
     7
 10
221.25
 20
30.000000000000028
 30
0.0
 11
221.25
 21
15.0
 31
0.0
  0
LINE
  5
41
  8
HIBINO-BASE
  6
CONTINUOUS
 62
     7
 10
258.75
 20
30.000000000000028
 30
0.0
 11
258.75
 21
15.0
 31
0.0
  0
LINE
  5
42
  8
HIBINO-BASE
  6
CONTINUOUS
 62
     7
 10
240.0
 20
15.0
 30
0.0
 11
240.0
 21
30.000000000000028
 31
0.0
  0
TEXT
  5
43
  8
HIBINO-BASE
 62
     7
 10
185.03480999999999
 20
19.295469999999991
 30
0.0
 40
2.4432617187500001
  1
'09.09.
 41
0.7
 11
185.03480999999999
 21
21.738731718749989
 31
0.0
 73
     3
  0
TEXT
  5
44
  8
HIBINO-BASE
 62
     7
 10
176.25
 20
18.02408500000001
 30
0.0
 40
2.4432617187500001
  1
1.5
 41
0.7
 11
176.25
 21
20.467346718750012
 31
0.0
 73
     3
  0
TEXT
  5
45
  8
HIBINO-BASE
 62
     7
 10
155.82499999999999
 20
17.964000000000009
 30
0.0
 40
4.8865234374999993
  1
A4
 41
0.7
 11
155.82499999999999
 21
22.850523437500019
 31
0.0
 73
     3
  0
TEXT
  5
46
  8
HIBINO-BASE
 62
     7
 10
151.4375
 20
26.070817500000029
 30
0.0
 40
2.4432617187500001
  1
PAPER SIZE
 41
0.7
 11
151.4375
 21
28.51407921875003
 31
0.0
 73
     3
  0
TEXT
  5
47
  8
HIBINO-BASE
 62
     7
 10
19.371316120197179
 20
5.408259692617797
 30
0.0
 40
5.293733723958332
  1
Hibino-Intersound Corporation
 41
0.7
 11
19.371316120197179
 21
10.70199341657613
 31
0.0
 73
     3
  0
TEXT
  5
48
  8
HIBINO-BASE
 62
     7
 10
180.9689499059817
 20
5.8737681933067387
 30
0.0
 40
5.293733723958332
  1
ヒビノインターサウンド株式会社
 41
0.7
 11
180.9689499059817
 21
11.167501917265071
 31
0.0
 73
     3
  0
TEXT
  5
49
  8
HIBINO-BASE
 62
     7
 10
224.4003416977045
 20
19.424252062764499
 30
0.0
 40
2.4432617187500001
  1
T.Ootake
 41
0.7
 11
224.4003416977045
 21
21.8675137815145
 31
0.0
 73
     3
  0
TEXT
  5
4A
  8
SPEC
 62
     7
 10
28.125
 20
392.08990499999999
 30
0.0
 40
3.664892578124999
  1
仕様
 41
0.7
 11
28.125
 21
395.75479757812491
 31
0.0
 73
     3
  0
LINE
  5
4B
  8
SPEC
  6
CONTINUOUS
 62
     7
 10
26.249999999999972
 20
389.99999999983282
 30
0.0
 11
211.62181333603399
 21
389.99999999983282
 31
0.0
  0
LINE
  5
4C
  8
SPEC
  6
CONTINUOUS
 62
     7
 10
26.249999999999972
 20
384.37499999983282
 30
0.0
 11
211.62181333603399
 21
384.37499999983282
 31
0.0
  0
LINE
  5
4D
  8
SPEC
  6
CONTINUOUS
 62
     7
 10
26.249999999999972
 20
361.87499999983282
 30
0.0
 11
211.62181333603399
 21
361.87499999983282
 31
0.0
  0
LINE
  5
4E
  8
SPEC
  6
CONTINUOUS
 62
     7
 10
26.249999999999972
 20
367.49999999983282
 30
0.0
 11
211.62181333603399
 21
367.49999999983282
 31
0.0
  0
LINE
  5
4F
  8
SPEC
  6
CONTINUOUS
 62
     7
 10
26.249999999999972
 20
373.12499999983282
 30
0.0
 11
211.62181333603399
 21
373.12499999983282
 31
0.0
  0
LINE
  5
50
  8
SPEC
  6
CONTINUOUS
 62
     7
 10
211.62181333603399
 20
356.24999999983282
 30
0.0
 11
26.249999999999972
 21
356.24999999983282
 31
0.0
  0
LINE
  5
51
  8
SPEC
  6
CONTINUOUS
 62
     7
 10
26.249999999999972
 20
378.74999999983282
 30
0.0
 11
211.62181333603399
 21
378.74999999983282
 31
0.0
  0
LINE
  5
52
  8
SPEC
  6
CONTINUOUS
 62
     7
 10
26.249999999999972
 20
389.99999999983282
 30
0.0
 11
26.249999999999972
 21
333.72999999983278
 31
0.0
  0
LINE
  5
53
  8
SPEC
  6
CONTINUOUS
 62
     7
 10
74.999999999999972
 20
389.99999999983282
 30
0.0
 11
74.999999999999972
 21
356.24999999983282
 31
0.0
  0
LINE
  5
54
  8
SPEC
  6
CONTINUOUS
 62
     7
 10
211.62181333603399
 20
389.99999999983282
 30
0.0
 11
211.62181333603399
 21
333.72999999983278
 31
0.0
  0
TEXT
  5
55
  8
SPEC
 62
     7
 10
27.545307871136131
 20
385.82454587261458
 30
0.0
 40
2.850466875
  1
形式
 41
0.7
 11
27.545307871136131
 21
388.67501274761457
 31
0.0
 73
     3
  0
LINE
  5
56
  8
SPEC
  6
CONTINUOUS
 62
     7
 10
74.999999999999972
 20
389.99999999983282
 30
0.0
 11
74.999999999999972
 21
333.72999999983278
 31
0.0
  0
TEXT
  5
57
  8
SPEC
 62
     7
 10
27.459812966256131
 20
340.79688450454017
 30
0.0
 40
2.8504720052083332
  1
寸法
 41
0.7
 11
27.459812966256131
 21
343.64735650974859
 31
0.0
 73
     3
  0
TEXT
  5
58
  8
SPEC
 62
     7
 10
27.506014583388009
 20
335.15469654611468
 30
0.0
 40
2.8504720052083332
  1
重量
 41
0.7
 11
27.506014583388009
 21
338.00516855132298
 31
0.0
 73
     3
  0
TEXT
  5
59
  8
SPEC
 62
     7
 10
27.51604348862401
 20
352.09977664616252
 30
0.0
 40
2.8504720052083332
  1
電源
 41
0.7
 11
27.51604348862401
 21
354.95024865137083
 31
0.0
 73
     3
  0
TEXT
  5
5A
  8
SPEC
 62
     7
 10
76.382357408381921
 20
351.84237158972098
 30
0.0
 40
2.8504720052083332
  1
5V DC
 41
0.7
 11
76.382357408381921
 21
354.6928435949294
 31
0.0
 73
     3
  0
TEXT
  5
5B
  8
SPEC
 62
     7
 10
76.379537029207341
 20
340.68461089965223
 30
0.0
 40
2.8504720052083332
  1
41(W)\U+00D715(H)\U+00D756(D)mm(突起部含まず)、(送信機、受信機共に)
 41
0.7
 11
76.379537029207341
 21
343.53508290486059
 31
0.0
 73
     3
  0
TEXT
  5
5C
  8
SPEC
 62
     7
 10
76.294082715071426
 20
335.15315774428723
 30
0.0
 40
2.8504720052083332
  1
約38g(送信機、受信機共に)
 41
0.7
 11
76.294082715071426
 21
338.00362974949547
 31
0.0
 73
     3
  0
TEXT
  5
5D
  8
SPEC
 62
     7
 10
76.469769476581376
 20
385.74728493568199
 30
0.0
 40
2.8504720052083332
  1
DVI延長機
 41
0.7
 11
76.469769476581376
 21
388.59775694089041
 31
0.0
 73
     3
  0
LINE
  5
5E
  8
SPEC
  6
CONTINUOUS
 62
     7
 10
211.62181333603399
 20
350.61999999983283
 30
0.0
 11
26.249999999999972
 21
350.61999999983283
 31
0.0
  0
LINE
  5
5F
  8
SPEC
  6
CONTINUOUS
 62
     7
 10
211.62181333603399
 20
344.98999999983278
 30
0.0
 11
26.249999999999972
 21
344.98999999983278
 31
0.0
  0
LINE
  5
60
  8
SPEC
  6
CONTINUOUS
 62
     7
 10
211.62181333603399
 20
339.35999999983278
 30
0.0
 11
26.249999999999972
 21
339.35999999983278
 31
0.0
  0
LINE
  5
61
  8
SPEC
  6
CONTINUOUS
 62
     7
 10
211.62181333603399
 20
333.72999999983278
 30
0.0
 11
26.249999999999972
 21
333.72999999983278
 31
0.0
  0
TEXT
  5
62
  8
SPEC
 62
     7
 10
26.920080999322771
 20
380.14326096493562
 30
0.0
 40
2.850466875
  1
ビデオアンプ帯域
 41
0.7
 11
26.920080999322771
 21
382.99372783993562
 31
0.0
 73
     3
  0
TEXT
  5
63
  8
SPEC
 62
     7
 10
76.140852900141553
 20
380.11798163084592
 30
0.0
 40
2.8504720052083332
  1
165MHz
 41
0.7
 11
76.140852900141553
 21
382.96845363605428
 31
0.0
 73
     3
  0
TEXT
  5
64
  8
SPEC
 62
     7
 10
27.54063382895691
 20
368.82485947460128
 30
0.0
 40
2.850466875
  1
入力DDC信号
 41
0.7
 11
27.54063382895691
 21
371.67532634960128
 31
0.0
 73
     3
  0
TEXT
  5
65
  8
SPEC
 62
     7
 10
76.358150735021155
 20
368.77810127624241
 30
0.0
 40
2.8504720052083332
  1
5V p-p(TTL)
 41
0.7
 11
76.358150735021155
 21
371.62857328145071
 31
0.0
 73
     3
  0
TEXT
  5
66
  8
SPEC
 62
     7
 10
26.85233359508797
 20
357.6433958858226
 30
0.0
 40
2.850466875
  1
リンクコネクター
 41
0.7
 11
26.85233359508797
 21
360.49386276082259
 31
0.0
 73
     3
  0
TEXT
  5
67
  8
SPEC
 62
     7
 10
76.397439462049903
 20
357.32165764109862
 30
0.0
 40
2.8504720052083332
  1
SC
 41
0.7
 11
76.397439462049903
 21
360.17212964630693
 31
0.0
 73
     3
  0
TEXT
  5
68
  8
SPEC
 62
     7
 10
27.53274458389032
 20
374.55159621673522
 30
0.0
 40
2.850466875
  1
入力ビデオ信号
 41
0.7
 11
27.53274458389032
 21
377.40206309173522
 31
0.0
 73
     3
  0
TEXT
  5
69
  8
SPEC
 62
     7
 10
76.358088789856112
 20
374.35594343914238
 30
0.0
 40
2.8504720052083332
  1
1.2V p-p
 41
0.7
 11
76.358088789856112
 21
377.2064154443508
 31
0.0
 73
     3
  0
TEXT
  5
6A
  8
SPEC
 62
     7
 10
27.635771362648409
 20
363.2582294616156
 30
0.0
 40
2.850466875
  1
DVI入出力端子
 41
0.7
 11
27.635771362648409
 21
366.10869633661548
 31
0.0
 73
     3
  0
TEXT
  5
6B
  8
SPEC
 62
     7
 10
76.367996118782514
 20
363.15776104397048
 30
0.0
 40
2.8504720052083332
  1
Type DVI-D 19pinオス
 41
0.7
 11
76.367996118782514
 21
366.0082330491789
 31
0.0
 73
     3
  0
TEXT
  5
6C
  8
SPEC
 62
     7
 10
27.551302897639371
 20
346.48652613351157
 30
0.0
 40
2.8504720052083332
  1
消費電力
 41
0.7
 11
27.551302897639371
 21
349.33699813871999
 31
0.0
 73
     3
  0
TEXT
  5
6D
  8
SPEC
 62
     7
 10
76.382357408381921
 20
346.27116557782631
 30
0.0
 40
2.8504720052083332
  1
2.5W(最大)
 41
0.7
 11
76.382357408381921
 21
349.12163758303473
 31
0.0
 73
     3
  0
TEXT
  5
6E
  8
DIMNSIONS
 62
     7
 10
119.9999999999999
 20
33.404235000000021
 30
0.0
 40
3.664892578124999
  1
(単位：mm)
 41
0.7
 11
119.9999999999999
 21
37.06912757812502
 31
0.0
 73
     3
  0
LINE
  5
6F
  8
DIMNSIONS
  6
CONTINUOUS
 62
     7
 10
62.249999999799961
 20
156.2500000000511
 30
0.0
 11
40.729999999799958
 21
156.2500000000511
 31
0.0
  0
LINE
  5
70
  8
DIMNSIONS
  6
CONTINUOUS
 62
     7
 10
53.249999999799968
 20
212.2500000000511
 30
0.0
 11
40.729999999799958
 21
212.2500000000511
 31
0.0
  0
LINE
  5
71
  8
DIMNSIONS
  6
CONTINUOUS
 62
     7
 10
43.729999999799958
 20
156.2500000000511
 30
0.0
 11
43.729999999799958
 21
212.2500000000511
 31
0.0
  0
LINE
  5
72
  8
DIMNSIONS
  6
CONTINUOUS
 62
     7
 10
43.729999999799958
 20
156.2500000000511
 30
0.0
 11
42.724940307074611
 21
160.00093383794169
 31
0.0
  0
LINE
  5
73
  8
DIMNSIONS
  6
CONTINUOUS
 62
     7
 10
43.729999999799958
 20
156.2500000000511
 30
0.0
 11
44.73505969252534
 21
160.00093383794169
 31
0.0
  0
LINE
  5
74
  8
DIMNSIONS
  6
CONTINUOUS
 62
     7
 10
43.729999999799958
 20
212.2500000000511
 30
0.0
 11
44.73505969252534
 21
208.4990661621604
 31
0.0
  0
LINE
  5
75
  8
DIMNSIONS
  6
CONTINUOUS
 62
     7
 10
43.729999999799958
 20
212.2500000000511
 30
0.0
 11
42.724940307074611
 21
208.4990661621604
 31
0.0
  0
TEXT
  5
76
  8
DIMNSIONS
 62
     7
 10
42.239166666466652
 20
181.6041666667177
 30
0.0
 40
4.072102864583333
  1
56
 50
90.0
 41
0.7
 11
38.167063801883323
 21
181.6041666667177
 31
0.0
 73
     3
  0
LINE
  5
77
  8
DIMNSIONS
  6
CONTINUOUS
 62
     7
 10
60.749999999799968
 20
217.2500000000511
 30
0.0
 11
40.729999999799958
 21
217.2500000000511
 31
0.0
  0
LINE
  5
78
  8
DIMNSIONS
  6
CONTINUOUS
 62
     7
 10
43.729999999799958
 20
217.2500000000511
 30
0.0
 11
43.729999999799958
 21
212.2500000000511
 31
0.0
  0
LINE
  5
79
  8
DIMNSIONS
  6
CONTINUOUS
 62
     7
 10
43.729999999799958
 20
212.2500000000511
 30
0.0
 11
43.729999999799958
 21
204.7500000000511
 31
0.0
  0
LINE
  5
7A
  8
DIMNSIONS
  6
CONTINUOUS
 62
     7
 10
43.729999999799958
 20
212.2500000000511
 30
0.0
 11
44.73505969252534
 21
208.4990661621604
 31
0.0
  0
LINE
  5
7B
  8
DIMNSIONS
  6
CONTINUOUS
 62
     7
 10
43.729999999799958
 20
212.2500000000511
 30
0.0
 11
42.724940307074611
 21
208.4990661621604
 31
0.0
  0
LINE
  5
7C
  8
DIMNSIONS
  6
CONTINUOUS
 62
     7
 10
43.729999999799958
 20
217.2500000000511
 30
0.0
 11
43.729999999799958
 21
226.12583333338441
 31
0.0
  0
LINE
  5
7D
  8
DIMNSIONS
  6
CONTINUOUS
 62
     7
 10
43.729999999799958
 20
217.2500000000511
 30
0.0
 11
42.724940307074611
 21
221.00093383794169
 31
0.0
  0
LINE
  5
7E
  8
DIMNSIONS
  6
CONTINUOUS
 62
     7
 10
43.729999999799958
 20
217.2500000000511
 30
0.0
 11
44.73505969252534
 21
221.00093383794169
 31
0.0
  0
TEXT
  5
7F
  8
DIMNSIONS
 62
     7
 10
42.23916666646663
 20
223.48000000005109
 30
0.0
 40
4.072102864583333
  1
5
 50
90.0
 41
0.7
 11
38.167063801883302
 21
223.48000000005109
 31
0.0
 73
     3
  0
LINE
  5
80
  8
DIMNSIONS
  6
CONTINUOUS
 62
     7
 10
54.68555309169151
 20
112.50000000030001
 30
0.0
 11
40.729999999799958
 21
112.50000000030001
 31
0.0
  0
LINE
  5
81
  8
DIMNSIONS
  6
CONTINUOUS
 62
     7
 10
54.68555309169151
 20
127.50000000030001
 30
0.0
 11
40.729999999799958
 21
127.50000000030001
 31
0.0
  0
LINE
  5
82
  8
DIMNSIONS
  6
CONTINUOUS
 62
     7
 10
43.729999999799958
 20
112.50000000030001
 30
0.0
 11
43.729999999799958
 21
127.50000000030001
 31
0.0
  0
LINE
  5
83
  8
DIMNSIONS
  6
CONTINUOUS
 62
     7
 10
43.729999999799958
 20
112.50000000030001
 30
0.0
 11
42.724940307074611
 21
116.2509338381906
 31
0.0
  0
LINE
  5
84
  8
DIMNSIONS
  6
CONTINUOUS
 62
     7
 10
43.729999999799958
 20
112.50000000030001
 30
0.0
 11
44.73505969252534
 21
116.2509338381906
 31
0.0
  0
LINE
  5
85
  8
DIMNSIONS
  6
CONTINUOUS
 62
     7
 10
43.729999999799958
 20
127.50000000030001
 30
0.0
 11
44.73505969252534
 21
123.74906616240931
 31
0.0
  0
LINE
  5
86
  8
DIMNSIONS
  6
CONTINUOUS
 62
     7
 10
43.729999999799958
 20
127.50000000030001
 30
0.0
 11
42.724940307074611
 21
123.74906616240931
 31
0.0
  0
TEXT
  5
87
  8
DIMNSIONS
 62
     7
 10
42.239166666466652
 20
117.35416666696661
 30
0.0
 40
4.072102864583333
  1
15
 50
90.0
 41
0.7
 11
38.167063801883323
 21
117.35416666696661
 31
0.0
 73
     3
  0
LINE
  5
88
  8
DIMNSIONS
  6
CONTINUOUS
 62
     7
 10
56.249999999799968
 20
117.00000000030001
 30
0.0
 11
56.249999999799968
 21
96.980000000299995
 31
0.0
  0
LINE
  5
89
  8
DIMNSIONS
  6
CONTINUOUS
 62
     7
 10
97.249999999799996
 20
117.00000000030001
 30
0.0
 11
97.249999999799996
 21
96.980000000299995
 31
0.0
  0
LINE
  5
8A
  8
DIMNSIONS
  6
CONTINUOUS
 62
     7
 10
56.249999999799968
 20
99.980000000299981
 30
0.0
 11
97.249999999799996
 21
99.980000000299981
 31
0.0
  0
LINE
  5
8B
  8
DIMNSIONS
  6
CONTINUOUS
 62
     7
 10
56.249999999799968
 20
99.980000000299981
 30
0.0
 11
60.000933837690603
 21
100.98505969302531
 31
0.0
  0
LINE
  5
8C
  8
DIMNSIONS
  6
CONTINUOUS
 62
     7
 10
56.249999999799968
 20
99.980000000299981
 30
0.0
 11
60.000933837690603
 21
98.974940307574599
 31
0.0
  0
LINE
  5
8D
  8
DIMNSIONS
  6
CONTINUOUS
 62
     7
 10
97.249999999799996
 20
99.980000000299981
 30
0.0
 11
93.499066161909369
 21
98.974940307574599
 31
0.0
  0
LINE
  5
8E
  8
DIMNSIONS
  6
CONTINUOUS
 62
     7
 10
97.249999999799996
 20
99.980000000299981
 30
0.0
 11
93.499066161909369
 21
100.98505969302531
 31
0.0
  0
TEXT
  5
8F
  8
DIMNSIONS
 62
     7
 10
74.104166666466654
 20
101.47083333363329
 30
0.0
 40
4.072102864583333
  1
41
 41
0.7
 11
74.104166666466654
 21
105.54293619821659
 31
0.0
 73
     3
  0
LINE
  5
90
  8
DIMNSIONS
  6
CONTINUOUS
 62
     7
 10
187.2500000002
 20
156.2500000000511
 30
0.0
 11
165.73000000019999
 21
156.2500000000511
 31
0.0
  0
LINE
  5
91
  8
DIMNSIONS
  6
CONTINUOUS
 62
     7
 10
178.25000000019989
 20
212.2500000000511
 30
0.0
 11
165.73000000019999
 21
212.2500000000511
 31
0.0
  0
LINE
  5
92
  8
DIMNSIONS
  6
CONTINUOUS
 62
     7
 10
168.73000000019999
 20
156.2500000000511
 30
0.0
 11
168.73000000019999
 21
212.2500000000511
 31
0.0
  0
LINE
  5
93
  8
DIMNSIONS
  6
CONTINUOUS
 62
     7
 10
168.73000000019999
 20
156.2500000000511
 30
0.0
 11
167.72494030747461
 21
160.00093383794169
 31
0.0
  0
LINE
  5
94
  8
DIMNSIONS
  6
CONTINUOUS
 62
     7
 10
168.73000000019999
 20
156.2500000000511
 30
0.0
 11
169.73505969292529
 21
160.00093383794169
 31
0.0
  0
LINE
  5
95
  8
DIMNSIONS
  6
CONTINUOUS
 62
     7
 10
168.73000000019999
 20
212.2500000000511
 30
0.0
 11
169.73505969292529
 21
208.4990661621604
 31
0.0
  0
LINE
  5
96
  8
DIMNSIONS
  6
CONTINUOUS
 62
     7
 10
168.73000000019999
 20
212.2500000000511
 30
0.0
 11
167.72494030747461
 21
208.4990661621604
 31
0.0
  0
TEXT
  5
97
  8
DIMNSIONS
 62
     7
 10
167.23916666686671
 20
181.6041666667177
 30
0.0
 40
4.072102864583333
  1
56
 50
90.0
 41
0.7
 11
163.16706380228331
 21
181.6041666667177
 31
0.0
 73
     3
  0
LINE
  5
98
  8
DIMNSIONS
  6
CONTINUOUS
 62
     7
 10
185.7500000002
 20
217.2500000000511
 30
0.0
 11
165.73000000019999
 21
217.2500000000511
 31
0.0
  0
LINE
  5
99
  8
DIMNSIONS
  6
CONTINUOUS
 62
     7
 10
168.73000000019999
 20
217.2500000000511
 30
0.0
 11
168.73000000019999
 21
212.2500000000511
 31
0.0
  0
LINE
  5
9A
  8
DIMNSIONS
  6
CONTINUOUS
 62
     7
 10
168.73000000019999
 20
212.2500000000511
 30
0.0
 11
168.73000000019999
 21
204.7500000000511
 31
0.0
  0
LINE
  5
9B
  8
DIMNSIONS
  6
CONTINUOUS
 62
     7
 10
168.73000000019999
 20
212.2500000000511
 30
0.0
 11
169.73505969292529
 21
208.4990661621604
 31
0.0
  0
LINE
  5
9C
  8
DIMNSIONS
  6
CONTINUOUS
 62
     7
 10
168.73000000019999
 20
212.2500000000511
 30
0.0
 11
167.72494030747461
 21
208.4990661621604
 31
0.0
  0
LINE
  5
9D
  8
DIMNSIONS
  6
CONTINUOUS
 62
     7
 10
168.73000000019999
 20
217.2500000000511
 30
0.0
 11
168.73000000019999
 21
226.12583333338441
 31
0.0
  0
LINE
  5
9E
  8
DIMNSIONS
  6
CONTINUOUS
 62
     7
 10
168.73000000019999
 20
217.2500000000511
 30
0.0
 11
167.72494030747461
 21
221.00093383794169
 31
0.0
  0
LINE
  5
9F
  8
DIMNSIONS
  6
CONTINUOUS
 62
     7
 10
168.73000000019999
 20
217.2500000000511
 30
0.0
 11
169.73505969292529
 21
221.00093383794169
 31
0.0
  0
TEXT
  5
A0
  8
DIMNSIONS
 62
     7
 10
167.23916666686671
 20
223.48000000005109
 30
0.0
 40
4.072102864583333
  1
5
 50
90.0
 41
0.7
 11
163.16706380228331
 21
223.48000000005109
 31
0.0
 73
     3
  0
LINE
  5
A1
  8
DIMNSIONS
  6
CONTINUOUS
 62
     7
 10
179.68555309209151
 20
112.50000000030001
 30
0.0
 11
165.73000000019999
 21
112.50000000030001
 31
0.0
  0
LINE
  5
A2
  8
DIMNSIONS
  6
CONTINUOUS
 62
     7
 10
179.68555309209151
 20
127.50000000030001
 30
0.0
 11
165.73000000019999
 21
127.50000000030001
 31
0.0
  0
LINE
  5
A3
  8
DIMNSIONS
  6
CONTINUOUS
 62
     7
 10
168.73000000019999
 20
112.50000000030001
 30
0.0
 11
168.73000000019999
 21
127.50000000030001
 31
0.0
  0
LINE
  5
A4
  8
DIMNSIONS
  6
CONTINUOUS
 62
     7
 10
168.73000000019999
 20
112.50000000030001
 30
0.0
 11
167.7249403074745
 21
116.2509338381906
 31
0.0
  0
LINE
  5
A5
  8
DIMNSIONS
  6
CONTINUOUS
 62
     7
 10
168.73000000019999
 20
112.50000000030001
 30
0.0
 11
169.73505969292529
 21
116.2509338381906
 31
0.0
  0
LINE
  5
A6
  8
DIMNSIONS
  6
CONTINUOUS
 62
     7
 10
168.73000000019999
 20
127.50000000030001
 30
0.0
 11
169.73505969292529
 21
123.74906616240931
 31
0.0
  0
LINE
  5
A7
  8
DIMNSIONS
  6
CONTINUOUS
 62
     7
 10
168.73000000019999
 20
127.50000000030001
 30
0.0
 11
167.7249403074745
 21
123.74906616240931
 31
0.0
  0
TEXT
  5
A8
  8
DIMNSIONS
 62
     7
 10
167.23916666686659
 20
117.35416666696661
 30
0.0
 40
4.072102864583333
  1
15
 50
90.0
 41
0.7
 11
163.16706380228331
 21
117.35416666696661
 31
0.0
 73
     3
  0
LINE
  5
A9
  8
DIMNSIONS
  6
CONTINUOUS
 62
     7
 10
181.2500000002
 20
117.00000000030001
 30
0.0
 11
181.2500000002
 21
96.980000000299995
 31
0.0
  0
LINE
  5
AA
  8
DIMNSIONS
  6
CONTINUOUS
 62
     7
 10
222.2500000002
 20
117.00000000030001
 30
0.0
 11
222.2500000002
 21
96.980000000299995
 31
0.0
  0
LINE
  5
AB
  8
DIMNSIONS
  6
CONTINUOUS
 62
     7
 10
181.2500000002
 20
99.980000000299981
 30
0.0
 11
222.2500000002
 21
99.980000000299981
 31
0.0
  0
LINE
  5
AC
  8
DIMNSIONS
  6
CONTINUOUS
 62
     7
 10
181.2500000002
 20
99.980000000299981
 30
0.0
 11
185.00093383809059
 21
100.98505969302531
 31
0.0
  0
LINE
  5
AD
  8
DIMNSIONS
  6
CONTINUOUS
 62
     7
 10
181.2500000002
 20
99.980000000299981
 30
0.0
 11
185.00093383809059
 21
98.974940307574599
 31
0.0
  0
LINE
  5
AE
  8
DIMNSIONS
  6
CONTINUOUS
 62
     7
 10
222.2500000002
 20
99.980000000299981
 30
0.0
 11
218.49906616230939
 21
98.974940307574599
 31
0.0
  0
LINE
  5
AF
  8
DIMNSIONS
  6
CONTINUOUS
 62
     7
 10
222.2500000002
 20
99.980000000299981
 30
0.0
 11
218.49906616230939
 21
100.98505969302531
 31
0.0
  0
TEXT
  5
B0
  8
DIMNSIONS
 62
     7
 10
199.1041666668666
 20
101.47083333363329
 30
0.0
 40
4.072102864583333
  1
41
 41
0.7
 11
199.1041666668666
 21
105.54293619821659
 31
0.0
 73
     3
  0
TEXT
  5
B1
  8
DATA
 62
     7
 10
30.0
 20
21.356999999999989
 30
0.0
 40
2.4432617187500001
  1
仕様および外観は予告なく変更されることがありますので、ご了承ください。
 41
0.7
 11
30.0
 21
23.80026171874999
 31
0.0
 73
     3
  0
TEXT
  5
B2
  8
DATA
 62
     7
 10
224.77500000000001
 20
31.606633065059562
 30
0.0
 40
3.664892578124999
  1
EXT-DVI-FM1000
 41
0.7
 11
224.77500000000001
 21
35.27152564318456
 31
0.0
 73
     3
  0
TEXT
  5
B3
  8
DATA
 62
     7
 10
224.8320650654141
 20
43.14337015648664
 30
0.0
 40
3.664892578124999
  1
Gefen
 41
0.7
 11
224.8320650654141
 21
46.808262734611638
 31
0.0
 73
     3
  0
TEXT
  5
B4
  8
DATA
 62
     7
 10
221.84999999999999
 20
37.983158215963527
 30
0.0
 40
2.4432617187500001
  1
DVI延長機
 41
0.7
 11
221.84999999999999
 21
40.426419934713522
 31
0.0
 73
     3
  0
LINE
  5
B5
  8
DATA
  6
CONTINUOUS
 62
     7
 10
56.249999999799968
 20
212.2500000000511
 30
0.0
 11
97.249999999799996
 21
212.2500000000511
 31
0.0
  0
LINE
  5
B6
  8
DATA
  6
CONTINUOUS
 62
     7
 10
56.700172336423719
 20
170.83414503066589
 30
0.0
 11
56.249999999799968
 21
212.2500000000511
 31
0.0
  0
LINE
  5
B7
  8
DATA
  6
CONTINUOUS
 62
     7
 10
96.799827663176231
 20
170.83414503066589
 30
0.0
 11
97.249999999799996
 21
212.2500000000511
 31
0.0
  0
LINE
  5
B8
  8
DATA
  6
CONTINUOUS
 62
     7
 10
56.28260869545214
 20
209.2500000000511
 30
0.0
 11
97.217391304147853
 21
209.2500000000511
 31
0.0
  0
LINE
  5
B9
  8
DATA
  6
CONTINUOUS
 62
     7
 10
63.749999999799968
 20
212.2500000000511
 30
0.0
 11
63.749999999799968
 21
217.2500000000511
 31
0.0
  0
LINE
  5
BA
  8
DATA
  6
CONTINUOUS
 62
     7
 10
89.749999999799968
 20
217.2500000000511
 30
0.0
 11
89.749999999799968
 21
212.2500000000511
 31
0.0
  0
LINE
  5
BB
  8
DATA
  6
CONTINUOUS
 62
     7
 10
63.749999999799968
 20
217.2500000000511
 30
0.0
 11
89.749999999799968
 21
217.2500000000511
 31
0.0
  0
LINE
  5
BC
  8
DATA
  6
CONTINUOUS
 62
     7
 10
57.749999999799961
 20
151.2500000000511
 30
0.0
 11
57.749999999799961
 21
165.24000000005111
 31
0.0
  0
LINE
  5
BD
  8
DATA
  6
CONTINUOUS
 62
     7
 10
63.749999999799968
 20
151.2500000000511
 30
0.0
 11
63.749999999799968
 21
160.27688227078599
 31
0.0
  0
ARC
  5
BE
  8
DATA
  6
CONTINUOUS
 62
     7
 10
60.749999999799968
 20
151.2500000000511
 30
0.0
 40
3.0
 50
180.0
 51
0.0
  0
ARC
  5
BF
  8
DATA
  6
CONTINUOUS
 62
     7
 10
76.021446393277657
 20
176.5931888900935
 30
0.0
 40
20.41593148213552
 50
201.71883612226219
 51
238.15655742241691
  0
ARC
  5
C0
  8
DATA
  6
CONTINUOUS
 62
     7
 10
77.478553606322293
 20
176.5931888900935
 30
0.0
 40
20.415931482135552
 50
301.84344257758301
 51
338.28116387773792
  0
LINE
  5
C1
  8
DATA
  6
CONTINUOUS
 62
     7
 10
65.249999999799954
 20
156.2500000000511
 30
0.0
 11
65.249999999799954
 21
159.2500000000511
 31
0.0
  0
LINE
  5
C2
  8
DATA
  6
CONTINUOUS
 62
     7
 10
88.249999999799996
 20
159.2500000000511
 30
0.0
 11
88.249999999799996
 21
156.2500000000511
 31
0.0
  0
LINE
  5
C3
  8
DATA
  6
CONTINUOUS
 62
     7
 10
65.249999999799954
 20
156.2500000000511
 30
0.0
 11
88.249999999799996
 21
156.2500000000511
 31
0.0
  0
ARC
  5
C4
  8
DATA
  6
CONTINUOUS
 62
     7
 10
43.32025210064041
 20
157.77008624507539
 30
0.0
 40
22.980078348676798
 50
356.20722936945981
 51
23.899259175741012
  0
ARC
  5
C5
  8
DATA
  6
CONTINUOUS
 62
     7
 10
110.1797478989595
 20
157.77008624507539
 30
0.0
 40
22.98007834867682
 50
156.10074082425899
 51
183.79277063054019
  0
ARC
  5
C6
  8
DATA
  6
CONTINUOUS
 62
     7
 10
62.27153408654938
 20
164.57042613739989
 30
0.0
 40
4.5708423354106911
 50
153.07798428154169
 51
171.57654058511579
  0
LINE
  5
C7
  8
DATA
  6
CONTINUOUS
 62
     7
 10
95.749999999799996
 20
151.2500000000511
 30
0.0
 11
95.749999999799996
 21
165.24000000005111
 31
0.0
  0
LINE
  5
C8
  8
DATA
  6
CONTINUOUS
 62
     7
 10
89.749999999799968
 20
151.2500000000511
 30
0.0
 11
89.749999999799968
 21
160.27688227078599
 31
0.0
  0
ARC
  5
C9
  8
DATA
  6
CONTINUOUS
 62
     7
 10
92.749999999799996
 20
151.2500000000511
 30
0.0
 40
3.0000000000000071
 50
180.0
 51
0.0
  0
ARC
  5
CA
  8
DATA
  6
CONTINUOUS
 62
     7
 10
91.228465913050556
 20
164.57042613739989
 30
0.0
 40
4.5708423354106964
 50
8.4234594148842454
 51
26.922015718458201
  0
ARC
  5
CB
  8
DATA
  6
CONTINUOUS
 62
     7
 10
61.699876966424561
 20
170.88848964620939
 30
0.0
 40
4.9999999724490349
 50
180.62275568720631
 51
201.71883627275301
  0
ARC
  5
CC
  8
DATA
  6
CONTINUOUS
 62
     7
 10
91.80012303317541
 20
170.88848964620939
 30
0.0
 40
4.9999999724490483
 50
338.28116372724702
 51
359.37724431279361
  0
TEXT
  5
CD
  8
DATA
 62
     7
 10
69.545496593268652
 20
201.23950610702161
 30
0.0
 40
2.8504720052083319
  1
COMPUTER
 41
0.7
 11
69.545496593268652
 21
204.08997811222989
 31
0.0
 73
     3
  0
LINE
  5
CE
  8
DATA
  6
CONTINUOUS
 62
     7
 10
78.649999999799974
 20
205.38179742093729
 30
0.0
 11
74.849999999799962
 21
205.38179742093729
 31
0.0
  0
LINE
  5
CF
  8
DATA
  6
CONTINUOUS
 62
     7
 10
68.749999999799968
 20
199.66419259559359
 30
0.0
 11
56.386802254196262
 21
199.66419259559359
 31
0.0
  0
LINE
  5
D0
  8
DATA
  6
CONTINUOUS
 62
     7
 10
56.40245442810928
 20
198.22419259559359
 30
0.0
 11
68.749999999799968
 21
198.22419259559359
 31
0.0
  0
LINE
  5
D1
  8
DATA
  6
CONTINUOUS
 62
     7
 10
68.749999999799968
 20
197.0941925955936
 30
0.0
 11
56.414737036804951
 21
197.0941925955936
 31
0.0
  0
LINE
  5
D2
  8
DATA
  6
CONTINUOUS
 62
     7
 10
56.430389210717983
 20
195.6541925955936
 30
0.0
 11
68.749999999799968
 21
195.6541925955936
 31
0.0
  0
LINE
  5
D3
  8
DATA
  6
CONTINUOUS
 62
     7
 10
68.749999999799968
 20
195.6541925955936
 30
0.0
 11
68.749999999799968
 21
197.0941925955936
 31
0.0
  0
LINE
  5
D4
  8
DATA
  6
CONTINUOUS
 62
     7
 10
68.749999999799968
 20
194.5241925955936
 30
0.0
 11
56.442671819413661
 21
194.5241925955936
 31
0.0
  0
LINE
  5
D5
  8
DATA
  6
CONTINUOUS
 62
     7
 10
56.45832399332668
 20
193.08419259559361
 30
0.0
 11
68.749999999799968
 21
193.08419259559361
 31
0.0
  0
LINE
  5
D6
  8
DATA
  6
CONTINUOUS
 62
     7
 10
68.749999999799968
 20
193.08419259559361
 30
0.0
 11
68.749999999799968
 21
194.5241925955936
 31
0.0
  0
LINE
  5
D7
  8
DATA
  6
CONTINUOUS
 62
     7
 10
68.749999999799968
 20
191.95419259559361
 30
0.0
 11
56.470606602022322
 21
191.95419259559361
 31
0.0
  0
LINE
  5
D8
  8
DATA
  6
CONTINUOUS
 62
     7
 10
56.486258775935383
 20
190.51419259559361
 30
0.0
 11
68.749999999799968
 21
190.51419259559361
 31
0.0
  0
LINE
  5
D9
  8
DATA
  6
CONTINUOUS
 62
     7
 10
68.749999999799968
 20
190.51419259559361
 30
0.0
 11
68.749999999799968
 21
191.95419259559361
 31
0.0
  0
LINE
  5
DA
  8
DATA
  6
CONTINUOUS
 62
     7
 10
68.749999999799968
 20
189.38419259559359
 30
0.0
 11
56.498541384631032
 21
189.38419259559359
 31
0.0
  0
LINE
  5
DB
  8
DATA
  6
CONTINUOUS
 62
     7
 10
56.514193558544072
 20
187.94419259559359
 30
0.0
 11
68.749999999799968
 21
187.94419259559359
 31
0.0
  0
LINE
  5
DC
  8
DATA
  6
CONTINUOUS
 62
     7
 10
68.749999999799968
 20
187.94419259559359
 30
0.0
 11
68.749999999799968
 21
189.38419259559359
 31
0.0
  0
LINE
  5
DD
  8
DATA
  6
CONTINUOUS
 62
     7
 10
68.749999999799968
 20
186.8141925955936
 30
0.0
 11
56.526476167239721
 21
186.8141925955936
 31
0.0
  0
LINE
  5
DE
  8
DATA
  6
CONTINUOUS
 62
     7
 10
56.542128341152747
 20
185.3741925955936
 30
0.0
 11
68.749999999799968
 21
185.3741925955936
 31
0.0
  0
LINE
  5
DF
  8
DATA
  6
CONTINUOUS
 62
     7
 10
68.749999999799968
 20
185.3741925955936
 30
0.0
 11
68.749999999799968
 21
186.8141925955936
 31
0.0
  0
LINE
  5
E0
  8
DATA
  6
CONTINUOUS
 62
     7
 10
68.749999999799968
 20
184.2441925955936
 30
0.0
 11
56.554410949848432
 21
184.2441925955936
 31
0.0
  0
LINE
  5
E1
  8
DATA
  6
CONTINUOUS
 62
     7
 10
56.570063123761472
 20
182.80419259559341
 30
0.0
 11
68.749999999799968
 21
182.80419259559341
 31
0.0
  0
LINE
  5
E2
  8
DATA
  6
CONTINUOUS
 62
     7
 10
68.749999999799968
 20
182.80419259559341
 30
0.0
 11
68.749999999799968
 21
184.2441925955936
 31
0.0
  0
LINE
  5
E3
  8
DATA
  6
CONTINUOUS
 62
     7
 10
68.749999999799968
 20
181.67419259559341
 30
0.0
 11
56.582345732457142
 21
181.67419259559341
 31
0.0
  0
LINE
  5
E4
  8
DATA
  6
CONTINUOUS
 62
     7
 10
56.597997906370168
 20
180.23419259559341
 30
0.0
 11
68.749999999799968
 21
180.23419259559341
 31
0.0
  0
LINE
  5
E5
  8
DATA
  6
CONTINUOUS
 62
     7
 10
68.749999999799968
 20
180.23419259559341
 30
0.0
 11
68.749999999799968
 21
181.67419259559341
 31
0.0
  0
LINE
  5
E6
  8
DATA
  6
CONTINUOUS
 62
     7
 10
68.749999999799968
 20
179.10419259559339
 30
0.0
 11
56.61028051506581
 21
179.10419259559339
 31
0.0
  0
LINE
  5
E7
  8
DATA
  6
CONTINUOUS
 62
     7
 10
56.625932688978857
 20
177.66419259559339
 30
0.0
 11
68.749999999799968
 21
177.66419259559339
 31
0.0
  0
LINE
  5
E8
  8
DATA
  6
CONTINUOUS
 62
     7
 10
68.749999999799968
 20
177.66419259559339
 30
0.0
 11
68.749999999799968
 21
179.10419259559339
 31
0.0
  0
LINE
  5
E9
  8
DATA
  6
CONTINUOUS
 62
     7
 10
68.749999999799968
 20
176.5341925955934
 30
0.0
 11
56.638215297674499
 21
176.5341925955934
 31
0.0
  0
LINE
  5
EA
  8
DATA
  6
CONTINUOUS
 62
     7
 10
56.65386747158756
 20
175.0941925955934
 30
0.0
 11
68.749999999799968
 21
175.0941925955934
 31
0.0
  0
LINE
  5
EB
  8
DATA
  6
CONTINUOUS
 62
     7
 10
68.749999999799968
 20
175.0941925955934
 30
0.0
 11
68.749999999799968
 21
176.5341925955934
 31
0.0
  0
LINE
  5
EC
  8
DATA
  6
CONTINUOUS
 62
     7
 10
68.749999999799968
 20
173.9641925955934
 30
0.0
 11
56.666150080283202
 21
173.9641925955934
 31
0.0
  0
LINE
  5
ED
  8
DATA
  6
CONTINUOUS
 62
     7
 10
56.681802254196242
 20
172.52419259559341
 30
0.0
 11
68.749999999799968
 21
172.52419259559341
 31
0.0
  0
LINE
  5
EE
  8
DATA
  6
CONTINUOUS
 62
     7
 10
68.749999999799968
 20
172.52419259559341
 30
0.0
 11
68.749999999799968
 21
173.9641925955934
 31
0.0
  0
LINE
  5
EF
  8
DATA
  6
CONTINUOUS
 62
     7
 10
68.749999999799968
 20
198.22419259559359
 30
0.0
 11
68.749999999799968
 21
199.66419259559359
 31
0.0
  0
LINE
  5
F0
  8
DATA
  6
CONTINUOUS
 62
     7
 10
84.749999999799968
 20
199.66419259559359
 30
0.0
 11
97.113197745403696
 21
199.66419259559359
 31
0.0
  0
LINE
  5
F1
  8
DATA
  6
CONTINUOUS
 62
     7
 10
97.097545571490684
 20
198.22419259559359
 30
0.0
 11
84.749999999799968
 21
198.22419259559359
 31
0.0
  0
LINE
  5
F2
  8
DATA
  6
CONTINUOUS
 62
     7
 10
84.749999999799968
 20
197.0941925955936
 30
0.0
 11
97.085262962794985
 21
197.0941925955936
 31
0.0
  0
LINE
  5
F3
  8
DATA
  6
CONTINUOUS
 62
     7
 10
97.069610788881974
 20
195.6541925955936
 30
0.0
 11
84.749999999799968
 21
195.6541925955936
 31
0.0
  0
LINE
  5
F4
  8
DATA
  6
CONTINUOUS
 62
     7
 10
84.749999999799968
 20
195.6541925955936
 30
0.0
 11
84.749999999799968
 21
197.0941925955936
 31
0.0
  0
LINE
  5
F5
  8
DATA
  6
CONTINUOUS
 62
     7
 10
84.749999999799968
 20
194.5241925955936
 30
0.0
 11
97.057328180186303
 21
194.5241925955936
 31
0.0
  0
LINE
  5
F6
  8
DATA
  6
CONTINUOUS
 62
     7
 10
97.041676006273292
 20
193.08419259559361
 30
0.0
 11
84.749999999799968
 21
193.08419259559361
 31
0.0
  0
LINE
  5
F7
  8
DATA
  6
CONTINUOUS
 62
     7
 10
84.749999999799968
 20
193.08419259559361
 30
0.0
 11
84.749999999799968
 21
194.5241925955936
 31
0.0
  0
LINE
  5
F8
  8
DATA
  6
CONTINUOUS
 62
     7
 10
84.749999999799968
 20
191.95419259559361
 30
0.0
 11
97.02939339757765
 21
191.95419259559361
 31
0.0
  0
LINE
  5
F9
  8
DATA
  6
CONTINUOUS
 62
     7
 10
97.013741223664596
 20
190.51419259559361
 30
0.0
 11
84.749999999799968
 21
190.51419259559361
 31
0.0
  0
LINE
  5
FA
  8
DATA
  6
CONTINUOUS
 62
     7
 10
84.749999999799968
 20
190.51419259559361
 30
0.0
 11
84.749999999799968
 21
191.95419259559361
 31
0.0
  0
LINE
  5
FB
  8
DATA
  6
CONTINUOUS
 62
     7
 10
84.749999999799968
 20
189.38419259559359
 30
0.0
 11
97.001458614968953
 21
189.38419259559359
 31
0.0
  0
LINE
  5
FC
  8
DATA
  6
CONTINUOUS
 62
     7
 10
96.985806441055914
 20
187.94419259559359
 30
0.0
 11
84.749999999799968
 21
187.94419259559359
 31
0.0
  0
LINE
  5
FD
  8
DATA
  6
CONTINUOUS
 62
     7
 10
84.749999999799968
 20
187.94419259559359
 30
0.0
 11
84.749999999799968
 21
189.38419259559359
 31
0.0
  0
LINE
  5
FE
  8
DATA
  6
CONTINUOUS
 62
     7
 10
84.749999999799968
 20
186.8141925955936
 30
0.0
 11
96.973523832360215
 21
186.8141925955936
 31
0.0
  0
LINE
  5
FF
  8
DATA
  6
CONTINUOUS
 62
     7
 10
96.957871658447203
 20
185.3741925955936
 30
0.0
 11
84.749999999799968
 21
185.3741925955936
 31
0.0
  0
LINE
  5
100
  8
DATA
  6
CONTINUOUS
 62
     7
 10
84.749999999799968
 20
185.3741925955936
 30
0.0
 11
84.749999999799968
 21
186.8141925955936
 31
0.0
  0
LINE
  5
101
  8
DATA
  6
CONTINUOUS
 62
     7
 10
84.749999999799968
 20
184.2441925955936
 30
0.0
 11
96.945589049751504
 21
184.2441925955936
 31
0.0
  0
LINE
  5
102
  8
DATA
  6
CONTINUOUS
 62
     7
 10
96.929936875838493
 20
182.80419259559341
 30
0.0
 11
84.749999999799968
 21
182.80419259559341
 31
0.0
  0
LINE
  5
103
  8
DATA
  6
CONTINUOUS
 62
     7
 10
84.749999999799968
 20
182.80419259559341
 30
0.0
 11
84.749999999799968
 21
184.2441925955936
 31
0.0
  0
LINE
  5
104
  8
DATA
  6
CONTINUOUS
 62
     7
 10
84.749999999799968
 20
181.67419259559341
 30
0.0
 11
96.917654267142851
 21
181.67419259559341
 31
0.0
  0
LINE
  5
105
  8
DATA
  6
CONTINUOUS
 62
     7
 10
96.902002093229811
 20
180.23419259559341
 30
0.0
 11
84.749999999799968
 21
180.23419259559341
 31
0.0
  0
LINE
  5
106
  8
DATA
  6
CONTINUOUS
 62
     7
 10
84.749999999799968
 20
180.23419259559341
 30
0.0
 11
84.749999999799968
 21
181.67419259559341
 31
0.0
  0
LINE
  5
107
  8
DATA
  6
CONTINUOUS
 62
     7
 10
84.749999999799968
 20
179.10419259559339
 30
0.0
 11
96.889719484534183
 21
179.10419259559339
 31
0.0
  0
LINE
  5
108
  8
DATA
  6
CONTINUOUS
 62
     7
 10
96.874067310621129
 20
177.66419259559339
 30
0.0
 11
84.749999999799968
 21
177.66419259559339
 31
0.0
  0
LINE
  5
109
  8
DATA
  6
CONTINUOUS
 62
     7
 10
84.749999999799968
 20
177.66419259559339
 30
0.0
 11
84.749999999799968
 21
179.10419259559339
 31
0.0
  0
LINE
  5
10A
  8
DATA
  6
CONTINUOUS
 62
     7
 10
84.749999999799968
 20
176.5341925955934
 30
0.0
 11
96.861784701925487
 21
176.5341925955934
 31
0.0
  0
LINE
  5
10B
  8
DATA
  6
CONTINUOUS
 62
     7
 10
96.846132528012433
 20
175.0941925955934
 30
0.0
 11
84.749999999799968
 21
175.0941925955934
 31
0.0
  0
LINE
  5
10C
  8
DATA
  6
CONTINUOUS
 62
     7
 10
84.749999999799968
 20
175.0941925955934
 30
0.0
 11
84.749999999799968
 21
176.5341925955934
 31
0.0
  0
LINE
  5
10D
  8
DATA
  6
CONTINUOUS
 62
     7
 10
84.749999999799968
 20
173.9641925955934
 30
0.0
 11
96.833849919316762
 21
173.9641925955934
 31
0.0
  0
LINE
  5
10E
  8
DATA
  6
CONTINUOUS
 62
     7
 10
96.818197745403722
 20
172.52419259559341
 30
0.0
 11
84.749999999799968
 21
172.52419259559341
 31
0.0
  0
LINE
  5
10F
  8
DATA
  6
CONTINUOUS
 62
     7
 10
84.749999999799968
 20
172.52419259559341
 30
0.0
 11
84.749999999799968
 21
173.9641925955934
 31
0.0
  0
LINE
  5
110
  8
DATA
  6
CONTINUOUS
 62
     7
 10
84.749999999799968
 20
198.22419259559359
 30
0.0
 11
84.749999999799968
 21
199.66419259559359
 31
0.0
  0
LINE
  5
111
  8
DATA
  6
CONTINUOUS
 62
     7
 10
74.849999999799962
 20
205.38179742093729
 30
0.0
 11
76.749999999799968
 21
207.38179742093729
 31
0.0
  0
LINE
  5
112
  8
DATA
  6
CONTINUOUS
 62
     7
 10
76.749999999799968
 20
207.38179742093729
 30
0.0
 11
78.649999999799974
 21
205.38179742093729
 31
0.0
  0
LINE
  5
113
  8
DATA
  6
CONTINUOUS
 62
     7
 10
59.099999999799948
 20
216.2500000000511
 30
0.0
 11
61.699999999799957
 21
216.2500000000511
 31
0.0
  0
LINE
  5
114
  8
DATA
  6
CONTINUOUS
 62
     7
 10
91.799999999799965
 20
216.2500000000511
 30
0.0
 11
94.399999999800016
 21
216.2500000000511
 31
0.0
  0
LINE
  5
115
  8
DATA
  6
CONTINUOUS
 62
     7
 10
59.099999999799948
 20
216.2500000000511
 30
0.0
 11
59.099999999799948
 21
212.2500000000511
 31
0.0
  0
LINE
  5
116
  8
DATA
  6
CONTINUOUS
 62
     7
 10
94.399999999800016
 20
216.2500000000511
 30
0.0
 11
94.399999999800016
 21
212.2500000000511
 31
0.0
  0
LINE
  5
117
  8
DATA
  6
CONTINUOUS
 62
     7
 10
61.699999999799957
 20
216.2500000000511
 30
0.0
 11
61.699999999799957
 21
212.2500000000511
 31
0.0
  0
LINE
  5
118
  8
DATA
  6
CONTINUOUS
 62
     7
 10
91.799999999799965
 20
216.2500000000511
 30
0.0
 11
91.799999999799965
 21
212.2500000000511
 31
0.0
  0
LINE
  5
119
  8
DATA
  6
CONTINUOUS
 62
     7
 10
61.067142856942937
 20
212.2500000000511
 30
0.0
 11
59.099999999799948
 21
212.68031250005109
 31
0.0
  0
LINE
  5
11A
  8
DATA
  6
CONTINUOUS
 62
     7
 10
61.699999999799957
 20
212.9115625000511
 30
0.0
 11
59.099999999799948
 21
213.4803125000511
 31
0.0
  0
LINE
  5
11B
  8
DATA
  6
CONTINUOUS
 62
     7
 10
61.699999999799957
 20
213.71156250005109
 30
0.0
 11
59.099999999799948
 21
214.28031250005111
 31
0.0
  0
LINE
  5
11C
  8
DATA
  6
CONTINUOUS
 62
     7
 10
61.699999999799957
 20
214.5115625000511
 30
0.0
 11
59.099999999799948
 21
215.08031250005109
 31
0.0
  0
LINE
  5
11D
  8
DATA
  6
CONTINUOUS
 62
     7
 10
61.699999999799957
 20
215.31156250005111
 30
0.0
 11
59.099999999799948
 21
215.8803125000511
 31
0.0
  0
LINE
  5
11E
  8
DATA
  6
CONTINUOUS
 62
     7
 10
61.699999999799957
 20
216.11156250005109
 30
0.0
 11
61.067142856942937
 21
216.2500000000511
 31
0.0
  0
LINE
  5
11F
  8
DATA
  6
CONTINUOUS
 62
     7
 10
93.804785724497322
 20
212.2500000000511
 30
0.0
 11
91.799999999799965
 21
212.6885468773286
 31
0.0
  0
LINE
  5
120
  8
DATA
  6
CONTINUOUS
 62
     7
 10
94.399999999800016
 20
212.91979687732859
 30
0.0
 11
91.799999999799965
 21
213.48854687732859
 31
0.0
  0
LINE
  5
121
  8
DATA
  6
CONTINUOUS
 62
     7
 10
94.399999999800016
 20
213.7197968773286
 30
0.0
 11
91.799999999799965
 21
214.28854687732871
 31
0.0
  0
LINE
  5
122
  8
DATA
  6
CONTINUOUS
 62
     7
 10
94.399999999800016
 20
214.51979687732859
 30
0.0
 11
91.799999999799965
 21
215.08854687732861
 31
0.0
  0
LINE
  5
123
  8
DATA
  6
CONTINUOUS
 62
     7
 10
94.399999999800016
 20
215.3197968773286
 30
0.0
 11
91.799999999799965
 21
215.88854687732871
 31
0.0
  0
LINE
  5
124
  8
DATA
  6
CONTINUOUS
 62
     7
 10
94.399999999800016
 20
216.11979687732861
 30
0.0
 11
93.804785724497293
 21
216.2500000000511
 31
0.0
  0
LINE
  5
125
  8
DATA
  6
CONTINUOUS
 62
     7
 10
57.685553091691503
 20
237.5
 30
0.0
 11
95.814446907908462
 21
237.5
 31
0.0
  0
LINE
  5
126
  8
DATA
  6
CONTINUOUS
 62
     7
 10
57.685553091691503
 20
252.5
 30
0.0
 11
95.814446907908462
 21
252.5
 31
0.0
  0
LINE
  5
127
  8
DATA
  6
CONTINUOUS
 62
     7
 10
58.249999999799968
 20
239.19999999999999
 30
0.0
 11
95.249999999799996
 21
239.19999999999999
 31
0.0
  0
LINE
  5
128
  8
DATA
  6
CONTINUOUS
 62
     7
 10
58.249999999799968
 20
250.80000000000001
 30
0.0
 11
95.249999999799996
 21
250.80000000000001
 31
0.0
  0
LINE
  5
129
  8
DATA
  6
CONTINUOUS
 62
     7
 10
58.249999999799968
 20
239.19999999999999
 30
0.0
 11
58.249999999799968
 21
250.80000000000001
 31
0.0
  0
LINE
  5
12A
  8
DATA
  6
CONTINUOUS
 62
     7
 10
95.249999999799996
 20
239.19999999999999
 30
0.0
 11
95.249999999799996
 21
250.80000000000001
 31
0.0
  0
CIRCLE
  5
12B
  8
DATA
  6
CONTINUOUS
 62
     7
 10
60.399999999799959
 20
245.0
 30
0.0
 40
1.2999999999999969
  0
CIRCLE
  5
12C
  8
DATA
  6
CONTINUOUS
 62
     7
 10
93.099999999799977
 20
245.0
 30
0.0
 40
1.300000000000004
  0
LINE
  5
12D
  8
DATA
  6
CONTINUOUS
 62
     7
 10
56.687767933834877
 20
238.43348098947621
 30
0.0
 11
56.249999999799968
 21
245.0
 31
0.0
  0
LINE
  5
12E
  8
DATA
  6
CONTINUOUS
 62
     7
 10
56.687767933834877
 20
251.56651901052379
 30
0.0
 11
56.249999999799968
 21
245.0
 31
0.0
  0
LINE
  5
12F
  8
DATA
  6
CONTINUOUS
 62
     7
 10
97.249999999799996
 20
245.0
 30
0.0
 11
96.812232065765073
 21
251.56651901052379
 31
0.0
  0
LINE
  5
130
  8
DATA
  6
CONTINUOUS
 62
     7
 10
96.812232065765073
 20
238.43348098947621
 30
0.0
 11
97.249999999799996
 21
245.0
 31
0.0
  0
ARC
  5
131
  8
DATA
  6
CONTINUOUS
 62
     7
 10
57.685553091691503
 20
251.5
 30
0.0
 40
1.0
 50
90.0
 51
176.18592516570939
  0
ARC
  5
132
  8
DATA
  6
CONTINUOUS
 62
     7
 10
57.685553091691503
 20
238.5
 30
0.0
 40
1.000000000000002
 50
183.8140748342903
 51
270.0
  0
ARC
  5
133
  8
DATA
  6
CONTINUOUS
 62
     7
 10
95.814446907908462
 20
251.5
 30
0.0
 40
1.000000000000002
 50
3.814074834290516
 51
90.0
  0
ARC
  5
134
  8
DATA
  6
CONTINUOUS
 62
     7
 10
95.814446907908462
 20
238.5
 30
0.0
 40
1.0000000000000031
 50
270.0
 51
356.18592516570948
  0
POLYLINE
  5
135
  8
DATA
  6
CONTINUOUS
 62
     7
 66
     1
 10
0.0
 20
0.0
 30
0.0
 70
   128
  0
VERTEX
  5
480
  8
DATA
  6
CONTINUOUS
 62
     7
 10
63.749999999799968
 20
244.27000000000001
 30
0.0
  0
VERTEX
  5
481
  8
DATA
  6
CONTINUOUS
 62
     7
 10
63.749999999799968
 20
248.69999999999999
 30
0.0
 42
-0.4142135623730976
  0
VERTEX
  5
482
  8
DATA
  6
CONTINUOUS
 62
     7
 10
64.549999999799965
 20
249.5
 30
0.0
  0
VERTEX
  5
483
  8
DATA
  6
CONTINUOUS
 62
     7
 10
88.949999999799971
 20
249.5
 30
0.0
 42
-0.4142135623730951
  0
VERTEX
  5
484
  8
DATA
  6
CONTINUOUS
 62
     7
 10
89.749999999799968
 20
248.69999999999999
 30
0.0
  0
VERTEX
  5
485
  8
DATA
  6
CONTINUOUS
 62
     7
 10
89.749999999799968
 20
244.27000000000001
 30
0.0
  0
SEQEND
  5
486
  8
DATA
  6
CONTINUOUS
 62
     7
  0
LINE
  5
13D
  8
DATA
  6
CONTINUOUS
 62
     7
 10
88.646582960823324
 20
240.5
 30
0.0
 11
64.853417038776641
 21
240.5
 31
0.0
  0
LINE
  5
13E
  8
DATA
  6
CONTINUOUS
 62
     7
 10
63.749999999799968
 20
244.27000000000001
 30
0.0
 11
64.057450246046031
 21
241.2197699254011
 31
0.0
  0
LINE
  5
13F
  8
DATA
  6
CONTINUOUS
 62
     7
 10
89.749999999799968
 20
244.27000000000001
 30
0.0
 11
89.442549753553948
 21
241.2197699254011
 31
0.0
  0
ARC
  5
140
  8
DATA
  6
CONTINUOUS
 62
     7
 10
64.853417038776641
 20
241.30000000000001
 30
0.0
 40
0.7999999999999937
 50
185.7557316099207
 51
270.0
  0
ARC
  5
141
  8
DATA
  6
CONTINUOUS
 62
     7
 10
88.646582960823324
 20
241.30000000000001
 30
0.0
 40
0.7999999999999972
 50
270.0
 51
354.24426839007941
  0
LINE
  5
142
  8
DATA
  6
CONTINUOUS
 62
     7
 10
58.249999999799968
 20
245.0
 30
0.0
 11
56.249999999799968
 21
245.0
 31
0.0
  0
LINE
  5
143
  8
DATA
  6
CONTINUOUS
 62
     7
 10
95.249999999799996
 20
245.0
 30
0.0
 11
97.249999999799996
 21
245.0
 31
0.0
  0
POLYLINE
  5
144
  8
DATA
  6
CONTINUOUS
 62
     7
 66
     1
 10
0.0
 20
0.0
 30
0.0
 70
     1
  0
VERTEX
  5
487
  8
DATA
  6
CONTINUOUS
 62
     7
 10
85.301808560229333
 20
245.25
 30
0.0
  0
VERTEX
  5
488
  8
DATA
  6
CONTINUOUS
 62
     7
 10
87.801808560229347
 20
245.25
 30
0.0
  0
VERTEX
  5
489
  8
DATA
  6
CONTINUOUS
 62
     7
 10
87.801808560229347
 20
244.75
 30
0.0
  0
VERTEX
  5
48A
  8
DATA
  6
CONTINUOUS
 62
     7
 10
85.301808560229333
 20
244.75
 30
0.0
  0
SEQEND
  5
48B
  8
DATA
  6
CONTINUOUS
 62
     7
  0
POLYLINE
  5
14B
  8
DATA
  6
CONTINUOUS
 62
     7
 66
     1
 10
0.0
 20
0.0
 30
0.0
 70
     1
  0
VERTEX
  5
48C
  8
DATA
  6
CONTINUOUS
 62
     7
 10
66.600784584652985
 20
245.63639610306791
 30
0.0
  0
VERTEX
  5
48D
  8
DATA
  6
CONTINUOUS
 62
     7
 10
67.520023400195541
 20
244.7171572875254
 30
0.0
  0
VERTEX
  5
48E
  8
DATA
  6
CONTINUOUS
 62
     7
 10
67.166470009602264
 20
244.36360389693209
 30
0.0
  0
VERTEX
  5
48F
  8
DATA
  6
CONTINUOUS
 62
     7
 10
66.247231194059751
 20
245.2828427124746
 30
0.0
  0
SEQEND
  5
490
  8
DATA
  6
CONTINUOUS
 62
     7
  0
POLYLINE
  5
152
  8
DATA
  6
CONTINUOUS
 62
     7
 66
     1
 10
0.0
 20
0.0
 30
0.0
 70
     1
  0
VERTEX
  5
491
  8
DATA
  6
CONTINUOUS
 62
     7
 10
66.600784584652985
 20
247.63639610306791
 30
0.0
  0
VERTEX
  5
492
  8
DATA
  6
CONTINUOUS
 62
     7
 10
67.520023400195541
 20
246.71715728752531
 30
0.0
  0
VERTEX
  5
493
  8
DATA
  6
CONTINUOUS
 62
     7
 10
67.166470009602264
 20
246.36360389693209
 30
0.0
  0
VERTEX
  5
494
  8
DATA
  6
CONTINUOUS
 62
     7
 10
66.247231194059751
 20
247.2828427124746
 30
0.0
  0
SEQEND
  5
495
  8
DATA
  6
CONTINUOUS
 62
     7
  0
POLYLINE
  5
159
  8
DATA
  6
CONTINUOUS
 62
     7
 66
     1
 10
0.0
 20
0.0
 30
0.0
 70
     1
  0
VERTEX
  5
496
  8
DATA
  6
CONTINUOUS
 62
     7
 10
66.600784584652985
 20
243.63639610306791
 30
0.0
  0
VERTEX
  5
497
  8
DATA
  6
CONTINUOUS
 62
     7
 10
67.520023400195541
 20
242.7171572875254
 30
0.0
  0
VERTEX
  5
498
  8
DATA
  6
CONTINUOUS
 62
     7
 10
67.166470009602264
 20
242.36360389693209
 30
0.0
  0
VERTEX
  5
499
  8
DATA
  6
CONTINUOUS
 62
     7
 10
66.247231194059751
 20
243.2828427124746
 30
0.0
  0
SEQEND
  5
49A
  8
DATA
  6
CONTINUOUS
 62
     7
  0
POLYLINE
  5
160
  8
DATA
  6
CONTINUOUS
 62
     7
 66
     1
 10
0.0
 20
0.0
 30
0.0
 70
     1
  0
VERTEX
  5
49B
  8
DATA
  6
CONTINUOUS
 62
     7
 10
68.600784584652999
 20
245.63639610306791
 30
0.0
  0
VERTEX
  5
49C
  8
DATA
  6
CONTINUOUS
 62
     7
 10
69.520023400195541
 20
244.7171572875254
 30
0.0
  0
VERTEX
  5
49D
  8
DATA
  6
CONTINUOUS
 62
     7
 10
69.166470009602264
 20
244.36360389693209
 30
0.0
  0
VERTEX
  5
49E
  8
DATA
  6
CONTINUOUS
 62
     7
 10
68.247231194059751
 20
245.2828427124746
 30
0.0
  0
SEQEND
  5
49F
  8
DATA
  6
CONTINUOUS
 62
     7
  0
POLYLINE
  5
167
  8
DATA
  6
CONTINUOUS
 62
     7
 66
     1
 10
0.0
 20
0.0
 30
0.0
 70
     1
  0
VERTEX
  5
4A0
  8
DATA
  6
CONTINUOUS
 62
     7
 10
68.600784584652999
 20
247.63639610306791
 30
0.0
  0
VERTEX
  5
4A1
  8
DATA
  6
CONTINUOUS
 62
     7
 10
69.520023400195541
 20
246.71715728752531
 30
0.0
  0
VERTEX
  5
4A2
  8
DATA
  6
CONTINUOUS
 62
     7
 10
69.166470009602264
 20
246.36360389693209
 30
0.0
  0
VERTEX
  5
4A3
  8
DATA
  6
CONTINUOUS
 62
     7
 10
68.247231194059751
 20
247.2828427124746
 30
0.0
  0
SEQEND
  5
4A4
  8
DATA
  6
CONTINUOUS
 62
     7
  0
POLYLINE
  5
16E
  8
DATA
  6
CONTINUOUS
 62
     7
 66
     1
 10
0.0
 20
0.0
 30
0.0
 70
     1
  0
VERTEX
  5
4A5
  8
DATA
  6
CONTINUOUS
 62
     7
 10
68.600784584652999
 20
243.63639610306791
 30
0.0
  0
VERTEX
  5
4A6
  8
DATA
  6
CONTINUOUS
 62
     7
 10
69.520023400195541
 20
242.7171572875254
 30
0.0
  0
VERTEX
  5
4A7
  8
DATA
  6
CONTINUOUS
 62
     7
 10
69.166470009602264
 20
242.36360389693209
 30
0.0
  0
VERTEX
  5
4A8
  8
DATA
  6
CONTINUOUS
 62
     7
 10
68.247231194059751
 20
243.2828427124746
 30
0.0
  0
SEQEND
  5
4A9
  8
DATA
  6
CONTINUOUS
 62
     7
  0
POLYLINE
  5
175
  8
DATA
  6
CONTINUOUS
 62
     7
 66
     1
 10
0.0
 20
0.0
 30
0.0
 70
     1
  0
VERTEX
  5
4AA
  8
DATA
  6
CONTINUOUS
 62
     7
 10
70.600784584652999
 20
245.63639610306791
 30
0.0
  0
VERTEX
  5
4AB
  8
DATA
  6
CONTINUOUS
 62
     7
 10
71.520023400195555
 20
244.7171572875254
 30
0.0
  0
VERTEX
  5
4AC
  8
DATA
  6
CONTINUOUS
 62
     7
 10
71.166470009602264
 20
244.36360389693209
 30
0.0
  0
VERTEX
  5
4AD
  8
DATA
  6
CONTINUOUS
 62
     7
 10
70.247231194059751
 20
245.2828427124746
 30
0.0
  0
SEQEND
  5
4AE
  8
DATA
  6
CONTINUOUS
 62
     7
  0
POLYLINE
  5
17C
  8
DATA
  6
CONTINUOUS
 62
     7
 66
     1
 10
0.0
 20
0.0
 30
0.0
 70
     1
  0
VERTEX
  5
4AF
  8
DATA
  6
CONTINUOUS
 62
     7
 10
70.600784584652999
 20
247.63639610306791
 30
0.0
  0
VERTEX
  5
4B0
  8
DATA
  6
CONTINUOUS
 62
     7
 10
71.520023400195555
 20
246.71715728752531
 30
0.0
  0
VERTEX
  5
4B1
  8
DATA
  6
CONTINUOUS
 62
     7
 10
71.166470009602264
 20
246.36360389693209
 30
0.0
  0
VERTEX
  5
4B2
  8
DATA
  6
CONTINUOUS
 62
     7
 10
70.247231194059751
 20
247.2828427124746
 30
0.0
  0
SEQEND
  5
4B3
  8
DATA
  6
CONTINUOUS
 62
     7
  0
POLYLINE
  5
183
  8
DATA
  6
CONTINUOUS
 62
     7
 66
     1
 10
0.0
 20
0.0
 30
0.0
 70
     1
  0
VERTEX
  5
4B4
  8
DATA
  6
CONTINUOUS
 62
     7
 10
70.600784584652999
 20
243.63639610306791
 30
0.0
  0
VERTEX
  5
4B5
  8
DATA
  6
CONTINUOUS
 62
     7
 10
71.520023400195555
 20
242.7171572875254
 30
0.0
  0
VERTEX
  5
4B6
  8
DATA
  6
CONTINUOUS
 62
     7
 10
71.166470009602264
 20
242.36360389693209
 30
0.0
  0
VERTEX
  5
4B7
  8
DATA
  6
CONTINUOUS
 62
     7
 10
70.247231194059751
 20
243.2828427124746
 30
0.0
  0
SEQEND
  5
4B8
  8
DATA
  6
CONTINUOUS
 62
     7
  0
POLYLINE
  5
18A
  8
DATA
  6
CONTINUOUS
 62
     7
 66
     1
 10
0.0
 20
0.0
 30
0.0
 70
     1
  0
VERTEX
  5
4B9
  8
DATA
  6
CONTINUOUS
 62
     7
 10
72.600784584653013
 20
245.63639610306791
 30
0.0
  0
VERTEX
  5
4BA
  8
DATA
  6
CONTINUOUS
 62
     7
 10
73.520023400195555
 20
244.7171572875254
 30
0.0
  0
VERTEX
  5
4BB
  8
DATA
  6
CONTINUOUS
 62
     7
 10
73.166470009602264
 20
244.36360389693209
 30
0.0
  0
VERTEX
  5
4BC
  8
DATA
  6
CONTINUOUS
 62
     7
 10
72.247231194059736
 20
245.2828427124746
 30
0.0
  0
SEQEND
  5
4BD
  8
DATA
  6
CONTINUOUS
 62
     7
  0
POLYLINE
  5
191
  8
DATA
  6
CONTINUOUS
 62
     7
 66
     1
 10
0.0
 20
0.0
 30
0.0
 70
     1
  0
VERTEX
  5
4BE
  8
DATA
  6
CONTINUOUS
 62
     7
 10
72.600784584653013
 20
247.63639610306791
 30
0.0
  0
VERTEX
  5
4BF
  8
DATA
  6
CONTINUOUS
 62
     7
 10
73.520023400195555
 20
246.71715728752531
 30
0.0
  0
VERTEX
  5
4C0
  8
DATA
  6
CONTINUOUS
 62
     7
 10
73.166470009602264
 20
246.36360389693209
 30
0.0
  0
VERTEX
  5
4C1
  8
DATA
  6
CONTINUOUS
 62
     7
 10
72.247231194059736
 20
247.2828427124746
 30
0.0
  0
SEQEND
  5
4C2
  8
DATA
  6
CONTINUOUS
 62
     7
  0
POLYLINE
  5
198
  8
DATA
  6
CONTINUOUS
 62
     7
 66
     1
 10
0.0
 20
0.0
 30
0.0
 70
     1
  0
VERTEX
  5
4C3
  8
DATA
  6
CONTINUOUS
 62
     7
 10
72.600784584653013
 20
243.63639610306791
 30
0.0
  0
VERTEX
  5
4C4
  8
DATA
  6
CONTINUOUS
 62
     7
 10
73.520023400195555
 20
242.7171572875254
 30
0.0
  0
VERTEX
  5
4C5
  8
DATA
  6
CONTINUOUS
 62
     7
 10
73.166470009602264
 20
242.36360389693209
 30
0.0
  0
VERTEX
  5
4C6
  8
DATA
  6
CONTINUOUS
 62
     7
 10
72.247231194059736
 20
243.2828427124746
 30
0.0
  0
SEQEND
  5
4C7
  8
DATA
  6
CONTINUOUS
 62
     7
  0
POLYLINE
  5
19F
  8
DATA
  6
CONTINUOUS
 62
     7
 66
     1
 10
0.0
 20
0.0
 30
0.0
 70
     1
  0
VERTEX
  5
4C8
  8
DATA
  6
CONTINUOUS
 62
     7
 10
74.600784584653013
 20
245.63639610306791
 30
0.0
  0
VERTEX
  5
4C9
  8
DATA
  6
CONTINUOUS
 62
     7
 10
75.520023400195555
 20
244.7171572875254
 30
0.0
  0
VERTEX
  5
4CA
  8
DATA
  6
CONTINUOUS
 62
     7
 10
75.166470009602264
 20
244.36360389693209
 30
0.0
  0
VERTEX
  5
4CB
  8
DATA
  6
CONTINUOUS
 62
     7
 10
74.247231194059736
 20
245.2828427124746
 30
0.0
  0
SEQEND
  5
4CC
  8
DATA
  6
CONTINUOUS
 62
     7
  0
POLYLINE
  5
1A6
  8
DATA
  6
CONTINUOUS
 62
     7
 66
     1
 10
0.0
 20
0.0
 30
0.0
 70
     1
  0
VERTEX
  5
4CD
  8
DATA
  6
CONTINUOUS
 62
     7
 10
74.600784584653013
 20
247.63639610306791
 30
0.0
  0
VERTEX
  5
4CE
  8
DATA
  6
CONTINUOUS
 62
     7
 10
75.520023400195555
 20
246.71715728752531
 30
0.0
  0
VERTEX
  5
4CF
  8
DATA
  6
CONTINUOUS
 62
     7
 10
75.166470009602264
 20
246.36360389693209
 30
0.0
  0
VERTEX
  5
4D0
  8
DATA
  6
CONTINUOUS
 62
     7
 10
74.247231194059736
 20
247.2828427124746
 30
0.0
  0
SEQEND
  5
4D1
  8
DATA
  6
CONTINUOUS
 62
     7
  0
POLYLINE
  5
1AD
  8
DATA
  6
CONTINUOUS
 62
     7
 66
     1
 10
0.0
 20
0.0
 30
0.0
 70
     1
  0
VERTEX
  5
4D2
  8
DATA
  6
CONTINUOUS
 62
     7
 10
74.600784584653013
 20
243.63639610306791
 30
0.0
  0
VERTEX
  5
4D3
  8
DATA
  6
CONTINUOUS
 62
     7
 10
75.520023400195555
 20
242.7171572875254
 30
0.0
  0
VERTEX
  5
4D4
  8
DATA
  6
CONTINUOUS
 62
     7
 10
75.166470009602264
 20
242.36360389693209
 30
0.0
  0
VERTEX
  5
4D5
  8
DATA
  6
CONTINUOUS
 62
     7
 10
74.247231194059736
 20
243.2828427124746
 30
0.0
  0
SEQEND
  5
4D6
  8
DATA
  6
CONTINUOUS
 62
     7
  0
POLYLINE
  5
1B4
  8
DATA
  6
CONTINUOUS
 62
     7
 66
     1
 10
0.0
 20
0.0
 30
0.0
 70
     1
  0
VERTEX
  5
4D7
  8
DATA
  6
CONTINUOUS
 62
     7
 10
76.600784584653013
 20
245.63639610306791
 30
0.0
  0
VERTEX
  5
4D8
  8
DATA
  6
CONTINUOUS
 62
     7
 10
77.520023400195555
 20
244.7171572875254
 30
0.0
  0
VERTEX
  5
4D9
  8
DATA
  6
CONTINUOUS
 62
     7
 10
77.166470009602264
 20
244.36360389693209
 30
0.0
  0
VERTEX
  5
4DA
  8
DATA
  6
CONTINUOUS
 62
     7
 10
76.247231194059736
 20
245.2828427124746
 30
0.0
  0
SEQEND
  5
4DB
  8
DATA
  6
CONTINUOUS
 62
     7
  0
POLYLINE
  5
1BB
  8
DATA
  6
CONTINUOUS
 62
     7
 66
     1
 10
0.0
 20
0.0
 30
0.0
 70
     1
  0
VERTEX
  5
4DC
  8
DATA
  6
CONTINUOUS
 62
     7
 10
76.600784584653013
 20
247.63639610306791
 30
0.0
  0
VERTEX
  5
4DD
  8
DATA
  6
CONTINUOUS
 62
     7
 10
77.520023400195555
 20
246.71715728752531
 30
0.0
  0
VERTEX
  5
4DE
  8
DATA
  6
CONTINUOUS
 62
     7
 10
77.166470009602264
 20
246.36360389693209
 30
0.0
  0
VERTEX
  5
4DF
  8
DATA
  6
CONTINUOUS
 62
     7
 10
76.247231194059736
 20
247.2828427124746
 30
0.0
  0
SEQEND
  5
4E0
  8
DATA
  6
CONTINUOUS
 62
     7
  0
POLYLINE
  5
1C2
  8
DATA
  6
CONTINUOUS
 62
     7
 66
     1
 10
0.0
 20
0.0
 30
0.0
 70
     1
  0
VERTEX
  5
4E1
  8
DATA
  6
CONTINUOUS
 62
     7
 10
76.600784584653013
 20
243.63639610306791
 30
0.0
  0
VERTEX
  5
4E2
  8
DATA
  6
CONTINUOUS
 62
     7
 10
77.520023400195555
 20
242.7171572875254
 30
0.0
  0
VERTEX
  5
4E3
  8
DATA
  6
CONTINUOUS
 62
     7
 10
77.166470009602264
 20
242.36360389693209
 30
0.0
  0
VERTEX
  5
4E4
  8
DATA
  6
CONTINUOUS
 62
     7
 10
76.247231194059736
 20
243.2828427124746
 30
0.0
  0
SEQEND
  5
4E5
  8
DATA
  6
CONTINUOUS
 62
     7
  0
POLYLINE
  5
1C9
  8
DATA
  6
CONTINUOUS
 62
     7
 66
     1
 10
0.0
 20
0.0
 30
0.0
 70
     1
  0
VERTEX
  5
4E6
  8
DATA
  6
CONTINUOUS
 62
     7
 10
78.600784584653013
 20
245.63639610306791
 30
0.0
  0
VERTEX
  5
4E7
  8
DATA
  6
CONTINUOUS
 62
     7
 10
79.520023400195555
 20
244.7171572875254
 30
0.0
  0
VERTEX
  5
4E8
  8
DATA
  6
CONTINUOUS
 62
     7
 10
79.166470009602264
 20
244.36360389693209
 30
0.0
  0
VERTEX
  5
4E9
  8
DATA
  6
CONTINUOUS
 62
     7
 10
78.247231194059736
 20
245.2828427124746
 30
0.0
  0
SEQEND
  5
4EA
  8
DATA
  6
CONTINUOUS
 62
     7
  0
POLYLINE
  5
1D0
  8
DATA
  6
CONTINUOUS
 62
     7
 66
     1
 10
0.0
 20
0.0
 30
0.0
 70
     1
  0
VERTEX
  5
4EB
  8
DATA
  6
CONTINUOUS
 62
     7
 10
78.600784584653013
 20
247.63639610306791
 30
0.0
  0
VERTEX
  5
4EC
  8
DATA
  6
CONTINUOUS
 62
     7
 10
79.520023400195555
 20
246.71715728752531
 30
0.0
  0
VERTEX
  5
4ED
  8
DATA
  6
CONTINUOUS
 62
     7
 10
79.166470009602264
 20
246.36360389693209
 30
0.0
  0
VERTEX
  5
4EE
  8
DATA
  6
CONTINUOUS
 62
     7
 10
78.247231194059736
 20
247.2828427124746
 30
0.0
  0
SEQEND
  5
4EF
  8
DATA
  6
CONTINUOUS
 62
     7
  0
POLYLINE
  5
1D7
  8
DATA
  6
CONTINUOUS
 62
     7
 66
     1
 10
0.0
 20
0.0
 30
0.0
 70
     1
  0
VERTEX
  5
4F0
  8
DATA
  6
CONTINUOUS
 62
     7
 10
78.600784584653013
 20
243.63639610306791
 30
0.0
  0
VERTEX
  5
4F1
  8
DATA
  6
CONTINUOUS
 62
     7
 10
79.520023400195555
 20
242.7171572875254
 30
0.0
  0
VERTEX
  5
4F2
  8
DATA
  6
CONTINUOUS
 62
     7
 10
79.166470009602264
 20
242.36360389693209
 30
0.0
  0
VERTEX
  5
4F3
  8
DATA
  6
CONTINUOUS
 62
     7
 10
78.247231194059736
 20
243.2828427124746
 30
0.0
  0
SEQEND
  5
4F4
  8
DATA
  6
CONTINUOUS
 62
     7
  0
POLYLINE
  5
1DE
  8
DATA
  6
CONTINUOUS
 62
     7
 66
     1
 10
0.0
 20
0.0
 30
0.0
 70
     1
  0
VERTEX
  5
4F5
  8
DATA
  6
CONTINUOUS
 62
     7
 10
80.600784584653013
 20
245.63639610306791
 30
0.0
  0
VERTEX
  5
4F6
  8
DATA
  6
CONTINUOUS
 62
     7
 10
81.520023400195555
 20
244.7171572875254
 30
0.0
  0
VERTEX
  5
4F7
  8
DATA
  6
CONTINUOUS
 62
     7
 10
81.166470009602264
 20
244.36360389693209
 30
0.0
  0
VERTEX
  5
4F8
  8
DATA
  6
CONTINUOUS
 62
     7
 10
80.247231194059736
 20
245.2828427124746
 30
0.0
  0
SEQEND
  5
4F9
  8
DATA
  6
CONTINUOUS
 62
     7
  0
POLYLINE
  5
1E5
  8
DATA
  6
CONTINUOUS
 62
     7
 66
     1
 10
0.0
 20
0.0
 30
0.0
 70
     1
  0
VERTEX
  5
4FA
  8
DATA
  6
CONTINUOUS
 62
     7
 10
80.600784584653013
 20
247.63639610306791
 30
0.0
  0
VERTEX
  5
4FB
  8
DATA
  6
CONTINUOUS
 62
     7
 10
81.520023400195555
 20
246.71715728752531
 30
0.0
  0
VERTEX
  5
4FC
  8
DATA
  6
CONTINUOUS
 62
     7
 10
81.166470009602264
 20
246.36360389693209
 30
0.0
  0
VERTEX
  5
4FD
  8
DATA
  6
CONTINUOUS
 62
     7
 10
80.247231194059736
 20
247.2828427124746
 30
0.0
  0
SEQEND
  5
4FE
  8
DATA
  6
CONTINUOUS
 62
     7
  0
POLYLINE
  5
1EC
  8
DATA
  6
CONTINUOUS
 62
     7
 66
     1
 10
0.0
 20
0.0
 30
0.0
 70
     1
  0
VERTEX
  5
4FF
  8
DATA
  6
CONTINUOUS
 62
     7
 10
80.600784584653013
 20
243.63639610306791
 30
0.0
  0
VERTEX
  5
500
  8
DATA
  6
CONTINUOUS
 62
     7
 10
81.520023400195555
 20
242.7171572875254
 30
0.0
  0
VERTEX
  5
501
  8
DATA
  6
CONTINUOUS
 62
     7
 10
81.166470009602264
 20
242.36360389693209
 30
0.0
  0
VERTEX
  5
502
  8
DATA
  6
CONTINUOUS
 62
     7
 10
80.247231194059736
 20
243.2828427124746
 30
0.0
  0
SEQEND
  5
503
  8
DATA
  6
CONTINUOUS
 62
     7
  0
LINE
  5
1F3
  8
DATA
  6
CONTINUOUS
 62
     7
 10
56.687767933834877
 20
113.4334809897762
 30
0.0
 11
56.249999999799968
 21
120.00000000030001
 31
0.0
  0
LINE
  5
1F4
  8
DATA
  6
CONTINUOUS
 62
     7
 10
56.687767933834877
 20
126.5665190108237
 30
0.0
 11
56.249999999799968
 21
120.00000000030001
 31
0.0
  0
LINE
  5
1F5
  8
DATA
  6
CONTINUOUS
 62
     7
 10
97.249999999799996
 20
120.00000000030001
 30
0.0
 11
96.812232065765073
 21
126.5665190108237
 31
0.0
  0
LINE
  5
1F6
  8
DATA
  6
CONTINUOUS
 62
     7
 10
96.812232065765073
 20
113.4334809897762
 30
0.0
 11
97.249999999799996
 21
120.00000000030001
 31
0.0
  0
ARC
  5
1F7
  8
DATA
  6
CONTINUOUS
 62
     7
 10
57.685553091691503
 20
126.50000000030001
 30
0.0
 40
1.0
 50
90.0
 51
176.18592516570939
  0
ARC
  5
1F8
  8
DATA
  6
CONTINUOUS
 62
     7
 10
57.685553091691503
 20
113.50000000030001
 30
0.0
 40
1.000000000000002
 50
183.81407483429041
 51
270.0
  0
ARC
  5
1F9
  8
DATA
  6
CONTINUOUS
 62
     7
 10
95.814446907908462
 20
126.50000000030001
 30
0.0
 40
1.000000000000002
 50
3.814074834290516
 51
90.0
  0
ARC
  5
1FA
  8
DATA
  6
CONTINUOUS
 62
     7
 10
95.814446907908462
 20
113.50000000030001
 30
0.0
 40
1.0
 50
270.0
 51
356.18592516570948
  0
CIRCLE
  5
1FB
  8
DATA
  6
CONTINUOUS
 62
     7
 10
60.749999999799968
 20
120.00000000030001
 30
0.0
 40
3.0
  0
CIRCLE
  5
1FC
  8
DATA
  6
CONTINUOUS
 62
     7
 10
92.749999999799996
 20
120.00000000030001
 30
0.0
 40
3.0
  0
POLYLINE
  5
1FD
  8
DATA
  6
CONTINUOUS
 62
     7
 66
     1
 10
0.0
 20
0.0
 30
0.0
  0
VERTEX
  5
504
  8
DATA
  6
CONTINUOUS
 62
     7
 10
70.779829299089513
 20
116.00000000030001
 30
0.0
  0
VERTEX
  5
505
  8
DATA
  6
CONTINUOUS
 62
     7
 10
67.279829299089513
 20
116.00000000030001
 30
0.0
  0
VERTEX
  5
506
  8
DATA
  6
CONTINUOUS
 62
     7
 10
67.279829299089513
 20
124.00000000030001
 30
0.0
  0
VERTEX
  5
507
  8
DATA
  6
CONTINUOUS
 62
     7
 10
76.279829299089499
 20
124.00000000030001
 30
0.0
  0
VERTEX
  5
508
  8
DATA
  6
CONTINUOUS
 62
     7
 10
76.279829299089499
 20
116.00000000030001
 30
0.0
  0
VERTEX
  5
509
  8
DATA
  6
CONTINUOUS
 62
     7
 10
72.779829299089499
 20
116.00000000030001
 30
0.0
  0
SEQEND
  5
50A
  8
DATA
  6
CONTINUOUS
 62
     7
  0
CIRCLE
  5
206
  8
DATA
  6
CONTINUOUS
 62
     7
 10
83.472367094691151
 20
117.2230190222014
 30
0.0
 40
2.5
  0
LINE
  5
207
  8
DATA
  6
CONTINUOUS
 62
     7
 10
65.348058067369067
 20
120.4902903381453
 30
0.0
 11
66.508834840341407
 21
126.2941742030072
 31
0.0
  0
LINE
  5
208
  8
DATA
  6
CONTINUOUS
 62
     7
 10
66.50883484034145
 20
113.7058257975926
 30
0.0
 11
65.348058067369067
 21
119.5097096624544
 31
0.0
  0
LINE
  5
209
  8
DATA
  6
CONTINUOUS
 62
     7
 10
88.151941932230869
 20
120.4902903381454
 30
0.0
 11
86.991165159258514
 21
126.2941742030072
 31
0.0
  0
LINE
  5
20A
  8
DATA
  6
CONTINUOUS
 62
     7
 10
86.991165159258557
 20
113.7058257975926
 30
0.0
 11
88.151941932230869
 21
119.5097096624545
 31
0.0
  0
ARC
  5
20B
  8
DATA
  6
CONTINUOUS
 62
     7
 10
67.799509756596365
 20
120.00000000029991
 30
0.0
 40
2.4999999999999978
 50
168.69006752597971
 51
191.3099324740204
  0
ARC
  5
20C
  8
DATA
  6
CONTINUOUS
 62
     7
 10
85.700490243003557
 20
120.00000000029991
 30
0.0
 40
2.500000000000012
 50
348.69006752597971
 51
11.309932474020281
  0
ARC
  5
20D
  8
DATA
  6
CONTINUOUS
 62
     7
 10
67.979705853877789
 20
126.00000000030001
 30
0.0
 40
1.5
 50
90.0
 51
168.69006752598011
  0
ARC
  5
20E
  8
DATA
  6
CONTINUOUS
 62
     7
 10
85.520294145722119
 20
126.00000000030001
 30
0.0
 40
1.500000000000002
 50
11.309932474020419
 51
90.000000000000583
  0
ARC
  5
20F
  8
DATA
  6
CONTINUOUS
 62
     7
 10
67.979705853877846
 20
114.00000000030001
 30
0.0
 40
1.500000000000016
 50
191.30993247402029
 51
269.99999999999937
  0
ARC
  5
210
  8
DATA
  6
CONTINUOUS
 62
     7
 10
85.520294145722119
 20
114.00000000030001
 30
0.0
 40
1.500000000000014
 50
270.0
 51
348.69006752597909
  0
LINE
  5
211
  8
DATA
  6
CONTINUOUS
 62
     7
 10
57.685553091691503
 20
127.50000000030001
 30
0.0
 11
95.814446907908462
 21
127.50000000030001
 31
0.0
  0
LINE
  5
212
  8
DATA
  6
CONTINUOUS
 62
     7
 10
57.685553091691503
 20
112.50000000030001
 30
0.0
 11
95.814446907908462
 21
112.50000000030001
 31
0.0
  0
POLYLINE
  5
213
  8
DATA
  6
CONTINUOUS
 62
     7
 66
     1
 10
0.0
 20
0.0
 30
0.0
  0
VERTEX
  5
50B
  8
DATA
  6
CONTINUOUS
 62
     7
 10
72.779829299089499
 20
116.00000000030001
 30
0.0
  0
VERTEX
  5
50C
  8
DATA
  6
CONTINUOUS
 62
     7
 10
72.779829299089499
 20
115.39378473591739
 30
0.0
  0
VERTEX
  5
50D
  8
DATA
  6
CONTINUOUS
 62
     7
 10
70.779829299089513
 20
115.39378473591739
 30
0.0
  0
VERTEX
  5
50E
  8
DATA
  6
CONTINUOUS
 62
     7
 10
70.779829299089513
 20
116.00000000030001
 30
0.0
  0
SEQEND
  5
50F
  8
DATA
  6
CONTINUOUS
 62
     7
  0
ARC
  5
21A
  8
DATA
  6
CONTINUOUS
 62
     7
 10
64.169433006743901
 20
120.00000000030001
 30
0.0
 40
7.5
 50
90.0
 51
270.0
  0
ARC
  5
21B
  8
DATA
  6
CONTINUOUS
 62
     7
 10
89.330566992856049
 20
120.00000000030001
 30
0.0
 40
7.5
 50
270.0
 51
90.0
  0
LINE
  5
21C
  8
DATA
  6
CONTINUOUS
 62
     7
 10
112.50000000030001
 20
156.2500000000511
 30
0.0
 11
112.50000000030001
 21
212.2500000000511
 31
0.0
  0
LINE
  5
21D
  8
DATA
  6
CONTINUOUS
 62
     7
 10
127.50000000030001
 20
156.2500000000511
 30
0.0
 11
127.50000000030001
 21
212.2500000000511
 31
0.0
  0
LINE
  5
21E
  8
DATA
  6
CONTINUOUS
 62
     7
 10
112.50000000030001
 20
156.2500000000511
 30
0.0
 11
117.00000000030001
 21
156.2500000000511
 31
0.0
  0
LINE
  5
21F
  8
DATA
  6
CONTINUOUS
 62
     7
 10
123.00000000030001
 20
156.2500000000511
 30
0.0
 11
127.50000000030001
 21
156.2500000000511
 31
0.0
  0
LINE
  5
220
  8
DATA
  6
CONTINUOUS
 62
     7
 10
112.50000000030001
 20
212.2500000000511
 30
0.0
 11
127.50000000030001
 21
212.2500000000511
 31
0.0
  0
LINE
  5
221
  8
DATA
  6
CONTINUOUS
 62
     7
 10
115.50000000030001
 20
217.2500000000511
 30
0.0
 11
124.50000000030001
 21
217.2500000000511
 31
0.0
  0
LINE
  5
222
  8
DATA
  6
CONTINUOUS
 62
     7
 10
112.50000000030001
 20
209.2500000000511
 30
0.0
 11
127.50000000030001
 21
209.2500000000511
 31
0.0
  0
LINE
  5
223
  8
DATA
  6
CONTINUOUS
 62
     7
 10
120.00000000030001
 20
212.2500000000511
 30
0.0
 11
120.00000000030001
 21
209.2500000000511
 31
0.0
  0
LINE
  5
224
  8
DATA
  6
CONTINUOUS
 62
     7
 10
115.50000000030001
 20
212.2500000000511
 30
0.0
 11
115.50000000030001
 21
217.2500000000511
 31
0.0
  0
LINE
  5
225
  8
DATA
  6
CONTINUOUS
 62
     7
 10
124.50000000030001
 20
217.2500000000511
 30
0.0
 11
124.50000000030001
 21
212.2500000000511
 31
0.0
  0
LINE
  5
226
  8
DATA
  6
CONTINUOUS
 62
     7
 10
118.70000000029999
 20
216.2500000000511
 30
0.0
 11
121.3000000002999
 21
216.2500000000511
 31
0.0
  0
LINE
  5
227
  8
DATA
  6
CONTINUOUS
 62
     7
 10
121.3000000002999
 20
216.2500000000511
 30
0.0
 11
121.3000000002999
 21
212.2500000000511
 31
0.0
  0
LINE
  5
228
  8
DATA
  6
CONTINUOUS
 62
     7
 10
118.70000000029999
 20
216.2500000000511
 30
0.0
 11
118.70000000029999
 21
212.2500000000511
 31
0.0
  0
LINE
  5
229
  8
DATA
  6
CONTINUOUS
 62
     7
 10
120.70478572499729
 20
212.2500000000511
 30
0.0
 11
118.70000000029999
 21
212.6885468773286
 31
0.0
  0
LINE
  5
22A
  8
DATA
  6
CONTINUOUS
 62
     7
 10
121.3000000002999
 20
212.91979687732859
 30
0.0
 11
118.70000000029999
 21
213.48854687732859
 31
0.0
  0
LINE
  5
22B
  8
DATA
  6
CONTINUOUS
 62
     7
 10
121.3000000002999
 20
213.7197968773286
 30
0.0
 11
118.70000000029999
 21
214.28854687732871
 31
0.0
  0
LINE
  5
22C
  8
DATA
  6
CONTINUOUS
 62
     7
 10
121.3000000002999
 20
214.51979687732859
 30
0.0
 11
118.70000000029999
 21
215.08854687732861
 31
0.0
  0
LINE
  5
22D
  8
DATA
  6
CONTINUOUS
 62
     7
 10
121.3000000002999
 20
215.3197968773286
 30
0.0
 11
118.70000000029999
 21
215.88854687732871
 31
0.0
  0
LINE
  5
22E
  8
DATA
  6
CONTINUOUS
 62
     7
 10
121.3000000002999
 20
216.11979687732861
 30
0.0
 11
120.70478572499729
 21
216.2500000000511
 31
0.0
  0
LINE
  5
22F
  8
DATA
  6
CONTINUOUS
 62
     7
 10
123.00000000030001
 20
151.2500000000511
 30
0.0
 11
123.00000000030001
 21
165.45000000005109
 31
0.0
  0
LINE
  5
230
  8
DATA
  6
CONTINUOUS
 62
     7
 10
117.00000000030001
 20
151.2500000000511
 30
0.0
 11
117.00000000030001
 21
165.45000000005109
 31
0.0
  0
ARC
  5
231
  8
DATA
  6
CONTINUOUS
 62
     7
 10
120.00000000030001
 20
151.2500000000511
 30
0.0
 40
2.999999999999996
 50
180.0
 51
0.0
  0
ARC
  5
232
  8
DATA
  6
CONTINUOUS
 62
     7
 10
120.00000000030001
 20
166.7500000000511
 30
0.0
 40
7.4999999999999956
 50
180.0
 51
246.42182152179819
  0
ARC
  5
233
  8
DATA
  6
CONTINUOUS
 62
     7
 10
120.00000000030001
 20
166.7500000000511
 30
0.0
 40
7.4999999999999982
 50
293.57817847820178
 51
0.0
  0
LINE
  5
234
  8
DATA
  6
CONTINUOUS
 62
     7
 10
117.8000000003
 20
166.2500000000511
 30
0.0
 11
122.20000000029999
 21
166.2500000000511
 31
0.0
  0
ARC
  5
235
  8
DATA
  6
CONTINUOUS
 62
     7
 10
117.8000000003
 20
165.45000000005109
 30
0.0
 40
0.7999999999999972
 50
90.0
 51
180.0
  0
ARC
  5
236
  8
DATA
  6
CONTINUOUS
 62
     7
 10
122.20000000029999
 20
165.45000000005109
 30
0.0
 40
0.7999999999999972
 50
0.0
 51
90.0
  0
LINE
  5
237
  8
DATA
  6
CONTINUOUS
 62
     7
 10
118.84000000029999
 20
166.2500000000511
 30
0.0
 11
118.84000000029999
 21
169.15621460064369
 31
0.0
  0
LINE
  5
238
  8
DATA
  6
CONTINUOUS
 62
     7
 10
121.1600000003
 20
166.2500000000511
 30
0.0
 11
121.1600000003
 21
169.15621460064369
 31
0.0
  0
ARC
  5
239
  8
DATA
  6
CONTINUOUS
 62
     7
 10
120.00000000030001
 20
165.85403350324759
 30
0.0
 40
3.499999999999996
 50
0.0
 51
180.0
  0
ARC
  5
23A
  8
DATA
  6
CONTINUOUS
 62
     7
 10
120.00000000030001
 20
164.36877866246641
 30
0.0
 40
3.499999999999996
 50
180.0
 51
211.002719133874
  0
ARC
  5
23B
  8
DATA
  6
CONTINUOUS
 62
     7
 10
120.00000000030001
 20
164.36877866246641
 30
0.0
 40
3.4999999999999978
 50
328.99728086612589
 51
0.0
  0
LINE
  5
23C
  8
DATA
  6
CONTINUOUS
 62
     7
 10
116.50000000030001
 20
164.36877866246641
 30
0.0
 11
116.50000000030001
 21
165.85403350324759
 31
0.0
  0
LINE
  5
23D
  8
DATA
  6
CONTINUOUS
 62
     7
 10
123.50000000030001
 20
164.36877866246641
 30
0.0
 11
123.50000000030001
 21
166.0000000000511
 31
0.0
  0
LINE
  5
23E
  8
DATA
  6
CONTINUOUS
 62
     7
 10
181.2500000002
 20
212.2500000000511
 30
0.0
 11
222.2500000002
 21
212.2500000000511
 31
0.0
  0
LINE
  5
23F
  8
DATA
  6
CONTINUOUS
 62
     7
 10
181.7001723368237
 20
170.83414503066589
 30
0.0
 11
181.2500000002
 21
212.2500000000511
 31
0.0
  0
LINE
  5
240
  8
DATA
  6
CONTINUOUS
 62
     7
 10
221.7998276635762
 20
170.83414503066589
 30
0.0
 11
222.2500000002
 21
212.2500000000511
 31
0.0
  0
LINE
  5
241
  8
DATA
  6
CONTINUOUS
 62
     7
 10
181.2826086958521
 20
209.2500000000511
 30
0.0
 11
222.21739130454779
 21
209.2500000000511
 31
0.0
  0
LINE
  5
242
  8
DATA
  6
CONTINUOUS
 62
     7
 10
188.7500000002
 20
212.2500000000511
 30
0.0
 11
188.7500000002
 21
217.2500000000511
 31
0.0
  0
LINE
  5
243
  8
DATA
  6
CONTINUOUS
 62
     7
 10
214.7500000002
 20
217.2500000000511
 30
0.0
 11
214.7500000002
 21
212.2500000000511
 31
0.0
  0
LINE
  5
244
  8
DATA
  6
CONTINUOUS
 62
     7
 10
188.7500000002
 20
217.2500000000511
 30
0.0
 11
214.7500000002
 21
217.2500000000511
 31
0.0
  0
LINE
  5
245
  8
DATA
  6
CONTINUOUS
 62
     7
 10
182.7500000002
 20
151.2500000000511
 30
0.0
 11
182.7500000002
 21
165.24000000005111
 31
0.0
  0
LINE
  5
246
  8
DATA
  6
CONTINUOUS
 62
     7
 10
188.7500000002
 20
151.2500000000511
 30
0.0
 11
188.7500000002
 21
160.27688227078599
 31
0.0
  0
ARC
  5
247
  8
DATA
  6
CONTINUOUS
 62
     7
 10
185.7500000002
 20
151.2500000000511
 30
0.0
 40
3.0000000000000071
 50
180.0
 51
0.0
  0
ARC
  5
248
  8
DATA
  6
CONTINUOUS
 62
     7
 10
201.02144639367771
 20
176.5931888900935
 30
0.0
 40
20.415931482135552
 50
201.71883612226219
 51
238.15655742241691
  0
ARC
  5
249
  8
DATA
  6
CONTINUOUS
 62
     7
 10
202.4785536067223
 20
176.5931888900935
 30
0.0
 40
20.415931482135541
 50
301.84344257758301
 51
338.28116387773792
  0
LINE
  5
24A
  8
DATA
  6
CONTINUOUS
 62
     7
 10
190.2500000002
 20
156.2500000000511
 30
0.0
 11
190.2500000002
 21
159.2500000000511
 31
0.0
  0
LINE
  5
24B
  8
DATA
  6
CONTINUOUS
 62
     7
 10
213.2500000002
 20
159.2500000000511
 30
0.0
 11
213.2500000002
 21
156.2500000000511
 31
0.0
  0
LINE
  5
24C
  8
DATA
  6
CONTINUOUS
 62
     7
 10
190.2500000002
 20
156.2500000000511
 30
0.0
 11
213.2500000002
 21
156.2500000000511
 31
0.0
  0
ARC
  5
24D
  8
DATA
  6
CONTINUOUS
 62
     7
 10
168.32025210104041
 20
157.77008624507539
 30
0.0
 40
22.980078348676798
 50
356.20722936945981
 51
23.899259175741012
  0
ARC
  5
24E
  8
DATA
  6
CONTINUOUS
 62
     7
 10
235.17974789935951
 20
157.77008624507539
 30
0.0
 40
22.980078348676759
 50
156.10074082425899
 51
183.7927706305401
  0
ARC
  5
24F
  8
DATA
  6
CONTINUOUS
 62
     7
 10
187.2715340869494
 20
164.57042613739989
 30
0.0
 40
4.5708423354106964
 50
153.0779842815418
 51
171.57654058511579
  0
LINE
  5
250
  8
DATA
  6
CONTINUOUS
 62
     7
 10
220.7500000002
 20
151.2500000000511
 30
0.0
 11
220.7500000002
 21
165.24000000005111
 31
0.0
  0
LINE
  5
251
  8
DATA
  6
CONTINUOUS
 62
     7
 10
214.7500000002
 20
151.2500000000511
 30
0.0
 11
214.7500000002
 21
160.27688227078599
 31
0.0
  0
ARC
  5
252
  8
DATA
  6
CONTINUOUS
 62
     7
 10
217.7500000002
 20
151.2500000000511
 30
0.0
 40
2.9999999999999849
 50
180.0
 51
0.0
  0
ARC
  5
253
  8
DATA
  6
CONTINUOUS
 62
     7
 10
216.22846591345061
 20
164.57042613739989
 30
0.0
 40
4.5708423354106751
 50
8.4234594148842863
 51
26.922015718458312
  0
ARC
  5
254
  8
DATA
  6
CONTINUOUS
 62
     7
 10
186.6998769668246
 20
170.88848964620939
 30
0.0
 40
4.9999999724490403
 50
180.62275568720631
 51
201.71883627275301
  0
ARC
  5
255
  8
DATA
  6
CONTINUOUS
 62
     7
 10
216.8001230335754
 20
170.88848964620939
 30
0.0
 40
4.9999999724490234
 50
338.28116372724691
 51
359.37724431279361
  0
TEXT
  5
256
  8
DATA
 62
     7
 10
195.4583335474417
 20
201.23950610702161
 30
0.0
 40
2.8504720052083319
  1
MONITOR
 41
0.7
 11
195.4583335474417
 21
204.08997811222989
 31
0.0
 73
     3
  0
LINE
  5
257
  8
DATA
  6
CONTINUOUS
 62
     7
 10
203.65000000020001
 20
205.38179742093729
 30
0.0
 11
199.8500000002
 21
205.38179742093729
 31
0.0
  0
LINE
  5
258
  8
DATA
  6
CONTINUOUS
 62
     7
 10
193.7500000002
 20
199.66419259559359
 30
0.0
 11
181.3868022545962
 21
199.66419259559359
 31
0.0
  0
LINE
  5
259
  8
DATA
  6
CONTINUOUS
 62
     7
 10
181.40245442850929
 20
198.22419259559359
 30
0.0
 11
193.7500000002
 21
198.22419259559359
 31
0.0
  0
LINE
  5
25A
  8
DATA
  6
CONTINUOUS
 62
     7
 10
193.7500000002
 20
197.0941925955936
 30
0.0
 11
181.4147370372049
 21
197.0941925955936
 31
0.0
  0
LINE
  5
25B
  8
DATA
  6
CONTINUOUS
 62
     7
 10
181.43038921111801
 20
195.6541925955936
 30
0.0
 11
193.7500000002
 21
195.6541925955936
 31
0.0
  0
LINE
  5
25C
  8
DATA
  6
CONTINUOUS
 62
     7
 10
193.7500000002
 20
195.6541925955936
 30
0.0
 11
193.7500000002
 21
197.0941925955936
 31
0.0
  0
LINE
  5
25D
  8
DATA
  6
CONTINUOUS
 62
     7
 10
193.7500000002
 20
194.5241925955936
 30
0.0
 11
181.4426718198136
 21
194.5241925955936
 31
0.0
  0
LINE
  5
25E
  8
DATA
  6
CONTINUOUS
 62
     7
 10
181.45832399372671
 20
193.08419259559361
 30
0.0
 11
193.7500000002
 21
193.08419259559361
 31
0.0
  0
LINE
  5
25F
  8
DATA
  6
CONTINUOUS
 62
     7
 10
193.7500000002
 20
193.08419259559361
 30
0.0
 11
193.7500000002
 21
194.5241925955936
 31
0.0
  0
LINE
  5
260
  8
DATA
  6
CONTINUOUS
 62
     7
 10
193.7500000002
 20
191.95419259559361
 30
0.0
 11
181.47060660242229
 21
191.95419259559361
 31
0.0
  0
LINE
  5
261
  8
DATA
  6
CONTINUOUS
 62
     7
 10
181.4862587763354
 20
190.51419259559361
 30
0.0
 11
193.7500000002
 21
190.51419259559361
 31
0.0
  0
LINE
  5
262
  8
DATA
  6
CONTINUOUS
 62
     7
 10
193.7500000002
 20
190.51419259559361
 30
0.0
 11
193.7500000002
 21
191.95419259559361
 31
0.0
  0
LINE
  5
263
  8
DATA
  6
CONTINUOUS
 62
     7
 10
193.7500000002
 20
189.38419259559359
 30
0.0
 11
181.49854138503099
 21
189.38419259559359
 31
0.0
  0
LINE
  5
264
  8
DATA
  6
CONTINUOUS
 62
     7
 10
181.5141935589441
 20
187.94419259559359
 30
0.0
 11
193.7500000002
 21
187.94419259559359
 31
0.0
  0
LINE
  5
265
  8
DATA
  6
CONTINUOUS
 62
     7
 10
193.7500000002
 20
187.94419259559359
 30
0.0
 11
193.7500000002
 21
189.38419259559359
 31
0.0
  0
LINE
  5
266
  8
DATA
  6
CONTINUOUS
 62
     7
 10
193.7500000002
 20
186.8141925955936
 30
0.0
 11
181.52647616763969
 21
186.8141925955936
 31
0.0
  0
LINE
  5
267
  8
DATA
  6
CONTINUOUS
 62
     7
 10
181.5421283415528
 20
185.3741925955936
 30
0.0
 11
193.7500000002
 21
185.3741925955936
 31
0.0
  0
LINE
  5
268
  8
DATA
  6
CONTINUOUS
 62
     7
 10
193.7500000002
 20
185.3741925955936
 30
0.0
 11
193.7500000002
 21
186.8141925955936
 31
0.0
  0
LINE
  5
269
  8
DATA
  6
CONTINUOUS
 62
     7
 10
193.7500000002
 20
184.2441925955936
 30
0.0
 11
181.55441095024841
 21
184.2441925955936
 31
0.0
  0
LINE
  5
26A
  8
DATA
  6
CONTINUOUS
 62
     7
 10
181.57006312416141
 20
182.80419259559341
 30
0.0
 11
193.7500000002
 21
182.80419259559341
 31
0.0
  0
LINE
  5
26B
  8
DATA
  6
CONTINUOUS
 62
     7
 10
193.7500000002
 20
182.80419259559341
 30
0.0
 11
193.7500000002
 21
184.2441925955936
 31
0.0
  0
LINE
  5
26C
  8
DATA
  6
CONTINUOUS
 62
     7
 10
193.7500000002
 20
181.67419259559341
 30
0.0
 11
181.58234573285711
 21
181.67419259559341
 31
0.0
  0
LINE
  5
26D
  8
DATA
  6
CONTINUOUS
 62
     7
 10
181.5979979067701
 20
180.23419259559341
 30
0.0
 11
193.7500000002
 21
180.23419259559341
 31
0.0
  0
LINE
  5
26E
  8
DATA
  6
CONTINUOUS
 62
     7
 10
193.7500000002
 20
180.23419259559341
 30
0.0
 11
193.7500000002
 21
181.67419259559341
 31
0.0
  0
LINE
  5
26F
  8
DATA
  6
CONTINUOUS
 62
     7
 10
193.7500000002
 20
179.10419259559339
 30
0.0
 11
181.6102805154658
 21
179.10419259559339
 31
0.0
  0
LINE
  5
270
  8
DATA
  6
CONTINUOUS
 62
     7
 10
181.62593268937891
 20
177.66419259559339
 30
0.0
 11
193.7500000002
 21
177.66419259559339
 31
0.0
  0
LINE
  5
271
  8
DATA
  6
CONTINUOUS
 62
     7
 10
193.7500000002
 20
177.66419259559339
 30
0.0
 11
193.7500000002
 21
179.10419259559339
 31
0.0
  0
LINE
  5
272
  8
DATA
  6
CONTINUOUS
 62
     7
 10
193.7500000002
 20
176.5341925955934
 30
0.0
 11
181.6382152980745
 21
176.5341925955934
 31
0.0
  0
LINE
  5
273
  8
DATA
  6
CONTINUOUS
 62
     7
 10
181.65386747198761
 20
175.0941925955934
 30
0.0
 11
193.7500000002
 21
175.0941925955934
 31
0.0
  0
LINE
  5
274
  8
DATA
  6
CONTINUOUS
 62
     7
 10
193.7500000002
 20
175.0941925955934
 30
0.0
 11
193.7500000002
 21
176.5341925955934
 31
0.0
  0
LINE
  5
275
  8
DATA
  6
CONTINUOUS
 62
     7
 10
193.7500000002
 20
173.9641925955934
 30
0.0
 11
181.66615008068311
 21
173.9641925955934
 31
0.0
  0
LINE
  5
276
  8
DATA
  6
CONTINUOUS
 62
     7
 10
181.68180225459619
 20
172.52419259559341
 30
0.0
 11
193.7500000002
 21
172.52419259559341
 31
0.0
  0
LINE
  5
277
  8
DATA
  6
CONTINUOUS
 62
     7
 10
193.7500000002
 20
172.52419259559341
 30
0.0
 11
193.7500000002
 21
173.9641925955934
 31
0.0
  0
LINE
  5
278
  8
DATA
  6
CONTINUOUS
 62
     7
 10
193.7500000002
 20
198.22419259559359
 30
0.0
 11
193.7500000002
 21
199.66419259559359
 31
0.0
  0
LINE
  5
279
  8
DATA
  6
CONTINUOUS
 62
     7
 10
209.7500000002
 20
199.66419259559359
 30
0.0
 11
222.11319774580369
 21
199.66419259559359
 31
0.0
  0
LINE
  5
27A
  8
DATA
  6
CONTINUOUS
 62
     7
 10
222.09754557189069
 20
198.22419259559359
 30
0.0
 11
209.7500000002
 21
198.22419259559359
 31
0.0
  0
LINE
  5
27B
  8
DATA
  6
CONTINUOUS
 62
     7
 10
209.7500000002
 20
197.0941925955936
 30
0.0
 11
222.08526296319499
 21
197.0941925955936
 31
0.0
  0
LINE
  5
27C
  8
DATA
  6
CONTINUOUS
 62
     7
 10
222.069610789282
 20
195.6541925955936
 30
0.0
 11
209.7500000002
 21
195.6541925955936
 31
0.0
  0
LINE
  5
27D
  8
DATA
  6
CONTINUOUS
 62
     7
 10
209.7500000002
 20
195.6541925955936
 30
0.0
 11
209.7500000002
 21
197.0941925955936
 31
0.0
  0
LINE
  5
27E
  8
DATA
  6
CONTINUOUS
 62
     7
 10
209.7500000002
 20
194.5241925955936
 30
0.0
 11
222.0573281805863
 21
194.5241925955936
 31
0.0
  0
LINE
  5
27F
  8
DATA
  6
CONTINUOUS
 62
     7
 10
222.0416760066733
 20
193.08419259559361
 30
0.0
 11
209.7500000002
 21
193.08419259559361
 31
0.0
  0
LINE
  5
280
  8
DATA
  6
CONTINUOUS
 62
     7
 10
209.7500000002
 20
193.08419259559361
 30
0.0
 11
209.7500000002
 21
194.5241925955936
 31
0.0
  0
LINE
  5
281
  8
DATA
  6
CONTINUOUS
 62
     7
 10
209.7500000002
 20
191.95419259559361
 30
0.0
 11
222.0293933979776
 21
191.95419259559361
 31
0.0
  0
LINE
  5
282
  8
DATA
  6
CONTINUOUS
 62
     7
 10
222.01374122406449
 20
190.51419259559361
 30
0.0
 11
209.7500000002
 21
190.51419259559361
 31
0.0
  0
LINE
  5
283
  8
DATA
  6
CONTINUOUS
 62
     7
 10
209.7500000002
 20
190.51419259559361
 30
0.0
 11
209.7500000002
 21
191.95419259559361
 31
0.0
  0
LINE
  5
284
  8
DATA
  6
CONTINUOUS
 62
     7
 10
209.7500000002
 20
189.38419259559359
 30
0.0
 11
222.0014586153689
 21
189.38419259559359
 31
0.0
  0
LINE
  5
285
  8
DATA
  6
CONTINUOUS
 62
     7
 10
221.98580644145591
 20
187.94419259559359
 30
0.0
 11
209.7500000002
 21
187.94419259559359
 31
0.0
  0
LINE
  5
286
  8
DATA
  6
CONTINUOUS
 62
     7
 10
209.7500000002
 20
187.94419259559359
 30
0.0
 11
209.7500000002
 21
189.38419259559359
 31
0.0
  0
LINE
  5
287
  8
DATA
  6
CONTINUOUS
 62
     7
 10
209.7500000002
 20
186.8141925955936
 30
0.0
 11
221.97352383276021
 21
186.8141925955936
 31
0.0
  0
LINE
  5
288
  8
DATA
  6
CONTINUOUS
 62
     7
 10
221.95787165884721
 20
185.3741925955936
 30
0.0
 11
209.7500000002
 21
185.3741925955936
 31
0.0
  0
LINE
  5
289
  8
DATA
  6
CONTINUOUS
 62
     7
 10
209.7500000002
 20
185.3741925955936
 30
0.0
 11
209.7500000002
 21
186.8141925955936
 31
0.0
  0
LINE
  5
28A
  8
DATA
  6
CONTINUOUS
 62
     7
 10
209.7500000002
 20
184.2441925955936
 30
0.0
 11
221.94558905015151
 21
184.2441925955936
 31
0.0
  0
LINE
  5
28B
  8
DATA
  6
CONTINUOUS
 62
     7
 10
221.92993687623849
 20
182.80419259559341
 30
0.0
 11
209.7500000002
 21
182.80419259559341
 31
0.0
  0
LINE
  5
28C
  8
DATA
  6
CONTINUOUS
 62
     7
 10
209.7500000002
 20
182.80419259559341
 30
0.0
 11
209.7500000002
 21
184.2441925955936
 31
0.0
  0
LINE
  5
28D
  8
DATA
  6
CONTINUOUS
 62
     7
 10
209.7500000002
 20
181.67419259559341
 30
0.0
 11
221.9176542675429
 21
181.67419259559341
 31
0.0
  0
LINE
  5
28E
  8
DATA
  6
CONTINUOUS
 62
     7
 10
221.90200209362979
 20
180.23419259559341
 30
0.0
 11
209.7500000002
 21
180.23419259559341
 31
0.0
  0
LINE
  5
28F
  8
DATA
  6
CONTINUOUS
 62
     7
 10
209.7500000002
 20
180.23419259559341
 30
0.0
 11
209.7500000002
 21
181.67419259559341
 31
0.0
  0
LINE
  5
290
  8
DATA
  6
CONTINUOUS
 62
     7
 10
209.7500000002
 20
179.10419259559339
 30
0.0
 11
221.88971948493409
 21
179.10419259559339
 31
0.0
  0
LINE
  5
291
  8
DATA
  6
CONTINUOUS
 62
     7
 10
221.87406731102109
 20
177.66419259559339
 30
0.0
 11
209.7500000002
 21
177.66419259559339
 31
0.0
  0
LINE
  5
292
  8
DATA
  6
CONTINUOUS
 62
     7
 10
209.7500000002
 20
177.66419259559339
 30
0.0
 11
209.7500000002
 21
179.10419259559339
 31
0.0
  0
LINE
  5
293
  8
DATA
  6
CONTINUOUS
 62
     7
 10
209.7500000002
 20
176.5341925955934
 30
0.0
 11
221.86178470232551
 21
176.5341925955934
 31
0.0
  0
LINE
  5
294
  8
DATA
  6
CONTINUOUS
 62
     7
 10
221.8461325284124
 20
175.0941925955934
 30
0.0
 11
209.7500000002
 21
175.0941925955934
 31
0.0
  0
LINE
  5
295
  8
DATA
  6
CONTINUOUS
 62
     7
 10
209.7500000002
 20
175.0941925955934
 30
0.0
 11
209.7500000002
 21
176.5341925955934
 31
0.0
  0
LINE
  5
296
  8
DATA
  6
CONTINUOUS
 62
     7
 10
209.7500000002
 20
173.9641925955934
 30
0.0
 11
221.83384991971681
 21
173.9641925955934
 31
0.0
  0
LINE
  5
297
  8
DATA
  6
CONTINUOUS
 62
     7
 10
221.8181977458037
 20
172.52419259559341
 30
0.0
 11
209.7500000002
 21
172.52419259559341
 31
0.0
  0
LINE
  5
298
  8
DATA
  6
CONTINUOUS
 62
     7
 10
209.7500000002
 20
172.52419259559341
 30
0.0
 11
209.7500000002
 21
173.9641925955934
 31
0.0
  0
LINE
  5
299
  8
DATA
  6
CONTINUOUS
 62
     7
 10
209.7500000002
 20
198.22419259559359
 30
0.0
 11
209.7500000002
 21
199.66419259559359
 31
0.0
  0
LINE
  5
29A
  8
DATA
  6
CONTINUOUS
 62
     7
 10
199.8500000002
 20
205.38179742093729
 30
0.0
 11
201.7500000002
 21
207.38179742093729
 31
0.0
  0
LINE
  5
29B
  8
DATA
  6
CONTINUOUS
 62
     7
 10
201.7500000002
 20
207.38179742093729
 30
0.0
 11
203.65000000020001
 21
205.38179742093729
 31
0.0
  0
LINE
  5
29C
  8
DATA
  6
CONTINUOUS
 62
     7
 10
184.1000000002
 20
216.2500000000511
 30
0.0
 11
186.70000000019999
 21
216.2500000000511
 31
0.0
  0
LINE
  5
29D
  8
DATA
  6
CONTINUOUS
 62
     7
 10
216.80000000019999
 20
216.2500000000511
 30
0.0
 11
219.40000000020001
 21
216.2500000000511
 31
0.0
  0
LINE
  5
29E
  8
DATA
  6
CONTINUOUS
 62
     7
 10
184.1000000002
 20
216.2500000000511
 30
0.0
 11
184.1000000002
 21
212.2500000000511
 31
0.0
  0
LINE
  5
29F
  8
DATA
  6
CONTINUOUS
 62
     7
 10
219.40000000020001
 20
216.2500000000511
 30
0.0
 11
219.40000000020001
 21
212.2500000000511
 31
0.0
  0
LINE
  5
2A0
  8
DATA
  6
CONTINUOUS
 62
     7
 10
186.70000000019999
 20
216.2500000000511
 30
0.0
 11
186.70000000019999
 21
212.2500000000511
 31
0.0
  0
LINE
  5
2A1
  8
DATA
  6
CONTINUOUS
 62
     7
 10
216.80000000019999
 20
216.2500000000511
 30
0.0
 11
216.80000000019999
 21
212.2500000000511
 31
0.0
  0
LINE
  5
2A2
  8
DATA
  6
CONTINUOUS
 62
     7
 10
186.06714285734299
 20
212.2500000000511
 30
0.0
 11
184.1000000002
 21
212.68031250005109
 31
0.0
  0
LINE
  5
2A3
  8
DATA
  6
CONTINUOUS
 62
     7
 10
186.70000000019999
 20
212.9115625000511
 30
0.0
 11
184.1000000002
 21
213.4803125000511
 31
0.0
  0
LINE
  5
2A4
  8
DATA
  6
CONTINUOUS
 62
     7
 10
186.70000000019999
 20
213.71156250005109
 30
0.0
 11
184.1000000002
 21
214.28031250005111
 31
0.0
  0
LINE
  5
2A5
  8
DATA
  6
CONTINUOUS
 62
     7
 10
186.70000000019999
 20
214.5115625000511
 30
0.0
 11
184.1000000002
 21
215.08031250005109
 31
0.0
  0
LINE
  5
2A6
  8
DATA
  6
CONTINUOUS
 62
     7
 10
186.70000000019999
 20
215.31156250005111
 30
0.0
 11
184.1000000002
 21
215.8803125000511
 31
0.0
  0
LINE
  5
2A7
  8
DATA
  6
CONTINUOUS
 62
     7
 10
186.70000000019999
 20
216.11156250005109
 30
0.0
 11
186.06714285734299
 21
216.2500000000511
 31
0.0
  0
LINE
  5
2A8
  8
DATA
  6
CONTINUOUS
 62
     7
 10
218.8047857248973
 20
212.2500000000511
 30
0.0
 11
216.80000000019999
 21
212.6885468773286
 31
0.0
  0
LINE
  5
2A9
  8
DATA
  6
CONTINUOUS
 62
     7
 10
219.40000000020001
 20
212.91979687732859
 30
0.0
 11
216.80000000019999
 21
213.48854687732859
 31
0.0
  0
LINE
  5
2AA
  8
DATA
  6
CONTINUOUS
 62
     7
 10
219.40000000020001
 20
213.7197968773286
 30
0.0
 11
216.80000000019999
 21
214.28854687732871
 31
0.0
  0
LINE
  5
2AB
  8
DATA
  6
CONTINUOUS
 62
     7
 10
219.40000000020001
 20
214.51979687732859
 30
0.0
 11
216.80000000019999
 21
215.08854687732861
 31
0.0
  0
LINE
  5
2AC
  8
DATA
  6
CONTINUOUS
 62
     7
 10
219.40000000020001
 20
215.3197968773286
 30
0.0
 11
216.80000000019999
 21
215.88854687732871
 31
0.0
  0
LINE
  5
2AD
  8
DATA
  6
CONTINUOUS
 62
     7
 10
219.40000000020001
 20
216.11979687732861
 30
0.0
 11
218.8047857248973
 21
216.2500000000511
 31
0.0
  0
LINE
  5
2AE
  8
DATA
  6
CONTINUOUS
 62
     7
 10
182.68555309209151
 20
237.5
 30
0.0
 11
220.8144469083085
 21
237.5
 31
0.0
  0
LINE
  5
2AF
  8
DATA
  6
CONTINUOUS
 62
     7
 10
182.68555309209151
 20
252.5
 30
0.0
 11
220.8144469083085
 21
252.5
 31
0.0
  0
LINE
  5
2B0
  8
DATA
  6
CONTINUOUS
 62
     7
 10
183.2500000002
 20
239.19999999999999
 30
0.0
 11
220.2500000002
 21
239.19999999999999
 31
0.0
  0
LINE
  5
2B1
  8
DATA
  6
CONTINUOUS
 62
     7
 10
183.2500000002
 20
250.80000000000001
 30
0.0
 11
220.2500000002
 21
250.80000000000001
 31
0.0
  0
LINE
  5
2B2
  8
DATA
  6
CONTINUOUS
 62
     7
 10
183.2500000002
 20
239.19999999999999
 30
0.0
 11
183.2500000002
 21
250.80000000000001
 31
0.0
  0
LINE
  5
2B3
  8
DATA
  6
CONTINUOUS
 62
     7
 10
220.2500000002
 20
239.19999999999999
 30
0.0
 11
220.2500000002
 21
250.80000000000001
 31
0.0
  0
CIRCLE
  5
2B4
  8
DATA
  6
CONTINUOUS
 62
     7
 10
185.40000000020001
 20
245.0
 30
0.0
 40
1.2999999999999969
  0
CIRCLE
  5
2B5
  8
DATA
  6
CONTINUOUS
 62
     7
 10
218.1000000002
 20
245.0
 30
0.0
 40
1.2999999999999821
  0
LINE
  5
2B6
  8
DATA
  6
CONTINUOUS
 62
     7
 10
181.6877679342349
 20
238.43348098947621
 30
0.0
 11
181.2500000002
 21
245.0
 31
0.0
  0
LINE
  5
2B7
  8
DATA
  6
CONTINUOUS
 62
     7
 10
181.6877679342349
 20
251.56651901052379
 30
0.0
 11
181.2500000002
 21
245.0
 31
0.0
  0
LINE
  5
2B8
  8
DATA
  6
CONTINUOUS
 62
     7
 10
222.2500000002
 20
245.0
 30
0.0
 11
221.81223206616511
 21
251.56651901052379
 31
0.0
  0
LINE
  5
2B9
  8
DATA
  6
CONTINUOUS
 62
     7
 10
221.81223206616511
 20
238.43348098947621
 30
0.0
 11
222.2500000002
 21
245.0
 31
0.0
  0
ARC
  5
2BA
  8
DATA
  6
CONTINUOUS
 62
     7
 10
182.68555309209151
 20
251.5
 30
0.0
 40
1.0
 50
90.0
 51
176.18592516570939
  0
ARC
  5
2BB
  8
DATA
  6
CONTINUOUS
 62
     7
 10
182.68555309209151
 20
238.5
 30
0.0
 40
0.9999999999999992
 50
183.8140748342903
 51
270.0
  0
ARC
  5
2BC
  8
DATA
  6
CONTINUOUS
 62
     7
 10
220.8144469083085
 20
251.5
 30
0.0
 40
1.000000000000002
 50
3.814074834290516
 51
90.0
  0
ARC
  5
2BD
  8
DATA
  6
CONTINUOUS
 62
     7
 10
220.8144469083085
 20
238.5
 30
0.0
 40
1.0000000000000031
 50
270.0
 51
356.18592516570948
  0
POLYLINE
  5
2BE
  8
DATA
  6
CONTINUOUS
 62
     7
 66
     1
 10
0.0
 20
0.0
 30
0.0
 70
   128
  0
VERTEX
  5
510
  8
DATA
  6
CONTINUOUS
 62
     7
 10
188.7500000002
 20
244.27000000000001
 30
0.0
  0
VERTEX
  5
511
  8
DATA
  6
CONTINUOUS
 62
     7
 10
188.7500000002
 20
248.69999999999999
 30
0.0
 42
-0.4142135623730925
  0
VERTEX
  5
512
  8
DATA
  6
CONTINUOUS
 62
     7
 10
189.55000000019999
 20
249.5
 30
0.0
  0
VERTEX
  5
513
  8
DATA
  6
CONTINUOUS
 62
     7
 10
213.95000000019999
 20
249.5
 30
0.0
 42
-0.4142135623730925
  0
VERTEX
  5
514
  8
DATA
  6
CONTINUOUS
 62
     7
 10
214.7500000002
 20
248.69999999999999
 30
0.0
  0
VERTEX
  5
515
  8
DATA
  6
CONTINUOUS
 62
     7
 10
214.7500000002
 20
244.27000000000001
 30
0.0
  0
SEQEND
  5
516
  8
DATA
  6
CONTINUOUS
 62
     7
  0
LINE
  5
2C6
  8
DATA
  6
CONTINUOUS
 62
     7
 10
213.64658296122329
 20
240.5
 30
0.0
 11
189.85341703917661
 21
240.5
 31
0.0
  0
LINE
  5
2C7
  8
DATA
  6
CONTINUOUS
 62
     7
 10
188.7500000002
 20
244.27000000000001
 30
0.0
 11
189.057450246446
 21
241.2197699254011
 31
0.0
  0
LINE
  5
2C8
  8
DATA
  6
CONTINUOUS
 62
     7
 10
214.7500000002
 20
244.27000000000001
 30
0.0
 11
214.44254975395401
 21
241.2197699254011
 31
0.0
  0
ARC
  5
2C9
  8
DATA
  6
CONTINUOUS
 62
     7
 10
189.85341703917661
 20
241.30000000000001
 30
0.0
 40
0.7999999999999937
 50
185.7557316099207
 51
270.0
  0
ARC
  5
2CA
  8
DATA
  6
CONTINUOUS
 62
     7
 10
213.64658296122329
 20
241.30000000000001
 30
0.0
 40
0.7999999999999972
 50
270.0
 51
354.24426839007941
  0
LINE
  5
2CB
  8
DATA
  6
CONTINUOUS
 62
     7
 10
183.2500000002
 20
245.0
 30
0.0
 11
181.2500000002
 21
245.0
 31
0.0
  0
LINE
  5
2CC
  8
DATA
  6
CONTINUOUS
 62
     7
 10
220.2500000002
 20
245.0
 30
0.0
 11
222.2500000002
 21
245.0
 31
0.0
  0
POLYLINE
  5
2CD
  8
DATA
  6
CONTINUOUS
 62
     7
 66
     1
 10
0.0
 20
0.0
 30
0.0
 70
     1
  0
VERTEX
  5
517
  8
DATA
  6
CONTINUOUS
 62
     7
 10
210.30180856062941
 20
245.25
 30
0.0
  0
VERTEX
  5
518
  8
DATA
  6
CONTINUOUS
 62
     7
 10
212.80180856062941
 20
245.25
 30
0.0
  0
VERTEX
  5
519
  8
DATA
  6
CONTINUOUS
 62
     7
 10
212.80180856062941
 20
244.75
 30
0.0
  0
VERTEX
  5
51A
  8
DATA
  6
CONTINUOUS
 62
     7
 10
210.30180856062941
 20
244.75
 30
0.0
  0
SEQEND
  5
51B
  8
DATA
  6
CONTINUOUS
 62
     7
  0
POLYLINE
  5
2D4
  8
DATA
  6
CONTINUOUS
 62
     7
 66
     1
 10
0.0
 20
0.0
 30
0.0
 70
     1
  0
VERTEX
  5
51C
  8
DATA
  6
CONTINUOUS
 62
     7
 10
191.60078458505299
 20
245.63639610306791
 30
0.0
  0
VERTEX
  5
51D
  8
DATA
  6
CONTINUOUS
 62
     7
 10
192.52002340059559
 20
244.7171572875254
 30
0.0
  0
VERTEX
  5
51E
  8
DATA
  6
CONTINUOUS
 62
     7
 10
192.16647001000231
 20
244.36360389693209
 30
0.0
  0
VERTEX
  5
51F
  8
DATA
  6
CONTINUOUS
 62
     7
 10
191.24723119445969
 20
245.2828427124746
 30
0.0
  0
SEQEND
  5
520
  8
DATA
  6
CONTINUOUS
 62
     7
  0
POLYLINE
  5
2DB
  8
DATA
  6
CONTINUOUS
 62
     7
 66
     1
 10
0.0
 20
0.0
 30
0.0
 70
     1
  0
VERTEX
  5
521
  8
DATA
  6
CONTINUOUS
 62
     7
 10
191.60078458505299
 20
247.63639610306791
 30
0.0
  0
VERTEX
  5
522
  8
DATA
  6
CONTINUOUS
 62
     7
 10
192.52002340059559
 20
246.71715728752531
 30
0.0
  0
VERTEX
  5
523
  8
DATA
  6
CONTINUOUS
 62
     7
 10
192.16647001000231
 20
246.36360389693209
 30
0.0
  0
VERTEX
  5
524
  8
DATA
  6
CONTINUOUS
 62
     7
 10
191.24723119445969
 20
247.2828427124746
 30
0.0
  0
SEQEND
  5
525
  8
DATA
  6
CONTINUOUS
 62
     7
  0
POLYLINE
  5
2E2
  8
DATA
  6
CONTINUOUS
 62
     7
 66
     1
 10
0.0
 20
0.0
 30
0.0
 70
     1
  0
VERTEX
  5
526
  8
DATA
  6
CONTINUOUS
 62
     7
 10
191.60078458505299
 20
243.63639610306791
 30
0.0
  0
VERTEX
  5
527
  8
DATA
  6
CONTINUOUS
 62
     7
 10
192.52002340059559
 20
242.7171572875254
 30
0.0
  0
VERTEX
  5
528
  8
DATA
  6
CONTINUOUS
 62
     7
 10
192.16647001000231
 20
242.36360389693209
 30
0.0
  0
VERTEX
  5
529
  8
DATA
  6
CONTINUOUS
 62
     7
 10
191.24723119445969
 20
243.2828427124746
 30
0.0
  0
SEQEND
  5
52A
  8
DATA
  6
CONTINUOUS
 62
     7
  0
POLYLINE
  5
2E9
  8
DATA
  6
CONTINUOUS
 62
     7
 66
     1
 10
0.0
 20
0.0
 30
0.0
 70
     1
  0
VERTEX
  5
52B
  8
DATA
  6
CONTINUOUS
 62
     7
 10
193.60078458505299
 20
245.63639610306791
 30
0.0
  0
VERTEX
  5
52C
  8
DATA
  6
CONTINUOUS
 62
     7
 10
194.52002340059559
 20
244.7171572875254
 30
0.0
  0
VERTEX
  5
52D
  8
DATA
  6
CONTINUOUS
 62
     7
 10
194.16647001000231
 20
244.36360389693209
 30
0.0
  0
VERTEX
  5
52E
  8
DATA
  6
CONTINUOUS
 62
     7
 10
193.24723119445969
 20
245.2828427124746
 30
0.0
  0
SEQEND
  5
52F
  8
DATA
  6
CONTINUOUS
 62
     7
  0
POLYLINE
  5
2F0
  8
DATA
  6
CONTINUOUS
 62
     7
 66
     1
 10
0.0
 20
0.0
 30
0.0
 70
     1
  0
VERTEX
  5
530
  8
DATA
  6
CONTINUOUS
 62
     7
 10
193.60078458505299
 20
247.63639610306791
 30
0.0
  0
VERTEX
  5
531
  8
DATA
  6
CONTINUOUS
 62
     7
 10
194.52002340059559
 20
246.71715728752531
 30
0.0
  0
VERTEX
  5
532
  8
DATA
  6
CONTINUOUS
 62
     7
 10
194.16647001000231
 20
246.36360389693209
 30
0.0
  0
VERTEX
  5
533
  8
DATA
  6
CONTINUOUS
 62
     7
 10
193.24723119445969
 20
247.2828427124746
 30
0.0
  0
SEQEND
  5
534
  8
DATA
  6
CONTINUOUS
 62
     7
  0
POLYLINE
  5
2F7
  8
DATA
  6
CONTINUOUS
 62
     7
 66
     1
 10
0.0
 20
0.0
 30
0.0
 70
     1
  0
VERTEX
  5
535
  8
DATA
  6
CONTINUOUS
 62
     7
 10
193.60078458505299
 20
243.63639610306791
 30
0.0
  0
VERTEX
  5
536
  8
DATA
  6
CONTINUOUS
 62
     7
 10
194.52002340059559
 20
242.7171572875254
 30
0.0
  0
VERTEX
  5
537
  8
DATA
  6
CONTINUOUS
 62
     7
 10
194.16647001000231
 20
242.36360389693209
 30
0.0
  0
VERTEX
  5
538
  8
DATA
  6
CONTINUOUS
 62
     7
 10
193.24723119445969
 20
243.2828427124746
 30
0.0
  0
SEQEND
  5
539
  8
DATA
  6
CONTINUOUS
 62
     7
  0
POLYLINE
  5
2FE
  8
DATA
  6
CONTINUOUS
 62
     7
 66
     1
 10
0.0
 20
0.0
 30
0.0
 70
     1
  0
VERTEX
  5
53A
  8
DATA
  6
CONTINUOUS
 62
     7
 10
195.60078458505299
 20
245.63639610306791
 30
0.0
  0
VERTEX
  5
53B
  8
DATA
  6
CONTINUOUS
 62
     7
 10
196.52002340059559
 20
244.7171572875254
 30
0.0
  0
VERTEX
  5
53C
  8
DATA
  6
CONTINUOUS
 62
     7
 10
196.16647001000231
 20
244.36360389693209
 30
0.0
  0
VERTEX
  5
53D
  8
DATA
  6
CONTINUOUS
 62
     7
 10
195.2472311944598
 20
245.2828427124746
 30
0.0
  0
SEQEND
  5
53E
  8
DATA
  6
CONTINUOUS
 62
     7
  0
POLYLINE
  5
305
  8
DATA
  6
CONTINUOUS
 62
     7
 66
     1
 10
0.0
 20
0.0
 30
0.0
 70
     1
  0
VERTEX
  5
53F
  8
DATA
  6
CONTINUOUS
 62
     7
 10
195.60078458505299
 20
247.63639610306791
 30
0.0
  0
VERTEX
  5
540
  8
DATA
  6
CONTINUOUS
 62
     7
 10
196.52002340059559
 20
246.71715728752531
 30
0.0
  0
VERTEX
  5
541
  8
DATA
  6
CONTINUOUS
 62
     7
 10
196.16647001000231
 20
246.36360389693209
 30
0.0
  0
VERTEX
  5
542
  8
DATA
  6
CONTINUOUS
 62
     7
 10
195.2472311944598
 20
247.2828427124746
 30
0.0
  0
SEQEND
  5
543
  8
DATA
  6
CONTINUOUS
 62
     7
  0
POLYLINE
  5
30C
  8
DATA
  6
CONTINUOUS
 62
     7
 66
     1
 10
0.0
 20
0.0
 30
0.0
 70
     1
  0
VERTEX
  5
544
  8
DATA
  6
CONTINUOUS
 62
     7
 10
195.60078458505299
 20
243.63639610306791
 30
0.0
  0
VERTEX
  5
545
  8
DATA
  6
CONTINUOUS
 62
     7
 10
196.52002340059559
 20
242.7171572875254
 30
0.0
  0
VERTEX
  5
546
  8
DATA
  6
CONTINUOUS
 62
     7
 10
196.16647001000231
 20
242.36360389693209
 30
0.0
  0
VERTEX
  5
547
  8
DATA
  6
CONTINUOUS
 62
     7
 10
195.2472311944598
 20
243.2828427124746
 30
0.0
  0
SEQEND
  5
548
  8
DATA
  6
CONTINUOUS
 62
     7
  0
POLYLINE
  5
313
  8
DATA
  6
CONTINUOUS
 62
     7
 66
     1
 10
0.0
 20
0.0
 30
0.0
 70
     1
  0
VERTEX
  5
549
  8
DATA
  6
CONTINUOUS
 62
     7
 10
197.60078458505299
 20
245.63639610306791
 30
0.0
  0
VERTEX
  5
54A
  8
DATA
  6
CONTINUOUS
 62
     7
 10
198.52002340059559
 20
244.7171572875254
 30
0.0
  0
VERTEX
  5
54B
  8
DATA
  6
CONTINUOUS
 62
     7
 10
198.16647001000231
 20
244.36360389693209
 30
0.0
  0
VERTEX
  5
54C
  8
DATA
  6
CONTINUOUS
 62
     7
 10
197.24723119445969
 20
245.2828427124746
 30
0.0
  0
SEQEND
  5
54D
  8
DATA
  6
CONTINUOUS
 62
     7
  0
POLYLINE
  5
31A
  8
DATA
  6
CONTINUOUS
 62
     7
 66
     1
 10
0.0
 20
0.0
 30
0.0
 70
     1
  0
VERTEX
  5
54E
  8
DATA
  6
CONTINUOUS
 62
     7
 10
197.60078458505299
 20
247.63639610306791
 30
0.0
  0
VERTEX
  5
54F
  8
DATA
  6
CONTINUOUS
 62
     7
 10
198.52002340059559
 20
246.71715728752531
 30
0.0
  0
VERTEX
  5
550
  8
DATA
  6
CONTINUOUS
 62
     7
 10
198.16647001000231
 20
246.36360389693209
 30
0.0
  0
VERTEX
  5
551
  8
DATA
  6
CONTINUOUS
 62
     7
 10
197.24723119445969
 20
247.2828427124746
 30
0.0
  0
SEQEND
  5
552
  8
DATA
  6
CONTINUOUS
 62
     7
  0
POLYLINE
  5
321
  8
DATA
  6
CONTINUOUS
 62
     7
 66
     1
 10
0.0
 20
0.0
 30
0.0
 70
     1
  0
VERTEX
  5
553
  8
DATA
  6
CONTINUOUS
 62
     7
 10
197.60078458505299
 20
243.63639610306791
 30
0.0
  0
VERTEX
  5
554
  8
DATA
  6
CONTINUOUS
 62
     7
 10
198.52002340059559
 20
242.7171572875254
 30
0.0
  0
VERTEX
  5
555
  8
DATA
  6
CONTINUOUS
 62
     7
 10
198.16647001000231
 20
242.36360389693209
 30
0.0
  0
VERTEX
  5
556
  8
DATA
  6
CONTINUOUS
 62
     7
 10
197.24723119445969
 20
243.2828427124746
 30
0.0
  0
SEQEND
  5
557
  8
DATA
  6
CONTINUOUS
 62
     7
  0
POLYLINE
  5
328
  8
DATA
  6
CONTINUOUS
 62
     7
 66
     1
 10
0.0
 20
0.0
 30
0.0
 70
     1
  0
VERTEX
  5
558
  8
DATA
  6
CONTINUOUS
 62
     7
 10
199.60078458505299
 20
245.63639610306791
 30
0.0
  0
VERTEX
  5
559
  8
DATA
  6
CONTINUOUS
 62
     7
 10
200.52002340059559
 20
244.7171572875254
 30
0.0
  0
VERTEX
  5
55A
  8
DATA
  6
CONTINUOUS
 62
     7
 10
200.16647001000231
 20
244.36360389693209
 30
0.0
  0
VERTEX
  5
55B
  8
DATA
  6
CONTINUOUS
 62
     7
 10
199.24723119445969
 20
245.2828427124746
 30
0.0
  0
SEQEND
  5
55C
  8
DATA
  6
CONTINUOUS
 62
     7
  0
POLYLINE
  5
32F
  8
DATA
  6
CONTINUOUS
 62
     7
 66
     1
 10
0.0
 20
0.0
 30
0.0
 70
     1
  0
VERTEX
  5
55D
  8
DATA
  6
CONTINUOUS
 62
     7
 10
199.60078458505299
 20
247.63639610306791
 30
0.0
  0
VERTEX
  5
55E
  8
DATA
  6
CONTINUOUS
 62
     7
 10
200.52002340059559
 20
246.71715728752531
 30
0.0
  0
VERTEX
  5
55F
  8
DATA
  6
CONTINUOUS
 62
     7
 10
200.16647001000231
 20
246.36360389693209
 30
0.0
  0
VERTEX
  5
560
  8
DATA
  6
CONTINUOUS
 62
     7
 10
199.24723119445969
 20
247.2828427124746
 30
0.0
  0
SEQEND
  5
561
  8
DATA
  6
CONTINUOUS
 62
     7
  0
POLYLINE
  5
336
  8
DATA
  6
CONTINUOUS
 62
     7
 66
     1
 10
0.0
 20
0.0
 30
0.0
 70
     1
  0
VERTEX
  5
562
  8
DATA
  6
CONTINUOUS
 62
     7
 10
199.60078458505299
 20
243.63639610306791
 30
0.0
  0
VERTEX
  5
563
  8
DATA
  6
CONTINUOUS
 62
     7
 10
200.52002340059559
 20
242.7171572875254
 30
0.0
  0
VERTEX
  5
564
  8
DATA
  6
CONTINUOUS
 62
     7
 10
200.16647001000231
 20
242.36360389693209
 30
0.0
  0
VERTEX
  5
565
  8
DATA
  6
CONTINUOUS
 62
     7
 10
199.24723119445969
 20
243.2828427124746
 30
0.0
  0
SEQEND
  5
566
  8
DATA
  6
CONTINUOUS
 62
     7
  0
POLYLINE
  5
33D
  8
DATA
  6
CONTINUOUS
 62
     7
 66
     1
 10
0.0
 20
0.0
 30
0.0
 70
     1
  0
VERTEX
  5
567
  8
DATA
  6
CONTINUOUS
 62
     7
 10
201.60078458505299
 20
245.63639610306791
 30
0.0
  0
VERTEX
  5
568
  8
DATA
  6
CONTINUOUS
 62
     7
 10
202.52002340059559
 20
244.7171572875254
 30
0.0
  0
VERTEX
  5
569
  8
DATA
  6
CONTINUOUS
 62
     7
 10
202.16647001000231
 20
244.36360389693209
 30
0.0
  0
VERTEX
  5
56A
  8
DATA
  6
CONTINUOUS
 62
     7
 10
201.2472311944598
 20
245.2828427124746
 30
0.0
  0
SEQEND
  5
56B
  8
DATA
  6
CONTINUOUS
 62
     7
  0
POLYLINE
  5
344
  8
DATA
  6
CONTINUOUS
 62
     7
 66
     1
 10
0.0
 20
0.0
 30
0.0
 70
     1
  0
VERTEX
  5
56C
  8
DATA
  6
CONTINUOUS
 62
     7
 10
201.60078458505299
 20
247.63639610306791
 30
0.0
  0
VERTEX
  5
56D
  8
DATA
  6
CONTINUOUS
 62
     7
 10
202.52002340059559
 20
246.71715728752531
 30
0.0
  0
VERTEX
  5
56E
  8
DATA
  6
CONTINUOUS
 62
     7
 10
202.16647001000231
 20
246.36360389693209
 30
0.0
  0
VERTEX
  5
56F
  8
DATA
  6
CONTINUOUS
 62
     7
 10
201.2472311944598
 20
247.2828427124746
 30
0.0
  0
SEQEND
  5
570
  8
DATA
  6
CONTINUOUS
 62
     7
  0
POLYLINE
  5
34B
  8
DATA
  6
CONTINUOUS
 62
     7
 66
     1
 10
0.0
 20
0.0
 30
0.0
 70
     1
  0
VERTEX
  5
571
  8
DATA
  6
CONTINUOUS
 62
     7
 10
201.60078458505299
 20
243.63639610306791
 30
0.0
  0
VERTEX
  5
572
  8
DATA
  6
CONTINUOUS
 62
     7
 10
202.52002340059559
 20
242.7171572875254
 30
0.0
  0
VERTEX
  5
573
  8
DATA
  6
CONTINUOUS
 62
     7
 10
202.16647001000231
 20
242.36360389693209
 30
0.0
  0
VERTEX
  5
574
  8
DATA
  6
CONTINUOUS
 62
     7
 10
201.2472311944598
 20
243.2828427124746
 30
0.0
  0
SEQEND
  5
575
  8
DATA
  6
CONTINUOUS
 62
     7
  0
POLYLINE
  5
352
  8
DATA
  6
CONTINUOUS
 62
     7
 66
     1
 10
0.0
 20
0.0
 30
0.0
 70
     1
  0
VERTEX
  5
576
  8
DATA
  6
CONTINUOUS
 62
     7
 10
203.60078458505299
 20
245.63639610306791
 30
0.0
  0
VERTEX
  5
577
  8
DATA
  6
CONTINUOUS
 62
     7
 10
204.52002340059559
 20
244.7171572875254
 30
0.0
  0
VERTEX
  5
578
  8
DATA
  6
CONTINUOUS
 62
     7
 10
204.16647001000231
 20
244.36360389693209
 30
0.0
  0
VERTEX
  5
579
  8
DATA
  6
CONTINUOUS
 62
     7
 10
203.24723119445969
 20
245.2828427124746
 30
0.0
  0
SEQEND
  5
57A
  8
DATA
  6
CONTINUOUS
 62
     7
  0
POLYLINE
  5
359
  8
DATA
  6
CONTINUOUS
 62
     7
 66
     1
 10
0.0
 20
0.0
 30
0.0
 70
     1
  0
VERTEX
  5
57B
  8
DATA
  6
CONTINUOUS
 62
     7
 10
203.60078458505299
 20
247.63639610306791
 30
0.0
  0
VERTEX
  5
57C
  8
DATA
  6
CONTINUOUS
 62
     7
 10
204.52002340059559
 20
246.71715728752531
 30
0.0
  0
VERTEX
  5
57D
  8
DATA
  6
CONTINUOUS
 62
     7
 10
204.16647001000231
 20
246.36360389693209
 30
0.0
  0
VERTEX
  5
57E
  8
DATA
  6
CONTINUOUS
 62
     7
 10
203.24723119445969
 20
247.2828427124746
 30
0.0
  0
SEQEND
  5
57F
  8
DATA
  6
CONTINUOUS
 62
     7
  0
POLYLINE
  5
360
  8
DATA
  6
CONTINUOUS
 62
     7
 66
     1
 10
0.0
 20
0.0
 30
0.0
 70
     1
  0
VERTEX
  5
580
  8
DATA
  6
CONTINUOUS
 62
     7
 10
203.60078458505299
 20
243.63639610306791
 30
0.0
  0
VERTEX
  5
581
  8
DATA
  6
CONTINUOUS
 62
     7
 10
204.52002340059559
 20
242.7171572875254
 30
0.0
  0
VERTEX
  5
582
  8
DATA
  6
CONTINUOUS
 62
     7
 10
204.16647001000231
 20
242.36360389693209
 30
0.0
  0
VERTEX
  5
583
  8
DATA
  6
CONTINUOUS
 62
     7
 10
203.24723119445969
 20
243.2828427124746
 30
0.0
  0
SEQEND
  5
584
  8
DATA
  6
CONTINUOUS
 62
     7
  0
POLYLINE
  5
367
  8
DATA
  6
CONTINUOUS
 62
     7
 66
     1
 10
0.0
 20
0.0
 30
0.0
 70
     1
  0
VERTEX
  5
585
  8
DATA
  6
CONTINUOUS
 62
     7
 10
205.60078458505299
 20
245.63639610306791
 30
0.0
  0
VERTEX
  5
586
  8
DATA
  6
CONTINUOUS
 62
     7
 10
206.52002340059559
 20
244.7171572875254
 30
0.0
  0
VERTEX
  5
587
  8
DATA
  6
CONTINUOUS
 62
     7
 10
206.16647001000231
 20
244.36360389693209
 30
0.0
  0
VERTEX
  5
588
  8
DATA
  6
CONTINUOUS
 62
     7
 10
205.2472311944598
 20
245.2828427124746
 30
0.0
  0
SEQEND
  5
589
  8
DATA
  6
CONTINUOUS
 62
     7
  0
POLYLINE
  5
36E
  8
DATA
  6
CONTINUOUS
 62
     7
 66
     1
 10
0.0
 20
0.0
 30
0.0
 70
     1
  0
VERTEX
  5
58A
  8
DATA
  6
CONTINUOUS
 62
     7
 10
205.60078458505299
 20
247.63639610306791
 30
0.0
  0
VERTEX
  5
58B
  8
DATA
  6
CONTINUOUS
 62
     7
 10
206.52002340059559
 20
246.71715728752531
 30
0.0
  0
VERTEX
  5
58C
  8
DATA
  6
CONTINUOUS
 62
     7
 10
206.16647001000231
 20
246.36360389693209
 30
0.0
  0
VERTEX
  5
58D
  8
DATA
  6
CONTINUOUS
 62
     7
 10
205.2472311944598
 20
247.2828427124746
 30
0.0
  0
SEQEND
  5
58E
  8
DATA
  6
CONTINUOUS
 62
     7
  0
POLYLINE
  5
375
  8
DATA
  6
CONTINUOUS
 62
     7
 66
     1
 10
0.0
 20
0.0
 30
0.0
 70
     1
  0
VERTEX
  5
58F
  8
DATA
  6
CONTINUOUS
 62
     7
 10
205.60078458505299
 20
243.63639610306791
 30
0.0
  0
VERTEX
  5
590
  8
DATA
  6
CONTINUOUS
 62
     7
 10
206.52002340059559
 20
242.7171572875254
 30
0.0
  0
VERTEX
  5
591
  8
DATA
  6
CONTINUOUS
 62
     7
 10
206.16647001000231
 20
242.36360389693209
 30
0.0
  0
VERTEX
  5
592
  8
DATA
  6
CONTINUOUS
 62
     7
 10
205.2472311944598
 20
243.2828427124746
 30
0.0
  0
SEQEND
  5
593
  8
DATA
  6
CONTINUOUS
 62
     7
  0
LINE
  5
37C
  8
DATA
  6
CONTINUOUS
 62
     7
 10
181.6877679342349
 20
113.4334809897762
 30
0.0
 11
181.2500000002
 21
120.00000000030001
 31
0.0
  0
LINE
  5
37D
  8
DATA
  6
CONTINUOUS
 62
     7
 10
181.6877679342349
 20
126.5665190108237
 30
0.0
 11
181.2500000002
 21
120.00000000030001
 31
0.0
  0
LINE
  5
37E
  8
DATA
  6
CONTINUOUS
 62
     7
 10
222.2500000002
 20
120.00000000030001
 30
0.0
 11
221.81223206616511
 21
126.5665190108237
 31
0.0
  0
LINE
  5
37F
  8
DATA
  6
CONTINUOUS
 62
     7
 10
221.81223206616511
 20
113.4334809897762
 30
0.0
 11
222.2500000002
 21
120.00000000030001
 31
0.0
  0
ARC
  5
380
  8
DATA
  6
CONTINUOUS
 62
     7
 10
182.68555309209151
 20
126.50000000030001
 30
0.0
 40
1.0
 50
90.0
 51
176.18592516570939
  0
ARC
  5
381
  8
DATA
  6
CONTINUOUS
 62
     7
 10
182.68555309209151
 20
113.50000000030001
 30
0.0
 40
0.9999999999999994
 50
183.81407483429041
 51
270.0
  0
ARC
  5
382
  8
DATA
  6
CONTINUOUS
 62
     7
 10
220.8144469083085
 20
126.50000000030001
 30
0.0
 40
1.000000000000002
 50
3.814074834290516
 51
90.0
  0
ARC
  5
383
  8
DATA
  6
CONTINUOUS
 62
     7
 10
220.8144469083085
 20
113.50000000030001
 30
0.0
 40
1.0
 50
270.0
 51
356.18592516570948
  0
CIRCLE
  5
384
  8
DATA
  6
CONTINUOUS
 62
     7
 10
185.7500000002
 20
120.00000000030001
 30
0.0
 40
3.0000000000000071
  0
CIRCLE
  5
385
  8
DATA
  6
CONTINUOUS
 62
     7
 10
217.7500000002
 20
120.00000000030001
 30
0.0
 40
3.0
  0
POLYLINE
  5
386
  8
DATA
  6
CONTINUOUS
 62
     7
 66
     1
 10
0.0
 20
0.0
 30
0.0
  0
VERTEX
  5
594
  8
DATA
  6
CONTINUOUS
 62
     7
 10
195.77982929948951
 20
116.00000000030001
 30
0.0
  0
VERTEX
  5
595
  8
DATA
  6
CONTINUOUS
 62
     7
 10
192.27982929948951
 20
116.00000000030001
 30
0.0
  0
VERTEX
  5
596
  8
DATA
  6
CONTINUOUS
 62
     7
 10
192.27982929948951
 20
124.00000000030001
 30
0.0
  0
VERTEX
  5
597
  8
DATA
  6
CONTINUOUS
 62
     7
 10
201.27982929948959
 20
124.00000000030001
 30
0.0
  0
VERTEX
  5
598
  8
DATA
  6
CONTINUOUS
 62
     7
 10
201.27982929948959
 20
116.00000000030001
 30
0.0
  0
VERTEX
  5
599
  8
DATA
  6
CONTINUOUS
 62
     7
 10
197.77982929948951
 20
116.00000000030001
 30
0.0
  0
SEQEND
  5
59A
  8
DATA
  6
CONTINUOUS
 62
     7
  0
CIRCLE
  5
38F
  8
DATA
  6
CONTINUOUS
 62
     7
 10
208.47236709509119
 20
117.2230190222014
 30
0.0
 40
2.5
  0
LINE
  5
390
  8
DATA
  6
CONTINUOUS
 62
     7
 10
190.3480580677691
 20
120.4902903381453
 30
0.0
 11
191.5088348407414
 21
126.2941742030072
 31
0.0
  0
LINE
  5
391
  8
DATA
  6
CONTINUOUS
 62
     7
 10
191.5088348407414
 20
113.7058257975926
 30
0.0
 11
190.3480580677691
 21
119.5097096624544
 31
0.0
  0
LINE
  5
392
  8
DATA
  6
CONTINUOUS
 62
     7
 10
213.1519419326309
 20
120.4902903381454
 30
0.0
 11
211.99116515965849
 21
126.2941742030072
 31
0.0
  0
LINE
  5
393
  8
DATA
  6
CONTINUOUS
 62
     7
 10
211.99116515965861
 20
113.7058257975926
 30
0.0
 11
213.1519419326309
 21
119.5097096624545
 31
0.0
  0
ARC
  5
394
  8
DATA
  6
CONTINUOUS
 62
     7
 10
192.7995097569964
 20
120.00000000029991
 30
0.0
 40
2.5000000000000049
 50
168.69006752597971
 51
191.30993247402029
  0
ARC
  5
395
  8
DATA
  6
CONTINUOUS
 62
     7
 10
210.70049024340361
 20
120.00000000029991
 30
0.0
 40
2.4999999999999978
 50
348.69006752597971
 51
11.309932474020339
  0
ARC
  5
396
  8
DATA
  6
CONTINUOUS
 62
     7
 10
192.9797058542778
 20
126.00000000030001
 30
0.0
 40
1.5
 50
90.0
 51
168.69006752598011
  0
ARC
  5
397
  8
DATA
  6
CONTINUOUS
 62
     7
 10
210.52029414612221
 20
126.00000000030001
 30
0.0
 40
1.499999999999988
 50
11.309932474020529
 51
90.000000000000554
  0
ARC
  5
398
  8
DATA
  6
CONTINUOUS
 62
     7
 10
192.97970585427791
 20
114.00000000030001
 30
0.0
 40
1.5000000000000231
 50
191.3099324740202
 51
269.99999999999937
  0
ARC
  5
399
  8
DATA
  6
CONTINUOUS
 62
     7
 10
210.52029414612221
 20
114.00000000030001
 30
0.0
 40
1.500000000000014
 50
270.0
 51
348.69006752597909
  0
LINE
  5
39A
  8
DATA
  6
CONTINUOUS
 62
     7
 10
182.68555309209151
 20
127.50000000030001
 30
0.0
 11
220.8144469083085
 21
127.50000000030001
 31
0.0
  0
LINE
  5
39B
  8
DATA
  6
CONTINUOUS
 62
     7
 10
182.68555309209151
 20
112.50000000030001
 30
0.0
 11
220.8144469083085
 21
112.50000000030001
 31
0.0
  0
POLYLINE
  5
39C
  8
DATA
  6
CONTINUOUS
 62
     7
 66
     1
 10
0.0
 20
0.0
 30
0.0
  0
VERTEX
  5
59B
  8
DATA
  6
CONTINUOUS
 62
     7
 10
197.77982929948951
 20
116.00000000030001
 30
0.0
  0
VERTEX
  5
59C
  8
DATA
  6
CONTINUOUS
 62
     7
 10
197.77982929948951
 20
115.39378473591739
 30
0.0
  0
VERTEX
  5
59D
  8
DATA
  6
CONTINUOUS
 62
     7
 10
195.77982929948951
 20
115.39378473591739
 30
0.0
  0
VERTEX
  5
59E
  8
DATA
  6
CONTINUOUS
 62
     7
 10
195.77982929948951
 20
116.00000000030001
 30
0.0
  0
SEQEND
  5
59F
  8
DATA
  6
CONTINUOUS
 62
     7
  0
ARC
  5
3A3
  8
DATA
  6
CONTINUOUS
 62
     7
 10
189.16943300714391
 20
120.00000000030001
 30
0.0
 40
7.5
 50
90.0
 51
270.0
  0
ARC
  5
3A4
  8
DATA
  6
CONTINUOUS
 62
     7
 10
214.3305669932561
 20
120.00000000030001
 30
0.0
 40
7.5
 50
270.0
 51
90.0
  0
LINE
  5
3A5
  8
DATA
  6
CONTINUOUS
 62
     7
 10
237.5
 20
156.2500000000511
 30
0.0
 11
237.5
 21
212.2500000000511
 31
0.0
  0
LINE
  5
3A6
  8
DATA
  6
CONTINUOUS
 62
     7
 10
252.5
 20
156.2500000000511
 30
0.0
 11
252.5
 21
212.2500000000511
 31
0.0
  0
LINE
  5
3A7
  8
DATA
  6
CONTINUOUS
 62
     7
 10
237.5
 20
156.2500000000511
 30
0.0
 11
242.0
 21
156.2500000000511
 31
0.0
  0
LINE
  5
3A8
  8
DATA
  6
CONTINUOUS
 62
     7
 10
248.0
 20
156.2500000000511
 30
0.0
 11
252.5
 21
156.2500000000511
 31
0.0
  0
LINE
  5
3A9
  8
DATA
  6
CONTINUOUS
 62
     7
 10
237.5
 20
212.2500000000511
 30
0.0
 11
252.5
 21
212.2500000000511
 31
0.0
  0
LINE
  5
3AA
  8
DATA
  6
CONTINUOUS
 62
     7
 10
240.5
 20
217.2500000000511
 30
0.0
 11
249.5
 21
217.2500000000511
 31
0.0
  0
LINE
  5
3AB
  8
DATA
  6
CONTINUOUS
 62
     7
 10
237.5
 20
209.2500000000511
 30
0.0
 11
252.5
 21
209.2500000000511
 31
0.0
  0
LINE
  5
3AC
  8
DATA
  6
CONTINUOUS
 62
     7
 10
245.0
 20
212.2500000000511
 30
0.0
 11
245.0
 21
209.2500000000511
 31
0.0
  0
LINE
  5
3AD
  8
DATA
  6
CONTINUOUS
 62
     7
 10
240.5
 20
212.2500000000511
 30
0.0
 11
240.5
 21
217.2500000000511
 31
0.0
  0
LINE
  5
3AE
  8
DATA
  6
CONTINUOUS
 62
     7
 10
249.5
 20
217.2500000000511
 30
0.0
 11
249.5
 21
212.2500000000511
 31
0.0
  0
LINE
  5
3AF
  8
DATA
  6
CONTINUOUS
 62
     7
 10
243.69999999999999
 20
216.2500000000511
 30
0.0
 11
246.30000000000001
 21
216.2500000000511
 31
0.0
  0
LINE
  5
3B0
  8
DATA
  6
CONTINUOUS
 62
     7
 10
246.30000000000001
 20
216.2500000000511
 30
0.0
 11
246.30000000000001
 21
212.2500000000511
 31
0.0
  0
LINE
  5
3B1
  8
DATA
  6
CONTINUOUS
 62
     7
 10
243.69999999999999
 20
216.2500000000511
 30
0.0
 11
243.69999999999999
 21
212.2500000000511
 31
0.0
  0
LINE
  5
3B2
  8
DATA
  6
CONTINUOUS
 62
     7
 10
245.7047857246973
 20
212.2500000000511
 30
0.0
 11
243.69999999999999
 21
212.6885468773286
 31
0.0
  0
LINE
  5
3B3
  8
DATA
  6
CONTINUOUS
 62
     7
 10
246.30000000000001
 20
212.91979687732859
 30
0.0
 11
243.69999999999999
 21
213.48854687732859
 31
0.0
  0
LINE
  5
3B4
  8
DATA
  6
CONTINUOUS
 62
     7
 10
246.30000000000001
 20
213.7197968773286
 30
0.0
 11
243.69999999999999
 21
214.28854687732871
 31
0.0
  0
LINE
  5
3B5
  8
DATA
  6
CONTINUOUS
 62
     7
 10
246.30000000000001
 20
214.51979687732859
 30
0.0
 11
243.69999999999999
 21
215.08854687732861
 31
0.0
  0
LINE
  5
3B6
  8
DATA
  6
CONTINUOUS
 62
     7
 10
246.30000000000001
 20
215.3197968773286
 30
0.0
 11
243.69999999999999
 21
215.88854687732871
 31
0.0
  0
LINE
  5
3B7
  8
DATA
  6
CONTINUOUS
 62
     7
 10
246.30000000000001
 20
216.11979687732861
 30
0.0
 11
245.7047857246973
 21
216.2500000000511
 31
0.0
  0
LINE
  5
3B8
  8
DATA
  6
CONTINUOUS
 62
     7
 10
248.0
 20
151.2500000000511
 30
0.0
 11
248.0
 21
165.45000000005109
 31
0.0
  0
LINE
  5
3B9
  8
DATA
  6
CONTINUOUS
 62
     7
 10
242.0
 20
151.2500000000511
 30
0.0
 11
242.0
 21
165.45000000005109
 31
0.0
  0
ARC
  5
3BA
  8
DATA
  6
CONTINUOUS
 62
     7
 10
245.0
 20
151.2500000000511
 30
0.0
 40
3.0
 50
180.0
 51
0.0
  0
ARC
  5
3BB
  8
DATA
  6
CONTINUOUS
 62
     7
 10
245.0
 20
166.7500000000511
 30
0.0
 40
7.5
 50
180.0
 51
246.42182152179819
  0
ARC
  5
3BC
  8
DATA
  6
CONTINUOUS
 62
     7
 10
245.0
 20
166.7500000000511
 30
0.0
 40
7.5
 50
293.57817847820178
 51
0.0
  0
LINE
  5
3BD
  8
DATA
  6
CONTINUOUS
 62
     7
 10
242.7999999999999
 20
166.2500000000511
 30
0.0
 11
247.19999999999999
 21
166.2500000000511
 31
0.0
  0
ARC
  5
3BE
  8
DATA
  6
CONTINUOUS
 62
     7
 10
242.7999999999999
 20
165.45000000005109
 30
0.0
 40
0.7999999999999972
 50
90.0
 51
180.0
  0
ARC
  5
3BF
  8
DATA
  6
CONTINUOUS
 62
     7
 10
247.19999999999999
 20
165.45000000005109
 30
0.0
 40
0.7999999999999972
 50
0.0
 51
90.0
  0
LINE
  5
3C0
  8
DATA
  6
CONTINUOUS
 62
     7
 10
243.84
 20
166.2500000000511
 30
0.0
 11
243.84
 21
169.15621460064369
 31
0.0
  0
LINE
  5
3C1
  8
DATA
  6
CONTINUOUS
 62
     7
 10
246.16
 20
166.2500000000511
 30
0.0
 11
246.16
 21
169.15621460064369
 31
0.0
  0
ARC
  5
3C2
  8
DATA
  6
CONTINUOUS
 62
     7
 10
245.0
 20
165.85403350324759
 30
0.0
 40
3.5
 50
0.0
 51
180.0
  0
ARC
  5
3C3
  8
DATA
  6
CONTINUOUS
 62
     7
 10
245.0
 20
164.36877866246641
 30
0.0
 40
3.5
 50
180.0
 51
211.002719133874
  0
ARC
  5
3C4
  8
DATA
  6
CONTINUOUS
 62
     7
 10
245.0
 20
164.36877866246641
 30
0.0
 40
3.5000000000000009
 50
328.99728086612612
 51
0.0
  0
LINE
  5
3C5
  8
DATA
  6
CONTINUOUS
 62
     7
 10
241.5
 20
164.36877866246641
 30
0.0
 11
241.5
 21
165.85403350324759
 31
0.0
  0
LINE
  5
3C6
  8
DATA
  6
CONTINUOUS
 62
     7
 10
248.5
 20
164.36877866246641
 30
0.0
 11
248.5
 21
166.0000000000511
 31
0.0
  0
TEXT
  5
3C7
  8
DATA
 62
     7
 10
78.659999999799965
 20
161.89221989956499
 30
0.0
 40
2.4432617187500001
  1
5V
 41
0.7
 11
78.659999999799965
 21
164.33548161831499
 31
0.0
 73
     3
  0
ARC
  5
3C8
  8
DATA
  6
CONTINUOUS
 62
     7
 10
80.337047814674264
 20
158.7801949068697
 30
0.0
 40
1.443375672974051
 50
31.306446248669729
 51
328.69355375132392
  0
CIRCLE
  5
3C9
  8
DATA
  6
CONTINUOUS
 62
     7
 10
80.337047814674222
 20
158.7801949068697
 30
0.0
 40
0.1899999999999977
  0
CIRCLE
  5
3CA
  8
DATA
  6
CONTINUOUS
 62
     7
 10
77.300028582648423
 20
158.7801949068697
 30
0.0
 40
0.7999999999999972
  0
TEXT
  5
3CB
  8
DATA
 62
     7
 10
76.819800011458426
 20
158.02718105305769
 30
0.0
 40
1.6288411458333329
  1
-
 41
0.7
 11
76.819800011458426
 21
159.65602219889101
 31
0.0
 73
     3
  0
CIRCLE
  5
3CC
  8
DATA
  6
CONTINUOUS
 62
     7
 10
83.578913720874112
 20
158.7801949068697
 30
0.0
 40
0.7999999999999972
  0
TEXT
  5
3CD
  8
DATA
 62
     7
 10
83.102739085061856
 20
158.01316718620799
 30
0.0
 40
1.6288411458333329
  1
+
 41
0.7
 11
83.102739085061856
 21
159.6420083320414
 31
0.0
 73
     3
  0
LINE
  5
3CE
  8
DATA
  6
CONTINUOUS
 62
     7
 10
82.778913720874087
 20
158.7801949068697
 30
0.0
 11
80.527047814672045
 21
158.7801949068697
 31
0.0
  0
TEXT
  5
3CF
  8
DATA
 62
     7
 10
68.832989581219394
 20
82.955990810265234
 30
0.0
 40
4.072102864583333
  1
送信機
 41
0.7
 11
68.832989581219394
 21
87.028093674848563
 31
0.0
 73
     3
  0
LINE
  5
3D0
  8
DATA
  6
CONTINUOUS
 62
     7
 10
66.22999999999999
 20
81.200000000299994
 30
0.0
 11
88.139999999999986
 21
81.200000000299994
 31
0.0
  0
TEXT
  5
3D1
  8
DATA
 62
     7
 10
193.49798766489889
 20
82.955990810265234
 30
0.0
 40
4.072102864583333
  1
受信機
 41
0.7
 11
193.49798766489889
 21
87.028093674848563
 31
0.0
 73
     3
  0
LINE
  5
3D2
  8
DATA
  6
CONTINUOUS
 62
     7
 10
190.8949980836795
 20
81.200000000299994
 30
0.0
 11
212.80499808367949
 21
81.200000000299994
 31
0.0
  0
TEXT
  5
3D3
  8
DATA
 62
     7
 10
203.26552090457429
 20
161.89221989956499
 30
0.0
 40
2.4432617187500001
  1
5V
 41
0.7
 11
203.26552090457429
 21
164.33548161831499
 31
0.0
 73
     3
  0
ARC
  5
3D4
  8
DATA
  6
CONTINUOUS
 62
     7
 10
204.94256871944859
 20
158.7801949068697
 30
0.0
 40
1.443375672974051
 50
31.306446248669729
 51
328.69355375132392
  0
CIRCLE
  5
3D5
  8
DATA
  6
CONTINUOUS
 62
     7
 10
204.94256871944859
 20
158.7801949068697
 30
0.0
 40
0.1899999999999977
  0
CIRCLE
  5
3D6
  8
DATA
  6
CONTINUOUS
 62
     7
 10
201.90554948742269
 20
158.7801949068697
 30
0.0
 40
0.7999999999999972
  0
TEXT
  5
3D7
  8
DATA
 62
     7
 10
201.42532091623269
 20
158.02718105305769
 30
0.0
 40
1.6288411458333329
  1
-
 41
0.7
 11
201.42532091623269
 21
159.65602219889101
 31
0.0
 73
     3
  0
CIRCLE
  5
3D8
  8
DATA
  6
CONTINUOUS
 62
     7
 10
208.18443462564841
 20
158.7801949068697
 30
0.0
 40
0.7999999999999972
  0
TEXT
  5
3D9
  8
DATA
 62
     7
 10
207.70825998983611
 20
158.01316718620799
 30
0.0
 40
1.6288411458333329
  1
+
 41
0.7
 11
207.70825998983611
 21
159.6420083320414
 31
0.0
 73
     3
  0
LINE
  5
3DA
  8
DATA
  6
CONTINUOUS
 62
     7
 10
207.3844346256484
 20
158.7801949068697
 30
0.0
 11
205.1325687194464
 21
158.7801949068697
 31
0.0
  0
ENDSEC
  0
EOF
