  0
SECTION
  2
HEADER
  9
$ACADVER
  1
AC1009
  9
$INSBASE
 10
0.0
 20
0.0
 30
0.0
  9
$EXTMIN
 10
29.989015033921529
 20
7.2674579490762881
 30
-0.0015258207003583
  9
$EXTMAX
 10
570.01739634668616
 20
810.02472112423811
 30
0.0000000349246037
  9
$LIMMIN
 10
0.0
 20
0.0
  9
$LIMMAX
 10
0.0
 20
0.0
  9
$ORTHOMODE
 70
     0
  9
$REGENMODE
 70
     1
  9
$FILLMODE
 70
     1
  9
$QTEXTMODE
 70
     0
  9
$MIRRTEXT
 70
     1
  9
$DRAGMODE
 70
     2
  9
$LTSCALE
 40
15.24
  9
$OSMODE
 70
   231
  9
$ATTMODE
 70
     1
  9
$TEXTSIZE
 40
0.0
  9
$TRACEWID
 40
1.0
  9
$TEXTSTYLE
  7
STANDARD
  9
$CLAYER
  8
DATA
  9
$CELTYPE
  6
BYLAYER
  9
$CECOLOR
 62
   256
  9
$DIMSCALE
 40
1.0
  9
$DIMASZ
 40
0.18
  9
$DIMEXO
 40
0.0625
  9
$DIMDLI
 40
0.38
  9
$DIMRND
 40
0.0
  9
$DIMDLE
 40
0.0
  9
$DIMEXE
 40
0.18
  9
$DIMTP
 40
0.0
  9
$DIMTM
 40
0.0
  9
$DIMTXT
 40
0.18
  9
$DIMCEN
 40
0.09
  9
$DIMTSZ
 40
0.0
  9
$DIMTOL
 70
     0
  9
$DIMLIM
 70
     0
  9
$DIMTIH
 70
     1
  9
$DIMTOH
 70
     1
  9
$DIMSE1
 70
     0
  9
$DIMSE2
 70
     0
  9
$DIMTAD
 70
     0
  9
$DIMZIN
 70
     0
  9
$DIMBLK
  1

  9
$DIMASO
 70
     1
  9
$DIMSHO
 70
     1
  9
$DIMPOST
  1

  9
$DIMAPOST
  1

  9
$DIMALT
 70
     0
  9
$DIMALTD
 70
     2
  9
$DIMALTF
 40
25.399999999999999
  9
$DIMLFAC
 40
1.0
  9
$DIMTOFL
 70
     0
  9
$DIMTVP
 40
0.0
  9
$DIMTIX
 70
     0
  9
$DIMSOXD
 70
     0
  9
$DIMSAH
 70
     0
  9
$DIMBLK1
  1

  9
$DIMBLK2
  1

  9
$DIMSTYLE
  2
STANDARD
  9
$DIMCLRD
 70
     0
  9
$DIMCLRE
 70
     0
  9
$DIMCLRT
 70
     0
  9
$DIMTFAC
 40
1.0
  9
$DIMGAP
 40
0.09
  9
$LUNITS
 70
     2
  9
$LUPREC
 70
     4
  9
$SKETCHINC
 40
0.1
  9
$FILLETRAD
 40
0.0
  9
$AUNITS
 70
     0
  9
$AUPREC
 70
     0
  9
$MENU
  1
acad
  9
$ELEVATION
 40
0.0
  9
$PELEVATION
 40
0.0
  9
$THICKNESS
 40
0.0
  9
$LIMCHECK
 70
     0
  9
$BLIPMODE
 70
     0
  9
$CHAMFERA
 40
0.0
  9
$CHAMFERB
 40
0.0
  9
$SKPOLY
 70
     0
  9
$TDCREATE
 40
2455202.6850347221
  9
$TDUPDATE
 40
2455202.6877693292
  9
$TDINDWG
 40
0.0002484259
  9
$TDUSRTIMER
 40
0.0002484259
  9
$USRTIMER
 70
     1
  9
$ANGBASE
 50
0.0
  9
$ANGDIR
 70
     0
  9
$PDMODE
 70
     1
  9
$PDSIZE
 40
-2.0
  9
$PLINEWID
 40
0.0
  9
$COORDS
 70
     0
  9
$SPLFRAME
 70
     0
  9
$SPLINETYPE
 70
     6
  9
$SPLINESEGS
 70
     8
  9
$ATTDIA
 70
     0
  9
$ATTREQ
 70
     1
  9
$HANDLING
 70
     1
  9
$HANDSEED
  5
2FD
  9
$SURFTAB1
 70
     6
  9
$SURFTAB2
 70
     6
  9
$SURFTYPE
 70
     6
  9
$SURFU
 70
     6
  9
$SURFV
 70
     6
  9
$UCSNAME
  2

  9
$UCSORG
 10
0.0
 20
0.0
 30
0.0
  9
$UCSXDIR
 10
1.0
 20
0.0
 30
0.0
  9
$UCSYDIR
 10
0.0
 20
1.0
 30
0.0
  9
$PUCSNAME
  2

  9
$PUCSORG
 10
0.0
 20
0.0
 30
0.0
  9
$PUCSXDIR
 10
1.0
 20
0.0
 30
0.0
  9
$PUCSYDIR
 10
0.0
 20
1.0
 30
0.0
  9
$USERI1
 70
     0
  9
$USERI2
 70
     0
  9
$USERI3
 70
     0
  9
$USERI4
 70
     0
  9
$USERI5
 70
     0
  9
$USERR1
 40
0.0
  9
$USERR2
 40
0.0
  9
$USERR3
 40
0.0
  9
$USERR4
 40
0.0
  9
$USERR5
 40
0.0
  9
$WORLDVIEW
 70
     1
  9
$SHADEDGE
 70
     3
  9
$SHADEDIF
 70
    70
  9
$TILEMODE
 70
     1
  9
$MAXACTVP
 70
    64
  9
$PLIMCHECK
 70
     0
  9
$PEXTMIN
 10
1.0000000000000000E+020
 20
1.0000000000000000E+020
 30
1.0000000000000000E+020
  9
$PEXTMAX
 10
-1.0000000000000000E+020
 20
-1.0000000000000000E+020
 30
-1.0000000000000000E+020
  9
$PLIMMIN
 10
0.0
 20
0.0
  9
$PLIMMAX
 10
12.0
 20
9.0
  9
$UNITMODE
 70
     0
  9
$VISRETAIN
 70
     0
  9
$PLINEGEN
 70
     1
  9
$PSLTSCALE
 70
     0
  0
ENDSEC
  0
SECTION
  2
TABLES
  0
TABLE
  2
VPORT
 70
     1
  0
VPORT
  2
*ACTIVE
 70
     0
 10
0.0
 20
0.0
 11
1.0
 21
1.0
 12
300.00320569030379
 22
408.64608953665709
 13
0.0
 23
0.0
 14
1.0
 24
1.0
 15
0.0
 25
0.0
 16
0.0
 26
0.0
 36
1.0
 17
0.0
 27
0.0
 37
0.0
 40
808.67439287915568
 41
1.964329643296433
 42
50.0
 43
0.0
 44
0.0
 50
0.0
 51
0.0
 71
     0
 72
  2000
 73
     1
 74
     1
 75
     0
 76
     0
 77
     0
 78
     0
  0
ENDTAB
  0
TABLE
  2
LTYPE
 70
    11
  0
LTYPE
  2
CONTINUOUS
 70
     0
  3
Solid line
 72
    65
 73
     0
 40
0.0
  0
ENDTAB
  0
TABLE
  2
LAYER
 70
     5
  0
LAYER
  2
0
 70
     0
 62
     7
  6
CONTINUOUS
  0
LAYER
  2
DATA
 70
     0
 62
     7
  6
CONTINUOUS
  0
LAYER
  2
HIBINO-BASE
 70
     0
 62
     7
  6
CONTINUOUS
  0
LAYER
  2
SPEC
 70
     0
 62
     7
  6
CONTINUOUS
  0
LAYER
  2
DIMNSIONS
 70
     0
 62
     7
  6
CONTINUOUS
  0
ENDTAB
  0
TABLE
  2
STYLE
 70
     3
  0
STYLE
  2
STANDARD
 70
     0
 40
0.0
 41
1.0
 50
0.0
 71
     0
 42
0.0
  3
txt
  4
BIGFONT.SHX
  0
ENDTAB
  0
TABLE
  2
VIEW
 70
     0
  0
ENDTAB
  0
TABLE
  2
UCS
 70
     0
  0
ENDTAB
  0
TABLE
  2
APPID
 70
     3
  0
APPID
  2
ACAD
 70
     0
  0
APPID
  2
ACADANNOTATIVE
 70
     0
  0
APPID
  2
ACAD_MLEADERVER
 70
     0
  0
ENDTAB
  0
TABLE
  2
DIMSTYLE
 70
     2
  0
DIMSTYLE
  2
STANDARD
 70
     0
  3

  4

  5

  6

  7

 40
1.0
 41
0.18
 42
0.0625
 43
0.38
 44
0.18
 45
0.0
 46
0.0
 47
0.0
 48
0.0
140
0.18
141
0.09
142
0.0
143
25.399999999999999
144
1.0
145
0.0
146
1.0
147
0.09
 71
     0
 72
     0
 73
     1
 74
     1
 75
     0
 76
     0
 77
     0
 78
     0
170
     0
171
     2
172
     0
173
     0
174
     0
175
     0
176
     0
177
     0
178
     0
  0
ENDTAB
  0
ENDSEC
  0
SECTION
  2
BLOCKS
  0
BLOCK
  8
0
  2
$MODEL_SPACE
 70
     0
 10
0.0
 20
0.0
 30
0.0
  3
$MODEL_SPACE
  1

  0
ENDBLK
  5
285
  8
0
  0
BLOCK
 67
     1
  8
0
  2
$PAPER_SPACE
 70
     0
 10
0.0
 20
0.0
 30
0.0
  3
$PAPER_SPACE
  1

  0
ENDBLK
  5
281
 67
     1
  8
0
  0
ENDSEC
  0
SECTION
  2
ENTITIES
  0
LINE
  5
2C
  8
HIBINO-BASE
  6
CONTINUOUS
 62
     7
 10
30.0
 20
810.0
 30
0.0
 11
569.99999999999989
 21
810.0
 31
0.0
  0
LINE
  5
2D
  8
HIBINO-BASE
  6
CONTINUOUS
 62
     7
 10
569.99999999999989
 20
30.0
 30
0.0
 11
30.0
 21
30.0
 31
0.0
  0
LINE
  5
2E
  8
HIBINO-BASE
  6
CONTINUOUS
 62
     7
 10
30.0
 20
30.0
 30
0.0
 11
30.0
 21
810.0
 31
0.0
  0
LINE
  5
2F
  8
HIBINO-BASE
  6
CONTINUOUS
 62
     7
 10
569.99999999999989
 20
810.0
 30
0.0
 11
569.99999999999989
 21
30.0
 31
0.0
  0
LINE
  5
30
  8
HIBINO-BASE
  6
CONTINUOUS
 62
     7
 10
300.0
 20
97.500000000000057
 30
0.0
 11
569.99999999999989
 21
97.500000000000057
 31
0.0
  0
LINE
  5
31
  8
HIBINO-BASE
  6
CONTINUOUS
 62
     7
 10
300.0
 20
30.0
 30
0.0
 11
300.0
 21
97.500000000000057
 31
0.0
  0
TEXT
  5
32
  8
HIBINO-BASE
 62
     7
 10
302.69999999999987
 20
89.973919999999993
 30
0.0
 40
4.8865234374999993
  1
NOTE
 41
0.7
 11
302.69999999999987
 21
94.860443437499995
 31
0.0
 73
     3
  0
LINE
  5
33
  8
HIBINO-BASE
  6
CONTINUOUS
 62
     7
 10
405.0
 20
30.0
 30
0.0
 11
405.0
 21
97.500000000000057
 31
0.0
  0
TEXT
  5
34
  8
HIBINO-BASE
 62
     7
 10
407.69999999999987
 20
89.973919999999993
 30
0.0
 40
4.8865234374999993
  1
TITLE
 41
0.7
 11
407.69999999999987
 21
94.860443437499995
 31
0.0
 73
     3
  0
LINE
  5
35
  8
HIBINO-BASE
  6
CONTINUOUS
 62
     7
 10
300.0
 20
60.000000000000071
 30
0.0
 11
569.99999999999989
 21
60.000000000000071
 31
0.0
  0
TEXT
  5
36
  8
HIBINO-BASE
 62
     7
 10
445.19999999999987
 20
52.64287999999997
 30
0.0
 40
4.8865234374999993
  1
DRAWN
 41
0.7
 11
445.19999999999987
 21
57.529403437499973
 31
0.0
 73
     3
  0
TEXT
  5
37
  8
HIBINO-BASE
 62
     7
 10
370.19999999999987
 20
52.64287999999997
 30
0.0
 40
4.8865234374999993
  1
DATE
 41
0.7
 11
370.19999999999987
 21
57.529403437499973
 31
0.0
 73
     3
  0
TEXT
  5
38
  8
HIBINO-BASE
 62
     7
 10
340.19999999999987
 20
52.64287999999997
 30
0.0
 40
4.8865234374999993
  1
SCALE
 41
0.7
 11
340.19999999999987
 21
57.529403437499973
 31
0.0
 73
     3
  0
TEXT
  5
39
  8
HIBINO-BASE
 62
     7
 10
407.69999999999987
 20
52.64287999999997
 30
0.0
 40
4.8865234374999993
  1
DESIGN
 41
0.7
 11
407.69999999999987
 21
57.529403437499973
 31
0.0
 73
     3
  0
TEXT
  5
3A
  8
HIBINO-BASE
 62
     7
 10
520.19999999999993
 20
52.64287999999997
 30
0.0
 40
4.8865234374999993
  1
DRAWING NO.
 41
0.7
 11
520.19999999999993
 21
57.529403437499973
 31
0.0
 73
     3
  0
TEXT
  5
3B
  8
HIBINO-BASE
 62
     7
 10
482.69999999999987
 20
52.64287999999997
 30
0.0
 40
4.8865234374999993
  1
CHECK
 41
0.7
 11
482.69999999999987
 21
57.529403437499973
 31
0.0
 73
     3
  0
LINE
  5
3C
  8
HIBINO-BASE
  6
CONTINUOUS
 62
     7
 10
343.12499999999989
 20
33.75
 30
0.0
 11
354.37499999999989
 21
45.000000000000057
 31
0.0
  0
TEXT
  5
3D
  8
HIBINO-BASE
 62
     7
 10
341.25
 20
41.673170000000013
 30
0.0
 40
4.8865234374999993
  1
1
 41
0.7
 11
341.25
 21
46.559693437500009
 31
0.0
 73
     3
  0
LINE
  5
3E
  8
HIBINO-BASE
  6
CONTINUOUS
 62
     7
 10
337.5
 20
30.0
 30
0.0
 11
337.5
 21
60.000000000000071
 31
0.0
  0
LINE
  5
3F
  8
HIBINO-BASE
  6
CONTINUOUS
 62
     7
 10
367.5
 20
30.0
 30
0.0
 11
367.5
 21
60.000000000000071
 31
0.0
  0
LINE
  5
40
  8
HIBINO-BASE
  6
CONTINUOUS
 62
     7
 10
442.49999999999989
 20
60.000000000000071
 30
0.0
 11
442.49999999999989
 21
30.0
 31
0.0
  0
LINE
  5
41
  8
HIBINO-BASE
  6
CONTINUOUS
 62
     7
 10
517.49999999999989
 20
60.000000000000071
 30
0.0
 11
517.49999999999989
 21
30.0
 31
0.0
  0
LINE
  5
42
  8
HIBINO-BASE
  6
CONTINUOUS
 62
     7
 10
479.99999999999989
 20
30.0
 30
0.0
 11
479.99999999999989
 21
60.000000000000071
 31
0.0
  0
TEXT
  5
43
  8
HIBINO-BASE
 62
     7
 10
370.06961999999987
 20
38.590939999999982
 30
0.0
 40
4.8865234374999993
  1
'09.06.
 41
0.7
 11
370.06961999999987
 21
43.477463437499978
 31
0.0
 73
     3
  0
TEXT
  5
44
  8
HIBINO-BASE
 62
     7
 10
352.49999999999989
 20
36.048170000000013
 30
0.0
 40
4.8865234374999993
  1
3
 41
0.7
 11
352.49999999999989
 21
40.934693437500009
 31
0.0
 73
     3
  0
TEXT
  5
45
  8
HIBINO-BASE
 62
     7
 10
447.01743003310372
 20
38.590939999999982
 30
0.0
 40
4.8865234374999993
  1
T.Ootake
 41
0.7
 11
447.01743003310372
 21
43.477463437499978
 31
0.0
 73
     3
  0
TEXT
  5
46
  8
HIBINO-BASE
 62
     7
 10
311.64999999999998
 20
35.928000000000033
 30
0.0
 40
9.7730468749999986
  1
A4
 41
0.7
 11
311.64999999999998
 21
45.701046875000031
 31
0.0
 73
     3
  0
TEXT
  5
47
  8
HIBINO-BASE
 62
     7
 10
302.875
 20
52.141635000000051
 30
0.0
 40
4.8865234374999993
  1
PAPER SIZE
 41
0.7
 11
302.875
 21
57.028158437500053
 31
0.0
 73
     3
  0
TEXT
  5
48
  8
HIBINO-BASE
 62
     7
 10
38.742632240394357
 20
10.816519385235591
 30
0.0
 40
10.58746744791666
  1
Hibino-Intersound Corporation
 41
0.7
 11
38.742632240394357
 21
21.40398683315226
 31
0.0
 73
     3
  0
TEXT
  5
49
  8
HIBINO-BASE
 62
     7
 10
361.9378998119634
 20
11.74753638661347
 30
0.0
 40
10.58746744791666
  1
ヒビノインターサウンド株式会社
 41
0.7
 11
361.9378998119634
 21
22.335003834530141
 31
0.0
 73
     3
  0
LINE
  5
4A
  8
SPEC
  6
CONTINUOUS
 62
     7
 10
52.5
 20
780.0
 30
0.0
 11
495.0
 21
780.0
 31
0.0
  0
LINE
  5
4B
  8
SPEC
  6
CONTINUOUS
 62
     7
 10
52.5
 20
768.75
 30
0.0
 11
495.0
 21
768.75
 31
0.0
  0
LINE
  5
4C
  8
SPEC
  6
CONTINUOUS
 62
     7
 10
52.5
 20
723.74999999999989
 30
0.0
 11
495.0
 21
723.74999999999989
 31
0.0
  0
LINE
  5
4D
  8
SPEC
  6
CONTINUOUS
 62
     7
 10
52.5
 20
735.0
 30
0.0
 11
495.0
 21
735.0
 31
0.0
  0
LINE
  5
4E
  8
SPEC
  6
CONTINUOUS
 62
     7
 10
52.5
 20
746.25
 30
0.0
 11
495.0
 21
746.25
 31
0.0
  0
LINE
  5
4F
  8
SPEC
  6
CONTINUOUS
 62
     7
 10
52.5
 20
712.5
 30
0.0
 11
495.0
 21
712.5
 31
0.0
  0
LINE
  5
50
  8
SPEC
  6
CONTINUOUS
 62
     7
 10
52.5
 20
701.25
 30
0.0
 11
495.0
 21
701.25
 31
0.0
  0
LINE
  5
51
  8
SPEC
  6
CONTINUOUS
 62
     7
 10
52.5
 20
757.5
 30
0.0
 11
495.0
 21
757.5
 31
0.0
  0
TEXT
  5
52
  8
SPEC
 62
     7
 10
152.87383040299019
 20
771.11376480000001
 30
0.0
 40
5.700933749999999
  1
USB延長機
 41
0.7
 11
152.87383040299019
 21
776.81469855
 31
0.0
 73
     3
  0
LINE
  5
53
  8
SPEC
  6
CONTINUOUS
 62
     7
 10
52.5
 20
780.0
 30
0.0
 11
52.5
 21
701.25
 31
0.0
  0
TEXT
  5
54
  8
SPEC
 62
     7
 10
56.25
 20
784.17980999999986
 30
0.0
 40
7.3297851562499989
  1
仕様
 41
0.7
 11
56.25
 21
791.50959515624982
 31
0.0
 73
     3
  0
LINE
  5
55
  8
SPEC
  6
CONTINUOUS
 62
     7
 10
150.0
 20
780.0
 30
0.0
 11
150.0
 21
701.25
 31
0.0
  0
LINE
  5
56
  8
SPEC
  6
CONTINUOUS
 62
     7
 10
495.0
 20
780.0
 30
0.0
 11
495.0
 21
701.25
 31
0.0
  0
TEXT
  5
57
  8
SPEC
 62
     7
 10
55.19999999999996
 20
771.37175251217946
 30
0.0
 40
5.700933749999999
  1
形式
 41
0.7
 11
55.19999999999996
 21
777.07268626217945
 31
0.0
 73
     3
  0
TEXT
  5
58
  8
SPEC
 62
     7
 10
55.079273498106389
 20
715.62468824830853
 30
0.0
 40
5.700933749999999
  1
寸法
 41
0.7
 11
55.079273498106389
 21
721.32562199830852
 31
0.0
 73
     3
  0
TEXT
  5
59
  8
SPEC
 62
     7
 10
55.188356405531579
 20
704.21824579360316
 30
0.0
 40
5.700933749999999
  1
重量
 41
0.7
 11
55.188356405531579
 21
709.91917954360315
 31
0.0
 73
     3
  0
TEXT
  5
5A
  8
SPEC
 62
     7
 10
152.83721255247579
 20
715.63403884923059
 30
0.0
 40
5.7009440104166647
  1
69(W)\U+00D725(H)\U+00D799(D)mm(突起部含まず)、(センダー、レシーバー共に)
 41
0.7
 11
152.83721255247579
 21
721.33498285964743
 31
0.0
 73
     3
  0
TEXT
  5
5B
  8
SPEC
 62
     7
 10
152.83002989703809
 20
704.19747092457476
 30
0.0
 40
5.7009440104166647
  1
約75g(センダー、レシーバー共に）
 41
0.7
 11
152.83002989703809
 21
709.89841493499159
 31
0.0
 73
     3
  0
TEXT
  5
5C
  8
SPEC
 62
     7
 10
53.864749502648181
 20
726.68270154568586
 30
0.0
 40
5.700933749999999
  1
リンクコネクター
 41
0.7
 11
53.864749502648181
 21
732.38363529568585
 31
0.0
 73
     3
  0
TEXT
  5
5D
  8
SPEC
 62
     7
 10
55.355429034366921
 20
760.19632300816352
 30
0.0
 40
5.700933749999999
  1
USBスピード
 41
0.7
 11
55.355429034366921
 21
765.89725675816351
 31
0.0
 73
     3
  0
TEXT
  5
5E
  8
SPEC
 62
     7
 10
55.358624733852082
 20
748.99582527729285
 30
0.0
 40
5.700933749999999
  1
USB入力端子
 41
0.7
 11
55.358624733852082
 21
754.69675902729296
 31
0.0
 73
     3
  0
TEXT
  5
5F
  8
SPEC
 62
     7
 10
152.87279010557631
 20
726.42028327753144
 30
0.0
 40
5.700933749999999
  1
RJ-45
 41
0.7
 11
152.87279010557631
 21
732.12121702753143
 31
0.0
 73
     3
  0
TEXT
  5
60
  8
SPEC
 62
     7
 10
152.8501631029917
 20
749.15969654826984
 30
0.0
 40
5.700933749999999
  1
Type B
 41
0.7
 11
152.8501631029917
 21
754.86063029826971
 31
0.0
 73
     3
  0
TEXT
  5
61
  8
SPEC
 62
     7
 10
152.84341875711061
 20
760.16816613744845
 30
0.0
 40
5.700933749999999
  1
Full-speed 12Mb/s,Low-speed 1.5Mb/s
 41
0.7
 11
152.84341875711061
 21
765.86909988744844
 31
0.0
 73
     3
  0
TEXT
  5
62
  8
SPEC
 62
     7
 10
55.354207581698091
 20
737.7210741427283
 30
0.0
 40
5.700933749999999
  1
USB出力端子
 41
0.7
 11
55.354207581698091
 21
743.4220078927284
 31
0.0
 73
     3
  0
TEXT
  5
63
  8
SPEC
 62
     7
 10
152.86504567489479
 20
737.96095955279145
 30
0.0
 40
5.700933749999999
  1
Type A
 41
0.7
 11
152.86504567489479
 21
743.66189330279144
 31
0.0
 73
     3
  0
TEXT
  5
64
  8
DIMNSIONS
 62
     7
 10
240.0
 20
66.808470000000028
 30
0.0
 40
7.3297851562499989
  1
(単位：mm)
 41
0.7
 11
240.0
 21
74.138255156250025
 31
0.0
 73
     3
  0
LINE
  5
65
  8
DIMNSIONS
  6
CONTINUOUS
 62
     7
 10
135.5
 20
431.25
 30
0.0
 11
106.5
 21
431.25
 31
0.0
  0
LINE
  5
66
  8
DIMNSIONS
  6
CONTINUOUS
 62
     7
 10
149.9622501773861
 20
456.25
 30
0.0
 11
106.5
 21
456.25
 31
0.0
  0
LINE
  5
67
  8
DIMNSIONS
  6
CONTINUOUS
 62
     7
 10
112.5
 20
431.25
 30
0.0
 11
112.5
 21
456.25
 31
0.0
  0
LINE
  5
68
  8
DIMNSIONS
  6
CONTINUOUS
 62
     7
 10
112.5
 20
431.25
 30
0.0
 11
110.48988061454919
 21
438.75186767578111
 31
0.0
  0
LINE
  5
69
  8
DIMNSIONS
  6
CONTINUOUS
 62
     7
 10
112.5
 20
431.25
 30
0.0
 11
114.51011938545069
 21
438.75186767578111
 31
0.0
  0
LINE
  5
6A
  8
DIMNSIONS
  6
CONTINUOUS
 62
     7
 10
112.5
 20
456.25
 30
0.0
 11
114.51011938545069
 21
448.74813232421877
 31
0.0
  0
LINE
  5
6B
  8
DIMNSIONS
  6
CONTINUOUS
 62
     7
 10
112.5
 20
456.25
 30
0.0
 11
110.48988061454919
 21
448.74813232421877
 31
0.0
  0
TEXT
  5
6C
  8
DIMNSIONS
 62
     7
 10
109.5183333333333
 20
438.4583333333332
 30
0.0
 40
8.1442057291666661
  1
25
 50
90.0
 41
0.7
 11
101.3741276041667
 21
438.4583333333332
 31
0.0
 73
     3
  0
LINE
  5
6D
  8
DIMNSIONS
  6
CONTINUOUS
 62
     7
 10
137.5
 20
426.75
 30
0.0
 11
137.5
 21
400.25
 31
0.0
  0
LINE
  5
6E
  8
DIMNSIONS
  6
CONTINUOUS
 62
     7
 10
206.5
 20
426.75
 30
0.0
 11
206.5
 21
400.25
 31
0.0
  0
LINE
  5
6F
  8
DIMNSIONS
  6
CONTINUOUS
 62
     7
 10
137.5
 20
406.25
 30
0.0
 11
206.5
 21
406.25
 31
0.0
  0
LINE
  5
70
  8
DIMNSIONS
  6
CONTINUOUS
 62
     7
 10
137.5
 20
406.25
 30
0.0
 11
145.0018676757812
 21
408.26011938545071
 31
0.0
  0
LINE
  5
71
  8
DIMNSIONS
  6
CONTINUOUS
 62
     7
 10
137.5
 20
406.25
 30
0.0
 11
145.0018676757812
 21
404.23988061454918
 31
0.0
  0
LINE
  5
72
  8
DIMNSIONS
  6
CONTINUOUS
 62
     7
 10
206.5
 20
406.25
 30
0.0
 11
198.99813232421869
 21
404.23988061454918
 31
0.0
  0
LINE
  5
73
  8
DIMNSIONS
  6
CONTINUOUS
 62
     7
 10
206.5
 20
406.25
 30
0.0
 11
198.99813232421869
 21
408.26011938545071
 31
0.0
  0
TEXT
  5
74
  8
DIMNSIONS
 62
     7
 10
166.70833333333329
 20
409.23166666666663
 30
0.0
 40
8.1442057291666661
  1
69
 41
0.7
 11
166.70833333333329
 21
417.3758723958332
 31
0.0
 73
     3
  0
LINE
  5
75
  8
DIMNSIONS
  6
CONTINUOUS
 62
     7
 10
138.5
 20
429.25
 30
0.0
 11
106.5
 21
429.25
 31
0.0
  0
LINE
  5
76
  8
DIMNSIONS
  6
CONTINUOUS
 62
     7
 10
135.5
 20
431.25
 30
0.0
 11
106.5
 21
431.25
 31
0.0
  0
LINE
  5
77
  8
DIMNSIONS
  6
CONTINUOUS
 62
     7
 10
112.5
 20
431.25
 30
0.0
 11
112.5
 21
429.25
 31
0.0
  0
LINE
  5
78
  8
DIMNSIONS
  6
CONTINUOUS
 62
     7
 10
112.5
 20
429.25
 30
0.0
 11
112.5
 21
413.4583333333332
 31
0.0
  0
LINE
  5
79
  8
DIMNSIONS
  6
CONTINUOUS
 62
     7
 10
112.5
 20
429.25
 30
0.0
 11
114.51011938545069
 21
421.74813232421872
 31
0.0
  0
LINE
  5
7A
  8
DIMNSIONS
  6
CONTINUOUS
 62
     7
 10
112.5
 20
429.25
 30
0.0
 11
110.48988061454919
 21
421.74813232421872
 31
0.0
  0
LINE
  5
7B
  8
DIMNSIONS
  6
CONTINUOUS
 62
     7
 10
112.5
 20
431.25
 30
0.0
 11
112.5
 21
446.25
 31
0.0
  0
LINE
  5
7C
  8
DIMNSIONS
  6
CONTINUOUS
 62
     7
 10
112.5
 20
431.25
 30
0.0
 11
110.48988061454919
 21
438.75186767578111
 31
0.0
  0
LINE
  5
7D
  8
DIMNSIONS
  6
CONTINUOUS
 62
     7
 10
112.5
 20
431.25
 30
0.0
 11
114.51011938545069
 21
438.75186767578111
 31
0.0
  0
TEXT
  5
7E
  8
DIMNSIONS
 62
     7
 10
109.5183333333333
 20
413.4583333333332
 30
0.0
 40
8.1442057291666661
  1
2
 50
90.0
 41
0.7
 11
101.3741276041666
 21
413.4583333333332
 31
0.0
 73
     3
  0
LINE
  5
7F
  8
DIMNSIONS
  6
CONTINUOUS
 62
     7
 10
166.0
 20
475.0
 30
0.0
 11
106.5
 21
475.0
 31
0.0
  0
LINE
  5
80
  8
DIMNSIONS
  6
CONTINUOUS
 62
     7
 10
166.0
 20
574.0
 30
0.0
 11
106.5
 21
574.0
 31
0.0
  0
LINE
  5
81
  8
DIMNSIONS
  6
CONTINUOUS
 62
     7
 10
112.5
 20
475.0
 30
0.0
 11
112.5
 21
574.0
 31
0.0
  0
LINE
  5
82
  8
DIMNSIONS
  6
CONTINUOUS
 62
     7
 10
112.5
 20
475.0
 30
0.0
 11
110.48988061454919
 21
482.50186767578111
 31
0.0
  0
LINE
  5
83
  8
DIMNSIONS
  6
CONTINUOUS
 62
     7
 10
112.5
 20
475.0
 30
0.0
 11
114.51011938545069
 21
482.50186767578111
 31
0.0
  0
LINE
  5
84
  8
DIMNSIONS
  6
CONTINUOUS
 62
     7
 10
112.5
 20
574.0
 30
0.0
 11
114.51011938545069
 21
566.49813232421866
 31
0.0
  0
LINE
  5
85
  8
DIMNSIONS
  6
CONTINUOUS
 62
     7
 10
112.5
 20
574.0
 30
0.0
 11
110.48988061454919
 21
566.49813232421866
 31
0.0
  0
TEXT
  5
86
  8
DIMNSIONS
 62
     7
 10
109.5183333333333
 20
519.20833333333326
 30
0.0
 40
8.1442057291666661
  1
99
 50
90.0
 41
0.7
 11
101.3741276041667
 21
519.20833333333326
 31
0.0
 73
     3
  0
LINE
  5
87
  8
DIMNSIONS
  6
CONTINUOUS
 62
     7
 10
135.5
 20
150.0
 30
0.0
 11
106.5
 21
150.0
 31
0.0
  0
LINE
  5
88
  8
DIMNSIONS
  6
CONTINUOUS
 62
     7
 10
149.9622501773861
 20
175.0
 30
0.0
 11
106.5
 21
175.0
 31
0.0
  0
LINE
  5
89
  8
DIMNSIONS
  6
CONTINUOUS
 62
     7
 10
112.5
 20
150.0
 30
0.0
 11
112.5
 21
175.0
 31
0.0
  0
LINE
  5
8A
  8
DIMNSIONS
  6
CONTINUOUS
 62
     7
 10
112.5
 20
150.0
 30
0.0
 11
110.48988061454919
 21
157.5018676757812
 31
0.0
  0
LINE
  5
8B
  8
DIMNSIONS
  6
CONTINUOUS
 62
     7
 10
112.5
 20
150.0
 30
0.0
 11
114.51011938545069
 21
157.5018676757812
 31
0.0
  0
LINE
  5
8C
  8
DIMNSIONS
  6
CONTINUOUS
 62
     7
 10
112.5
 20
175.0
 30
0.0
 11
114.51011938545069
 21
167.49813232421869
 31
0.0
  0
LINE
  5
8D
  8
DIMNSIONS
  6
CONTINUOUS
 62
     7
 10
112.5
 20
175.0
 30
0.0
 11
110.48988061454919
 21
167.49813232421869
 31
0.0
  0
TEXT
  5
8E
  8
DIMNSIONS
 62
     7
 10
109.5183333333333
 20
157.20833333333329
 30
0.0
 40
8.1442057291666661
  1
25
 50
90.0
 41
0.7
 11
101.3741276041667
 21
157.20833333333329
 31
0.0
 73
     3
  0
LINE
  5
8F
  8
DIMNSIONS
  6
CONTINUOUS
 62
     7
 10
137.5
 20
145.5
 30
0.0
 11
137.5
 21
119.0
 31
0.0
  0
LINE
  5
90
  8
DIMNSIONS
  6
CONTINUOUS
 62
     7
 10
206.5
 20
145.5
 30
0.0
 11
206.5
 21
119.0
 31
0.0
  0
LINE
  5
91
  8
DIMNSIONS
  6
CONTINUOUS
 62
     7
 10
137.5
 20
125.0
 30
0.0
 11
206.5
 21
125.0
 31
0.0
  0
LINE
  5
92
  8
DIMNSIONS
  6
CONTINUOUS
 62
     7
 10
137.5
 20
125.0
 30
0.0
 11
145.0018676757812
 21
127.01011938545069
 31
0.0
  0
LINE
  5
93
  8
DIMNSIONS
  6
CONTINUOUS
 62
     7
 10
137.5
 20
125.0
 30
0.0
 11
145.0018676757812
 21
122.98988061454919
 31
0.0
  0
LINE
  5
94
  8
DIMNSIONS
  6
CONTINUOUS
 62
     7
 10
206.5
 20
125.0
 30
0.0
 11
198.99813232421869
 21
122.98988061454919
 31
0.0
  0
LINE
  5
95
  8
DIMNSIONS
  6
CONTINUOUS
 62
     7
 10
206.5
 20
125.0
 30
0.0
 11
198.99813232421869
 21
127.01011938545069
 31
0.0
  0
TEXT
  5
96
  8
DIMNSIONS
 62
     7
 10
166.70833333333329
 20
127.9816666666666
 30
0.0
 40
8.1442057291666661
  1
69
 41
0.7
 11
166.70833333333329
 21
136.12587239583331
 31
0.0
 73
     3
  0
LINE
  5
97
  8
DIMNSIONS
  6
CONTINUOUS
 62
     7
 10
138.5
 20
148.0
 30
0.0
 11
106.5
 21
148.0
 31
0.0
  0
LINE
  5
98
  8
DIMNSIONS
  6
CONTINUOUS
 62
     7
 10
135.5
 20
150.0
 30
0.0
 11
106.5
 21
150.0
 31
0.0
  0
LINE
  5
99
  8
DIMNSIONS
  6
CONTINUOUS
 62
     7
 10
112.5
 20
150.0
 30
0.0
 11
112.5
 21
148.0
 31
0.0
  0
LINE
  5
9A
  8
DIMNSIONS
  6
CONTINUOUS
 62
     7
 10
112.5
 20
148.0
 30
0.0
 11
112.5
 21
132.20833333333329
 31
0.0
  0
LINE
  5
9B
  8
DIMNSIONS
  6
CONTINUOUS
 62
     7
 10
112.5
 20
148.0
 30
0.0
 11
114.51011938545069
 21
140.49813232421869
 31
0.0
  0
LINE
  5
9C
  8
DIMNSIONS
  6
CONTINUOUS
 62
     7
 10
112.5
 20
148.0
 30
0.0
 11
110.48988061454919
 21
140.49813232421869
 31
0.0
  0
LINE
  5
9D
  8
DIMNSIONS
  6
CONTINUOUS
 62
     7
 10
112.5
 20
150.0
 30
0.0
 11
112.5
 21
165.0
 31
0.0
  0
LINE
  5
9E
  8
DIMNSIONS
  6
CONTINUOUS
 62
     7
 10
112.5
 20
150.0
 30
0.0
 11
110.48988061454919
 21
157.5018676757812
 31
0.0
  0
LINE
  5
9F
  8
DIMNSIONS
  6
CONTINUOUS
 62
     7
 10
112.5
 20
150.0
 30
0.0
 11
114.51011938545069
 21
157.5018676757812
 31
0.0
  0
TEXT
  5
A0
  8
DIMNSIONS
 62
     7
 10
109.5183333333333
 20
132.20833333333329
 30
0.0
 40
8.1442057291666661
  1
2
 50
90.0
 41
0.7
 11
101.3741276041666
 21
132.20833333333329
 31
0.0
 73
     3
  0
LINE
  5
A1
  8
DIMNSIONS
  6
CONTINUOUS
 62
     7
 10
166.00000000000011
 20
193.75
 30
0.0
 11
106.5
 21
193.75
 31
0.0
  0
LINE
  5
A2
  8
DIMNSIONS
  6
CONTINUOUS
 62
     7
 10
166.00000000000011
 20
292.75
 30
0.0
 11
106.5
 21
292.75
 31
0.0
  0
LINE
  5
A3
  8
DIMNSIONS
  6
CONTINUOUS
 62
     7
 10
112.5
 20
193.75
 30
0.0
 11
112.5
 21
292.75
 31
0.0
  0
LINE
  5
A4
  8
DIMNSIONS
  6
CONTINUOUS
 62
     7
 10
112.5
 20
193.75
 30
0.0
 11
110.48988061454919
 21
201.25186767578131
 31
0.0
  0
LINE
  5
A5
  8
DIMNSIONS
  6
CONTINUOUS
 62
     7
 10
112.5
 20
193.75
 30
0.0
 11
114.51011938545069
 21
201.25186767578131
 31
0.0
  0
LINE
  5
A6
  8
DIMNSIONS
  6
CONTINUOUS
 62
     7
 10
112.5
 20
292.75
 30
0.0
 11
114.51011938545069
 21
285.24813232421877
 31
0.0
  0
LINE
  5
A7
  8
DIMNSIONS
  6
CONTINUOUS
 62
     7
 10
112.5
 20
292.75
 30
0.0
 11
110.48988061454919
 21
285.24813232421877
 31
0.0
  0
TEXT
  5
A8
  8
DIMNSIONS
 62
     7
 10
109.5183333333333
 20
237.95833333333329
 30
0.0
 40
8.1442057291666661
  1
99
 50
90.0
 41
0.7
 11
101.3741276041667
 21
237.95833333333329
 31
0.0
 73
     3
  0
TEXT
  5
A9
  8
DATA
 62
     7
 10
449.99999999999989
 20
63.238395631955157
 30
0.0
 40
7.3297851562499989
  1
EXT-USB-MINI2
 41
0.7
 11
449.99999999999989
 21
70.568180788205154
 31
0.0
 73
     3
  0
TEXT
  5
AA
  8
DATA
 62
     7
 10
60.0
 20
42.713999999999977
 30
0.0
 40
4.8865234374999993
  1
仕様および外観は予告なく変更されることがありますので、ご了承ください。
 41
0.7
 11
60.0
 21
47.600523437499987
 31
0.0
 73
     3
  0
TEXT
  5
AB
  8
DATA
 62
     7
 10
449.9713515443359
 20
85.047561257843299
 30
0.0
 40
7.3297851562499989
  1
Gefen
 41
0.7
 11
449.9713515443359
 21
92.377346414093296
 31
0.0
 73
     3
  0
TEXT
  5
AC
  8
DATA
 62
     7
 10
445.3494740600226
 20
74.972854856753685
 30
0.0
 40
4.8865234374999993
  1
USB延長機
 41
0.7
 11
445.3494740600226
 21
79.859378294253702
 31
0.0
 73
     3
  0
TEXT
  5
AD
  8
DATA
 62
     7
 10
121.8782335815314
 20
381.37577987548917
 30
0.0
 40
8.1442057291666661
  1
USB MINI2(センダー)
 41
0.7
 11
121.8782335815314
 21
389.51998560465591
 31
0.0
 73
     3
  0
TEXT
  5
AE
  8
DATA
 62
     7
 10
113.7201270446057
 20
100.46668368242391
 30
0.0
 40
8.1442057291666661
  1
USB MINI2(レシーバー)
 41
0.7
 11
113.7201270446057
 21
108.61088941159051
 31
0.0
 73
     3
  0
LINE
  5
AF
  8
DATA
  6
CONTINUOUS
 62
     7
 10
137.5
 20
454.05000000000001
 30
0.0
 11
137.5
 21
442.05000000000001
 31
0.0
  0
LINE
  5
B0
  8
DATA
  6
CONTINUOUS
 62
     7
 10
137.5
 20
441.25
 30
0.0
 11
137.5
 21
432.74999999999989
 31
0.0
  0
LINE
  5
B1
  8
DATA
  6
CONTINUOUS
 62
     7
 10
141.5
 20
431.25
 30
0.0
 11
202.5
 21
431.25
 31
0.0
  0
LINE
  5
B2
  8
DATA
  6
CONTINUOUS
 62
     7
 10
206.5
 20
432.74999999999989
 30
0.0
 11
206.5
 21
441.25
 31
0.0
  0
LINE
  5
B3
  8
DATA
  6
CONTINUOUS
 62
     7
 10
206.5
 20
442.05000000000001
 30
0.0
 11
206.5
 21
454.05000000000001
 31
0.0
  0
LINE
  5
B4
  8
DATA
  6
CONTINUOUS
 62
     7
 10
140.0
 20
432.74999999999989
 30
0.0
 11
140.0
 21
441.25
 31
0.0
  0
LINE
  5
B5
  8
DATA
  6
CONTINUOUS
 62
     7
 10
140.0
 20
442.05000000000001
 30
0.0
 11
140.0
 21
451.25
 31
0.0
  0
LINE
  5
B6
  8
DATA
  6
CONTINUOUS
 62
     7
 10
204.0
 20
451.25
 30
0.0
 11
204.0
 21
442.05000000000001
 31
0.0
  0
LINE
  5
B7
  8
DATA
  6
CONTINUOUS
 62
     7
 10
204.0
 20
441.25
 30
0.0
 11
204.0
 21
432.74999999999989
 31
0.0
  0
LINE
  5
B8
  8
DATA
  6
CONTINUOUS
 62
     7
 10
140.0
 20
451.25
 30
0.0
 11
140.96048649376999
 21
451.25
 31
0.0
  0
LINE
  5
B9
  8
DATA
  6
CONTINUOUS
 62
     7
 10
170.9640138610022
 20
451.25
 30
0.0
 11
204.0
 21
451.25
 31
0.0
  0
LINE
  5
BA
  8
DATA
  6
CONTINUOUS
 62
     7
 10
144.5
 20
429.25
 30
0.0
 11
151.5
 21
429.25
 31
0.0
  0
LINE
  5
BB
  8
DATA
  6
CONTINUOUS
 62
     7
 10
192.5
 20
429.25
 30
0.0
 11
199.5
 21
429.25
 31
0.0
  0
LINE
  5
BC
  8
DATA
  6
CONTINUOUS
 62
     7
 10
144.5
 20
429.25
 30
0.0
 11
144.5
 21
431.25
 31
0.0
  0
LINE
  5
BD
  8
DATA
  6
CONTINUOUS
 62
     7
 10
151.5
 20
431.25
 30
0.0
 11
151.5
 21
429.25
 31
0.0
  0
LINE
  5
BE
  8
DATA
  6
CONTINUOUS
 62
     7
 10
192.5
 20
429.25
 30
0.0
 11
192.5
 21
431.25
 31
0.0
  0
LINE
  5
BF
  8
DATA
  6
CONTINUOUS
 62
     7
 10
199.5
 20
431.25
 30
0.0
 11
199.5
 21
429.25
 31
0.0
  0
LINE
  5
C0
  8
DATA
  6
CONTINUOUS
 62
     7
 10
137.5
 20
432.74999999999989
 30
0.0
 11
180.5
 21
432.74999999999989
 31
0.0
  0
LINE
  5
C1
  8
DATA
  6
CONTINUOUS
 62
     7
 10
187.0
 20
432.74999999999989
 30
0.0
 11
206.5
 21
432.74999999999989
 31
0.0
  0
LINE
  5
C2
  8
DATA
  6
CONTINUOUS
 62
     7
 10
137.5
 20
441.25
 30
0.0
 11
147.4622501773861
 21
441.25
 31
0.0
  0
LINE
  5
C3
  8
DATA
  6
CONTINUOUS
 62
     7
 10
164.4622501773861
 20
441.25
 30
0.0
 11
206.5
 21
441.25
 31
0.0
  0
LINE
  5
C4
  8
DATA
  6
CONTINUOUS
 62
     7
 10
137.5
 20
442.05000000000001
 30
0.0
 11
147.4622501773861
 21
442.05000000000001
 31
0.0
  0
LINE
  5
C5
  8
DATA
  6
CONTINUOUS
 62
     7
 10
164.4622501773861
 20
442.05000000000001
 30
0.0
 11
206.5
 21
442.05000000000001
 31
0.0
  0
POLYLINE
  5
C6
  8
DATA
  6
CONTINUOUS
 62
     7
 66
     1
 10
0.0
 20
0.0
 30
0.0
 70
     1
  0
VERTEX
  5
2B1
  8
DATA
  6
CONTINUOUS
 62
     7
 10
147.4622501773861
 20
450.88939687249263
 30
0.0
  0
VERTEX
  5
2B2
  8
DATA
  6
CONTINUOUS
 62
     7
 10
164.4622501773861
 20
450.88939687249263
 30
0.0
  0
VERTEX
  5
2B3
  8
DATA
  6
CONTINUOUS
 62
     7
 10
164.4622501773861
 20
436.88939687249251
 30
0.0
  0
VERTEX
  5
2B4
  8
DATA
  6
CONTINUOUS
 62
     7
 10
147.4622501773861
 20
436.88939687249251
 30
0.0
  0
SEQEND
  5
2B5
  8
DATA
  6
CONTINUOUS
 62
     7
  0
POLYLINE
  5
CD
  8
DATA
  6
CONTINUOUS
 62
     7
 66
     1
 10
0.0
 20
0.0
 30
0.0
 70
     1
  0
VERTEX
  5
2B6
  8
DATA
  6
CONTINUOUS
 62
     7
 10
149.81225017738609
 20
449.56041712724641
 30
0.0
  0
VERTEX
  5
2B7
  8
DATA
  6
CONTINUOUS
 62
     7
 10
162.1122501773861
 20
449.56041712724641
 30
0.0
  0
VERTEX
  5
2B8
  8
DATA
  6
CONTINUOUS
 62
     7
 10
162.1122501773861
 20
439.56041712724652
 30
0.0
  0
VERTEX
  5
2B9
  8
DATA
  6
CONTINUOUS
 62
     7
 10
149.81225017738609
 20
439.56041712724652
 30
0.0
  0
SEQEND
  5
2BA
  8
DATA
  6
CONTINUOUS
 62
     7
  0
LINE
  5
D4
  8
DATA
  6
CONTINUOUS
 62
     7
 10
144.27987458204649
 20
453.9993488189337
 30
0.0
 11
143.55856270512331
 21
452.74999999999989
 31
0.0
  0
ARC
  5
D5
  8
DATA
  6
CONTINUOUS
 62
     7
 10
146.8779507934004
 20
452.49934881893341
 30
0.0
 40
3.0000000000007629
 50
98.170506720919988
 51
150.00000000000031
  0
ARC
  5
D6
  8
DATA
  6
CONTINUOUS
 62
     7
 10
140.96048649376999
 20
454.25
 30
0.0
 40
2.999999999999992
 50
270.0
 51
330.00000000000028
  0
ARC
  5
D7
  8
DATA
  6
CONTINUOUS
 62
     7
 10
165.04654956137171
 20
452.49934881893341
 30
0.0
 40
3.000000000000743
 50
29.999999999999641
 51
81.829493279080026
  0
ARC
  5
D8
  8
DATA
  6
CONTINUOUS
 62
     7
 10
170.9640138610022
 20
454.25
 30
0.0
 40
2.999999999999992
 50
209.9999999999998
 51
270.0
  0
LINE
  5
D9
  8
DATA
  6
CONTINUOUS
 62
     7
 10
167.6446257727257
 20
453.9993488189337
 30
0.0
 11
168.36593764964891
 21
452.74999999999989
 31
0.0
  0
ARC
  5
DA
  8
DATA
  6
CONTINUOUS
 62
     7
 10
158.13525796388831
 20
371.50044704439728
 30
0.0
 40
84.777406713196285
 50
91.468761748990289
 51
97.921475183954811
  0
ARC
  5
DB
  8
DATA
  6
CONTINUOUS
 62
     7
 10
153.78924239088391
 20
371.50044704439728
 30
0.0
 40
84.777406713196285
 50
82.078524816045203
 51
88.531238251009725
  0
LINE
  5
DC
  8
DATA
  6
CONTINUOUS
 62
     7
 10
137.5
 20
454.05000000000001
 30
0.0
 11
144.3097839540647
 21
454.05000000000001
 31
0.0
  0
LINE
  5
DD
  8
DATA
  6
CONTINUOUS
 62
     7
 10
167.6147164007069
 20
454.05000000000001
 30
0.0
 11
206.5
 21
454.05000000000001
 31
0.0
  0
LINE
  5
DE
  8
DATA
  6
CONTINUOUS
 62
     7
 10
140.0
 20
451.25
 30
0.0
 11
137.5
 21
454.05000000000001
 31
0.0
  0
LINE
  5
DF
  8
DATA
  6
CONTINUOUS
 62
     7
 10
204.0
 20
451.25
 30
0.0
 11
206.5
 21
454.05000000000001
 31
0.0
  0
LINE
  5
E0
  8
DATA
  6
CONTINUOUS
 62
     7
 10
138.0
 20
441.25
 30
0.0
 11
138.0
 21
442.05000000000001
 31
0.0
  0
LINE
  5
E1
  8
DATA
  6
CONTINUOUS
 62
     7
 10
206.0
 20
441.25
 30
0.0
 11
206.0
 21
442.05000000000001
 31
0.0
  0
LINE
  5
E2
  8
DATA
  6
CONTINUOUS
 62
     7
 10
187.0
 20
433.25
 30
0.0
 11
187.0
 21
431.25
 31
0.0
  0
LINE
  5
E3
  8
DATA
  6
CONTINUOUS
 62
     7
 10
180.5
 20
433.25
 30
0.0
 11
180.5
 21
431.25
 31
0.0
  0
LINE
  5
E4
  8
DATA
  6
CONTINUOUS
 62
     7
 10
180.5
 20
433.25
 30
0.0
 11
187.0
 21
433.25
 31
0.0
  0
ARC
  5
E5
  8
DATA
  6
CONTINUOUS
 62
     7
 10
184.09605263157891
 20
441.01447368421032
 30
0.0
 40
9.2709344226593462
 50
254.0601890273673
 51
267.86084536592199
  0
ARC
  5
E6
  8
DATA
  6
CONTINUOUS
 62
     7
 10
183.403947368421
 20
441.01447368421032
 30
0.0
 40
9.2709344226593409
 50
272.13915463407801
 51
285.9398109726327
  0
LINE
  5
E7
  8
DATA
  6
CONTINUOUS
 62
     7
 10
181.55000000000001
 20
432.10000000000002
 30
0.0
 11
181.55000000000001
 21
433.25
 31
0.0
  0
LINE
  5
E8
  8
DATA
  6
CONTINUOUS
 62
     7
 10
185.94999999999999
 20
432.10000000000002
 30
0.0
 11
185.94999999999999
 21
433.25
 31
0.0
  0
ARC
  5
E9
  8
DATA
  6
CONTINUOUS
 62
     7
 10
794.97246220304226
 20
532.89254859611322
 30
0.0
 40
657.52602490492256
 50
180.73133329049881
 51
184.99872112918021
  0
ARC
  5
EA
  8
DATA
  6
CONTINUOUS
 62
     7
 10
-450.97246220304231
 20
532.89254859611322
 30
0.0
 40
657.52602490492256
 50
355.00127887081811
 51
359.2686667095013
  0
ARC
  5
EB
  8
DATA
  6
CONTINUOUS
 62
     7
 10
794.97246220304226
 20
516.10745140388667
 30
0.0
 40
657.52602490492256
 50
175.0166726901781
 51
179.26866670950119
  0
ARC
  5
EC
  8
DATA
  6
CONTINUOUS
 62
     7
 10
-450.97246220304231
 20
516.10745140388667
 30
0.0
 40
657.52602490492256
 50
0.7313332904988071
 51
4.9833273098245296
  0
LINE
  5
ED
  8
DATA
  6
CONTINUOUS
 62
     7
 10
145.72144941958439
 20
475.40324908818718
 30
0.0
 11
147.04574468112219
 21
500.30000000509648
 31
0.0
  0
ARC
  5
EE
  8
DATA
  6
CONTINUOUS
 62
     7
 10
161.3334821228201
 20
499.7488461181498
 30
0.0
 40
14.298363955786099
 50
112.0647152855317
 51
177.790892943188
  0
LINE
  5
EF
  8
DATA
  6
CONTINUOUS
 62
     7
 10
166.22346413860649
 20
475.01948086391428
 30
0.0
 11
164.87875567365001
 21
500.30000000509648
 31
0.0
  0
ARC
  5
F0
  8
DATA
  6
CONTINUOUS
 62
     7
 10
150.59101823195209
 20
499.7488461181498
 30
0.0
 40
14.29836395578609
 50
2.2091070568120159
 51
67.935284714468324
  0
ARC
  5
F1
  8
DATA
  6
CONTINUOUS
 62
     7
 10
221.9410430669075
 20
510.69999999999999
 30
0.0
 40
43.5138888888889
 50
180.0
 51
211.5807820554906
  0
ARC
  5
F2
  8
DATA
  6
CONTINUOUS
 62
     7
 10
152.9132652891297
 20
510.69999999999999
 30
0.0
 40
43.513888888888893
 50
328.41921794450951
 51
0.0
  0
LINE
  5
F3
  8
DATA
  6
CONTINUOUS
 62
     7
 10
137.5
 20
306.2499999996902
 30
0.0
 11
137.5
 21
318.24999999969032
 31
0.0
  0
LINE
  5
F4
  8
DATA
  6
CONTINUOUS
 62
     7
 10
137.5
 20
319.04999999969027
 30
0.0
 11
137.5
 21
327.54999999969027
 31
0.0
  0
LINE
  5
F5
  8
DATA
  6
CONTINUOUS
 62
     7
 10
141.5
 20
329.04999999969027
 30
0.0
 11
202.5
 21
329.04999999969027
 31
0.0
  0
LINE
  5
F6
  8
DATA
  6
CONTINUOUS
 62
     7
 10
206.5
 20
327.54999999969027
 30
0.0
 11
206.5
 21
319.04999999969027
 31
0.0
  0
LINE
  5
F7
  8
DATA
  6
CONTINUOUS
 62
     7
 10
206.5
 20
318.24999999969032
 30
0.0
 11
206.5
 21
306.2499999996902
 31
0.0
  0
LINE
  5
F8
  8
DATA
  6
CONTINUOUS
 62
     7
 10
140.0
 20
327.54999999969027
 30
0.0
 11
140.0
 21
319.04999999969027
 31
0.0
  0
LINE
  5
F9
  8
DATA
  6
CONTINUOUS
 62
     7
 10
140.0
 20
318.24999999969032
 30
0.0
 11
140.0
 21
309.04999999969027
 31
0.0
  0
LINE
  5
FA
  8
DATA
  6
CONTINUOUS
 62
     7
 10
204.0
 20
309.04999999969027
 30
0.0
 11
204.0
 21
318.24999999969032
 31
0.0
  0
LINE
  5
FB
  8
DATA
  6
CONTINUOUS
 62
     7
 10
204.0
 20
319.04999999969027
 30
0.0
 11
204.0
 21
327.54999999969027
 31
0.0
  0
LINE
  5
FC
  8
DATA
  6
CONTINUOUS
 62
     7
 10
201.4500000000001
 20
309.04999999969027
 30
0.0
 11
204.0
 21
309.04999999969027
 31
0.0
  0
LINE
  5
FD
  8
DATA
  6
CONTINUOUS
 62
     7
 10
144.5
 20
331.04999999969027
 30
0.0
 11
151.5
 21
331.04999999969027
 31
0.0
  0
LINE
  5
FE
  8
DATA
  6
CONTINUOUS
 62
     7
 10
192.5
 20
331.04999999969027
 30
0.0
 11
199.5
 21
331.04999999969027
 31
0.0
  0
LINE
  5
FF
  8
DATA
  6
CONTINUOUS
 62
     7
 10
144.5
 20
331.04999999969027
 30
0.0
 11
144.5
 21
329.04999999969027
 31
0.0
  0
LINE
  5
100
  8
DATA
  6
CONTINUOUS
 62
     7
 10
151.5
 20
329.04999999969027
 30
0.0
 11
151.5
 21
331.04999999969027
 31
0.0
  0
LINE
  5
101
  8
DATA
  6
CONTINUOUS
 62
     7
 10
192.5
 20
331.04999999969027
 30
0.0
 11
192.5
 21
329.04999999969027
 31
0.0
  0
LINE
  5
102
  8
DATA
  6
CONTINUOUS
 62
     7
 10
199.5
 20
329.04999999969027
 30
0.0
 11
199.5
 21
331.04999999969027
 31
0.0
  0
LINE
  5
103
  8
DATA
  6
CONTINUOUS
 62
     7
 10
137.5
 20
327.54999999969027
 30
0.0
 11
154.26900426129961
 21
327.54999999969027
 31
0.0
  0
LINE
  5
104
  8
DATA
  6
CONTINUOUS
 62
     7
 10
160.76900426129961
 20
327.54999999969027
 30
0.0
 11
206.5
 21
327.54999999969027
 31
0.0
  0
LINE
  5
105
  8
DATA
  6
CONTINUOUS
 62
     7
 10
137.5
 20
319.04999999969027
 30
0.0
 11
185.1483283968802
 21
319.04999999969027
 31
0.0
  0
LINE
  5
106
  8
DATA
  6
CONTINUOUS
 62
     7
 10
197.64832839688009
 20
319.04999999969027
 30
0.0
 11
206.5
 21
319.04999999969027
 31
0.0
  0
LINE
  5
107
  8
DATA
  6
CONTINUOUS
 62
     7
 10
137.5
 20
318.24999999969032
 30
0.0
 11
185.1483283968802
 21
318.24999999969032
 31
0.0
  0
LINE
  5
108
  8
DATA
  6
CONTINUOUS
 62
     7
 10
197.64832839688009
 20
318.24999999969032
 30
0.0
 11
206.5
 21
318.24999999969032
 31
0.0
  0
LINE
  5
109
  8
DATA
  6
CONTINUOUS
 62
     7
 10
140.0
 20
309.04999999969027
 30
0.0
 11
137.5
 21
306.2499999996902
 31
0.0
  0
LINE
  5
10A
  8
DATA
  6
CONTINUOUS
 62
     7
 10
204.0
 20
309.04999999969027
 30
0.0
 11
206.5
 21
306.2499999996902
 31
0.0
  0
LINE
  5
10B
  8
DATA
  6
CONTINUOUS
 62
     7
 10
138.0
 20
319.04999999969027
 30
0.0
 11
138.0
 21
318.24999999969032
 31
0.0
  0
LINE
  5
10C
  8
DATA
  6
CONTINUOUS
 62
     7
 10
206.0
 20
319.04999999969027
 30
0.0
 11
206.0
 21
318.24999999969032
 31
0.0
  0
LINE
  5
10D
  8
DATA
  6
CONTINUOUS
 62
     7
 10
160.76900426129961
 20
327.04999999969027
 30
0.0
 11
160.76900426129961
 21
329.04999999969027
 31
0.0
  0
LINE
  5
10E
  8
DATA
  6
CONTINUOUS
 62
     7
 10
154.26900426129961
 20
327.04999999969027
 30
0.0
 11
154.26900426129961
 21
329.04999999969027
 31
0.0
  0
LINE
  5
10F
  8
DATA
  6
CONTINUOUS
 62
     7
 10
154.26900426129961
 20
327.04999999969027
 30
0.0
 11
160.76900426129961
 21
327.04999999969027
 31
0.0
  0
ARC
  5
110
  8
DATA
  6
CONTINUOUS
 62
     7
 10
157.86505689287861
 20
319.28552631547979
 30
0.0
 40
9.2709344226593622
 50
92.139154634078011
 51
105.9398109726327
  0
ARC
  5
111
  8
DATA
  6
CONTINUOUS
 62
     7
 10
157.1729516297207
 20
319.28552631547979
 30
0.0
 40
9.2709344226593462
 50
74.060189027367301
 51
87.860845365921975
  0
LINE
  5
112
  8
DATA
  6
CONTINUOUS
 62
     7
 10
155.3190042612996
 20
328.19999999969019
 30
0.0
 11
155.3190042612996
 21
327.04999999969027
 31
0.0
  0
LINE
  5
113
  8
DATA
  6
CONTINUOUS
 62
     7
 10
159.7190042612996
 20
328.19999999969019
 30
0.0
 11
159.7190042612996
 21
327.04999999969027
 31
0.0
  0
ARC
  5
114
  8
DATA
  6
CONTINUOUS
 62
     7
 10
187.42715417801861
 20
489.48286855706772
 30
0.0
 40
2.9999999999999818
 50
211.58078205548941
 51
328.41921794451019
  0
ARC
  5
115
  8
DATA
  6
CONTINUOUS
 62
     7
 10
221.9410430669075
 20
510.69999999999999
 30
0.0
 40
43.5138888888889
 50
148.4192179445094
 51
180.0
  0
ARC
  5
116
  8
DATA
  6
CONTINUOUS
 62
     7
 10
152.9132652891297
 20
510.69999999999999
 30
0.0
 40
43.513888888888893
 50
0.0
 51
31.580782055490491
  0
ARC
  5
117
  8
DATA
  6
CONTINUOUS
 62
     7
 10
187.42715417801861
 20
531.91713144293237
 30
0.0
 40
2.9999999999999578
 50
31.58078205548977
 51
148.41921794451051
  0
LINE
  5
118
  8
DATA
  6
CONTINUOUS
 62
     7
 10
137.5
 20
306.2499999996902
 30
0.0
 11
188.16878855414879
 21
306.2499999996902
 31
0.0
  0
LINE
  5
119
  8
DATA
  6
CONTINUOUS
 62
     7
 10
194.83121144585121
 20
306.2499999996902
 30
0.0
 11
206.44999999999999
 21
306.2499999996902
 31
0.0
  0
LINE
  5
11A
  8
DATA
  6
CONTINUOUS
 62
     7
 10
141.5
 20
431.25
 30
0.0
 11
137.5
 21
432.74999999999989
 31
0.0
  0
LINE
  5
11B
  8
DATA
  6
CONTINUOUS
 62
     7
 10
202.5
 20
431.25
 30
0.0
 11
206.5
 21
432.74999999999989
 31
0.0
  0
LINE
  5
11C
  8
DATA
  6
CONTINUOUS
 62
     7
 10
141.5
 20
329.04999999969027
 30
0.0
 11
137.5
 21
327.54999999969027
 31
0.0
  0
LINE
  5
11D
  8
DATA
  6
CONTINUOUS
 62
     7
 10
206.5
 20
327.54999999969027
 30
0.0
 11
202.5
 21
329.04999999969027
 31
0.0
  0
LINE
  5
11E
  8
DATA
  6
CONTINUOUS
 62
     7
 10
197.64832839688009
 20
326.60117833496741
 30
0.0
 11
197.64832839688009
 21
321.5011783349679
 31
0.0
  0
LINE
  5
11F
  8
DATA
  6
CONTINUOUS
 62
     7
 10
185.1483283968802
 20
321.5011783349679
 30
0.0
 11
185.1483283968802
 21
326.60117833496741
 31
0.0
  0
LINE
  5
120
  8
DATA
  6
CONTINUOUS
 62
     7
 10
197.64832839688009
 20
321.5011783349679
 30
0.0
 11
185.1483283968802
 21
321.5011783349679
 31
0.0
  0
LINE
  5
121
  8
DATA
  6
CONTINUOUS
 62
     7
 10
197.64832839688009
 20
326.60117833496741
 30
0.0
 11
185.1483283968802
 21
326.60117833496741
 31
0.0
  0
LINE
  5
122
  8
DATA
  6
CONTINUOUS
 62
     7
 10
197.14832839688009
 20
324.20117833496772
 30
0.0
 11
185.64832839688009
 21
324.20117833496772
 31
0.0
  0
LINE
  5
123
  8
DATA
  6
CONTINUOUS
 62
     7
 10
197.14832839688009
 20
322.90117833496782
 30
0.0
 11
185.64832839688009
 21
322.90117833496782
 31
0.0
  0
LINE
  5
124
  8
DATA
  6
CONTINUOUS
 62
     7
 10
191.98618408752441
 20
324.20117833486768
 30
0.0
 11
191.98618408752441
 21
324.27617833486772
 31
0.0
  0
LINE
  5
125
  8
DATA
  6
CONTINUOUS
 62
     7
 10
193.23618408752441
 20
324.20117833486768
 30
0.0
 11
193.23618408752441
 21
324.27617833486772
 31
0.0
  0
LINE
  5
126
  8
DATA
  6
CONTINUOUS
 62
     7
 10
193.23618408752441
 20
324.27617833486772
 30
0.0
 11
191.98618408752441
 21
324.27617833486772
 31
0.0
  0
LINE
  5
127
  8
DATA
  6
CONTINUOUS
 62
     7
 10
190.81047270623569
 20
324.20117833486768
 30
0.0
 11
190.81047270623569
 21
324.27617833486772
 31
0.0
  0
LINE
  5
128
  8
DATA
  6
CONTINUOUS
 62
     7
 10
189.56047270623569
 20
324.20117833486768
 30
0.0
 11
189.56047270623569
 21
324.27617833486772
 31
0.0
  0
LINE
  5
129
  8
DATA
  6
CONTINUOUS
 62
     7
 10
189.56047270623569
 20
324.27617833486772
 30
0.0
 11
190.81047270623569
 21
324.27617833486772
 31
0.0
  0
LINE
  5
12A
  8
DATA
  6
CONTINUOUS
 62
     7
 10
194.40618408752439
 20
324.20117833486768
 30
0.0
 11
194.40618408752439
 21
324.27617833486772
 31
0.0
  0
LINE
  5
12B
  8
DATA
  6
CONTINUOUS
 62
     7
 10
195.65618408752439
 20
324.20117833486768
 30
0.0
 11
195.65618408752439
 21
324.27617833486772
 31
0.0
  0
LINE
  5
12C
  8
DATA
  6
CONTINUOUS
 62
     7
 10
195.65618408752439
 20
324.27617833486772
 30
0.0
 11
194.40618408752439
 21
324.27617833486772
 31
0.0
  0
LINE
  5
12D
  8
DATA
  6
CONTINUOUS
 62
     7
 10
188.39047270623581
 20
324.20117833486768
 30
0.0
 11
188.39047270623581
 21
324.27617833486772
 31
0.0
  0
LINE
  5
12E
  8
DATA
  6
CONTINUOUS
 62
     7
 10
187.14047270623581
 20
324.20117833486768
 30
0.0
 11
187.14047270623581
 21
324.27617833486772
 31
0.0
  0
LINE
  5
12F
  8
DATA
  6
CONTINUOUS
 62
     7
 10
187.14047270623581
 20
324.27617833486772
 30
0.0
 11
188.39047270623581
 21
324.27617833486772
 31
0.0
  0
LINE
  5
130
  8
DATA
  6
CONTINUOUS
 62
     7
 10
197.14832839688009
 20
324.20117833496772
 30
0.0
 11
197.14832839688009
 21
322.90117833496782
 31
0.0
  0
LINE
  5
131
  8
DATA
  6
CONTINUOUS
 62
     7
 10
185.64832839688009
 20
324.20117833496772
 30
0.0
 11
185.64832839688009
 21
322.90117833496782
 31
0.0
  0
LINE
  5
132
  8
DATA
  6
CONTINUOUS
 62
     7
 10
197.64832839688009
 20
317.59291960323441
 30
0.0
 11
197.64832839688009
 21
312.49291960323478
 31
0.0
  0
LINE
  5
133
  8
DATA
  6
CONTINUOUS
 62
     7
 10
185.1483283968802
 20
312.49291960323478
 30
0.0
 11
185.1483283968802
 21
317.59291960323441
 31
0.0
  0
LINE
  5
134
  8
DATA
  6
CONTINUOUS
 62
     7
 10
197.64832839688009
 20
312.49291960323478
 30
0.0
 11
185.1483283968802
 21
312.49291960323478
 31
0.0
  0
LINE
  5
135
  8
DATA
  6
CONTINUOUS
 62
     7
 10
197.64832839688009
 20
317.59291960323441
 30
0.0
 11
185.1483283968802
 21
317.59291960323441
 31
0.0
  0
LINE
  5
136
  8
DATA
  6
CONTINUOUS
 62
     7
 10
197.14832839688009
 20
315.19291960323471
 30
0.0
 11
185.64832839688009
 21
315.19291960323471
 31
0.0
  0
LINE
  5
137
  8
DATA
  6
CONTINUOUS
 62
     7
 10
197.14832839688009
 20
313.89291960323482
 30
0.0
 11
185.64832839688009
 21
313.89291960323482
 31
0.0
  0
LINE
  5
138
  8
DATA
  6
CONTINUOUS
 62
     7
 10
191.98618408752441
 20
315.19291960313473
 30
0.0
 11
191.98618408752441
 21
315.2679196031346
 31
0.0
  0
LINE
  5
139
  8
DATA
  6
CONTINUOUS
 62
     7
 10
193.23618408752441
 20
315.19291960313473
 30
0.0
 11
193.23618408752441
 21
315.2679196031346
 31
0.0
  0
LINE
  5
13A
  8
DATA
  6
CONTINUOUS
 62
     7
 10
193.23618408752441
 20
315.2679196031346
 30
0.0
 11
191.98618408752441
 21
315.2679196031346
 31
0.0
  0
LINE
  5
13B
  8
DATA
  6
CONTINUOUS
 62
     7
 10
190.81047270623569
 20
315.19291960313473
 30
0.0
 11
190.81047270623569
 21
315.2679196031346
 31
0.0
  0
LINE
  5
13C
  8
DATA
  6
CONTINUOUS
 62
     7
 10
189.56047270623569
 20
315.19291960313473
 30
0.0
 11
189.56047270623569
 21
315.2679196031346
 31
0.0
  0
LINE
  5
13D
  8
DATA
  6
CONTINUOUS
 62
     7
 10
189.56047270623569
 20
315.2679196031346
 30
0.0
 11
190.81047270623569
 21
315.2679196031346
 31
0.0
  0
LINE
  5
13E
  8
DATA
  6
CONTINUOUS
 62
     7
 10
194.40618408752439
 20
315.19291960313473
 30
0.0
 11
194.40618408752439
 21
315.2679196031346
 31
0.0
  0
LINE
  5
13F
  8
DATA
  6
CONTINUOUS
 62
     7
 10
195.65618408752439
 20
315.19291960313473
 30
0.0
 11
195.65618408752439
 21
315.2679196031346
 31
0.0
  0
LINE
  5
140
  8
DATA
  6
CONTINUOUS
 62
     7
 10
195.65618408752439
 20
315.2679196031346
 30
0.0
 11
194.40618408752439
 21
315.2679196031346
 31
0.0
  0
LINE
  5
141
  8
DATA
  6
CONTINUOUS
 62
     7
 10
188.39047270623581
 20
315.19291960313473
 30
0.0
 11
188.39047270623581
 21
315.2679196031346
 31
0.0
  0
LINE
  5
142
  8
DATA
  6
CONTINUOUS
 62
     7
 10
187.14047270623581
 20
315.19291960313473
 30
0.0
 11
187.14047270623581
 21
315.2679196031346
 31
0.0
  0
LINE
  5
143
  8
DATA
  6
CONTINUOUS
 62
     7
 10
187.14047270623581
 20
315.2679196031346
 30
0.0
 11
188.39047270623581
 21
315.2679196031346
 31
0.0
  0
LINE
  5
144
  8
DATA
  6
CONTINUOUS
 62
     7
 10
197.14832839688009
 20
315.19291960323471
 30
0.0
 11
197.14832839688009
 21
313.89291960323482
 31
0.0
  0
LINE
  5
145
  8
DATA
  6
CONTINUOUS
 62
     7
 10
185.64832839688009
 20
315.19291960323471
 30
0.0
 11
185.64832839688009
 21
313.89291960323482
 31
0.0
  0
LINE
  5
146
  8
DATA
  6
CONTINUOUS
 62
     7
 10
185.1483283968802
 20
317.59291960323441
 30
0.0
 11
185.1483283968802
 21
321.5
 31
0.0
  0
LINE
  5
147
  8
DATA
  6
CONTINUOUS
 62
     7
 10
197.64832839688009
 20
317.59291960323441
 30
0.0
 11
197.64832839688009
 21
321.5011783349679
 31
0.0
  0
ARC
  5
148
  8
DATA
  6
CONTINUOUS
 62
     7
 10
191.5
 20
317.09696969665993
 30
0.0
 40
11.34696969696968
 50
230.4315328563697
 51
309.56846714363019
  0
ARC
  5
149
  8
DATA
  6
CONTINUOUS
 62
     7
 10
181.24184930379391
 20
302.20946567504677
 30
0.0
 40
6.8474715551215404
 50
63.73531812042043
 51
87.420697696626306
  0
ARC
  5
14A
  8
DATA
  6
CONTINUOUS
 62
     7
 10
201.758150696206
 20
302.20946567504677
 30
0.0
 40
6.8474715551215644
 50
92.579302303373723
 51
116.2646818795796
  0
LINE
  5
14B
  8
DATA
  6
CONTINUOUS
 62
     7
 10
181.55000000000001
 20
309.04999999969027
 30
0.0
 11
140.0
 21
309.04999999969027
 31
0.0
  0
ARC
  5
14C
  8
DATA
  6
CONTINUOUS
 62
     7
 10
172.00000000000011
 20
-89.003042732914736
 30
0.0
 40
663.00304273291465
 50
87.227636498035025
 51
92.772363501964946
  0
ARC
  5
14D
  8
DATA
  6
CONTINUOUS
 62
     7
 10
172.0
 20
1331.449339462273
 30
0.0
 40
856.44933946227309
 50
267.8551951962416
 51
272.1448048037584
  0
LINE
  5
14E
  8
DATA
  6
CONTINUOUS
 62
     7
 10
185.1483283968802
 20
574.0
 30
0.0
 11
185.1483283968802
 21
573.86961180449396
 31
0.0
  0
LINE
  5
14F
  8
DATA
  6
CONTINUOUS
 62
     7
 10
197.64832839688009
 20
574.0
 30
0.0
 11
197.64832839688009
 21
573.50371038251501
 31
0.0
  0
LINE
  5
150
  8
DATA
  6
CONTINUOUS
 62
     7
 10
185.1483283968802
 20
574.0
 30
0.0
 11
197.64832839688009
 21
574.0
 31
0.0
  0
LINE
  5
151
  8
DATA
  6
CONTINUOUS
 62
     7
 10
254.0
 20
431.25
 30
0.0
 11
345.0
 21
431.25
 31
0.0
  0
LINE
  5
152
  8
DATA
  6
CONTINUOUS
 62
     7
 10
250.0
 20
432.74999999999989
 30
0.0
 11
250.0
 21
441.25
 31
0.0
  0
LINE
  5
153
  8
DATA
  6
CONTINUOUS
 62
     7
 10
250.0
 20
442.05000000000001
 30
0.0
 11
250.0
 21
456.25
 31
0.0
  0
LINE
  5
154
  8
DATA
  6
CONTINUOUS
 62
     7
 10
349.0
 20
432.74999999999989
 30
0.0
 11
349.0
 21
441.25
 31
0.0
  0
LINE
  5
155
  8
DATA
  6
CONTINUOUS
 62
     7
 10
349.0
 20
442.05000000000001
 30
0.0
 11
349.0
 21
454.55000000000001
 31
0.0
  0
LINE
  5
156
  8
DATA
  6
CONTINUOUS
 62
     7
 10
255.0
 20
429.25
 30
0.0
 11
262.0
 21
429.25
 31
0.0
  0
LINE
  5
157
  8
DATA
  6
CONTINUOUS
 62
     7
 10
255.0
 20
429.25
 30
0.0
 11
255.0
 21
431.25
 31
0.0
  0
LINE
  5
158
  8
DATA
  6
CONTINUOUS
 62
     7
 10
262.0
 20
431.25
 30
0.0
 11
262.0
 21
429.25
 31
0.0
  0
LINE
  5
159
  8
DATA
  6
CONTINUOUS
 62
     7
 10
337.0
 20
429.25
 30
0.0
 11
344.0
 21
429.25
 31
0.0
  0
LINE
  5
15A
  8
DATA
  6
CONTINUOUS
 62
     7
 10
337.0
 20
429.25
 30
0.0
 11
337.0
 21
431.25
 31
0.0
  0
LINE
  5
15B
  8
DATA
  6
CONTINUOUS
 62
     7
 10
344.0
 20
431.25
 30
0.0
 11
344.0
 21
429.25
 31
0.0
  0
LINE
  5
15C
  8
DATA
  6
CONTINUOUS
 62
     7
 10
250.0
 20
441.25
 30
0.0
 11
349.0
 21
441.25
 31
0.0
  0
LINE
  5
15D
  8
DATA
  6
CONTINUOUS
 62
     7
 10
250.0
 20
442.05000000000001
 30
0.0
 11
349.0
 21
442.05000000000001
 31
0.0
  0
LINE
  5
15E
  8
DATA
  6
CONTINUOUS
 62
     7
 10
250.5
 20
441.25
 30
0.0
 11
250.5
 21
442.05000000000001
 31
0.0
  0
LINE
  5
15F
  8
DATA
  6
CONTINUOUS
 62
     7
 10
348.5
 20
441.25
 30
0.0
 11
348.5
 21
442.05000000000001
 31
0.0
  0
LINE
  5
160
  8
DATA
  6
CONTINUOUS
 62
     6
 10
346.90000000000009
 20
454.55000000000001
 30
0.0
 11
349.0
 21
454.55000000000001
 31
0.0
  0
ARC
  5
161
  8
DATA
  6
CONTINUOUS
 62
     7
 10
596.67200000019193
 20
5413.5570000035423
 30
0.0
 40
4965.6873746409183
 50
266.6707933204392
 51
267.14109056172651
  0
LINE
  5
162
  8
DATA
  6
CONTINUOUS
 62
     7
 10
294.5
 20
456.25
 30
0.0
 11
308.300000000002
 21
456.25
 31
0.0
  0
ARC
  5
163
  8
DATA
  6
CONTINUOUS
 62
     7
 10
301.69512195121519
 20
-12.48353658531169
 30
0.0
 40
469.38888609803001
 50
93.028016669654704
 51
96.322972144691903
  0
LINE
  5
164
  8
DATA
  6
CONTINUOUS
 62
     7
 10
276.90000000000009
 20
456.25
 30
0.0
 11
294.5
 21
456.25
 31
0.0
  0
LINE
  5
165
  8
DATA
  6
CONTINUOUS
 62
     7
 10
250.0
 20
456.25
 30
0.0
 11
277.30000000000001
 21
456.25
 31
0.0
  0
LINE
  5
166
  8
DATA
  6
CONTINUOUS
 62
     7
 10
349.0
 20
454.55000000000001
 30
0.0
 11
339.18282239440879
 21
454.55000000000001
 31
0.0
  0
LINE
  5
167
  8
DATA
  6
CONTINUOUS
 62
     7
 10
137.5
 20
172.80000000000001
 30
0.0
 11
137.5
 21
160.80000000000001
 31
0.0
  0
LINE
  5
168
  8
DATA
  6
CONTINUOUS
 62
     7
 10
137.5
 20
160.0
 30
0.0
 11
137.5
 21
151.5
 31
0.0
  0
LINE
  5
169
  8
DATA
  6
CONTINUOUS
 62
     7
 10
141.5
 20
150.0
 30
0.0
 11
202.5
 21
150.0
 31
0.0
  0
LINE
  5
16A
  8
DATA
  6
CONTINUOUS
 62
     7
 10
206.5
 20
151.5
 30
0.0
 11
206.5
 21
160.0
 31
0.0
  0
LINE
  5
16B
  8
DATA
  6
CONTINUOUS
 62
     7
 10
206.5
 20
160.80000000000001
 30
0.0
 11
206.5
 21
172.80000000000001
 31
0.0
  0
LINE
  5
16C
  8
DATA
  6
CONTINUOUS
 62
     7
 10
140.0
 20
151.5
 30
0.0
 11
140.0
 21
160.0
 31
0.0
  0
LINE
  5
16D
  8
DATA
  6
CONTINUOUS
 62
     7
 10
140.0
 20
160.80000000000001
 30
0.0
 11
140.0
 21
170.0
 31
0.0
  0
LINE
  5
16E
  8
DATA
  6
CONTINUOUS
 62
     7
 10
204.0
 20
170.0
 30
0.0
 11
204.0
 21
160.80000000000001
 31
0.0
  0
LINE
  5
16F
  8
DATA
  6
CONTINUOUS
 62
     7
 10
204.0
 20
160.0
 30
0.0
 11
204.0
 21
151.5
 31
0.0
  0
LINE
  5
170
  8
DATA
  6
CONTINUOUS
 62
     7
 10
140.0
 20
170.0
 30
0.0
 11
140.96048649376999
 21
170.0
 31
0.0
  0
LINE
  5
171
  8
DATA
  6
CONTINUOUS
 62
     7
 10
170.9640138610022
 20
170.0
 30
0.0
 11
204.0
 21
170.0
 31
0.0
  0
LINE
  5
172
  8
DATA
  6
CONTINUOUS
 62
     7
 10
144.5
 20
148.0
 30
0.0
 11
151.5
 21
148.0
 31
0.0
  0
LINE
  5
173
  8
DATA
  6
CONTINUOUS
 62
     7
 10
192.5
 20
148.0
 30
0.0
 11
199.5
 21
148.0
 31
0.0
  0
LINE
  5
174
  8
DATA
  6
CONTINUOUS
 62
     7
 10
144.5
 20
148.0
 30
0.0
 11
144.5
 21
150.0
 31
0.0
  0
LINE
  5
175
  8
DATA
  6
CONTINUOUS
 62
     7
 10
151.5
 20
150.0
 30
0.0
 11
151.5
 21
148.0
 31
0.0
  0
LINE
  5
176
  8
DATA
  6
CONTINUOUS
 62
     7
 10
192.5
 20
148.0
 30
0.0
 11
192.5
 21
150.0
 31
0.0
  0
LINE
  5
177
  8
DATA
  6
CONTINUOUS
 62
     7
 10
199.5
 20
150.0
 30
0.0
 11
199.5
 21
148.0
 31
0.0
  0
LINE
  5
178
  8
DATA
  6
CONTINUOUS
 62
     7
 10
137.5
 20
151.5
 30
0.0
 11
180.5
 21
151.5
 31
0.0
  0
LINE
  5
179
  8
DATA
  6
CONTINUOUS
 62
     7
 10
187.0
 20
151.5
 30
0.0
 11
206.5
 21
151.5
 31
0.0
  0
LINE
  5
17A
  8
DATA
  6
CONTINUOUS
 62
     7
 10
137.5
 20
160.0
 30
0.0
 11
147.4622501773861
 21
160.0
 31
0.0
  0
LINE
  5
17B
  8
DATA
  6
CONTINUOUS
 62
     7
 10
164.4622501773861
 20
160.0
 30
0.0
 11
206.5
 21
160.0
 31
0.0
  0
LINE
  5
17C
  8
DATA
  6
CONTINUOUS
 62
     7
 10
137.5
 20
160.80000000000001
 30
0.0
 11
147.4622501773861
 21
160.80000000000001
 31
0.0
  0
LINE
  5
17D
  8
DATA
  6
CONTINUOUS
 62
     7
 10
164.4622501773861
 20
160.80000000000001
 30
0.0
 11
206.5
 21
160.80000000000001
 31
0.0
  0
POLYLINE
  5
17E
  8
DATA
  6
CONTINUOUS
 62
     7
 66
     1
 10
0.0
 20
0.0
 30
0.0
 70
     1
  0
VERTEX
  5
2BB
  8
DATA
  6
CONTINUOUS
 62
     7
 10
147.4622501773861
 20
169.6393968724926
 30
0.0
  0
VERTEX
  5
2BC
  8
DATA
  6
CONTINUOUS
 62
     7
 10
164.4622501773861
 20
169.6393968724926
 30
0.0
  0
VERTEX
  5
2BD
  8
DATA
  6
CONTINUOUS
 62
     7
 10
164.4622501773861
 20
155.63939687249251
 30
0.0
  0
VERTEX
  5
2BE
  8
DATA
  6
CONTINUOUS
 62
     7
 10
147.4622501773861
 20
155.63939687249251
 30
0.0
  0
SEQEND
  5
2BF
  8
DATA
  6
CONTINUOUS
 62
     7
  0
POLYLINE
  5
185
  8
DATA
  6
CONTINUOUS
 62
     7
 66
     1
 10
0.0
 20
0.0
 30
0.0
 70
     1
  0
VERTEX
  5
2C0
  8
DATA
  6
CONTINUOUS
 62
     7
 10
149.81225017738609
 20
168.31041712724641
 30
0.0
  0
VERTEX
  5
2C1
  8
DATA
  6
CONTINUOUS
 62
     7
 10
162.1122501773861
 20
168.31041712724641
 30
0.0
  0
VERTEX
  5
2C2
  8
DATA
  6
CONTINUOUS
 62
     7
 10
162.1122501773861
 20
158.31041712724641
 30
0.0
  0
VERTEX
  5
2C3
  8
DATA
  6
CONTINUOUS
 62
     7
 10
149.81225017738609
 20
158.31041712724641
 30
0.0
  0
SEQEND
  5
2C4
  8
DATA
  6
CONTINUOUS
 62
     7
  0
LINE
  5
18C
  8
DATA
  6
CONTINUOUS
 62
     7
 10
144.27987458204649
 20
172.74934881893381
 30
0.0
 11
143.55856270512331
 21
171.5
 31
0.0
  0
ARC
  5
18D
  8
DATA
  6
CONTINUOUS
 62
     7
 10
146.8779507934004
 20
171.2493488189335
 30
0.0
 40
3.0000000000007909
 50
98.170506720919946
 51
150.00000000000011
  0
ARC
  5
18E
  8
DATA
  6
CONTINUOUS
 62
     7
 10
140.96048649376999
 20
173.0
 30
0.0
 40
3.0
 50
270.0
 51
329.99999999999989
  0
ARC
  5
18F
  8
DATA
  6
CONTINUOUS
 62
     7
 10
165.04654956137171
 20
171.2493488189335
 30
0.0
 40
3.000000000000751
 50
29.999999999999869
 51
81.829493279080097
  0
ARC
  5
190
  8
DATA
  6
CONTINUOUS
 62
     7
 10
170.9640138610022
 20
173.0
 30
0.0
 40
3.0
 50
210.0
 51
270.0
  0
LINE
  5
191
  8
DATA
  6
CONTINUOUS
 62
     7
 10
167.6446257727257
 20
172.74934881893381
 30
0.0
 11
168.36593764964891
 21
171.5
 31
0.0
  0
ARC
  5
192
  8
DATA
  6
CONTINUOUS
 62
     7
 10
158.13525796388831
 20
90.250447044397319
 30
0.0
 40
84.777406713196285
 50
91.468761748990289
 51
97.921475183954811
  0
ARC
  5
193
  8
DATA
  6
CONTINUOUS
 62
     7
 10
153.78924239088391
 20
90.250447044397319
 30
0.0
 40
84.777406713196285
 50
82.078524816045203
 51
88.531238251009725
  0
LINE
  5
194
  8
DATA
  6
CONTINUOUS
 62
     7
 10
137.5
 20
172.80000000000001
 30
0.0
 11
144.3097839540647
 21
172.80000000000001
 31
0.0
  0
LINE
  5
195
  8
DATA
  6
CONTINUOUS
 62
     7
 10
167.6147164007069
 20
172.80000000000001
 30
0.0
 11
206.5
 21
172.80000000000001
 31
0.0
  0
LINE
  5
196
  8
DATA
  6
CONTINUOUS
 62
     7
 10
140.0
 20
170.0
 30
0.0
 11
137.5
 21
172.80000000000001
 31
0.0
  0
LINE
  5
197
  8
DATA
  6
CONTINUOUS
 62
     7
 10
204.0
 20
170.0
 30
0.0
 11
206.5
 21
172.80000000000001
 31
0.0
  0
LINE
  5
198
  8
DATA
  6
CONTINUOUS
 62
     7
 10
138.0
 20
160.0
 30
0.0
 11
138.0
 21
160.80000000000001
 31
0.0
  0
LINE
  5
199
  8
DATA
  6
CONTINUOUS
 62
     7
 10
206.0
 20
160.0
 30
0.0
 11
206.0
 21
160.80000000000001
 31
0.0
  0
LINE
  5
19A
  8
DATA
  6
CONTINUOUS
 62
     7
 10
187.0
 20
152.0
 30
0.0
 11
187.0
 21
150.0
 31
0.0
  0
LINE
  5
19B
  8
DATA
  6
CONTINUOUS
 62
     7
 10
180.5
 20
152.0
 30
0.0
 11
180.5
 21
150.0
 31
0.0
  0
LINE
  5
19C
  8
DATA
  6
CONTINUOUS
 62
     7
 10
180.5
 20
152.0
 30
0.0
 11
187.0
 21
152.0
 31
0.0
  0
ARC
  5
19D
  8
DATA
  6
CONTINUOUS
 62
     7
 10
184.09605263157891
 20
159.7644736842104
 30
0.0
 40
9.2709344226593462
 50
254.0601890273673
 51
267.86084536592199
  0
ARC
  5
19E
  8
DATA
  6
CONTINUOUS
 62
     7
 10
183.403947368421
 20
159.7644736842104
 30
0.0
 40
9.2709344226593622
 50
272.13915463407801
 51
285.9398109726327
  0
LINE
  5
19F
  8
DATA
  6
CONTINUOUS
 62
     7
 10
181.55000000000001
 20
150.84999999999999
 30
0.0
 11
181.55000000000001
 21
152.0
 31
0.0
  0
LINE
  5
1A0
  8
DATA
  6
CONTINUOUS
 62
     7
 10
185.94999999999999
 20
150.84999999999999
 30
0.0
 11
185.94999999999999
 21
152.0
 31
0.0
  0
ARC
  5
1A1
  8
DATA
  6
CONTINUOUS
 62
     7
 10
794.97246220304226
 20
251.6425485961133
 30
0.0
 40
657.52602490492256
 50
180.73133329049881
 51
184.99872112918021
  0
ARC
  5
1A2
  8
DATA
  6
CONTINUOUS
 62
     7
 10
-450.97246220304231
 20
251.6425485961133
 30
0.0
 40
657.52602490492256
 50
355.00127887081811
 51
359.2686667095013
  0
ARC
  5
1A3
  8
DATA
  6
CONTINUOUS
 62
     7
 10
794.97246220304226
 20
234.85745140388681
 30
0.0
 40
657.52602490492256
 50
175.0166726901781
 51
179.26866670950119
  0
ARC
  5
1A4
  8
DATA
  6
CONTINUOUS
 62
     7
 10
-450.97246220304231
 20
234.85745140388681
 30
0.0
 40
657.52602490492256
 50
0.7313332904988085
 51
4.9833273098245332
  0
LINE
  5
1A5
  8
DATA
  6
CONTINUOUS
 62
     7
 10
145.72144941958439
 20
194.15324908818729
 30
0.0
 11
147.04574468112219
 21
219.05000000509659
 31
0.0
  0
ARC
  5
1A6
  8
DATA
  6
CONTINUOUS
 62
     7
 10
161.3334821228201
 20
218.4988461181498
 30
0.0
 40
14.298363955786099
 50
112.0647152855317
 51
177.790892943188
  0
LINE
  5
1A7
  8
DATA
  6
CONTINUOUS
 62
     7
 10
166.22346413860649
 20
193.7694808639144
 30
0.0
 11
164.87875567365001
 21
219.05000000509659
 31
0.0
  0
ARC
  5
1A8
  8
DATA
  6
CONTINUOUS
 62
     7
 10
150.59101823195209
 20
218.4988461181498
 30
0.0
 40
14.29836395578609
 50
2.2091070568120159
 51
67.935284714468324
  0
ARC
  5
1A9
  8
DATA
  6
CONTINUOUS
 62
     7
 10
221.9410430669075
 20
229.44999999999999
 30
0.0
 40
43.5138888888889
 50
180.0
 51
211.5807820554906
  0
ARC
  5
1AA
  8
DATA
  6
CONTINUOUS
 62
     7
 10
152.9132652891297
 20
229.44999999999999
 30
0.0
 40
43.513888888888893
 50
328.41921794450951
 51
0.0
  0
LINE
  5
1AB
  8
DATA
  6
CONTINUOUS
 62
     7
 10
137.5
 20
587.49999999969043
 30
0.0
 11
137.5
 21
599.49999999969043
 31
0.0
  0
LINE
  5
1AC
  8
DATA
  6
CONTINUOUS
 62
     7
 10
137.5
 20
600.29999999969027
 30
0.0
 11
137.5
 21
608.79999999969027
 31
0.0
  0
LINE
  5
1AD
  8
DATA
  6
CONTINUOUS
 62
     7
 10
141.5
 20
610.29999999969027
 30
0.0
 11
202.5
 21
610.29999999969027
 31
0.0
  0
LINE
  5
1AE
  8
DATA
  6
CONTINUOUS
 62
     7
 10
206.5
 20
608.79999999969027
 30
0.0
 11
206.5
 21
600.29999999969027
 31
0.0
  0
LINE
  5
1AF
  8
DATA
  6
CONTINUOUS
 62
     7
 10
206.5
 20
599.49999999969043
 30
0.0
 11
206.5
 21
587.49999999969043
 31
0.0
  0
LINE
  5
1B0
  8
DATA
  6
CONTINUOUS
 62
     7
 10
140.0
 20
608.79999999969027
 30
0.0
 11
140.0
 21
600.29999999969027
 31
0.0
  0
LINE
  5
1B1
  8
DATA
  6
CONTINUOUS
 62
     7
 10
140.0
 20
599.49999999969043
 30
0.0
 11
140.0
 21
590.29999999969039
 31
0.0
  0
LINE
  5
1B2
  8
DATA
  6
CONTINUOUS
 62
     7
 10
204.0
 20
590.29999999969039
 30
0.0
 11
204.0
 21
599.49999999969043
 31
0.0
  0
LINE
  5
1B3
  8
DATA
  6
CONTINUOUS
 62
     7
 10
204.0
 20
600.29999999969027
 30
0.0
 11
204.0
 21
608.79999999969027
 31
0.0
  0
LINE
  5
1B4
  8
DATA
  6
CONTINUOUS
 62
     7
 10
201.4500000000001
 20
590.29999999969039
 30
0.0
 11
204.0
 21
590.29999999969039
 31
0.0
  0
LINE
  5
1B5
  8
DATA
  6
CONTINUOUS
 62
     7
 10
144.5
 20
612.29999999969039
 30
0.0
 11
151.5
 21
612.29999999969039
 31
0.0
  0
LINE
  5
1B6
  8
DATA
  6
CONTINUOUS
 62
     7
 10
192.5
 20
612.29999999969039
 30
0.0
 11
199.5
 21
612.29999999969039
 31
0.0
  0
LINE
  5
1B7
  8
DATA
  6
CONTINUOUS
 62
     7
 10
144.5
 20
612.29999999969039
 30
0.0
 11
144.5
 21
610.29999999969027
 31
0.0
  0
LINE
  5
1B8
  8
DATA
  6
CONTINUOUS
 62
     7
 10
151.5
 20
610.29999999969027
 30
0.0
 11
151.5
 21
612.29999999969039
 31
0.0
  0
LINE
  5
1B9
  8
DATA
  6
CONTINUOUS
 62
     7
 10
192.5
 20
612.29999999969039
 30
0.0
 11
192.5
 21
610.29999999969027
 31
0.0
  0
LINE
  5
1BA
  8
DATA
  6
CONTINUOUS
 62
     7
 10
199.5
 20
610.29999999969027
 30
0.0
 11
199.5
 21
612.29999999969039
 31
0.0
  0
LINE
  5
1BB
  8
DATA
  6
CONTINUOUS
 62
     7
 10
137.5
 20
608.79999999969027
 30
0.0
 11
154.26900426129961
 21
608.79999999969027
 31
0.0
  0
LINE
  5
1BC
  8
DATA
  6
CONTINUOUS
 62
     7
 10
160.76900426129961
 20
608.79999999969027
 30
0.0
 11
206.5
 21
608.79999999969027
 31
0.0
  0
LINE
  5
1BD
  8
DATA
  6
CONTINUOUS
 62
     7
 10
137.5
 20
600.29999999969027
 30
0.0
 11
185.5136874599381
 21
600.29999999969027
 31
0.0
  0
LINE
  5
1BE
  8
DATA
  6
CONTINUOUS
 62
     7
 10
197.5136874599381
 20
600.29999999969027
 30
0.0
 11
206.5
 21
600.29999999969027
 31
0.0
  0
LINE
  5
1BF
  8
DATA
  6
CONTINUOUS
 62
     7
 10
137.5
 20
599.49999999969043
 30
0.0
 11
185.5136874599381
 21
599.49999999969043
 31
0.0
  0
LINE
  5
1C0
  8
DATA
  6
CONTINUOUS
 62
     7
 10
197.5136874599381
 20
599.49999999969043
 30
0.0
 11
206.5
 21
599.49999999969043
 31
0.0
  0
LINE
  5
1C1
  8
DATA
  6
CONTINUOUS
 62
     7
 10
140.0
 20
590.29999999969039
 30
0.0
 11
137.5
 21
587.49999999969043
 31
0.0
  0
LINE
  5
1C2
  8
DATA
  6
CONTINUOUS
 62
     7
 10
204.0
 20
590.29999999969039
 30
0.0
 11
206.5
 21
587.49999999969043
 31
0.0
  0
LINE
  5
1C3
  8
DATA
  6
CONTINUOUS
 62
     7
 10
138.0
 20
600.29999999969027
 30
0.0
 11
138.0
 21
599.49999999969043
 31
0.0
  0
LINE
  5
1C4
  8
DATA
  6
CONTINUOUS
 62
     7
 10
206.0
 20
600.29999999969027
 30
0.0
 11
206.0
 21
599.49999999969043
 31
0.0
  0
LINE
  5
1C5
  8
DATA
  6
CONTINUOUS
 62
     7
 10
160.76900426129961
 20
608.29999999969027
 30
0.0
 11
160.76900426129961
 21
610.29999999969027
 31
0.0
  0
LINE
  5
1C6
  8
DATA
  6
CONTINUOUS
 62
     7
 10
154.26900426129961
 20
608.29999999969027
 30
0.0
 11
154.26900426129961
 21
610.29999999969027
 31
0.0
  0
LINE
  5
1C7
  8
DATA
  6
CONTINUOUS
 62
     7
 10
154.26900426129961
 20
608.29999999969027
 30
0.0
 11
160.76900426129961
 21
608.29999999969027
 31
0.0
  0
ARC
  5
1C8
  8
DATA
  6
CONTINUOUS
 62
     7
 10
157.86505689287861
 20
600.53552631547984
 30
0.0
 40
9.2709344226593302
 50
92.139154634078011
 51
105.9398109726327
  0
ARC
  5
1C9
  8
DATA
  6
CONTINUOUS
 62
     7
 10
157.1729516297207
 20
600.53552631547984
 30
0.0
 40
9.2709344226593462
 50
74.060189027367301
 51
87.860845365921975
  0
LINE
  5
1CA
  8
DATA
  6
CONTINUOUS
 62
     7
 10
155.3190042612996
 20
609.44999999969025
 30
0.0
 11
155.3190042612996
 21
608.29999999969027
 31
0.0
  0
LINE
  5
1CB
  8
DATA
  6
CONTINUOUS
 62
     7
 10
159.7190042612996
 20
609.44999999969025
 30
0.0
 11
159.7190042612996
 21
608.29999999969027
 31
0.0
  0
ARC
  5
1CC
  8
DATA
  6
CONTINUOUS
 62
     7
 10
187.42715417801861
 20
208.2328685570676
 30
0.0
 40
2.9999999999999818
 50
211.58078205548941
 51
328.41921794451019
  0
ARC
  5
1CD
  8
DATA
  6
CONTINUOUS
 62
     7
 10
221.9410430669075
 20
229.44999999999999
 30
0.0
 40
43.5138888888889
 50
148.4192179445094
 51
180.0
  0
ARC
  5
1CE
  8
DATA
  6
CONTINUOUS
 62
     7
 10
152.9132652891297
 20
229.44999999999999
 30
0.0
 40
43.513888888888893
 50
0.0000000000000568
 51
31.580782055490548
  0
ARC
  5
1CF
  8
DATA
  6
CONTINUOUS
 62
     7
 10
187.42715417801861
 20
250.6671314429324
 30
0.0
 40
2.9999999999999578
 50
31.58078205548977
 51
148.41921794451051
  0
LINE
  5
1D0
  8
DATA
  6
CONTINUOUS
 62
     7
 10
137.5
 20
587.49999999969043
 30
0.0
 11
188.16878855414879
 21
587.49999999969043
 31
0.0
  0
LINE
  5
1D1
  8
DATA
  6
CONTINUOUS
 62
     7
 10
194.83121144585121
 20
587.49999999969043
 30
0.0
 11
206.44999999999999
 21
587.49999999969043
 31
0.0
  0
LINE
  5
1D2
  8
DATA
  6
CONTINUOUS
 62
     7
 10
141.5
 20
150.0
 30
0.0
 11
137.5
 21
151.5
 31
0.0
  0
LINE
  5
1D3
  8
DATA
  6
CONTINUOUS
 62
     7
 10
202.5
 20
150.0
 30
0.0
 11
206.5
 21
151.5
 31
0.0
  0
LINE
  5
1D4
  8
DATA
  6
CONTINUOUS
 62
     7
 10
141.5
 20
610.29999999969027
 30
0.0
 11
137.5
 21
608.79999999969027
 31
0.0
  0
LINE
  5
1D5
  8
DATA
  6
CONTINUOUS
 62
     7
 10
206.5
 20
608.79999999969027
 30
0.0
 11
202.5
 21
610.29999999969027
 31
0.0
  0
ARC
  5
1D6
  8
DATA
  6
CONTINUOUS
 62
     7
 10
191.5
 20
598.34696969665981
 30
0.0
 40
11.34696969696966
 50
230.43153285636961
 51
309.56846714363019
  0
ARC
  5
1D7
  8
DATA
  6
CONTINUOUS
 62
     7
 10
181.24184930379391
 20
583.45946567504654
 30
0.0
 40
6.8474715551215644
 50
63.73531812042053
 51
87.420697696626434
  0
ARC
  5
1D8
  8
DATA
  6
CONTINUOUS
 62
     7
 10
201.758150696206
 20
583.45946567504654
 30
0.0
 40
6.8474715551215644
 50
92.579302303373595
 51
116.2646818795795
  0
LINE
  5
1D9
  8
DATA
  6
CONTINUOUS
 62
     7
 10
181.55000000000001
 20
590.29999999969039
 30
0.0
 11
140.0
 21
590.29999999969039
 31
0.0
  0
ARC
  5
1DA
  8
DATA
  6
CONTINUOUS
 62
     7
 10
172.00000000000011
 20
-370.25304273291482
 30
0.0
 40
663.00304273291465
 50
87.227636498035025
 51
92.772363501964946
  0
ARC
  5
1DB
  8
DATA
  6
CONTINUOUS
 62
     7
 10
172.0
 20
1050.199339462273
 30
0.0
 40
856.44933946227309
 50
267.8551951962416
 51
272.1448048037584
  0
LINE
  5
1DC
  8
DATA
  6
CONTINUOUS
 62
     7
 10
185.1483283968802
 20
292.75
 30
0.0
 11
185.1483283968802
 21
292.61961180449413
 31
0.0
  0
LINE
  5
1DD
  8
DATA
  6
CONTINUOUS
 62
     7
 10
197.64832839688009
 20
292.75
 30
0.0
 11
197.64832839688009
 21
292.25371038251501
 31
0.0
  0
LINE
  5
1DE
  8
DATA
  6
CONTINUOUS
 62
     7
 10
185.1483283968802
 20
292.75
 30
0.0
 11
197.64832839688009
 21
292.75
 31
0.0
  0
LINE
  5
1DF
  8
DATA
  6
CONTINUOUS
 62
     7
 10
254.0
 20
150.0
 30
0.0
 11
344.99999999999989
 21
150.0
 31
0.0
  0
LINE
  5
1E0
  8
DATA
  6
CONTINUOUS
 62
     7
 10
250.0
 20
151.5
 30
0.0
 11
250.0
 21
160.0
 31
0.0
  0
LINE
  5
1E1
  8
DATA
  6
CONTINUOUS
 62
     7
 10
250.0
 20
160.80000000000001
 30
0.0
 11
250.0
 21
175.0
 31
0.0
  0
LINE
  5
1E2
  8
DATA
  6
CONTINUOUS
 62
     7
 10
349.0
 20
151.5
 30
0.0
 11
349.0
 21
160.0
 31
0.0
  0
LINE
  5
1E3
  8
DATA
  6
CONTINUOUS
 62
     7
 10
349.0
 20
160.80000000000001
 30
0.0
 11
349.0
 21
173.30000000000001
 31
0.0
  0
LINE
  5
1E4
  8
DATA
  6
CONTINUOUS
 62
     7
 10
255.0
 20
148.0
 30
0.0
 11
262.0
 21
148.0
 31
0.0
  0
LINE
  5
1E5
  8
DATA
  6
CONTINUOUS
 62
     7
 10
255.0
 20
148.0
 30
0.0
 11
255.0
 21
150.0
 31
0.0
  0
LINE
  5
1E6
  8
DATA
  6
CONTINUOUS
 62
     7
 10
262.0
 20
150.0
 30
0.0
 11
262.0
 21
148.0
 31
0.0
  0
LINE
  5
1E7
  8
DATA
  6
CONTINUOUS
 62
     7
 10
337.0
 20
148.0
 30
0.0
 11
344.0
 21
148.0
 31
0.0
  0
LINE
  5
1E8
  8
DATA
  6
CONTINUOUS
 62
     7
 10
337.0
 20
148.0
 30
0.0
 11
337.0
 21
150.0
 31
0.0
  0
LINE
  5
1E9
  8
DATA
  6
CONTINUOUS
 62
     7
 10
344.0
 20
150.0
 30
0.0
 11
344.0
 21
148.0
 31
0.0
  0
LINE
  5
1EA
  8
DATA
  6
CONTINUOUS
 62
     7
 10
250.0
 20
160.0
 30
0.0
 11
349.0
 21
160.0
 31
0.0
  0
LINE
  5
1EB
  8
DATA
  6
CONTINUOUS
 62
     7
 10
250.0
 20
160.80000000000001
 30
0.0
 11
349.0
 21
160.80000000000001
 31
0.0
  0
LINE
  5
1EC
  8
DATA
  6
CONTINUOUS
 62
     7
 10
250.5
 20
160.0
 30
0.0
 11
250.5
 21
160.80000000000001
 31
0.0
  0
LINE
  5
1ED
  8
DATA
  6
CONTINUOUS
 62
     7
 10
348.5
 20
160.0
 30
0.0
 11
348.5
 21
160.80000000000001
 31
0.0
  0
LINE
  5
1EE
  8
DATA
  6
CONTINUOUS
 62
     6
 10
346.90000000000009
 20
173.30000000000001
 30
0.0
 11
349.0
 21
173.30000000000001
 31
0.0
  0
ARC
  5
1EF
  8
DATA
  6
CONTINUOUS
 62
     7
 10
596.67200000019193
 20
5132.3070000035423
 30
0.0
 40
4965.6873746409183
 50
266.6707933204392
 51
267.14109056172651
  0
LINE
  5
1F0
  8
DATA
  6
CONTINUOUS
 62
     7
 10
294.5
 20
175.0
 30
0.0
 11
308.300000000002
 21
175.0
 31
0.0
  0
ARC
  5
1F1
  8
DATA
  6
CONTINUOUS
 62
     7
 10
301.69512195121519
 20
-293.73353658531158
 30
0.0
 40
469.38888609802979
 50
93.028016669654704
 51
96.322972144691903
  0
LINE
  5
1F2
  8
DATA
  6
CONTINUOUS
 62
     7
 10
276.90000000000009
 20
175.0
 30
0.0
 11
294.5
 21
175.0
 31
0.0
  0
LINE
  5
1F3
  8
DATA
  6
CONTINUOUS
 62
     7
 10
250.0
 20
175.0
 30
0.0
 11
277.30000000000001
 21
175.0
 31
0.0
  0
LINE
  5
1F4
  8
DATA
  6
CONTINUOUS
 62
     7
 10
349.0
 20
173.30000000000001
 30
0.0
 11
339.18282239440879
 21
173.30000000000001
 31
0.0
  0
LINE
  5
1F5
  8
DATA
  6
CONTINUOUS
 62
     7
 10
197.5136874599381
 20
602.91299493269617
 30
0.0
 11
197.5136874599381
 21
590.91299493269605
 31
0.0
  0
LINE
  5
1F6
  8
DATA
  6
CONTINUOUS
 62
     7
 10
185.5136874599381
 20
602.91299493269617
 30
0.0
 11
197.5136874599381
 21
602.91299493269617
 31
0.0
  0
LINE
  5
1F7
  8
DATA
  6
CONTINUOUS
 62
     7
 10
185.5136874599381
 20
590.91299493269605
 30
0.0
 11
185.5136874599381
 21
602.91299493269617
 31
0.0
  0
LINE
  5
1F8
  8
DATA
  6
CONTINUOUS
 62
     7
 10
197.5136874599381
 20
590.91299493269605
 30
0.0
 11
185.5136874599381
 21
590.91299493269605
 31
0.0
  0
LINE
  5
1F9
  8
DATA
  6
CONTINUOUS
 62
     7
 10
187.2636874599381
 20
601.16299493269617
 30
0.0
 11
195.7636874599381
 21
601.16299493269617
 31
0.0
  0
LINE
  5
1FA
  8
DATA
  6
CONTINUOUS
 62
     7
 10
195.7636874599381
 20
601.16299493269617
 30
0.0
 11
195.7636874599381
 21
594.31299493269603
 31
0.0
  0
LINE
  5
1FB
  8
DATA
  6
CONTINUOUS
 62
     7
 10
187.2636874599381
 20
594.31299493269603
 30
0.0
 11
187.2636874599381
 21
601.16299493269617
 31
0.0
  0
LINE
  5
1FC
  8
DATA
  6
CONTINUOUS
 62
     7
 10
193.7636874599381
 20
592.31299493269603
 30
0.0
 11
189.2636874599381
 21
592.31299493269603
 31
0.0
  0
LINE
  5
1FD
  8
DATA
  6
CONTINUOUS
 62
     7
 10
195.7636874599381
 20
594.31299493269603
 30
0.0
 11
193.7636874599381
 21
592.31299493269603
 31
0.0
  0
LINE
  5
1FE
  8
DATA
  6
CONTINUOUS
 62
     7
 10
187.2636874599381
 20
594.31299493269603
 30
0.0
 11
189.2636874599381
 21
592.31299493269603
 31
0.0
  0
POLYLINE
  5
1FF
  8
DATA
  6
CONTINUOUS
 62
     7
 66
     1
 10
0.0
 20
0.0
 30
0.0
 70
     1
  0
VERTEX
  5
2C5
  8
DATA
  6
CONTINUOUS
 62
     7
 10
188.5136874599381
 20
599.22134700049503
 30
0.0
  0
VERTEX
  5
2C6
  8
DATA
  6
CONTINUOUS
 62
     7
 10
194.5136874599381
 20
599.22134700049503
 30
0.0
  0
VERTEX
  5
2C7
  8
DATA
  6
CONTINUOUS
 62
     7
 10
194.5136874599381
 20
595.42134700049485
 30
0.0
  0
VERTEX
  5
2C8
  8
DATA
  6
CONTINUOUS
 62
     7
 10
188.5136874599381
 20
595.42134700049485
 30
0.0
  0
SEQEND
  5
2C9
  8
DATA
  6
CONTINUOUS
 62
     7
  0
LINE
  5
206
  8
DATA
  6
CONTINUOUS
 62
     7
 10
250.0
 20
432.74999999999989
 30
0.0
 11
349.0
 21
432.74999999999989
 31
0.0
  0
LINE
  5
207
  8
DATA
  6
CONTINUOUS
 62
     7
 10
250.0
 20
151.5
 30
0.0
 11
349.0
 21
151.5
 31
0.0
  0
LINE
  5
208
  8
DATA
  6
CONTINUOUS
 62
     7
 10
254.0
 20
431.25
 30
0.0
 11
250.0
 21
432.74999999999989
 31
0.0
  0
LINE
  5
209
  8
DATA
  6
CONTINUOUS
 62
     7
 10
345.0
 20
431.25
 30
0.0
 11
349.0
 21
432.74999999999989
 31
0.0
  0
LINE
  5
20A
  8
DATA
  6
CONTINUOUS
 62
     7
 10
254.0
 20
150.0
 30
0.0
 11
250.0
 21
151.5
 31
0.0
  0
LINE
  5
20B
  8
DATA
  6
CONTINUOUS
 62
     7
 10
345.0
 20
150.0
 30
0.0
 11
349.0
 21
151.5
 31
0.0
  0
ENDSEC
  0
EOF
