  0
SECTION
  2
HEADER
  9
$ACADVER
  1
AC1009
  9
$INSBASE
 10
0.0
 20
0.0
 30
0.0
  9
$EXTMIN
 10
49.981691723202402
 20
11.90643626254314
 30
-0.0015258207003583
  9
$EXTMAX
 10
950.02899391114363
 20
1350.04120187373
 30
0.0000000349246037
  9
$LIMMIN
 10
0.0
 20
0.0
  9
$LIMMAX
 10
0.0
 20
0.0
  9
$ORTHOMODE
 70
     0
  9
$REGENMODE
 70
     1
  9
$FILLMODE
 70
     1
  9
$QTEXTMODE
 70
     0
  9
$MIRRTEXT
 70
     1
  9
$DRAGMODE
 70
     2
  9
$LTSCALE
 40
25.399999999999999
  9
$OSMODE
 70
   231
  9
$ATTMODE
 70
     1
  9
$TEXTSIZE
 40
0.0
  9
$TRACEWID
 40
1.0
  9
$TEXTSTYLE
  7
STANDARD
  9
$CLAYER
  8
DATA
  9
$CELTYPE
  6
BYLAYER
  9
$CECOLOR
 62
   256
  9
$DIMSCALE
 40
1.0
  9
$DIMASZ
 40
0.18
  9
$DIMEXO
 40
0.0625
  9
$DIMDLI
 40
0.38
  9
$DIMRND
 40
0.0
  9
$DIMDLE
 40
0.0
  9
$DIMEXE
 40
0.18
  9
$DIMTP
 40
0.0
  9
$DIMTM
 40
0.0
  9
$DIMTXT
 40
0.18
  9
$DIMCEN
 40
0.09
  9
$DIMTSZ
 40
0.0
  9
$DIMTOL
 70
     0
  9
$DIMLIM
 70
     0
  9
$DIMTIH
 70
     1
  9
$DIMTOH
 70
     1
  9
$DIMSE1
 70
     0
  9
$DIMSE2
 70
     0
  9
$DIMTAD
 70
     0
  9
$DIMZIN
 70
     0
  9
$DIMBLK
  1

  9
$DIMASO
 70
     1
  9
$DIMSHO
 70
     1
  9
$DIMPOST
  1

  9
$DIMAPOST
  1

  9
$DIMALT
 70
     0
  9
$DIMALTD
 70
     2
  9
$DIMALTF
 40
25.399999999999999
  9
$DIMLFAC
 40
1.0
  9
$DIMTOFL
 70
     0
  9
$DIMTVP
 40
0.0
  9
$DIMTIX
 70
     0
  9
$DIMSOXD
 70
     0
  9
$DIMSAH
 70
     0
  9
$DIMBLK1
  1

  9
$DIMBLK2
  1

  9
$DIMSTYLE
  2
STANDARD
  9
$DIMCLRD
 70
     0
  9
$DIMCLRE
 70
     0
  9
$DIMCLRT
 70
     0
  9
$DIMTFAC
 40
1.0
  9
$DIMGAP
 40
0.09
  9
$LUNITS
 70
     2
  9
$LUPREC
 70
     4
  9
$SKETCHINC
 40
0.1
  9
$FILLETRAD
 40
0.0
  9
$AUNITS
 70
     0
  9
$AUPREC
 70
     0
  9
$MENU
  1
acad
  9
$ELEVATION
 40
0.0
  9
$PELEVATION
 40
0.0
  9
$THICKNESS
 40
0.0
  9
$LIMCHECK
 70
     0
  9
$BLIPMODE
 70
     0
  9
$CHAMFERA
 40
0.0
  9
$CHAMFERB
 40
0.0
  9
$SKPOLY
 70
     0
  9
$TDCREATE
 40
2455202.6889236108
  9
$TDUPDATE
 40
2455202.6941428361
  9
$TDINDWG
 40
0.000283588
  9
$TDUSRTIMER
 40
0.0002834028
  9
$USRTIMER
 70
     1
  9
$ANGBASE
 50
0.0
  9
$ANGDIR
 70
     0
  9
$PDMODE
 70
     1
  9
$PDSIZE
 40
-2.0
  9
$PLINEWID
 40
0.0
  9
$COORDS
 70
     0
  9
$SPLFRAME
 70
     0
  9
$SPLINETYPE
 70
     6
  9
$SPLINESEGS
 70
     8
  9
$ATTDIA
 70
     0
  9
$ATTREQ
 70
     1
  9
$HANDLING
 70
     1
  9
$HANDSEED
  5
458
  9
$SURFTAB1
 70
     6
  9
$SURFTAB2
 70
     6
  9
$SURFTYPE
 70
     6
  9
$SURFU
 70
     6
  9
$SURFV
 70
     6
  9
$UCSNAME
  2

  9
$UCSORG
 10
0.0
 20
0.0
 30
0.0
  9
$UCSXDIR
 10
1.0
 20
0.0
 30
0.0
  9
$UCSYDIR
 10
0.0
 20
1.0
 30
0.0
  9
$PUCSNAME
  2

  9
$PUCSORG
 10
0.0
 20
0.0
 30
0.0
  9
$PUCSXDIR
 10
1.0
 20
0.0
 30
0.0
  9
$PUCSYDIR
 10
0.0
 20
1.0
 30
0.0
  9
$USERI1
 70
     0
  9
$USERI2
 70
     0
  9
$USERI3
 70
     0
  9
$USERI4
 70
     0
  9
$USERI5
 70
     0
  9
$USERR1
 40
0.0
  9
$USERR2
 40
0.0
  9
$USERR3
 40
0.0
  9
$USERR4
 40
0.0
  9
$USERR5
 40
0.0
  9
$WORLDVIEW
 70
     1
  9
$SHADEDGE
 70
     3
  9
$SHADEDIF
 70
    70
  9
$TILEMODE
 70
     1
  9
$MAXACTVP
 70
    64
  9
$PLIMCHECK
 70
     0
  9
$PEXTMIN
 10
1.0000000000000000E+020
 20
1.0000000000000000E+020
 30
1.0000000000000000E+020
  9
$PEXTMAX
 10
-1.0000000000000000E+020
 20
-1.0000000000000000E+020
 30
-1.0000000000000000E+020
  9
$PLIMMIN
 10
0.0
 20
0.0
  9
$PLIMMAX
 10
12.0
 20
9.0
  9
$UNITMODE
 70
     0
  9
$VISRETAIN
 70
     0
  9
$PLINEGEN
 70
     1
  9
$PSLTSCALE
 70
     0
  0
ENDSEC
  0
SECTION
  2
TABLES
  0
TABLE
  2
VPORT
 70
     1
  0
VPORT
  2
*ACTIVE
 70
     0
 10
0.0
 20
0.0
 11
1.0
 21
1.0
 12
500.00534281717307
 22
680.97381906813655
 13
0.0
 23
0.0
 14
1.0
 24
1.0
 15
0.0
 25
0.0
 16
0.0
 26
0.0
 36
1.0
 17
0.0
 27
0.0
 37
0.0
 40
1347.9981668319081
 41
1.964329643296433
 42
50.0
 43
0.0
 44
0.0
 50
0.0
 51
0.0
 71
     0
 72
  2000
 73
     1
 74
     1
 75
     0
 76
     0
 77
     0
 78
     0
  0
ENDTAB
  0
TABLE
  2
LTYPE
 70
    11
  0
LTYPE
  2
CONTINUOUS
 70
     0
  3
Solid line
 72
    65
 73
     0
 40
0.0
  0
ENDTAB
  0
TABLE
  2
LAYER
 70
     5
  0
LAYER
  2
0
 70
     0
 62
     7
  6
CONTINUOUS
  0
LAYER
  2
DATA
 70
     0
 62
     7
  6
CONTINUOUS
  0
LAYER
  2
HIBINO-BASE
 70
     0
 62
     7
  6
CONTINUOUS
  0
LAYER
  2
SPEC
 70
     0
 62
     7
  6
CONTINUOUS
  0
LAYER
  2
DIMNSIONS
 70
     0
 62
     7
  6
CONTINUOUS
  0
ENDTAB
  0
TABLE
  2
STYLE
 70
     3
  0
STYLE
  2
STANDARD
 70
     0
 40
0.0
 41
1.0
 50
0.0
 71
     0
 42
0.0
  3
txt
  4
BIGFONT.SHX
  0
ENDTAB
  0
TABLE
  2
VIEW
 70
     0
  0
ENDTAB
  0
TABLE
  2
UCS
 70
     0
  0
ENDTAB
  0
TABLE
  2
APPID
 70
     3
  0
APPID
  2
ACAD
 70
     0
  0
APPID
  2
ACADANNOTATIVE
 70
     0
  0
APPID
  2
ACAD_MLEADERVER
 70
     0
  0
ENDTAB
  0
TABLE
  2
DIMSTYLE
 70
     2
  0
DIMSTYLE
  2
STANDARD
 70
     0
  3

  4

  5

  6

  7

 40
1.0
 41
0.18
 42
0.0625
 43
0.38
 44
0.18
 45
0.0
 46
0.0
 47
0.0
 48
0.0
140
0.18
141
0.09
142
0.0
143
25.399999999999999
144
1.0
145
0.0
146
1.0
147
0.09
 71
     0
 72
     0
 73
     1
 74
     1
 75
     0
 76
     0
 77
     0
 78
     0
170
     0
171
     2
172
     0
173
     0
174
     0
175
     0
176
     0
177
     0
178
     0
  0
ENDTAB
  0
ENDSEC
  0
SECTION
  2
BLOCKS
  0
BLOCK
  8
0
  2
$MODEL_SPACE
 70
     0
 10
0.0
 20
0.0
 30
0.0
  3
$MODEL_SPACE
  1

  0
ENDBLK
  5
3A8
  8
0
  0
BLOCK
 67
     1
  8
0
  2
$PAPER_SPACE
 70
     0
 10
0.0
 20
0.0
 30
0.0
  3
$PAPER_SPACE
  1

  0
ENDBLK
  5
3A4
 67
     1
  8
0
  0
ENDSEC
  0
SECTION
  2
ENTITIES
  0
LINE
  5
2C
  8
HIBINO-BASE
  6
CONTINUOUS
 62
     7
 10
50.0
 20
1350.0
 30
0.0
 11
950.0
 21
1350.0
 31
0.0
  0
LINE
  5
2D
  8
HIBINO-BASE
  6
CONTINUOUS
 62
     7
 10
950.0
 20
50.0
 30
0.0
 11
50.0
 21
50.0
 31
0.0
  0
LINE
  5
2E
  8
HIBINO-BASE
  6
CONTINUOUS
 62
     7
 10
50.0
 20
50.0
 30
0.0
 11
50.0
 21
1350.0
 31
0.0
  0
TEXT
  5
2F
  8
HIBINO-BASE
 62
     7
 10
62.82012861104743
 20
17.956611000000098
 30
0.0
 40
18.00022089843749
  1
Hibino-Intersound Corporation
 41
0.7
 11
62.82012861104743
 21
35.956831898437599
 31
0.0
 73
     3
  0
LINE
  5
30
  8
HIBINO-BASE
  6
CONTINUOUS
 62
     7
 10
950.0
 20
1350.0
 30
0.0
 11
950.0
 21
50.0
 31
0.0
  0
LINE
  5
31
  8
HIBINO-BASE
  6
CONTINUOUS
 62
     7
 10
500.0
 20
162.50000000000011
 30
0.0
 11
950.0
 21
162.50000000000011
 31
0.0
  0
LINE
  5
32
  8
HIBINO-BASE
  6
CONTINUOUS
 62
     7
 10
500.0
 20
50.0
 30
0.0
 11
500.0
 21
162.50000000000011
 31
0.0
  0
TEXT
  5
33
  8
HIBINO-BASE
 62
     7
 10
504.49999999999989
 20
149.9565333333334
 30
0.0
 40
8.1442057291666661
  1
NOTE
 41
0.7
 11
504.49999999999989
 21
158.10073906250011
 31
0.0
 73
     3
  0
LINE
  5
34
  8
HIBINO-BASE
  6
CONTINUOUS
 62
     7
 10
675.0
 20
50.0
 30
0.0
 11
675.0
 21
162.50000000000011
 31
0.0
  0
TEXT
  5
35
  8
HIBINO-BASE
 62
     7
 10
679.49999999999989
 20
149.9565333333334
 30
0.0
 40
8.1442057291666661
  1
TITLE
 41
0.7
 11
679.49999999999989
 21
158.10073906250011
 31
0.0
 73
     3
  0
TEXT
  5
36
  8
HIBINO-BASE
 62
     7
 10
595.06609521503515
 20
16.861363937191111
 30
0.0
 40
18.00022089843749
  1
ヒビノインターサウンド株式会社
 41
0.7
 11
595.06609521503515
 21
34.861584835628598
 31
0.0
 73
     3
  0
LINE
  5
37
  8
HIBINO-BASE
  6
CONTINUOUS
 62
     7
 10
500.0
 20
100.0000000000001
 30
0.0
 11
950.0
 21
100.0000000000001
 31
0.0
  0
TEXT
  5
38
  8
HIBINO-BASE
 62
     7
 10
742.0
 20
87.738133333333465
 30
0.0
 40
8.1442057291666661
  1
DRAWN
 41
0.7
 11
742.0
 21
95.882339062500137
 31
0.0
 73
     3
  0
TEXT
  5
39
  8
HIBINO-BASE
 62
     7
 10
617.0
 20
87.738133333333465
 30
0.0
 40
8.1442057291666661
  1
DATE
 41
0.7
 11
617.0
 21
95.882339062500137
 31
0.0
 73
     3
  0
TEXT
  5
3A
  8
HIBINO-BASE
 62
     7
 10
567.0
 20
87.738133333333465
 30
0.0
 40
8.1442057291666661
  1
SCALE
 41
0.7
 11
567.0
 21
95.882339062500137
 31
0.0
 73
     3
  0
TEXT
  5
3B
  8
HIBINO-BASE
 62
     7
 10
679.49999999999989
 20
87.738133333333465
 30
0.0
 40
8.1442057291666661
  1
DESIGN
 41
0.7
 11
679.49999999999989
 21
95.882339062500137
 31
0.0
 73
     3
  0
TEXT
  5
3C
  8
HIBINO-BASE
 62
     7
 10
867.0
 20
87.738133333333465
 30
0.0
 40
8.1442057291666661
  1
DRAWING NO.
 41
0.7
 11
867.0
 21
95.882339062500137
 31
0.0
 73
     3
  0
TEXT
  5
3D
  8
HIBINO-BASE
 62
     7
 10
804.49999999999989
 20
87.738133333333465
 30
0.0
 40
8.1442057291666661
  1
CHECK
 41
0.7
 11
804.49999999999989
 21
95.882339062500137
 31
0.0
 73
     3
  0
LINE
  5
3E
  8
HIBINO-BASE
  6
CONTINUOUS
 62
     7
 10
571.87499999999989
 20
56.25
 30
0.0
 11
590.625
 21
75.000000000000099
 31
0.0
  0
TEXT
  5
3F
  8
HIBINO-BASE
 62
     7
 10
568.74999999999989
 20
69.455283333333384
 30
0.0
 40
8.1442057291666661
  1
1
 41
0.7
 11
568.74999999999989
 21
77.599489062500069
 31
0.0
 73
     3
  0
LINE
  5
40
  8
HIBINO-BASE
  6
CONTINUOUS
 62
     7
 10
562.49999999999989
 20
50.0
 30
0.0
 11
562.49999999999989
 21
100.0000000000001
 31
0.0
  0
LINE
  5
41
  8
HIBINO-BASE
  6
CONTINUOUS
 62
     7
 10
612.49999999999989
 20
50.0
 30
0.0
 11
612.49999999999989
 21
100.0000000000001
 31
0.0
  0
LINE
  5
42
  8
HIBINO-BASE
  6
CONTINUOUS
 62
     7
 10
737.5
 20
100.0000000000001
 30
0.0
 11
737.5
 21
50.0
 31
0.0
  0
LINE
  5
43
  8
HIBINO-BASE
  6
CONTINUOUS
 62
     7
 10
862.5
 20
100.0000000000001
 30
0.0
 11
862.5
 21
50.0
 31
0.0
  0
LINE
  5
44
  8
HIBINO-BASE
  6
CONTINUOUS
 62
     7
 10
800.0
 20
50.0
 30
0.0
 11
800.0
 21
100.0000000000001
 31
0.0
  0
TEXT
  5
45
  8
HIBINO-BASE
 62
     7
 10
616.78269999999986
 20
64.318233333333382
 30
0.0
 40
8.1442057291666661
  1
'09.06.
 41
0.7
 11
616.78269999999986
 21
72.462439062500053
 31
0.0
 73
     3
  0
TEXT
  5
46
  8
HIBINO-BASE
 62
     7
 10
587.5
 20
60.080283333333398
 30
0.0
 40
8.1442057291666661
  1
5
 41
0.7
 11
587.5
 21
68.224489062500069
 31
0.0
 73
     3
  0
TEXT
  5
47
  8
HIBINO-BASE
 62
     7
 10
745.029050055173
 20
64.318233333333382
 30
0.0
 40
8.1442057291666661
  1
T.Ootake
 41
0.7
 11
745.029050055173
 21
72.462439062500053
 31
0.0
 73
     3
  0
TEXT
  5
48
  8
HIBINO-BASE
 62
     7
 10
519.41666666666674
 20
59.880000000000031
 30
0.0
 40
16.288411458333329
  1
A4
 41
0.7
 11
519.41666666666674
 21
76.168411458333352
 31
0.0
 73
     3
  0
TEXT
  5
49
  8
HIBINO-BASE
 62
     7
 10
504.79166666666652
 20
86.902725000000103
 30
0.0
 40
8.1442057291666661
  1
PAPER SIZE
 41
0.7
 11
504.79166666666652
 21
95.046930729166775
 31
0.0
 73
     3
  0
LINE
  5
4A
  8
SPEC
  6
CONTINUOUS
 62
     7
 10
87.5
 20
1300.0
 30
0.0
 11
800.55480516773923
 21
1300.0
 31
0.0
  0
LINE
  5
4B
  8
SPEC
  6
CONTINUOUS
 62
     7
 10
87.5
 20
1281.25
 30
0.0
 11
800.55480516773923
 21
1281.25
 31
0.0
  0
LINE
  5
4C
  8
SPEC
  6
CONTINUOUS
 62
     7
 10
87.5
 20
1206.25
 30
0.0
 11
800.55480516773923
 21
1206.25
 31
0.0
  0
LINE
  5
4D
  8
SPEC
  6
CONTINUOUS
 62
     7
 10
87.5
 20
1225.0
 30
0.0
 11
800.55480516773923
 21
1225.0
 31
0.0
  0
LINE
  5
4E
  8
SPEC
  6
CONTINUOUS
 62
     7
 10
87.5
 20
1243.75
 30
0.0
 11
800.55480516773923
 21
1243.75
 31
0.0
  0
LINE
  5
4F
  8
SPEC
  6
CONTINUOUS
 62
     7
 10
87.5
 20
1187.5
 30
0.0
 11
800.55480516773923
 21
1187.5
 31
0.0
  0
LINE
  5
50
  8
SPEC
  6
CONTINUOUS
 62
     7
 10
87.5
 20
1150.0
 30
0.0
 11
800.55480516773923
 21
1150.0
 31
0.0
  0
LINE
  5
51
  8
SPEC
  6
CONTINUOUS
 62
     7
 10
87.5
 20
1168.75
 30
0.0
 11
800.55480516773923
 21
1168.75
 31
0.0
  0
LINE
  5
52
  8
SPEC
  6
CONTINUOUS
 62
     7
 10
87.5
 20
1131.25
 30
0.0
 11
800.55480516773923
 21
1131.25
 31
0.0
  0
LINE
  5
53
  8
SPEC
  6
CONTINUOUS
 62
     7
 10
87.5
 20
1112.5
 30
0.0
 11
800.55480516773923
 21
1112.5
 31
0.0
  0
LINE
  5
54
  8
SPEC
  6
CONTINUOUS
 62
     7
 10
87.5
 20
1262.5
 30
0.0
 11
800.55480516773923
 21
1262.5
 31
0.0
  0
TEXT
  5
55
  8
SPEC
 62
     7
 10
329.78045580457041
 20
1285.558800087329
 30
0.0
 40
9.5015562499999984
  1
KVM延長機
 41
0.7
 11
329.78045580457041
 21
1295.060356337329
 31
0.0
 73
     3
  0
TEXT
  5
56
  8
SPEC
 62
     7
 10
93.75
 20
1306.9663499999999
 30
0.0
 40
12.21630859375
  1
仕様
 41
0.7
 11
93.75
 21
1319.1826585937499
 31
0.0
 73
     3
  0
TEXT
  5
57
  8
SPEC
 62
     7
 10
91.936324545540685
 20
1192.289644900246
 30
0.0
 40
9.5015562499999984
  1
対応水平同期周波数
 41
0.7
 11
91.936324545540685
 21
1201.791201150246
 31
0.0
 73
     3
  0
TEXT
  5
58
  8
SPEC
 62
     7
 10
92.019780394399845
 20
1285.9519303107561
 30
0.0
 40
9.5015562499999984
  1
形式
 41
0.7
 11
92.019780394399845
 21
1295.4534865607559
 31
0.0
 73
     3
  0
TEXT
  5
59
  8
SPEC
 62
     7
 10
90.755185306450514
 20
1154.9902354282301
 30
0.0
 40
9.5015562499999984
  1
フォーカス/ブライトネスコントロール
 41
0.7
 11
90.755185306450514
 21
1164.4917916782299
 31
0.0
 73
     3
  0
TEXT
  5
5A
  8
SPEC
 62
     7
 10
92.044763012925557
 20
1136.536744387761
 30
0.0
 40
9.5015562499999984
  1
延長用コネクター
 41
0.7
 11
92.044763012925557
 21
1146.038300637761
 31
0.0
 73
     3
  0
TEXT
  5
5B
  8
SPEC
 62
     7
 10
90.186157571435274
 20
1229.8343317385641
 30
0.0
 40
9.5015562499999984
  1
ビデオ入力信号レベル
 41
0.7
 11
90.186157571435274
 21
1239.3358879885641
 31
0.0
 73
     3
  0
TEXT
  5
5C
  8
SPEC
 62
     7
 10
91.948362083553775
 20
1173.8264851741289
 30
0.0
 40
9.5015562499999984
  1
対応垂直同期周波数
 41
0.7
 11
91.948362083553775
 21
1183.328041424129
 31
0.0
 73
     3
  0
TEXT
  5
5D
  8
SPEC
 62
     7
 10
90.142773040625343
 20
1267.148664963378
 30
0.0
 40
9.5015562499999984
  1
ビデオアンプ帯域
 41
0.7
 11
90.142773040625343
 21
1276.650221213378
 31
0.0
 73
     3
  0
TEXT
  5
5E
  8
SPEC
 62
     7
 10
92.248084141457412
 20
1248.6065549779109
 30
0.0
 40
9.5015562499999984
  1
実働作帯域
 41
0.7
 11
92.248084141457412
 21
1258.108111227911
 31
0.0
 73
     3
  0
TEXT
  5
5F
  8
SPEC
 62
     7
 10
92.104153941685794
 20
1042.458884667865
 30
0.0
 40
9.5015562499999984
  1
オーディオ入出力端子
 41
0.7
 11
92.104153941685794
 21
1051.9604409178651
 31
0.0
 73
     3
  0
TEXT
  5
60
  8
SPEC
 62
     7
 10
329.15244252956501
 20
1192.085735480244
 30
0.0
 40
9.5015562499999984
  1
15～70kHz
 41
0.7
 11
329.15244252956501
 21
1201.5872917302449
 31
0.0
 73
     3
  0
TEXT
  5
61
  8
SPEC
 62
     7
 10
329.83766657191632
 20
1135.6205163830109
 30
0.0
 40
9.5015562499999984
  1
RJ-45(CAT-5)8線
 41
0.7
 11
329.83766657191632
 21
1145.1220726330109
 31
0.0
 73
     3
  0
TEXT
  5
62
  8
SPEC
 62
     7
 10
329.11527726103571
 20
1229.634876045114
 30
0.0
 40
9.5015562499999984
  1
1.2Vp-p
 41
0.7
 11
329.11527726103571
 21
1239.136432295114
 31
0.0
 73
     3
  0
TEXT
  5
63
  8
SPEC
 62
     7
 10
329.64611803729281
 20
1173.5589325924309
 30
0.0
 40
9.5015562499999984
  1
30～170Hz
 41
0.7
 11
329.64611803729281
 21
1183.0604888424309
 31
0.0
 73
     3
  0
TEXT
  5
64
  8
SPEC
 62
     7
 10
329.30094862547679
 20
1248.5351662723881
 30
0.0
 40
9.5015562499999984
  1
120MHz
 41
0.7
 11
329.30094862547679
 21
1258.0367225223879
 31
0.0
 73
     3
  0
TEXT
  5
65
  8
SPEC
 62
     7
 10
329.65608842373791
 20
1266.8760208198059
 30
0.0
 40
9.5015562499999984
  1
350MHz
 41
0.7
 11
329.65608842373791
 21
1276.377577069806
 31
0.0
 73
     3
  0
LINE
  5
66
  8
SPEC
  6
CONTINUOUS
 62
     7
 10
325.0
 20
1300.0
 30
0.0
 11
325.0
 21
962.5
 31
0.0
  0
LINE
  5
67
  8
SPEC
  6
CONTINUOUS
 62
     7
 10
87.5
 20
1093.75
 30
0.0
 11
800.55480516773923
 21
1093.75
 31
0.0
  0
LINE
  5
68
  8
SPEC
  6
CONTINUOUS
 62
     7
 10
87.5
 20
1075.0
 30
0.0
 11
800.55480516773923
 21
1075.0
 31
0.0
  0
LINE
  5
69
  8
SPEC
  6
CONTINUOUS
 62
     7
 10
87.5
 20
1056.25
 30
0.0
 11
800.55480516773923
 21
1056.25
 31
0.0
  0
TEXT
  5
6A
  8
SPEC
 62
     7
 10
329.8589506598442
 20
1022.826162367327
 30
0.0
 40
9.5015562499999984
  1
5V DC
 41
0.7
 11
329.8589506598442
 21
1032.327718617327
 31
0.0
 73
     3
  0
TEXT
  5
6B
  8
SPEC
 62
     7
 10
91.996082525027632
 20
1023.276360743638
 30
0.0
 40
9.5015562499999984
  1
電源
 41
0.7
 11
91.996082525027632
 21
1032.777916993638
 31
0.0
 73
     3
  0
TEXT
  5
6C
  8
SPEC
 62
     7
 10
329.25751220352328
 20
1005.193734256046
 30
0.0
 40
9.5015562499999984
  1
1U(別売ラックマウントキット使用時)
 41
0.7
 11
329.25751220352328
 21
1014.695290506046
 31
0.0
 73
     3
  0
TEXT
  5
6D
  8
SPEC
 62
     7
 10
91.180733782655764
 20
1004.912251864754
 30
0.0
 40
9.5015562499999984
  1
ラックマウントサイズ
 41
0.7
 11
91.180733782655764
 21
1014.413808114754
 31
0.0
 73
     3
  0
TEXT
  5
6E
  8
SPEC
 62
     7
 10
92.239136959030134
 20
986.07703021101565
 30
0.0
 40
9.5015562499999984
  1
寸法
 41
0.7
 11
92.239136959030134
 21
995.57858646101556
 31
0.0
 73
     3
  0
TEXT
  5
6F
  8
SPEC
 62
     7
 10
329.93744200744862
 20
985.84910518989454
 30
0.0
 40
9.5015562499999984
  1
214(W)\U+00D742(H)\U+00D7109(D)mm(突起部含まず)、(センダー、レシ－バー共に)
 41
0.7
 11
329.93744200744862
 21
995.35066143989457
 31
0.0
 73
     3
  0
LINE
  5
70
  8
SPEC
  6
CONTINUOUS
 62
     7
 10
87.5
 20
1018.75
 30
0.0
 11
800.55480516773923
 21
1018.75
 31
0.0
  0
LINE
  5
71
  8
SPEC
  6
CONTINUOUS
 62
     7
 10
87.5
 20
1300.0
 30
0.0
 11
87.5
 21
962.5
 31
0.0
  0
TEXT
  5
72
  8
SPEC
 62
     7
 10
329.6383938141588
 20
1154.235992787274
 30
0.0
 40
9.5015562499999984
  1
7.62～137.16m
 41
0.7
 11
329.6383938141588
 21
1163.737549037274
 31
0.0
 73
     3
  0
TEXT
  5
73
  8
SPEC
 62
     7
 10
329.67176349070593
 20
967.78837060079434
 30
0.0
 40
9.5015562499999984
  1
約500g(センダー、レシーバー共に）
 41
0.7
 11
329.67176349070593
 21
977.28992685079425
 31
0.0
 73
     3
  0
TEXT
  5
74
  8
SPEC
 62
     7
 10
92.057547162941347
 20
967.43799939288294
 30
0.0
 40
9.5015562499999984
  1
重量
 41
0.7
 11
92.057547162941347
 21
976.93955564288285
 31
0.0
 73
     3
  0
LINE
  5
75
  8
SPEC
  6
CONTINUOUS
 62
     7
 10
87.5
 20
1037.5
 30
0.0
 11
800.55480516773923
 21
1037.5
 31
0.0
  0
LINE
  5
76
  8
SPEC
  6
CONTINUOUS
 62
     7
 10
87.5
 20
1000.0
 30
0.0
 11
800.55480516773923
 21
1000.0
 31
0.0
  0
LINE
  5
77
  8
SPEC
  6
CONTINUOUS
 62
     7
 10
87.5
 20
981.25
 30
0.0
 11
800.55480516773923
 21
981.25
 31
0.0
  0
LINE
  5
78
  8
SPEC
  6
CONTINUOUS
 62
     7
 10
87.5
 20
962.5
 30
0.0
 11
800.55480516773923
 21
962.5
 31
0.0
  0
TEXT
  5
79
  8
SPEC
 62
     7
 10
92.351638443956674
 20
1080.0088946409981
 30
0.0
 40
9.5015562499999984
  1
USB入力端子
 41
0.7
 11
92.351638443956674
 21
1089.5104508909981
 31
0.0
 73
     3
  0
TEXT
  5
7A
  8
SPEC
 62
     7
 10
92.273073113409694
 20
1060.783602969979
 30
0.0
 40
9.5015562499999984
  1
USB出力端子
 41
0.7
 11
92.273073113409694
 21
1070.2851592199791
 31
0.0
 73
     3
  0
TEXT
  5
7B
  8
SPEC
 62
     7
 10
329.84057192685032
 20
1079.4535757371989
 30
0.0
 40
9.5015562499999984
  1
Bタ イプコネクタ ー(センダー)
 41
0.7
 11
329.84057192685032
 21
1088.9551319871989
 31
0.0
 73
     3
  0
TEXT
  5
7C
  8
SPEC
 62
     7
 10
330.34764516593759
 20
1061.342245784735
 30
0.0
 40
9.5015562499999984
  1
Aタ イプコネクタ ー(レシーバー)
 41
0.7
 11
330.34764516593759
 21
1070.8438020347351
 31
0.0
 73
     3
  0
LINE
  5
7D
  8
SPEC
  6
CONTINUOUS
 62
     7
 10
800.55480516773923
 20
1300.0
 30
0.0
 11
800.55480516773923
 21
962.5
 31
0.0
  0
TEXT
  5
7E
  8
SPEC
 62
     7
 10
91.108474942989787
 20
1211.2024840906611
 30
0.0
 40
9.5015562499999984
  1
シンク入力信号レベル
 41
0.7
 11
91.108474942989787
 21
1220.7040403406611
 31
0.0
 73
     3
  0
TEXT
  5
7F
  8
SPEC
 62
     7
 10
329.95446182476752
 20
1210.836956700658
 30
0.0
 40
9.5015562499999984
  1
5Vp-p(TTL)
 41
0.7
 11
329.95446182476752
 21
1220.338512950658
 31
0.0
 73
     3
  0
TEXT
  5
80
  8
SPEC
 62
     7
 10
92.629394154458694
 20
1117.2941521529231
 30
0.0
 40
9.5015562499999984
  1
VGA入力端子
 41
0.7
 11
92.629394154458694
 21
1126.7957084029231
 31
0.0
 73
     3
  0
TEXT
  5
81
  8
SPEC
 62
     7
 10
329.82946762248628
 20
1117.0746709847999
 30
0.0
 40
9.5015562499999984
  1
D-Sub HD-15(オス)(センダー)
 41
0.7
 11
329.82946762248628
 21
1126.5762272347999
 31
0.0
 73
     3
  0
TEXT
  5
82
  8
SPEC
 62
     7
 10
92.62900008814016
 20
1098.622426427532
 30
0.0
 40
9.5015562499999984
  1
VGA出力端子
 41
0.7
 11
92.62900008814016
 21
1108.123982677532
 31
0.0
 73
     3
  0
TEXT
  5
83
  8
SPEC
 62
     7
 10
329.81071723762238
 20
1098.2911089996301
 30
0.0
 40
9.5015562499999984
  1
D-Sub HD-15(メス)(センダー/レシーバー)
 41
0.7
 11
329.81071723762238
 21
1107.7926652496301
 31
0.0
 73
     3
  0
TEXT
  5
84
  8
SPEC
 62
     7
 10
329.36118602613737
 20
1042.372752236693
 30
0.0
 40
9.5015562499999984
  1
ステレオミニフォンジャック
 41
0.7
 11
329.36118602613737
 21
1051.8743084866931
 31
0.0
 73
     3
  0
TEXT
  5
85
  8
DIMNSIONS
 62
     7
 10
400.0
 20
111.34744999999999
 30
0.0
 40
12.21630859375
  1
(単位：mm)
 41
0.7
 11
400.0
 21
123.5637585937499
 31
0.0
 73
     3
  0
LINE
  5
86
  8
DIMNSIONS
  6
CONTINUOUS
 62
     7
 10
102.4999999999999
 20
350.0
 30
0.0
 11
65.0
 21
350.0
 31
0.0
  0
LINE
  5
87
  8
DIMNSIONS
  6
CONTINUOUS
 62
     7
 10
102.4999999999999
 20
392.0
 30
0.0
 11
65.0
 21
392.0
 31
0.0
  0
LINE
  5
88
  8
DIMNSIONS
  6
CONTINUOUS
 62
     7
 10
75.0
 20
350.0
 30
0.0
 11
75.0
 21
392.0
 31
0.0
  0
LINE
  5
89
  8
DIMNSIONS
  6
CONTINUOUS
 62
     7
 10
75.0
 20
350.0
 30
0.0
 11
71.649801024248802
 21
362.50311279296881
 31
0.0
  0
LINE
  5
8A
  8
DIMNSIONS
  6
CONTINUOUS
 62
     7
 10
75.0
 20
350.0
 30
0.0
 11
78.350198975751184
 21
362.50311279296881
 31
0.0
  0
LINE
  5
8B
  8
DIMNSIONS
  6
CONTINUOUS
 62
     7
 10
75.0
 20
392.0
 30
0.0
 11
78.350198975751184
 21
379.49688720703131
 31
0.0
  0
LINE
  5
8C
  8
DIMNSIONS
  6
CONTINUOUS
 62
     7
 10
75.0
 20
392.0
 30
0.0
 11
71.649801024248802
 21
379.49688720703131
 31
0.0
  0
TEXT
  5
8D
  8
DIMNSIONS
 62
     7
 10
70.030555555555509
 20
362.18055555555549
 30
0.0
 40
13.57367621527778
  1
42
 50
90.0
 41
0.7
 11
56.45687934027773
 21
362.18055555555549
 31
0.0
 73
     3
  0
LINE
  5
8E
  8
DIMNSIONS
  6
CONTINUOUS
 62
     7
 10
112.4999999999999
 20
340.0
 30
0.0
 11
112.4999999999999
 21
302.5
 31
0.0
  0
LINE
  5
8F
  8
DIMNSIONS
  6
CONTINUOUS
 62
     7
 10
326.5
 20
340.0
 30
0.0
 11
326.5
 21
302.5
 31
0.0
  0
LINE
  5
90
  8
DIMNSIONS
  6
CONTINUOUS
 62
     7
 10
112.4999999999999
 20
312.5
 30
0.0
 11
326.5
 21
312.5
 31
0.0
  0
LINE
  5
91
  8
DIMNSIONS
  6
CONTINUOUS
 62
     7
 10
112.4999999999999
 20
312.5
 30
0.0
 11
125.00311279296869
 21
315.8501989757512
 31
0.0
  0
LINE
  5
92
  8
DIMNSIONS
  6
CONTINUOUS
 62
     7
 10
112.4999999999999
 20
312.5
 30
0.0
 11
125.00311279296869
 21
309.1498010242488
 31
0.0
  0
LINE
  5
93
  8
DIMNSIONS
  6
CONTINUOUS
 62
     7
 10
326.5
 20
312.5
 30
0.0
 11
313.99688720703119
 21
309.1498010242488
 31
0.0
  0
LINE
  5
94
  8
DIMNSIONS
  6
CONTINUOUS
 62
     7
 10
326.5
 20
312.5
 30
0.0
 11
313.99688720703119
 21
315.8501989757512
 31
0.0
  0
TEXT
  5
95
  8
DIMNSIONS
 62
     7
 10
206.27083333333329
 20
317.46944444444449
 30
0.0
 40
13.57367621527778
  1
214
 41
0.7
 11
206.27083333333329
 21
331.04312065972232
 31
0.0
 73
     3
  0
LINE
  5
96
  8
DIMNSIONS
  6
CONTINUOUS
 62
     7
 10
102.4999999999999
 20
462.5
 30
0.0
 11
65.0
 21
462.5
 31
0.0
  0
LINE
  5
97
  8
DIMNSIONS
  6
CONTINUOUS
 62
     7
 10
102.4999999999999
 20
571.49999999999989
 30
0.0
 11
65.0
 21
571.49999999999989
 31
0.0
  0
LINE
  5
98
  8
DIMNSIONS
  6
CONTINUOUS
 62
     7
 10
75.0
 20
462.5
 30
0.0
 11
75.0
 21
571.49999999999989
 31
0.0
  0
LINE
  5
99
  8
DIMNSIONS
  6
CONTINUOUS
 62
     7
 10
75.0
 20
462.5
 30
0.0
 11
71.649801024248802
 21
475.00311279296881
 31
0.0
  0
LINE
  5
9A
  8
DIMNSIONS
  6
CONTINUOUS
 62
     7
 10
75.0
 20
462.5
 30
0.0
 11
78.350198975751184
 21
475.00311279296881
 31
0.0
  0
LINE
  5
9B
  8
DIMNSIONS
  6
CONTINUOUS
 62
     7
 10
75.0
 20
571.49999999999989
 30
0.0
 11
78.350198975751184
 21
558.99688720703125
 31
0.0
  0
LINE
  5
9C
  8
DIMNSIONS
  6
CONTINUOUS
 62
     7
 10
75.0
 20
571.49999999999989
 30
0.0
 11
71.649801024248802
 21
558.99688720703125
 31
0.0
  0
TEXT
  5
9D
  8
DIMNSIONS
 62
     7
 10
70.030555555555509
 20
503.77083333333331
 30
0.0
 40
13.57367621527778
  1
109
 50
90.0
 41
0.7
 11
56.45687934027773
 21
503.77083333333331
 31
0.0
 73
     3
  0
LINE
  5
9E
  8
DIMNSIONS
  6
CONTINUOUS
 62
     7
 10
102.4999999999999
 20
571.49999999999989
 30
0.0
 11
65.0
 21
571.49999999999989
 31
0.0
  0
LINE
  5
9F
  8
DIMNSIONS
  6
CONTINUOUS
 62
     7
 10
199.6804672877428
 20
575.49999999999989
 30
0.0
 11
65.0
 21
575.49999999999989
 31
0.0
  0
LINE
  5
A0
  8
DIMNSIONS
  6
CONTINUOUS
 62
     7
 10
75.0
 20
575.49999999999989
 30
0.0
 11
75.0
 21
571.49999999999989
 31
0.0
  0
LINE
  5
A1
  8
DIMNSIONS
  6
CONTINUOUS
 62
     7
 10
75.0
 20
571.49999999999989
 30
0.0
 11
75.0
 21
546.49999999999989
 31
0.0
  0
LINE
  5
A2
  8
DIMNSIONS
  6
CONTINUOUS
 62
     7
 10
75.0
 20
571.49999999999989
 30
0.0
 11
78.350198975751184
 21
558.99688720703125
 31
0.0
  0
LINE
  5
A3
  8
DIMNSIONS
  6
CONTINUOUS
 62
     7
 10
75.0
 20
571.49999999999989
 30
0.0
 11
71.649801024248802
 21
558.99688720703125
 31
0.0
  0
LINE
  5
A4
  8
DIMNSIONS
  6
CONTINUOUS
 62
     7
 10
75.0
 20
575.49999999999989
 30
0.0
 11
75.0
 21
596.31944444444434
 31
0.0
  0
LINE
  5
A5
  8
DIMNSIONS
  6
CONTINUOUS
 62
     7
 10
75.0
 20
575.49999999999989
 30
0.0
 11
71.649801024248802
 21
588.00311279296875
 31
0.0
  0
LINE
  5
A6
  8
DIMNSIONS
  6
CONTINUOUS
 62
     7
 10
75.0
 20
575.49999999999989
 30
0.0
 11
78.350198975751184
 21
588.00311279296875
 31
0.0
  0
TEXT
  5
A7
  8
DIMNSIONS
 62
     7
 10
70.030555555555509
 20
587.5
 30
0.0
 40
13.57367621527778
  1
4
 50
90.0
 41
0.7
 11
56.45687934027773
 21
587.5
 31
0.0
 73
     3
  0
LINE
  5
A8
  8
DIMNSIONS
  6
CONTINUOUS
 62
     7
 10
552.5
 20
350.0
 30
0.0
 11
515.0
 21
350.0
 31
0.0
  0
LINE
  5
A9
  8
DIMNSIONS
  6
CONTINUOUS
 62
     7
 10
552.5
 20
392.0
 30
0.0
 11
515.0
 21
392.0
 31
0.0
  0
LINE
  5
AA
  8
DIMNSIONS
  6
CONTINUOUS
 62
     7
 10
525.0
 20
350.0
 30
0.0
 11
525.0
 21
392.0
 31
0.0
  0
LINE
  5
AB
  8
DIMNSIONS
  6
CONTINUOUS
 62
     7
 10
525.0
 20
350.0
 30
0.0
 11
521.64980102424875
 21
362.50311279296881
 31
0.0
  0
LINE
  5
AC
  8
DIMNSIONS
  6
CONTINUOUS
 62
     7
 10
525.0
 20
350.0
 30
0.0
 11
528.35019897575125
 21
362.50311279296881
 31
0.0
  0
LINE
  5
AD
  8
DIMNSIONS
  6
CONTINUOUS
 62
     7
 10
525.0
 20
392.0
 30
0.0
 11
528.35019897575125
 21
379.49688720703131
 31
0.0
  0
LINE
  5
AE
  8
DIMNSIONS
  6
CONTINUOUS
 62
     7
 10
525.0
 20
392.0
 30
0.0
 11
521.64980102424875
 21
379.49688720703131
 31
0.0
  0
TEXT
  5
AF
  8
DIMNSIONS
 62
     7
 10
520.03055555555545
 20
362.18055555555549
 30
0.0
 40
13.57367621527778
  1
42
 50
90.0
 41
0.7
 11
506.45687934027768
 21
362.18055555555549
 31
0.0
 73
     3
  0
LINE
  5
B0
  8
DIMNSIONS
  6
CONTINUOUS
 62
     7
 10
562.5
 20
340.0
 30
0.0
 11
562.5
 21
302.5
 31
0.0
  0
LINE
  5
B1
  8
DIMNSIONS
  6
CONTINUOUS
 62
     7
 10
776.5
 20
340.0
 30
0.0
 11
776.5
 21
302.5
 31
0.0
  0
LINE
  5
B2
  8
DIMNSIONS
  6
CONTINUOUS
 62
     7
 10
562.5
 20
312.5
 30
0.0
 11
776.5
 21
312.5
 31
0.0
  0
LINE
  5
B3
  8
DIMNSIONS
  6
CONTINUOUS
 62
     7
 10
562.5
 20
312.5
 30
0.0
 11
575.00311279296875
 21
315.8501989757512
 31
0.0
  0
LINE
  5
B4
  8
DIMNSIONS
  6
CONTINUOUS
 62
     7
 10
562.5
 20
312.5
 30
0.0
 11
575.00311279296875
 21
309.1498010242488
 31
0.0
  0
LINE
  5
B5
  8
DIMNSIONS
  6
CONTINUOUS
 62
     7
 10
776.5
 20
312.5
 30
0.0
 11
763.99688720703125
 21
309.1498010242488
 31
0.0
  0
LINE
  5
B6
  8
DIMNSIONS
  6
CONTINUOUS
 62
     7
 10
776.5
 20
312.5
 30
0.0
 11
763.99688720703125
 21
315.8501989757512
 31
0.0
  0
TEXT
  5
B7
  8
DIMNSIONS
 62
     7
 10
656.27083333333326
 20
317.46944444444449
 30
0.0
 40
13.57367621527778
  1
214
 41
0.7
 11
656.27083333333326
 21
331.04312065972232
 31
0.0
 73
     3
  0
LINE
  5
B8
  8
DIMNSIONS
  6
CONTINUOUS
 62
     7
 10
552.5
 20
462.5
 30
0.0
 11
515.0
 21
462.5
 31
0.0
  0
LINE
  5
B9
  8
DIMNSIONS
  6
CONTINUOUS
 62
     7
 10
552.5
 20
571.49999999999989
 30
0.0
 11
515.0
 21
571.49999999999989
 31
0.0
  0
LINE
  5
BA
  8
DIMNSIONS
  6
CONTINUOUS
 62
     7
 10
525.0
 20
462.5
 30
0.0
 11
525.0
 21
571.49999999999989
 31
0.0
  0
LINE
  5
BB
  8
DIMNSIONS
  6
CONTINUOUS
 62
     7
 10
525.0
 20
462.5
 30
0.0
 11
521.64980102424875
 21
475.00311279296881
 31
0.0
  0
LINE
  5
BC
  8
DIMNSIONS
  6
CONTINUOUS
 62
     7
 10
525.0
 20
462.5
 30
0.0
 11
528.35019897575125
 21
475.00311279296881
 31
0.0
  0
LINE
  5
BD
  8
DIMNSIONS
  6
CONTINUOUS
 62
     7
 10
525.0
 20
571.49999999999989
 30
0.0
 11
528.35019897575125
 21
558.99688720703125
 31
0.0
  0
LINE
  5
BE
  8
DIMNSIONS
  6
CONTINUOUS
 62
     7
 10
525.0
 20
571.49999999999989
 30
0.0
 11
521.64980102424875
 21
558.99688720703125
 31
0.0
  0
TEXT
  5
BF
  8
DIMNSIONS
 62
     7
 10
520.03055555555545
 20
503.77083333333331
 30
0.0
 40
13.57367621527778
  1
109
 50
90.0
 41
0.7
 11
506.45687934027768
 21
503.77083333333331
 31
0.0
 73
     3
  0
LINE
  5
C0
  8
DIMNSIONS
  6
CONTINUOUS
 62
     7
 10
552.5
 20
571.49999999999989
 30
0.0
 11
515.0
 21
571.49999999999989
 31
0.0
  0
LINE
  5
C1
  8
DIMNSIONS
  6
CONTINUOUS
 62
     7
 10
664.44583589346848
 20
575.49999999999989
 30
0.0
 11
515.0
 21
575.49999999999989
 31
0.0
  0
LINE
  5
C2
  8
DIMNSIONS
  6
CONTINUOUS
 62
     7
 10
525.0
 20
575.49999999999989
 30
0.0
 11
525.0
 21
571.49999999999989
 31
0.0
  0
LINE
  5
C3
  8
DIMNSIONS
  6
CONTINUOUS
 62
     7
 10
525.0
 20
571.49999999999989
 30
0.0
 11
525.0
 21
546.49999999999989
 31
0.0
  0
LINE
  5
C4
  8
DIMNSIONS
  6
CONTINUOUS
 62
     7
 10
525.0
 20
571.49999999999989
 30
0.0
 11
528.35019897575125
 21
558.99688720703125
 31
0.0
  0
LINE
  5
C5
  8
DIMNSIONS
  6
CONTINUOUS
 62
     7
 10
525.0
 20
571.49999999999989
 30
0.0
 11
521.64980102424875
 21
558.99688720703125
 31
0.0
  0
LINE
  5
C6
  8
DIMNSIONS
  6
CONTINUOUS
 62
     7
 10
525.0
 20
575.49999999999989
 30
0.0
 11
525.0
 21
596.31944444444434
 31
0.0
  0
LINE
  5
C7
  8
DIMNSIONS
  6
CONTINUOUS
 62
     7
 10
525.0
 20
575.49999999999989
 30
0.0
 11
521.64980102424875
 21
588.00311279296875
 31
0.0
  0
LINE
  5
C8
  8
DIMNSIONS
  6
CONTINUOUS
 62
     7
 10
525.0
 20
575.49999999999989
 30
0.0
 11
528.35019897575125
 21
588.00311279296875
 31
0.0
  0
TEXT
  5
C9
  8
DIMNSIONS
 62
     7
 10
520.03055555555545
 20
587.5
 30
0.0
 40
13.57367621527778
  1
4
 50
90.0
 41
0.7
 11
506.45687934027768
 21
587.5
 31
0.0
 73
     3
  0
LINE
  5
CA
  8
DIMNSIONS
  6
CONTINUOUS
 62
     7
 10
102.4999999999999
 20
350.0
 30
0.0
 11
65.0
 21
350.0
 31
0.0
  0
LINE
  5
CB
  8
DIMNSIONS
  6
CONTINUOUS
 62
     7
 10
107.59935527955641
 20
346.0
 30
0.0
 11
65.0
 21
346.0
 31
0.0
  0
LINE
  5
CC
  8
DIMNSIONS
  6
CONTINUOUS
 62
     7
 10
75.0
 20
346.0
 30
0.0
 11
75.0
 21
350.0
 31
0.0
  0
LINE
  5
CD
  8
DIMNSIONS
  6
CONTINUOUS
 62
     7
 10
75.0
 20
350.0
 30
0.0
 11
75.0
 21
375.0
 31
0.0
  0
LINE
  5
CE
  8
DIMNSIONS
  6
CONTINUOUS
 62
     7
 10
75.0
 20
350.0
 30
0.0
 11
71.649801024248802
 21
362.50311279296881
 31
0.0
  0
LINE
  5
CF
  8
DIMNSIONS
  6
CONTINUOUS
 62
     7
 10
75.0
 20
350.0
 30
0.0
 11
78.350198975751184
 21
362.50311279296881
 31
0.0
  0
LINE
  5
D0
  8
DIMNSIONS
  6
CONTINUOUS
 62
     7
 10
75.0
 20
346.0
 30
0.0
 11
75.0
 21
328.6805555555556
 31
0.0
  0
LINE
  5
D1
  8
DIMNSIONS
  6
CONTINUOUS
 62
     7
 10
75.0
 20
346.0
 30
0.0
 11
78.350198975751184
 21
333.49688720703131
 31
0.0
  0
LINE
  5
D2
  8
DIMNSIONS
  6
CONTINUOUS
 62
     7
 10
75.0
 20
346.0
 30
0.0
 11
71.649801024248802
 21
333.49688720703131
 31
0.0
  0
TEXT
  5
D3
  8
DIMNSIONS
 62
     7
 10
70.030555555555509
 20
328.6805555555556
 30
0.0
 40
13.57367621527778
  1
4
 50
90.0
 41
0.7
 11
56.45687934027773
 21
328.6805555555556
 31
0.0
 73
     3
  0
LINE
  5
D4
  8
DIMNSIONS
  6
CONTINUOUS
 62
     7
 10
552.5
 20
350.0
 30
0.0
 11
515.0
 21
350.0
 31
0.0
  0
LINE
  5
D5
  8
DIMNSIONS
  6
CONTINUOUS
 62
     7
 10
557.59935527955645
 20
346.0
 30
0.0
 11
515.0
 21
346.0
 31
0.0
  0
LINE
  5
D6
  8
DIMNSIONS
  6
CONTINUOUS
 62
     7
 10
525.0
 20
346.0
 30
0.0
 11
525.0
 21
350.0
 31
0.0
  0
LINE
  5
D7
  8
DIMNSIONS
  6
CONTINUOUS
 62
     7
 10
525.0
 20
350.0
 30
0.0
 11
525.0
 21
375.0
 31
0.0
  0
LINE
  5
D8
  8
DIMNSIONS
  6
CONTINUOUS
 62
     7
 10
525.0
 20
350.0
 30
0.0
 11
521.64980102424875
 21
362.50311279296881
 31
0.0
  0
LINE
  5
D9
  8
DIMNSIONS
  6
CONTINUOUS
 62
     7
 10
525.0
 20
350.0
 30
0.0
 11
528.35019897575125
 21
362.50311279296881
 31
0.0
  0
LINE
  5
DA
  8
DIMNSIONS
  6
CONTINUOUS
 62
     7
 10
525.0
 20
346.0
 30
0.0
 11
525.0
 21
328.6805555555556
 31
0.0
  0
LINE
  5
DB
  8
DIMNSIONS
  6
CONTINUOUS
 62
     7
 10
525.0
 20
346.0
 30
0.0
 11
528.35019897575125
 21
333.49688720703131
 31
0.0
  0
LINE
  5
DC
  8
DIMNSIONS
  6
CONTINUOUS
 62
     7
 10
525.0
 20
346.0
 30
0.0
 11
521.64980102424875
 21
333.49688720703131
 31
0.0
  0
TEXT
  5
DD
  8
DIMNSIONS
 62
     7
 10
520.03055555555545
 20
328.6805555555556
 30
0.0
 40
13.57367621527778
  1
4
 50
90.0
 41
0.7
 11
506.45687934027768
 21
328.6805555555556
 31
0.0
 73
     3
  0
TEXT
  5
DE
  8
DATA
 62
     7
 10
750.0
 20
105.65445
 30
0.0
 40
12.21630859375
  1
EXT-CAT5-1000
 41
0.7
 11
750.0
 21
117.87075859375
 31
0.0
 73
     3
  0
TEXT
  5
DF
  8
DATA
 62
     7
 10
750.0
 20
141.90445
 30
0.0
 40
12.21630859375
  1
Gefen
 41
0.7
 11
750.0
 21
154.12075859375
 31
0.0
 73
     3
  0
TEXT
  5
E0
  8
DATA
 62
     7
 10
737.5
 20
124.51966899999999
 30
0.0
 40
8.1442185546874981
  1
KVM延長機
 41
0.7
 11
737.5
 21
132.66388755468751
 31
0.0
 73
     3
  0
TEXT
  5
E1
  8
DATA
 62
     7
 10
100.0
 20
71.190000000000111
 30
0.0
 40
8.1442057291666661
  1
仕様および外観は予告なく変更されることがありますので、ご了承ください。
 41
0.7
 11
100.0
 21
79.334205729166783
 31
0.0
 73
     3
  0
LINE
  5
E2
  8
DATA
  6
CONTINUOUS
 62
     7
 10
112.4999999999999
 20
352.60000000000002
 30
0.0
 11
112.4999999999999
 21
392.0
 31
0.0
  0
LINE
  5
E3
  8
DATA
  6
CONTINUOUS
 62
     7
 10
326.5
 20
350.0
 30
0.0
 11
112.4999999999999
 21
350.0
 31
0.0
  0
LINE
  5
E4
  8
DATA
  6
CONTINUOUS
 62
     7
 10
112.4999999999999
 20
462.5
 30
0.0
 11
112.4999999999999
 21
571.49999999999989
 31
0.0
  0
LINE
  5
E5
  8
DATA
  6
CONTINUOUS
 62
     7
 10
326.5
 20
462.5
 30
0.0
 11
112.4999999999999
 21
462.5
 31
0.0
  0
LINE
  5
E6
  8
DATA
  6
CONTINUOUS
 62
     7
 10
350.0
 20
350.0
 30
0.0
 11
350.0
 21
392.0
 31
0.0
  0
LINE
  5
E7
  8
DATA
  6
CONTINUOUS
 62
     7
 10
459.0
 20
350.0
 30
0.0
 11
350.0
 21
350.0
 31
0.0
  0
CIRCLE
  5
E8
  8
DATA
  6
CONTINUOUS
 62
     7
 10
278.50899043204521
 20
367.03557743365508
 30
0.0
 40
1.4249999999999541
  0
TEXT
  5
E9
  8
DATA
 62
     7
 10
275.47120102177189
 20
359.54616046824469
 30
0.0
 40
1.764577907986111
  1
Power
 41
0.7
 11
275.47120102177189
 21
361.3107383762308
 31
0.0
 73
     3
  0
TEXT
  5
EA
  8
DATA
 62
     7
 10
259.89592472634769
 20
373.55743008952379
 30
0.0
 40
9.7730468750000004
  1
CAT5
 41
0.7
 11
259.89592472634769
 21
383.33047696452383
 31
0.0
 73
     3
  0
TEXT
  5
EB
  8
DATA
 62
     7
 10
289.67657711940149
 20
373.55743008952379
 30
0.0
 40
9.7730468750000004
  1
1000S
 41
0.7
 11
289.67657711940149
 21
383.33047696452383
 31
0.0
 73
     3
  0
CIRCLE
  5
EC
  8
DATA
  6
CONTINUOUS
 62
     7
 10
287.61772556371642
 20
378.67681432528991
 30
0.0
 40
0.7835705481053945
  0
LINE
  5
ED
  8
DATA
  6
CONTINUOUS
 62
     7
 10
117.59935527955641
 20
346.0
 30
0.0
 11
116.1993552795563
 21
350.0
 31
0.0
  0
LINE
  5
EE
  8
DATA
  6
CONTINUOUS
 62
     7
 10
127.3993552795563
 20
346.0
 30
0.0
 11
128.79935527955629
 21
350.0
 31
0.0
  0
LINE
  5
EF
  8
DATA
  6
CONTINUOUS
 62
     7
 10
117.59935527955641
 20
346.0
 30
0.0
 11
127.3993552795563
 21
346.0
 31
0.0
  0
LINE
  5
F0
  8
DATA
  6
CONTINUOUS
 62
     7
 10
321.40104681624558
 20
346.0
 30
0.0
 11
322.8010468162455
 21
350.0
 31
0.0
  0
LINE
  5
F1
  8
DATA
  6
CONTINUOUS
 62
     7
 10
311.6010468162454
 20
346.0
 30
0.0
 11
310.20104681624548
 21
350.0
 31
0.0
  0
LINE
  5
F2
  8
DATA
  6
CONTINUOUS
 62
     7
 10
321.40104681624558
 20
346.0
 30
0.0
 11
311.6010468162454
 21
346.0
 31
0.0
  0
CIRCLE
  5
F3
  8
DATA
  6
CONTINUOUS
 62
     7
 10
366.0
 20
360.0
 30
0.0
 40
2.5
  0
LINE
  5
F4
  8
DATA
  6
CONTINUOUS
 62
     7
 10
364.4988893001069
 20
360.0
 30
0.0
 11
367.5011106998931
 21
360.0
 31
0.0
  0
LINE
  5
F5
  8
DATA
  6
CONTINUOUS
 62
     7
 10
366.0
 20
358.4988893001069
 30
0.0
 11
366.0
 21
361.5011106998931
 31
0.0
  0
CIRCLE
  5
F6
  8
DATA
  6
CONTINUOUS
 62
     7
 10
439.0
 20
360.0
 30
0.0
 40
2.5
  0
LINE
  5
F7
  8
DATA
  6
CONTINUOUS
 62
     7
 10
437.49888930010678
 20
360.0
 30
0.0
 11
440.5011106998931
 21
360.0
 31
0.0
  0
LINE
  5
F8
  8
DATA
  6
CONTINUOUS
 62
     7
 10
439.0
 20
358.4988893001069
 30
0.0
 11
439.0
 21
361.5011106998931
 31
0.0
  0
TEXT
  5
F9
  8
DATA
 62
     7
 10
230.90674893789671
 20
688.54124307132759
 30
0.0
 40
2.4432617187500001
  1
Video In 
 50
180.0
 41
0.7
 11
230.90674893789671
 21
686.09798135257756
 31
0.0
 73
     3
  0
TEXT
  5
FA
  8
DATA
 62
     7
 10
183.0078301127721
 20
660.11965341495818
 30
0.0
 40
2.198935546875
  1
CAT-5
 50
180.0
 41
0.7
 11
183.0078301127721
 21
657.92071786808322
 31
0.0
 73
     3
  0
TEXT
  5
FB
  8
DATA
 62
     7
 10
201.5665758316226
 20
669.05041378820715
 30
0.0
 40
2.4432617187500001
  1
Audio
 50
180.0
 41
0.7
 11
201.5665758316226
 21
666.60715206945724
 31
0.0
 73
     3
  0
TEXT
  5
FC
  8
DATA
 62
     7
 10
201.5665758316226
 20
672.22541378820722
 30
0.0
 40
2.4432617187500001
  1
 
 50
180.0
 41
0.7
 11
201.5665758316226
 21
669.7821520694572
 31
0.0
 73
     3
  0
LINE
  5
FD
  8
DATA
  6
CONTINUOUS
 62
     7
 10
363.9067045303189
 20
346.0
 30
0.0
 11
365.30670453031888
 21
350.0
 31
0.0
  0
LINE
  5
FE
  8
DATA
  6
CONTINUOUS
 62
     7
 10
354.10670453031889
 20
346.0
 30
0.0
 11
352.70670453031892
 21
350.0
 31
0.0
  0
LINE
  5
FF
  8
DATA
  6
CONTINUOUS
 62
     7
 10
363.9067045303189
 20
346.0
 30
0.0
 11
354.10670453031889
 21
346.0
 31
0.0
  0
TEXT
  5
100
  8
DATA
 62
     7
 10
149.53071045211641
 20
688.67552570378086
 30
0.0
 40
2.4432617187500001
  1
USB In
 50
180.0
 41
0.7
 11
149.53071045211641
 21
686.23226398503095
 31
0.0
 73
     3
  0
LINE
  5
101
  8
DATA
  6
CONTINUOUS
 62
     7
 10
112.4999999999999
 20
350.0
 30
0.0
 11
112.4999999999999
 21
392.0
 31
0.0
  0
LINE
  5
102
  8
DATA
  6
CONTINUOUS
 62
     7
 10
326.5
 20
350.0
 30
0.0
 11
326.5
 21
392.0
 31
0.0
  0
LINE
  5
103
  8
DATA
  6
CONTINUOUS
 62
     7
 10
326.5
 20
392.0
 30
0.0
 11
112.4999999999999
 21
392.0
 31
0.0
  0
LINE
  5
104
  8
DATA
  6
CONTINUOUS
 62
     7
 10
326.5
 20
571.49999999999989
 30
0.0
 11
112.4999999999999
 21
571.49999999999989
 31
0.0
  0
LINE
  5
105
  8
DATA
  6
CONTINUOUS
 62
     7
 10
326.5
 20
462.5
 30
0.0
 11
326.5
 21
571.49999999999989
 31
0.0
  0
LINE
  5
106
  8
DATA
  6
CONTINUOUS
 62
     7
 10
326.5
 20
469.5
 30
0.0
 11
112.4999999999999
 21
469.5
 31
0.0
  0
LINE
  5
107
  8
DATA
  6
CONTINUOUS
 62
     7
 10
350.0
 20
392.0
 30
0.0
 11
459.0
 21
392.0
 31
0.0
  0
LINE
  5
108
  8
DATA
  6
CONTINUOUS
 62
     7
 10
459.0
 20
350.0
 30
0.0
 11
459.0
 21
392.0
 31
0.0
  0
LINE
  5
109
  8
DATA
  6
CONTINUOUS
 62
     7
 10
443.9067045303189
 20
346.0
 30
0.0
 11
445.30670453031883
 21
350.0
 31
0.0
  0
LINE
  5
10A
  8
DATA
  6
CONTINUOUS
 62
     7
 10
434.10670453031889
 20
346.0
 30
0.0
 11
432.70670453031892
 21
350.0
 31
0.0
  0
LINE
  5
10B
  8
DATA
  6
CONTINUOUS
 62
     7
 10
443.9067045303189
 20
346.0
 30
0.0
 11
434.10670453031889
 21
346.0
 31
0.0
  0
LINE
  5
10C
  8
DATA
  6
CONTINUOUS
 62
     7
 10
112.4999999999999
 20
689.39999999999998
 30
0.0
 11
112.4999999999999
 21
650.0
 31
0.0
  0
LINE
  5
10D
  8
DATA
  6
CONTINUOUS
 62
     7
 10
326.5
 20
692.0
 30
0.0
 11
112.4999999999999
 21
692.0
 31
0.0
  0
LINE
  5
10E
  8
DATA
  6
CONTINUOUS
 62
     7
 10
117.59935527955641
 20
696.0
 30
0.0
 11
116.1993552795563
 21
692.0
 31
0.0
  0
LINE
  5
10F
  8
DATA
  6
CONTINUOUS
 62
     7
 10
127.3993552795563
 20
696.0
 30
0.0
 11
128.79935527955629
 21
692.0
 31
0.0
  0
LINE
  5
110
  8
DATA
  6
CONTINUOUS
 62
     7
 10
117.59935527955641
 20
696.0
 30
0.0
 11
127.3993552795563
 21
696.0
 31
0.0
  0
LINE
  5
111
  8
DATA
  6
CONTINUOUS
 62
     7
 10
321.40104681624558
 20
696.0
 30
0.0
 11
322.8010468162455
 21
692.0
 31
0.0
  0
LINE
  5
112
  8
DATA
  6
CONTINUOUS
 62
     7
 10
311.6010468162454
 20
696.0
 30
0.0
 11
310.20104681624548
 21
692.0
 31
0.0
  0
LINE
  5
113
  8
DATA
  6
CONTINUOUS
 62
     7
 10
321.40104681624558
 20
696.0
 30
0.0
 11
311.6010468162454
 21
696.0
 31
0.0
  0
LINE
  5
114
  8
DATA
  6
CONTINUOUS
 62
     7
 10
112.4999999999999
 20
692.0
 30
0.0
 11
112.4999999999999
 21
650.0
 31
0.0
  0
LINE
  5
115
  8
DATA
  6
CONTINUOUS
 62
     7
 10
326.5
 20
692.0
 30
0.0
 11
326.5
 21
650.0
 31
0.0
  0
LINE
  5
116
  8
DATA
  6
CONTINUOUS
 62
     7
 10
326.5
 20
650.0
 30
0.0
 11
112.4999999999999
 21
650.0
 31
0.0
  0
CIRCLE
  5
117
  8
DATA
  6
CONTINUOUS
 62
     7
 10
307.31075858174461
 20
675.0
 30
0.0
 40
3.3000000000000682
  0
CIRCLE
  5
118
  8
DATA
  6
CONTINUOUS
 62
     7
 10
307.31075858174461
 20
675.0
 30
0.0
 40
0.5850000000000364
  0
CIRCLE
  5
119
  8
DATA
  6
CONTINUOUS
 62
     7
 10
197.49649996581709
 20
678.20746673958979
 30
0.0
 40
3.0
  0
CIRCLE
  5
11A
  8
DATA
  6
CONTINUOUS
 62
     7
 10
197.49649996581709
 20
678.20746673958979
 30
0.0
 40
1.649999999999977
  0
LINE
  5
11B
  8
DATA
  6
CONTINUOUS
 62
     7
 10
150.52447817341499
 20
681.67110016324921
 30
0.0
 11
150.52447817341499
 21
669.67110016324932
 31
0.0
  0
LINE
  5
11C
  8
DATA
  6
CONTINUOUS
 62
     7
 10
138.52447817341499
 20
681.67110016324921
 30
0.0
 11
150.52447817341499
 21
681.67110016324921
 31
0.0
  0
LINE
  5
11D
  8
DATA
  6
CONTINUOUS
 62
     7
 10
138.52447817341499
 20
669.67110016324932
 30
0.0
 11
138.52447817341499
 21
681.67110016324921
 31
0.0
  0
LINE
  5
11E
  8
DATA
  6
CONTINUOUS
 62
     7
 10
150.52447817341499
 20
669.67110016324932
 30
0.0
 11
138.52447817341499
 21
669.67110016324932
 31
0.0
  0
LINE
  5
11F
  8
DATA
  6
CONTINUOUS
 62
     7
 10
140.27447817341499
 20
679.92110016324921
 30
0.0
 11
148.77447817341499
 21
679.92110016324921
 31
0.0
  0
LINE
  5
120
  8
DATA
  6
CONTINUOUS
 62
     7
 10
148.77447817341499
 20
679.92110016324921
 30
0.0
 11
148.77447817341499
 21
673.07110016324918
 31
0.0
  0
LINE
  5
121
  8
DATA
  6
CONTINUOUS
 62
     7
 10
140.27447817341499
 20
673.07110016324918
 30
0.0
 11
140.27447817341499
 21
679.92110016324921
 31
0.0
  0
LINE
  5
122
  8
DATA
  6
CONTINUOUS
 62
     7
 10
146.77447817341499
 20
671.0711001632493
 30
0.0
 11
142.27447817341499
 21
671.0711001632493
 31
0.0
  0
LINE
  5
123
  8
DATA
  6
CONTINUOUS
 62
     7
 10
148.77447817341499
 20
673.07110016324918
 30
0.0
 11
146.77447817341499
 21
671.0711001632493
 31
0.0
  0
LINE
  5
124
  8
DATA
  6
CONTINUOUS
 62
     7
 10
140.27447817341499
 20
673.07110016324918
 30
0.0
 11
142.27447817341499
 21
671.0711001632493
 31
0.0
  0
POLYLINE
  5
125
  8
DATA
  6
CONTINUOUS
 62
     7
 66
     1
 10
0.0
 20
0.0
 30
0.0
 70
     1
  0
VERTEX
  5
3D4
  8
DATA
  6
CONTINUOUS
 62
     7
 10
141.52447817341499
 20
677.97945223104819
 30
0.0
  0
VERTEX
  5
3D5
  8
DATA
  6
CONTINUOUS
 62
     7
 10
147.52447817341499
 20
677.97945223104819
 30
0.0
  0
VERTEX
  5
3D6
  8
DATA
  6
CONTINUOUS
 62
     7
 10
147.52447817341499
 20
674.17945223104834
 30
0.0
  0
VERTEX
  5
3D7
  8
DATA
  6
CONTINUOUS
 62
     7
 10
141.52447817341499
 20
674.17945223104834
 30
0.0
  0
SEQEND
  5
3D8
  8
DATA
  6
CONTINUOUS
 62
     7
  0
LINE
  5
12C
  8
DATA
  6
CONTINUOUS
 62
     7
 10
171.56515229295019
 20
668.35000000000002
 30
0.0
 11
171.56515229295019
 21
681.64999999999986
 31
0.0
  0
LINE
  5
12D
  8
DATA
  6
CONTINUOUS
 62
     7
 10
187.26515229295029
 20
668.35000000000002
 30
0.0
 11
187.26515229295029
 21
681.64999999999986
 31
0.0
  0
LINE
  5
12E
  8
DATA
  6
CONTINUOUS
 62
     7
 10
187.26515229295029
 20
681.64999999999986
 30
0.0
 11
171.56515229295019
 21
681.64999999999986
 31
0.0
  0
LINE
  5
12F
  8
DATA
  6
CONTINUOUS
 62
     7
 10
187.26515229295029
 20
668.35000000000002
 30
0.0
 11
171.56515229295019
 21
668.35000000000002
 31
0.0
  0
LINE
  5
130
  8
DATA
  6
CONTINUOUS
 62
     7
 10
185.56515229295019
 20
671.35000000000002
 30
0.0
 11
173.26515229295029
 21
671.35000000000002
 31
0.0
  0
LINE
  5
131
  8
DATA
  6
CONTINUOUS
 62
     7
 10
185.56515229295019
 20
671.35000000000002
 30
0.0
 11
185.56515229295019
 21
678.64999999999998
 31
0.0
  0
LINE
  5
132
  8
DATA
  6
CONTINUOUS
 62
     7
 10
173.26515229295029
 20
671.35000000000002
 30
0.0
 11
173.26515229295029
 21
678.64999999999998
 31
0.0
  0
LINE
  5
133
  8
DATA
  6
CONTINUOUS
 62
     7
 10
181.64015229295029
 20
681.64999999999986
 30
0.0
 11
181.64015229295029
 21
680.14999999999986
 31
0.0
  0
LINE
  5
134
  8
DATA
  6
CONTINUOUS
 62
     7
 10
177.19015229295019
 20
680.14999999999986
 30
0.0
 11
177.19015229295019
 21
681.64999999999986
 31
0.0
  0
LINE
  5
135
  8
DATA
  6
CONTINUOUS
 62
     7
 10
182.76515229295029
 20
680.14999999999986
 30
0.0
 11
181.64015229295029
 21
680.14999999999986
 31
0.0
  0
LINE
  5
136
  8
DATA
  6
CONTINUOUS
 62
     7
 10
177.19015229295019
 20
680.14999999999986
 30
0.0
 11
176.06515229295019
 21
680.14999999999986
 31
0.0
  0
LINE
  5
137
  8
DATA
  6
CONTINUOUS
 62
     7
 10
185.56515229295019
 20
678.64999999999998
 30
0.0
 11
182.76515229295029
 21
678.64999999999998
 31
0.0
  0
LINE
  5
138
  8
DATA
  6
CONTINUOUS
 62
     7
 10
176.06515229295019
 20
678.64999999999998
 30
0.0
 11
173.26515229295029
 21
678.64999999999998
 31
0.0
  0
LINE
  5
139
  8
DATA
  6
CONTINUOUS
 62
     7
 10
182.76515229295029
 20
680.14999999999986
 30
0.0
 11
182.76515229295029
 21
678.64999999999998
 31
0.0
  0
LINE
  5
13A
  8
DATA
  6
CONTINUOUS
 62
     7
 10
176.06515229295019
 20
678.64999999999998
 30
0.0
 11
176.06515229295019
 21
680.14999999999986
 31
0.0
  0
TEXT
  5
13B
  8
DATA
 62
     7
 10
187.40684089548211
 20
663.52532056436837
 30
0.0
 40
2.198935546875
  1
Video/Audio
 50
180.0
 41
0.7
 11
187.40684089548211
 21
661.32638501749352
 31
0.0
 73
     3
  0
CIRCLE
  5
13C
  8
DATA
  6
CONTINUOUS
 62
     7
 10
212.03965166875929
 20
674.93989413011116
 30
0.0
 40
1.175000000000068
  0
POLYLINE
  5
13D
  8
DATA
  6
CONTINUOUS
 62
     7
 66
     1
 10
0.0
 20
0.0
 30
0.0
 70
     1
  0
VERTEX
  5
3D9
  8
DATA
  6
CONTINUOUS
 62
     7
 10
212.03965166875929
 20
672.23989413011122
 30
0.0
  0
VERTEX
  5
3DA
  8
DATA
  6
CONTINUOUS
 62
     7
 10
214.3779202589773
 20
673.58989413011125
 30
0.0
  0
VERTEX
  5
3DB
  8
DATA
  6
CONTINUOUS
 62
     7
 10
214.3779202589773
 20
676.28989413011129
 30
0.0
  0
VERTEX
  5
3DC
  8
DATA
  6
CONTINUOUS
 62
     7
 10
212.03965166875929
 20
677.6398941301112
 30
0.0
  0
VERTEX
  5
3DD
  8
DATA
  6
CONTINUOUS
 62
     7
 10
209.70138307854131
 20
676.28989413011129
 30
0.0
  0
VERTEX
  5
3DE
  8
DATA
  6
CONTINUOUS
 62
     7
 10
209.70138307854131
 20
673.58989413011125
 30
0.0
  0
SEQEND
  5
3DF
  8
DATA
  6
CONTINUOUS
 62
     7
  0
CIRCLE
  5
146
  8
DATA
  6
CONTINUOUS
 62
     7
 10
237.0396516687594
 20
674.93989413011116
 30
0.0
 40
1.1750000000002381
  0
POLYLINE
  5
147
  8
DATA
  6
CONTINUOUS
 62
     7
 66
     1
 10
0.0
 20
0.0
 30
0.0
 70
     1
  0
VERTEX
  5
3E0
  8
DATA
  6
CONTINUOUS
 62
     7
 10
237.0396516687594
 20
672.23989413011122
 30
0.0
  0
VERTEX
  5
3E1
  8
DATA
  6
CONTINUOUS
 62
     7
 10
239.37792025897801
 20
673.58989413011125
 30
0.0
  0
VERTEX
  5
3E2
  8
DATA
  6
CONTINUOUS
 62
     7
 10
239.37792025897801
 20
676.28989413011129
 30
0.0
  0
VERTEX
  5
3E3
  8
DATA
  6
CONTINUOUS
 62
     7
 10
237.0396516687594
 20
677.6398941301112
 30
0.0
  0
VERTEX
  5
3E4
  8
DATA
  6
CONTINUOUS
 62
     7
 10
234.70138307854131
 20
676.28989413011129
 30
0.0
  0
VERTEX
  5
3E5
  8
DATA
  6
CONTINUOUS
 62
     7
 10
234.70138307854131
 20
673.58989413011125
 30
0.0
  0
SEQEND
  5
3E6
  8
DATA
  6
CONTINUOUS
 62
     7
  0
LINE
  5
150
  8
DATA
  6
CONTINUOUS
 62
     7
 10
219.8530962002919
 20
678.93989413011116
 30
0.0
 11
229.2485292772688
 21
678.93989413011116
 31
0.0
  0
LINE
  5
151
  8
DATA
  6
CONTINUOUS
 62
     7
 10
230.06102927726869
 20
670.93989413011116
 30
0.0
 11
219.0405962002919
 21
670.93989413011116
 31
0.0
  0
LINE
  5
152
  8
DATA
  6
CONTINUOUS
 62
     7
 10
230.63174612452039
 20
677.75602176249424
 30
0.0
 11
231.4442461245203
 21
672.55602176249431
 31
0.0
  0
LINE
  5
153
  8
DATA
  6
CONTINUOUS
 62
     7
 10
217.65737935304031
 20
672.55602176249431
 30
0.0
 11
218.46987935304031
 21
677.75602176249424
 31
0.0
  0
CIRCLE
  5
154
  8
DATA
  6
CONTINUOUS
 62
     7
 10
224.53965166875929
 20
672.4785659178433
 30
0.0
 40
0.5
  0
CIRCLE
  5
155
  8
DATA
  6
CONTINUOUS
 62
     7
 10
222.53965166875929
 20
672.4785659178433
 30
0.0
 40
0.5
  0
CIRCLE
  5
156
  8
DATA
  6
CONTINUOUS
 62
     7
 10
220.53965166875929
 20
672.4785659178433
 30
0.0
 40
0.5
  0
CIRCLE
  5
157
  8
DATA
  6
CONTINUOUS
 62
     7
 10
226.53965166875929
 20
672.4785659178433
 30
0.0
 40
0.5
  0
CIRCLE
  5
158
  8
DATA
  6
CONTINUOUS
 62
     7
 10
228.53965166875929
 20
672.4785659178433
 30
0.0
 40
0.5
  0
CIRCLE
  5
159
  8
DATA
  6
CONTINUOUS
 62
     7
 10
223.42230809329499
 20
674.95275717644824
 30
0.0
 40
0.5
  0
CIRCLE
  5
15A
  8
DATA
  6
CONTINUOUS
 62
     7
 10
221.42230809329499
 20
674.95275717644824
 30
0.0
 40
0.5
  0
CIRCLE
  5
15B
  8
DATA
  6
CONTINUOUS
 62
     7
 10
219.42230809329499
 20
674.95275717644824
 30
0.0
 40
0.5
  0
CIRCLE
  5
15C
  8
DATA
  6
CONTINUOUS
 62
     7
 10
225.42230809329499
 20
674.95275717644824
 30
0.0
 40
0.5
  0
CIRCLE
  5
15D
  8
DATA
  6
CONTINUOUS
 62
     7
 10
227.42230809329499
 20
674.95275717644824
 30
0.0
 40
0.5
  0
CIRCLE
  5
15E
  8
DATA
  6
CONTINUOUS
 62
     7
 10
224.53965166875929
 20
677.40122234237901
 30
0.0
 40
0.5
  0
CIRCLE
  5
15F
  8
DATA
  6
CONTINUOUS
 62
     7
 10
222.53965166875929
 20
677.40122234237901
 30
0.0
 40
0.5
  0
CIRCLE
  5
160
  8
DATA
  6
CONTINUOUS
 62
     7
 10
220.53965166875929
 20
677.40122234237901
 30
0.0
 40
0.5
  0
CIRCLE
  5
161
  8
DATA
  6
CONTINUOUS
 62
     7
 10
226.53965166875929
 20
677.40122234237901
 30
0.0
 40
0.5
  0
CIRCLE
  5
162
  8
DATA
  6
CONTINUOUS
 62
     7
 10
228.53965166875929
 20
677.40122234237901
 30
0.0
 40
0.5
  0
ARC
  5
163
  8
DATA
  6
CONTINUOUS
 62
     7
 10
230.06102927726869
 20
672.33989413011125
 30
0.0
 40
1.400000000000005
 50
270.0
 51
8.8806591505193637
  0
ARC
  5
164
  8
DATA
  6
CONTINUOUS
 62
     7
 10
219.0405962002919
 20
672.33989413011125
 30
0.0
 40
1.400000000000019
 50
171.1193408494795
 51
270.0
  0
ARC
  5
165
  8
DATA
  6
CONTINUOUS
 62
     7
 10
229.2485292772688
 20
677.53989413011118
 30
0.0
 40
1.400000000000015
 50
8.8806591505193833
 51
89.999999999999986
  0
ARC
  5
166
  8
DATA
  6
CONTINUOUS
 62
     7
 10
219.8530962002919
 20
677.53989413011118
 30
0.0
 40
1.400000000000005
 50
90.0
 51
171.11934084947831
  0
LINE
  5
167
  8
DATA
  6
CONTINUOUS
 62
     7
 10
218.6393986503366
 20
680.93989413011116
 30
0.0
 11
230.43990468718201
 21
680.93989413011116
 31
0.0
  0
LINE
  5
168
  8
DATA
  6
CONTINUOUS
 62
     7
 10
231.45874640777851
 20
668.93989413011127
 30
0.0
 11
217.6205569297401
 21
668.93989413011127
 31
0.0
  0
LINE
  5
169
  8
DATA
  6
CONTINUOUS
 62
     7
 10
215.6487117025969
 20
671.27429867582237
 30
0.0
 11
217.06192246862199
 21
679.60741776667999
 31
0.0
  0
ARC
  5
16A
  8
DATA
  6
CONTINUOUS
 62
     7
 10
217.6205569297401
 20
670.93989413011116
 30
0.0
 40
1.999999999999962
 50
170.37480705637799
 51
270.0000000000033
  0
ARC
  5
16B
  8
DATA
  6
CONTINUOUS
 62
     7
 10
218.6393986503366
 20
679.33989413011125
 30
0.0
 40
1.5999999999999941
 50
90.0
 51
170.37480705637901
  0
TEXT
  5
16C
  8
DATA
 62
     7
 10
275.2421511325735
 20
688.50800537916643
 30
0.0
 40
2.4432617187500001
  1
Monitor Out
 50
180.0
 41
0.7
 11
275.2421511325735
 21
686.06474366041641
 31
0.0
 73
     3
  0
TEXT
  5
16D
  8
DATA
 62
     7
 10
312.27437765777768
 20
688.70413184157201
 30
0.0
 40
2.4432617187500001
  1
+5V DC
 50
180.0
 41
0.7
 11
312.27437765777768
 21
686.26087012282198
 31
0.0
 73
     3
  0
LINE
  5
16E
  8
DATA
  6
CONTINUOUS
 62
     7
 10
239.35700446817879
 20
575.49999999999989
 30
0.0
 11
234.6804672877428
 21
575.49999999999989
 31
0.0
  0
LINE
  5
16F
  8
DATA
  6
CONTINUOUS
 62
     7
 10
233.42063209927949
 20
575.49999999999989
 30
0.0
 11
215.59975910118021
 21
575.49999999999989
 31
0.0
  0
LINE
  5
170
  8
DATA
  6
CONTINUOUS
 62
     7
 10
233.4305916349218
 20
671.27429867582237
 30
0.0
 11
232.01738086889679
 21
679.60741776667999
 31
0.0
  0
ARC
  5
171
  8
DATA
  6
CONTINUOUS
 62
     7
 10
231.45874640777851
 20
670.93989413011116
 30
0.0
 40
1.999999999999992
 50
269.99999999999682
 51
9.6251929436219843
  0
ARC
  5
172
  8
DATA
  6
CONTINUOUS
 62
     7
 10
230.43990468718201
 20
679.33989413011125
 30
0.0
 40
1.600000000000058
 50
9.6251929436210109
 51
90.0
  0
CIRCLE
  5
173
  8
DATA
  6
CONTINUOUS
 62
     7
 10
254.09311504884971
 20
674.93989413011116
 30
0.0
 40
1.175000000000068
  0
POLYLINE
  5
174
  8
DATA
  6
CONTINUOUS
 62
     7
 66
     1
 10
0.0
 20
0.0
 30
0.0
 70
     1
  0
VERTEX
  5
3E7
  8
DATA
  6
CONTINUOUS
 62
     7
 10
254.09311504884971
 20
672.23989413011122
 30
0.0
  0
VERTEX
  5
3E8
  8
DATA
  6
CONTINUOUS
 62
     7
 10
256.43138363906769
 20
673.58989413011125
 30
0.0
  0
VERTEX
  5
3E9
  8
DATA
  6
CONTINUOUS
 62
     7
 10
256.43138363906769
 20
676.28989413011129
 30
0.0
  0
VERTEX
  5
3EA
  8
DATA
  6
CONTINUOUS
 62
     7
 10
254.09311504884971
 20
677.6398941301112
 30
0.0
  0
VERTEX
  5
3EB
  8
DATA
  6
CONTINUOUS
 62
     7
 10
251.7548464586317
 20
676.28989413011129
 30
0.0
  0
VERTEX
  5
3EC
  8
DATA
  6
CONTINUOUS
 62
     7
 10
251.7548464586317
 20
673.58989413011125
 30
0.0
  0
SEQEND
  5
3ED
  8
DATA
  6
CONTINUOUS
 62
     7
  0
CIRCLE
  5
17D
  8
DATA
  6
CONTINUOUS
 62
     7
 10
279.0931150488496
 20
674.93989413011116
 30
0.0
 40
1.175000000000068
  0
POLYLINE
  5
17E
  8
DATA
  6
CONTINUOUS
 62
     7
 66
     1
 10
0.0
 20
0.0
 30
0.0
 70
     1
  0
VERTEX
  5
3EE
  8
DATA
  6
CONTINUOUS
 62
     7
 10
279.0931150488496
 20
672.23989413011122
 30
0.0
  0
VERTEX
  5
3EF
  8
DATA
  6
CONTINUOUS
 62
     7
 10
281.43138363906769
 20
673.58989413011125
 30
0.0
  0
VERTEX
  5
3F0
  8
DATA
  6
CONTINUOUS
 62
     7
 10
281.43138363906769
 20
676.28989413011129
 30
0.0
  0
VERTEX
  5
3F1
  8
DATA
  6
CONTINUOUS
 62
     7
 10
279.0931150488496
 20
677.6398941301112
 30
0.0
  0
VERTEX
  5
3F2
  8
DATA
  6
CONTINUOUS
 62
     7
 10
276.75484645863168
 20
676.28989413011129
 30
0.0
  0
VERTEX
  5
3F3
  8
DATA
  6
CONTINUOUS
 62
     7
 10
276.75484645863168
 20
673.58989413011125
 30
0.0
  0
SEQEND
  5
3F4
  8
DATA
  6
CONTINUOUS
 62
     7
  0
LINE
  5
187
  8
DATA
  6
CONTINUOUS
 62
     7
 10
261.90655958038229
 20
678.93989413011116
 30
0.0
 11
271.30199265735922
 21
678.93989413011116
 31
0.0
  0
LINE
  5
188
  8
DATA
  6
CONTINUOUS
 62
     7
 10
272.11449265735911
 20
670.93989413011116
 30
0.0
 11
261.09405958038229
 21
670.93989413011116
 31
0.0
  0
LINE
  5
189
  8
DATA
  6
CONTINUOUS
 62
     7
 10
272.68520950461078
 20
677.75602176249424
 30
0.0
 11
273.49770950461073
 21
672.55602176249431
 31
0.0
  0
LINE
  5
18A
  8
DATA
  6
CONTINUOUS
 62
     7
 10
259.71084273313068
 20
672.55602176249431
 30
0.0
 11
260.52334273313068
 21
677.75602176249424
 31
0.0
  0
CIRCLE
  5
18B
  8
DATA
  6
CONTINUOUS
 62
     7
 10
266.5931150488496
 20
672.4785659178433
 30
0.0
 40
0.5
  0
CIRCLE
  5
18C
  8
DATA
  6
CONTINUOUS
 62
     7
 10
264.59311504884971
 20
672.4785659178433
 30
0.0
 40
0.5
  0
CIRCLE
  5
18D
  8
DATA
  6
CONTINUOUS
 62
     7
 10
262.59311504884971
 20
672.4785659178433
 30
0.0
 40
0.5
  0
CIRCLE
  5
18E
  8
DATA
  6
CONTINUOUS
 62
     7
 10
268.5931150488496
 20
672.4785659178433
 30
0.0
 40
0.5
  0
CIRCLE
  5
18F
  8
DATA
  6
CONTINUOUS
 62
     7
 10
270.5931150488496
 20
672.4785659178433
 30
0.0
 40
0.5
  0
CIRCLE
  5
190
  8
DATA
  6
CONTINUOUS
 62
     7
 10
265.47577147338541
 20
674.95275717644824
 30
0.0
 40
0.5
  0
CIRCLE
  5
191
  8
DATA
  6
CONTINUOUS
 62
     7
 10
263.47577147338541
 20
674.95275717644824
 30
0.0
 40
0.5
  0
CIRCLE
  5
192
  8
DATA
  6
CONTINUOUS
 62
     7
 10
261.47577147338541
 20
674.95275717644824
 30
0.0
 40
0.5
  0
CIRCLE
  5
193
  8
DATA
  6
CONTINUOUS
 62
     7
 10
267.47577147338541
 20
674.95275717644824
 30
0.0
 40
0.5
  0
CIRCLE
  5
194
  8
DATA
  6
CONTINUOUS
 62
     7
 10
269.47577147338541
 20
674.95275717644824
 30
0.0
 40
0.5
  0
CIRCLE
  5
195
  8
DATA
  6
CONTINUOUS
 62
     7
 10
266.5931150488496
 20
677.40122234237901
 30
0.0
 40
0.5
  0
CIRCLE
  5
196
  8
DATA
  6
CONTINUOUS
 62
     7
 10
264.59311504884971
 20
677.40122234237901
 30
0.0
 40
0.5
  0
CIRCLE
  5
197
  8
DATA
  6
CONTINUOUS
 62
     7
 10
262.59311504884971
 20
677.40122234237901
 30
0.0
 40
0.5
  0
CIRCLE
  5
198
  8
DATA
  6
CONTINUOUS
 62
     7
 10
268.5931150488496
 20
677.40122234237901
 30
0.0
 40
0.5
  0
CIRCLE
  5
199
  8
DATA
  6
CONTINUOUS
 62
     7
 10
270.5931150488496
 20
677.40122234237901
 30
0.0
 40
0.5
  0
ARC
  5
19A
  8
DATA
  6
CONTINUOUS
 62
     7
 10
272.11449265735911
 20
672.33989413011125
 30
0.0
 40
1.400000000000005
 50
270.0
 51
8.8806591505193637
  0
ARC
  5
19B
  8
DATA
  6
CONTINUOUS
 62
     7
 10
261.09405958038229
 20
672.33989413011125
 30
0.0
 40
1.400000000000019
 50
171.1193408494795
 51
270.0
  0
ARC
  5
19C
  8
DATA
  6
CONTINUOUS
 62
     7
 10
271.30199265735922
 20
677.53989413011118
 30
0.0
 40
1.400000000000015
 50
8.8806591505193833
 51
89.999999999999986
  0
ARC
  5
19D
  8
DATA
  6
CONTINUOUS
 62
     7
 10
261.90655958038229
 20
677.53989413011118
 30
0.0
 40
1.400000000000005
 50
90.0
 51
171.11934084947831
  0
LINE
  5
19E
  8
DATA
  6
CONTINUOUS
 62
     7
 10
260.69286203042708
 20
680.93989413011116
 30
0.0
 11
272.4933680672724
 21
680.93989413011116
 31
0.0
  0
LINE
  5
19F
  8
DATA
  6
CONTINUOUS
 62
     7
 10
273.51220978786893
 20
668.93989413011127
 30
0.0
 11
259.67402030983061
 21
668.93989413011127
 31
0.0
  0
LINE
  5
1A0
  8
DATA
  6
CONTINUOUS
 62
     7
 10
257.70217508268729
 20
671.27429867582237
 30
0.0
 11
259.11538584871238
 21
679.60741776667999
 31
0.0
  0
ARC
  5
1A1
  8
DATA
  6
CONTINUOUS
 62
     7
 10
259.67402030983061
 20
670.93989413011116
 30
0.0
 40
1.999999999999962
 50
170.37480705637799
 51
270.0000000000033
  0
ARC
  5
1A2
  8
DATA
  6
CONTINUOUS
 62
     7
 10
260.69286203042708
 20
679.33989413011125
 30
0.0
 40
1.5999999999999941
 50
90.0
 51
170.37480705637901
  0
LINE
  5
1A3
  8
DATA
  6
CONTINUOUS
 62
     7
 10
275.48405501501219
 20
671.27429867582237
 30
0.0
 11
274.07084424898721
 21
679.60741776667999
 31
0.0
  0
ARC
  5
1A4
  8
DATA
  6
CONTINUOUS
 62
     7
 10
273.51220978786893
 20
670.93989413011116
 30
0.0
 40
1.999999999999992
 50
269.99999999999682
 51
9.6251929436219843
  0
ARC
  5
1A5
  8
DATA
  6
CONTINUOUS
 62
     7
 10
272.4933680672724
 20
679.33989413011125
 30
0.0
 40
1.600000000000058
 50
9.6251929436210109
 51
90.0
  0
LINE
  5
1A6
  8
DATA
  6
CONTINUOUS
 62
     7
 10
239.35700446817879
 20
575.49999999999989
 30
0.0
 11
239.35700446817879
 21
571.49999999999989
 31
0.0
  0
LINE
  5
1A7
  8
DATA
  6
CONTINUOUS
 62
     7
 10
214.35700446817879
 20
575.49999999999989
 30
0.0
 11
214.35700446817879
 21
571.49999999999989
 31
0.0
  0
LINE
  5
1A8
  8
DATA
  6
CONTINUOUS
 62
     7
 10
234.6804672877428
 20
575.49999999999989
 30
0.0
 11
234.6804672877428
 21
571.49999999999989
 31
0.0
  0
LINE
  5
1A9
  8
DATA
  6
CONTINUOUS
 62
     7
 10
215.59975910118021
 20
575.49999999999989
 30
0.0
 11
215.59975910118021
 21
571.49999999999989
 31
0.0
  0
LINE
  5
1AA
  8
DATA
  6
CONTINUOUS
 62
     7
 10
233.42063209927949
 20
575.49999999999989
 30
0.0
 11
233.42063209927949
 21
571.49999999999989
 31
0.0
  0
LINE
  5
1AB
  8
DATA
  6
CONTINUOUS
 62
     7
 10
209.6804672877428
 20
575.49999999999989
 30
0.0
 11
209.6804672877428
 21
571.49999999999989
 31
0.0
  0
LINE
  5
1AC
  8
DATA
  6
CONTINUOUS
 62
     7
 10
209.6804672877428
 20
575.49999999999989
 30
0.0
 11
214.35700446817879
 21
575.49999999999989
 31
0.0
  0
LINE
  5
1AD
  8
DATA
  6
CONTINUOUS
 62
     7
 10
281.48632110941099
 20
575.49999999999989
 30
0.0
 11
276.80978392897492
 21
575.49999999999989
 31
0.0
  0
LINE
  5
1AE
  8
DATA
  6
CONTINUOUS
 62
     7
 10
275.54994874051158
 20
575.49999999999989
 30
0.0
 11
257.72907574241231
 21
575.49999999999989
 31
0.0
  0
LINE
  5
1AF
  8
DATA
  6
CONTINUOUS
 62
     7
 10
281.48632110941099
 20
575.49999999999989
 30
0.0
 11
281.48632110941099
 21
571.49999999999989
 31
0.0
  0
LINE
  5
1B0
  8
DATA
  6
CONTINUOUS
 62
     7
 10
256.48632110941088
 20
575.49999999999989
 30
0.0
 11
256.48632110941088
 21
571.49999999999989
 31
0.0
  0
LINE
  5
1B1
  8
DATA
  6
CONTINUOUS
 62
     7
 10
276.80978392897492
 20
575.49999999999989
 30
0.0
 11
276.80978392897492
 21
571.49999999999989
 31
0.0
  0
LINE
  5
1B2
  8
DATA
  6
CONTINUOUS
 62
     7
 10
257.72907574241231
 20
575.49999999999989
 30
0.0
 11
257.72907574241231
 21
571.49999999999989
 31
0.0
  0
LINE
  5
1B3
  8
DATA
  6
CONTINUOUS
 62
     7
 10
275.54994874051158
 20
575.49999999999989
 30
0.0
 11
275.54994874051158
 21
571.49999999999989
 31
0.0
  0
LINE
  5
1B4
  8
DATA
  6
CONTINUOUS
 62
     7
 10
251.80978392897489
 20
575.49999999999989
 30
0.0
 11
251.80978392897489
 21
571.49999999999989
 31
0.0
  0
LINE
  5
1B5
  8
DATA
  6
CONTINUOUS
 62
     7
 10
251.80978392897489
 20
575.49999999999989
 30
0.0
 11
256.48632110941088
 21
575.49999999999989
 31
0.0
  0
TEXT
  5
1B6
  8
DATA
 62
     7
 10
199.41622878005589
 20
672.98049999999989
 30
0.0
 40
2.4432617187500001
  1
In
 50
180.0
 41
0.7
 11
199.41622878005589
 21
670.53723828124987
 31
0.0
 73
     3
  0
TEXT
  5
1B7
  8
DATA
 62
     7
 10
199.41622878005589
 20
676.15550000000019
 30
0.0
 40
2.4432617187500001
  1
 
 50
180.0
 41
0.7
 11
199.41622878005589
 21
673.71223828125005
 31
0.0
 73
     3
  0
TEXT
  5
1B8
  8
DATA
 62
     7
 10
181.6356005798331
 20
667.23026780498606
 30
0.0
 40
2.198935546875
  1
USB
 50
180.0
 41
0.7
 11
181.6356005798331
 21
665.03133225811098
 31
0.0
 73
     3
  0
ARC
  5
1B9
  8
DATA
  6
CONTINUOUS
 62
     7
 10
278.50899043204521
 20
463.60044642857127
 30
0.0
 40
1.800446428571395
 50
217.6768671159596
 51
322.32313288403981
  0
LINE
  5
1BA
  8
DATA
  6
CONTINUOUS
 62
     7
 10
562.5
 20
352.60000000000002
 30
0.0
 11
562.5
 21
392.0
 31
0.0
  0
LINE
  5
1BB
  8
DATA
  6
CONTINUOUS
 62
     7
 10
776.5
 20
350.0
 30
0.0
 11
562.5
 21
350.0
 31
0.0
  0
LINE
  5
1BC
  8
DATA
  6
CONTINUOUS
 62
     7
 10
562.5
 20
462.5
 30
0.0
 11
562.5
 21
571.49999999999989
 31
0.0
  0
LINE
  5
1BD
  8
DATA
  6
CONTINUOUS
 62
     7
 10
776.5
 20
462.5
 30
0.0
 11
562.5
 21
462.5
 31
0.0
  0
LINE
  5
1BE
  8
DATA
  6
CONTINUOUS
 62
     7
 10
800.0
 20
350.0
 30
0.0
 11
800.0
 21
392.0
 31
0.0
  0
LINE
  5
1BF
  8
DATA
  6
CONTINUOUS
 62
     7
 10
909.0
 20
350.0
 30
0.0
 11
800.0
 21
350.0
 31
0.0
  0
CIRCLE
  5
1C0
  8
DATA
  6
CONTINUOUS
 62
     7
 10
758.43405353470814
 20
367.03557743365508
 30
0.0
 40
1.4249999999999541
  0
TEXT
  5
1C1
  8
DATA
 62
     7
 10
755.66858861571961
 20
358.00725696948967
 30
0.0
 40
1.764577907986111
  1
Power
 41
0.7
 11
755.66858861571961
 21
359.77183487747578
 31
0.0
 73
     3
  0
TEXT
  5
1C2
  8
DATA
 62
     7
 10
709.89592472634763
 20
373.55743008952379
 30
0.0
 40
9.7730468750000004
  1
CAT5
 41
0.7
 11
709.89592472634763
 21
383.33047696452383
 31
0.0
 73
     3
  0
TEXT
  5
1C3
  8
DATA
 62
     7
 10
739.6765771194016
 20
373.55743008952379
 30
0.0
 40
9.7730468750000004
  1
1000R
 41
0.7
 11
739.6765771194016
 21
383.33047696452383
 31
0.0
 73
     3
  0
CIRCLE
  5
1C4
  8
DATA
  6
CONTINUOUS
 62
     7
 10
737.61772556371636
 20
378.67681432528991
 30
0.0
 40
0.7835705481053945
  0
LINE
  5
1C5
  8
DATA
  6
CONTINUOUS
 62
     7
 10
567.59935527955645
 20
346.0
 30
0.0
 11
566.19935527955624
 21
350.0
 31
0.0
  0
LINE
  5
1C6
  8
DATA
  6
CONTINUOUS
 62
     7
 10
577.39935527955629
 20
346.0
 30
0.0
 11
578.79935527955615
 21
350.0
 31
0.0
  0
LINE
  5
1C7
  8
DATA
  6
CONTINUOUS
 62
     7
 10
567.59935527955645
 20
346.0
 30
0.0
 11
577.39935527955629
 21
346.0
 31
0.0
  0
LINE
  5
1C8
  8
DATA
  6
CONTINUOUS
 62
     7
 10
771.40104681624553
 20
346.0
 30
0.0
 11
772.80104681624562
 21
350.0
 31
0.0
  0
LINE
  5
1C9
  8
DATA
  6
CONTINUOUS
 62
     7
 10
761.60104681624546
 20
346.0
 30
0.0
 11
760.20104681624559
 21
350.0
 31
0.0
  0
LINE
  5
1CA
  8
DATA
  6
CONTINUOUS
 62
     7
 10
771.40104681624553
 20
346.0
 30
0.0
 11
761.60104681624546
 21
346.0
 31
0.0
  0
CIRCLE
  5
1CB
  8
DATA
  6
CONTINUOUS
 62
     7
 10
816.0
 20
360.0
 30
0.0
 40
2.5
  0
LINE
  5
1CC
  8
DATA
  6
CONTINUOUS
 62
     7
 10
814.49888930010684
 20
360.0
 30
0.0
 11
817.50111069989305
 21
360.0
 31
0.0
  0
LINE
  5
1CD
  8
DATA
  6
CONTINUOUS
 62
     7
 10
816.0
 20
358.4988893001069
 30
0.0
 11
816.0
 21
361.5011106998931
 31
0.0
  0
CIRCLE
  5
1CE
  8
DATA
  6
CONTINUOUS
 62
     7
 10
889.0
 20
360.0
 30
0.0
 40
2.5
  0
LINE
  5
1CF
  8
DATA
  6
CONTINUOUS
 62
     7
 10
887.49888930010684
 20
360.0
 30
0.0
 11
890.50111069989316
 21
360.0
 31
0.0
  0
LINE
  5
1D0
  8
DATA
  6
CONTINUOUS
 62
     7
 10
889.0
 20
358.4988893001069
 30
0.0
 11
889.0
 21
361.5011106998931
 31
0.0
  0
TEXT
  5
1D1
  8
DATA
 62
     7
 10
697.5293342525697
 20
688.54124307132759
 30
0.0
 40
2.4432617187500001
  1
Video Out 2 
 50
180.0
 41
0.7
 11
697.5293342525697
 21
686.09798135257756
 31
0.0
 73
     3
  0
TEXT
  5
1D2
  8
DATA
 62
     7
 10
589.76051366017009
 20
660.11965341495818
 30
0.0
 40
2.198935546875
  1
CAT-5
 50
180.0
 41
0.7
 11
589.76051366017009
 21
657.92071786808322
 31
0.0
 73
     3
  0
TEXT
  5
1D3
  8
DATA
 62
     7
 10
666.41141983058526
 20
669.05041378820715
 30
0.0
 40
2.4432617187500001
  1
Audio
 50
180.0
 41
0.7
 11
666.41141983058526
 21
666.60715206945724
 31
0.0
 73
     3
  0
TEXT
  5
1D4
  8
DATA
 62
     7
 10
666.41141983058526
 20
672.22541378820722
 30
0.0
 40
2.4432617187500001
  1
 
 50
180.0
 41
0.7
 11
666.41141983058526
 21
669.7821520694572
 31
0.0
 73
     3
  0
LINE
  5
1D5
  8
DATA
  6
CONTINUOUS
 62
     7
 10
813.90670453031908
 20
346.0
 30
0.0
 11
815.30670453031883
 21
350.0
 31
0.0
  0
LINE
  5
1D6
  8
DATA
  6
CONTINUOUS
 62
     7
 10
804.10670453031878
 20
346.0
 30
0.0
 11
802.70670453031914
 21
350.0
 31
0.0
  0
LINE
  5
1D7
  8
DATA
  6
CONTINUOUS
 62
     7
 10
813.90670453031908
 20
346.0
 30
0.0
 11
804.10670453031878
 21
346.0
 31
0.0
  0
LINE
  5
1D8
  8
DATA
  6
CONTINUOUS
 62
     7
 10
562.5
 20
350.0
 30
0.0
 11
562.5
 21
392.0
 31
0.0
  0
LINE
  5
1D9
  8
DATA
  6
CONTINUOUS
 62
     7
 10
776.5
 20
350.0
 30
0.0
 11
776.5
 21
392.0
 31
0.0
  0
LINE
  5
1DA
  8
DATA
  6
CONTINUOUS
 62
     7
 10
776.5
 20
392.0
 30
0.0
 11
562.5
 21
392.0
 31
0.0
  0
LINE
  5
1DB
  8
DATA
  6
CONTINUOUS
 62
     7
 10
776.5
 20
571.49999999999989
 30
0.0
 11
562.5
 21
571.49999999999989
 31
0.0
  0
LINE
  5
1DC
  8
DATA
  6
CONTINUOUS
 62
     7
 10
776.5
 20
462.5
 30
0.0
 11
776.5
 21
571.49999999999989
 31
0.0
  0
LINE
  5
1DD
  8
DATA
  6
CONTINUOUS
 62
     7
 10
776.5
 20
469.5
 30
0.0
 11
562.5
 21
469.5
 31
0.0
  0
LINE
  5
1DE
  8
DATA
  6
CONTINUOUS
 62
     7
 10
800.0
 20
392.0
 30
0.0
 11
909.0
 21
392.0
 31
0.0
  0
LINE
  5
1DF
  8
DATA
  6
CONTINUOUS
 62
     7
 10
909.0
 20
350.0
 30
0.0
 11
909.0
 21
392.0
 31
0.0
  0
LINE
  5
1E0
  8
DATA
  6
CONTINUOUS
 62
     7
 10
893.90670453031896
 20
346.0
 30
0.0
 11
895.30670453031894
 21
350.0
 31
0.0
  0
LINE
  5
1E1
  8
DATA
  6
CONTINUOUS
 62
     7
 10
884.10670453031889
 20
346.0
 30
0.0
 11
882.70670453031903
 21
350.0
 31
0.0
  0
LINE
  5
1E2
  8
DATA
  6
CONTINUOUS
 62
     7
 10
893.90670453031896
 20
346.0
 30
0.0
 11
884.10670453031889
 21
346.0
 31
0.0
  0
LINE
  5
1E3
  8
DATA
  6
CONTINUOUS
 62
     7
 10
562.5
 20
689.39999999999998
 30
0.0
 11
562.5
 21
650.0
 31
0.0
  0
LINE
  5
1E4
  8
DATA
  6
CONTINUOUS
 62
     7
 10
776.5
 20
692.0
 30
0.0
 11
562.5
 21
692.0
 31
0.0
  0
LINE
  5
1E5
  8
DATA
  6
CONTINUOUS
 62
     7
 10
567.59935527955645
 20
696.0
 30
0.0
 11
566.19935527955624
 21
692.0
 31
0.0
  0
LINE
  5
1E6
  8
DATA
  6
CONTINUOUS
 62
     7
 10
577.39935527955629
 20
696.0
 30
0.0
 11
578.79935527955615
 21
692.0
 31
0.0
  0
LINE
  5
1E7
  8
DATA
  6
CONTINUOUS
 62
     7
 10
567.59935527955645
 20
696.0
 30
0.0
 11
577.39935527955629
 21
696.0
 31
0.0
  0
LINE
  5
1E8
  8
DATA
  6
CONTINUOUS
 62
     7
 10
771.40104681624553
 20
696.0
 30
0.0
 11
772.80104681624562
 21
692.0
 31
0.0
  0
LINE
  5
1E9
  8
DATA
  6
CONTINUOUS
 62
     7
 10
761.60104681624546
 20
696.0
 30
0.0
 11
760.20104681624559
 21
692.0
 31
0.0
  0
LINE
  5
1EA
  8
DATA
  6
CONTINUOUS
 62
     7
 10
771.40104681624553
 20
696.0
 30
0.0
 11
761.60104681624546
 21
696.0
 31
0.0
  0
LINE
  5
1EB
  8
DATA
  6
CONTINUOUS
 62
     7
 10
562.5
 20
692.0
 30
0.0
 11
562.5
 21
650.0
 31
0.0
  0
LINE
  5
1EC
  8
DATA
  6
CONTINUOUS
 62
     7
 10
776.5
 20
692.0
 30
0.0
 11
776.5
 21
650.0
 31
0.0
  0
LINE
  5
1ED
  8
DATA
  6
CONTINUOUS
 62
     7
 10
776.5
 20
650.0
 30
0.0
 11
562.5
 21
650.0
 31
0.0
  0
CIRCLE
  5
1EE
  8
DATA
  6
CONTINUOUS
 62
     7
 10
756.44229784138849
 20
675.0
 30
0.0
 40
3.3000000000000682
  0
CIRCLE
  5
1EF
  8
DATA
  6
CONTINUOUS
 62
     7
 10
756.44229784138849
 20
675.0
 30
0.0
 40
0.5850000000000364
  0
CIRCLE
  5
1F0
  8
DATA
  6
CONTINUOUS
 62
     7
 10
662.34134396477953
 20
678.20746673958979
 30
0.0
 40
3.0
  0
CIRCLE
  5
1F1
  8
DATA
  6
CONTINUOUS
 62
     7
 10
662.34134396477953
 20
678.20746673958979
 30
0.0
 40
1.649999999999977
  0
LINE
  5
1F2
  8
DATA
  6
CONTINUOUS
 62
     7
 10
578.31783584034815
 20
668.35000000000002
 30
0.0
 11
578.31783584034815
 21
681.64999999999986
 31
0.0
  0
LINE
  5
1F3
  8
DATA
  6
CONTINUOUS
 62
     7
 10
594.01783584034831
 20
668.35000000000002
 30
0.0
 11
594.01783584034831
 21
681.64999999999986
 31
0.0
  0
LINE
  5
1F4
  8
DATA
  6
CONTINUOUS
 62
     7
 10
594.01783584034831
 20
681.64999999999986
 30
0.0
 11
578.31783584034815
 21
681.64999999999986
 31
0.0
  0
LINE
  5
1F5
  8
DATA
  6
CONTINUOUS
 62
     7
 10
594.01783584034831
 20
668.35000000000002
 30
0.0
 11
578.31783584034815
 21
668.35000000000002
 31
0.0
  0
LINE
  5
1F6
  8
DATA
  6
CONTINUOUS
 62
     7
 10
592.31783584034815
 20
671.35000000000002
 30
0.0
 11
580.01783584034831
 21
671.35000000000002
 31
0.0
  0
LINE
  5
1F7
  8
DATA
  6
CONTINUOUS
 62
     7
 10
592.31783584034815
 20
671.35000000000002
 30
0.0
 11
592.31783584034815
 21
678.64999999999998
 31
0.0
  0
LINE
  5
1F8
  8
DATA
  6
CONTINUOUS
 62
     7
 10
580.01783584034831
 20
671.35000000000002
 30
0.0
 11
580.01783584034831
 21
678.64999999999998
 31
0.0
  0
LINE
  5
1F9
  8
DATA
  6
CONTINUOUS
 62
     7
 10
588.3928358403482
 20
681.64999999999986
 30
0.0
 11
588.3928358403482
 21
680.14999999999986
 31
0.0
  0
LINE
  5
1FA
  8
DATA
  6
CONTINUOUS
 62
     7
 10
583.94283584034815
 20
680.14999999999986
 30
0.0
 11
583.94283584034815
 21
681.64999999999986
 31
0.0
  0
LINE
  5
1FB
  8
DATA
  6
CONTINUOUS
 62
     7
 10
589.51783584034831
 20
680.14999999999986
 30
0.0
 11
588.3928358403482
 21
680.14999999999986
 31
0.0
  0
LINE
  5
1FC
  8
DATA
  6
CONTINUOUS
 62
     7
 10
583.94283584034815
 20
680.14999999999986
 30
0.0
 11
582.81783584034815
 21
680.14999999999986
 31
0.0
  0
LINE
  5
1FD
  8
DATA
  6
CONTINUOUS
 62
     7
 10
592.31783584034815
 20
678.64999999999998
 30
0.0
 11
589.51783584034831
 21
678.64999999999998
 31
0.0
  0
LINE
  5
1FE
  8
DATA
  6
CONTINUOUS
 62
     7
 10
582.81783584034815
 20
678.64999999999998
 30
0.0
 11
580.01783584034831
 21
678.64999999999998
 31
0.0
  0
LINE
  5
1FF
  8
DATA
  6
CONTINUOUS
 62
     7
 10
589.51783584034831
 20
680.14999999999986
 30
0.0
 11
589.51783584034831
 21
678.64999999999998
 31
0.0
  0
LINE
  5
200
  8
DATA
  6
CONTINUOUS
 62
     7
 10
582.81783584034815
 20
678.64999999999998
 30
0.0
 11
582.81783584034815
 21
680.14999999999986
 31
0.0
  0
TEXT
  5
201
  8
DATA
 62
     7
 10
594.15952444288007
 20
663.52532056436837
 30
0.0
 40
2.198935546875
  1
Video/Audio
 50
180.0
 41
0.7
 11
594.15952444288007
 21
661.32638501749352
 31
0.0
 73
     3
  0
CIRCLE
  5
202
  8
DATA
  6
CONTINUOUS
 62
     7
 10
677.04306336637183
 20
674.93989413011116
 30
0.0
 40
1.175000000000068
  0
POLYLINE
  5
203
  8
DATA
  6
CONTINUOUS
 62
     7
 66
     1
 10
0.0
 20
0.0
 30
0.0
 70
     1
  0
VERTEX
  5
3F5
  8
DATA
  6
CONTINUOUS
 62
     7
 10
677.04306336637183
 20
672.23989413011122
 30
0.0
  0
VERTEX
  5
3F6
  8
DATA
  6
CONTINUOUS
 62
     7
 10
679.38133195658986
 20
673.58989413011125
 30
0.0
  0
VERTEX
  5
3F7
  8
DATA
  6
CONTINUOUS
 62
     7
 10
679.38133195658986
 20
676.28989413011129
 30
0.0
  0
VERTEX
  5
3F8
  8
DATA
  6
CONTINUOUS
 62
     7
 10
677.04306336637183
 20
677.6398941301112
 30
0.0
  0
VERTEX
  5
3F9
  8
DATA
  6
CONTINUOUS
 62
     7
 10
674.70479477615368
 20
676.28989413011129
 30
0.0
  0
VERTEX
  5
3FA
  8
DATA
  6
CONTINUOUS
 62
     7
 10
674.70479477615368
 20
673.58989413011125
 30
0.0
  0
SEQEND
  5
3FB
  8
DATA
  6
CONTINUOUS
 62
     7
  0
CIRCLE
  5
20C
  8
DATA
  6
CONTINUOUS
 62
     7
 10
702.04306336637205
 20
674.93989413011116
 30
0.0
 40
1.1750000000002381
  0
POLYLINE
  5
20D
  8
DATA
  6
CONTINUOUS
 62
     7
 66
     1
 10
0.0
 20
0.0
 30
0.0
 70
     1
  0
VERTEX
  5
3FC
  8
DATA
  6
CONTINUOUS
 62
     7
 10
702.04306336637205
 20
672.23989413011122
 30
0.0
  0
VERTEX
  5
3FD
  8
DATA
  6
CONTINUOUS
 62
     7
 10
704.38133195659054
 20
673.58989413011125
 30
0.0
  0
VERTEX
  5
3FE
  8
DATA
  6
CONTINUOUS
 62
     7
 10
704.38133195659054
 20
676.28989413011129
 30
0.0
  0
VERTEX
  5
3FF
  8
DATA
  6
CONTINUOUS
 62
     7
 10
702.04306336637205
 20
677.6398941301112
 30
0.0
  0
VERTEX
  5
400
  8
DATA
  6
CONTINUOUS
 62
     7
 10
699.70479477615368
 20
676.28989413011129
 30
0.0
  0
VERTEX
  5
401
  8
DATA
  6
CONTINUOUS
 62
     7
 10
699.70479477615368
 20
673.58989413011125
 30
0.0
  0
SEQEND
  5
402
  8
DATA
  6
CONTINUOUS
 62
     7
  0
LINE
  5
216
  8
DATA
  6
CONTINUOUS
 62
     7
 10
684.85650789790441
 20
678.93989413011116
 30
0.0
 11
694.25194097488134
 21
678.93989413011116
 31
0.0
  0
LINE
  5
217
  8
DATA
  6
CONTINUOUS
 62
     7
 10
695.06444097488134
 20
670.93989413011116
 30
0.0
 11
684.04400789790429
 21
670.93989413011116
 31
0.0
  0
LINE
  5
218
  8
DATA
  6
CONTINUOUS
 62
     7
 10
695.6351578221329
 20
677.75602176249424
 30
0.0
 11
696.44765782213267
 21
672.55602176249431
 31
0.0
  0
LINE
  5
219
  8
DATA
  6
CONTINUOUS
 62
     7
 10
682.66079105065285
 20
672.55602176249431
 30
0.0
 11
683.47329105065285
 21
677.75602176249424
 31
0.0
  0
CIRCLE
  5
21A
  8
DATA
  6
CONTINUOUS
 62
     7
 10
689.54306336637194
 20
672.4785659178433
 30
0.0
 40
0.5
  0
CIRCLE
  5
21B
  8
DATA
  6
CONTINUOUS
 62
     7
 10
687.54306336637194
 20
672.4785659178433
 30
0.0
 40
0.5
  0
CIRCLE
  5
21C
  8
DATA
  6
CONTINUOUS
 62
     7
 10
685.54306336637183
 20
672.4785659178433
 30
0.0
 40
0.5
  0
CIRCLE
  5
21D
  8
DATA
  6
CONTINUOUS
 62
     7
 10
691.54306336637194
 20
672.4785659178433
 30
0.0
 40
0.5
  0
CIRCLE
  5
21E
  8
DATA
  6
CONTINUOUS
 62
     7
 10
693.54306336637194
 20
672.4785659178433
 30
0.0
 40
0.5
  0
CIRCLE
  5
21F
  8
DATA
  6
CONTINUOUS
 62
     7
 10
688.42571979090746
 20
674.95275717644824
 30
0.0
 40
0.5
  0
CIRCLE
  5
220
  8
DATA
  6
CONTINUOUS
 62
     7
 10
686.42571979090758
 20
674.95275717644824
 30
0.0
 40
0.5
  0
CIRCLE
  5
221
  8
DATA
  6
CONTINUOUS
 62
     7
 10
684.42571979090746
 20
674.95275717644824
 30
0.0
 40
0.5
  0
CIRCLE
  5
222
  8
DATA
  6
CONTINUOUS
 62
     7
 10
690.42571979090758
 20
674.95275717644824
 30
0.0
 40
0.5
  0
CIRCLE
  5
223
  8
DATA
  6
CONTINUOUS
 62
     7
 10
692.42571979090746
 20
674.95275717644824
 30
0.0
 40
0.5
  0
CIRCLE
  5
224
  8
DATA
  6
CONTINUOUS
 62
     7
 10
689.54306336637194
 20
677.40122234237901
 30
0.0
 40
0.5
  0
CIRCLE
  5
225
  8
DATA
  6
CONTINUOUS
 62
     7
 10
687.54306336637194
 20
677.40122234237901
 30
0.0
 40
0.5
  0
CIRCLE
  5
226
  8
DATA
  6
CONTINUOUS
 62
     7
 10
685.54306336637183
 20
677.40122234237901
 30
0.0
 40
0.5
  0
CIRCLE
  5
227
  8
DATA
  6
CONTINUOUS
 62
     7
 10
691.54306336637194
 20
677.40122234237901
 30
0.0
 40
0.5
  0
CIRCLE
  5
228
  8
DATA
  6
CONTINUOUS
 62
     7
 10
693.54306336637194
 20
677.40122234237901
 30
0.0
 40
0.5
  0
ARC
  5
229
  8
DATA
  6
CONTINUOUS
 62
     7
 10
695.06444097488134
 20
672.33989413011125
 30
0.0
 40
1.400000000000005
 50
270.0
 51
8.8806591505193637
  0
ARC
  5
22A
  8
DATA
  6
CONTINUOUS
 62
     7
 10
684.04400789790429
 20
672.33989413011125
 30
0.0
 40
1.400000000000019
 50
171.1193408494795
 51
270.0
  0
ARC
  5
22B
  8
DATA
  6
CONTINUOUS
 62
     7
 10
694.25194097488134
 20
677.53989413011118
 30
0.0
 40
1.400000000000015
 50
8.8806591505193833
 51
89.999999999999986
  0
ARC
  5
22C
  8
DATA
  6
CONTINUOUS
 62
     7
 10
684.85650789790441
 20
677.53989413011118
 30
0.0
 40
1.400000000000005
 50
90.0
 51
171.11934084947831
  0
LINE
  5
22D
  8
DATA
  6
CONTINUOUS
 62
     7
 10
683.64281034794919
 20
680.93989413011116
 30
0.0
 11
695.44331638479434
 21
680.93989413011116
 31
0.0
  0
LINE
  5
22E
  8
DATA
  6
CONTINUOUS
 62
     7
 10
696.46215810539093
 20
668.93989413011127
 30
0.0
 11
682.62396862735272
 21
668.93989413011127
 31
0.0
  0
LINE
  5
22F
  8
DATA
  6
CONTINUOUS
 62
     7
 10
680.65212340020946
 20
671.27429867582237
 30
0.0
 11
682.06533416623438
 21
679.60741776667999
 31
0.0
  0
ARC
  5
230
  8
DATA
  6
CONTINUOUS
 62
     7
 10
682.62396862735272
 20
670.93989413011116
 30
0.0
 40
1.999999999999962
 50
170.37480705637799
 51
270.0000000000033
  0
ARC
  5
231
  8
DATA
  6
CONTINUOUS
 62
     7
 10
683.64281034794919
 20
679.33989413011125
 30
0.0
 40
1.5999999999999941
 50
90.0
 51
170.37480705637901
  0
TEXT
  5
232
  8
DATA
 62
     7
 10
761.40591691742122
 20
688.70413184157201
 30
0.0
 40
2.4432617187500001
  1
+5V dc
 50
180.0
 41
0.7
 11
761.40591691742122
 21
686.26087012282198
 31
0.0
 73
     3
  0
LINE
  5
233
  8
DATA
  6
CONTINUOUS
 62
     7
 10
704.12237307390455
 20
575.49999999999989
 30
0.0
 11
699.4458358934686
 21
575.49999999999989
 31
0.0
  0
LINE
  5
234
  8
DATA
  6
CONTINUOUS
 62
     7
 10
698.1860007050052
 20
575.49999999999989
 30
0.0
 11
680.36512770690615
 21
575.49999999999989
 31
0.0
  0
LINE
  5
235
  8
DATA
  6
CONTINUOUS
 62
     7
 10
698.43400333253419
 20
671.27429867582237
 30
0.0
 11
697.02079256650927
 21
679.60741776667999
 31
0.0
  0
ARC
  5
236
  8
DATA
  6
CONTINUOUS
 62
     7
 10
696.46215810539093
 20
670.93989413011116
 30
0.0
 40
1.999999999999992
 50
269.99999999999682
 51
9.6251929436219843
  0
ARC
  5
237
  8
DATA
  6
CONTINUOUS
 62
     7
 10
695.44331638479434
 20
679.33989413011125
 30
0.0
 40
1.600000000000058
 50
9.6251929436210109
 51
90.0
  0
CIRCLE
  5
238
  8
DATA
  6
CONTINUOUS
 62
     7
 10
718.00385557628147
 20
674.93989413011116
 30
0.0
 40
1.175000000000068
  0
POLYLINE
  5
239
  8
DATA
  6
CONTINUOUS
 62
     7
 66
     1
 10
0.0
 20
0.0
 30
0.0
 70
     1
  0
VERTEX
  5
403
  8
DATA
  6
CONTINUOUS
 62
     7
 10
718.00385557628147
 20
672.23989413011122
 30
0.0
  0
VERTEX
  5
404
  8
DATA
  6
CONTINUOUS
 62
     7
 10
720.34212416649962
 20
673.58989413011125
 30
0.0
  0
VERTEX
  5
405
  8
DATA
  6
CONTINUOUS
 62
     7
 10
720.34212416649962
 20
676.28989413011129
 30
0.0
  0
VERTEX
  5
406
  8
DATA
  6
CONTINUOUS
 62
     7
 10
718.00385557628147
 20
677.6398941301112
 30
0.0
  0
VERTEX
  5
407
  8
DATA
  6
CONTINUOUS
 62
     7
 10
715.66558698606354
 20
676.28989413011129
 30
0.0
  0
VERTEX
  5
408
  8
DATA
  6
CONTINUOUS
 62
     7
 10
715.66558698606354
 20
673.58989413011125
 30
0.0
  0
SEQEND
  5
409
  8
DATA
  6
CONTINUOUS
 62
     7
  0
CIRCLE
  5
242
  8
DATA
  6
CONTINUOUS
 62
     7
 10
743.00385557628158
 20
674.93989413011116
 30
0.0
 40
1.175000000000068
  0
POLYLINE
  5
243
  8
DATA
  6
CONTINUOUS
 62
     7
 66
     1
 10
0.0
 20
0.0
 30
0.0
 70
     1
  0
VERTEX
  5
40A
  8
DATA
  6
CONTINUOUS
 62
     7
 10
743.00385557628158
 20
672.23989413011122
 30
0.0
  0
VERTEX
  5
40B
  8
DATA
  6
CONTINUOUS
 62
     7
 10
745.34212416649962
 20
673.58989413011125
 30
0.0
  0
VERTEX
  5
40C
  8
DATA
  6
CONTINUOUS
 62
     7
 10
745.34212416649962
 20
676.28989413011129
 30
0.0
  0
VERTEX
  5
40D
  8
DATA
  6
CONTINUOUS
 62
     7
 10
743.00385557628158
 20
677.6398941301112
 30
0.0
  0
VERTEX
  5
40E
  8
DATA
  6
CONTINUOUS
 62
     7
 10
740.66558698606354
 20
676.28989413011129
 30
0.0
  0
VERTEX
  5
40F
  8
DATA
  6
CONTINUOUS
 62
     7
 10
740.66558698606354
 20
673.58989413011125
 30
0.0
  0
SEQEND
  5
410
  8
DATA
  6
CONTINUOUS
 62
     7
  0
LINE
  5
24C
  8
DATA
  6
CONTINUOUS
 62
     7
 10
725.81730010781428
 20
678.93989413011116
 30
0.0
 11
735.2127331847912
 21
678.93989413011116
 31
0.0
  0
LINE
  5
24D
  8
DATA
  6
CONTINUOUS
 62
     7
 10
736.02523318479109
 20
670.93989413011116
 30
0.0
 11
725.00480010781416
 21
670.93989413011116
 31
0.0
  0
LINE
  5
24E
  8
DATA
  6
CONTINUOUS
 62
     7
 10
736.59595003204265
 20
677.75602176249424
 30
0.0
 11
737.40845003204254
 21
672.55602176249431
 31
0.0
  0
LINE
  5
24F
  8
DATA
  6
CONTINUOUS
 62
     7
 10
723.62158326056272
 20
672.55602176249431
 30
0.0
 11
724.43408326056272
 21
677.75602176249424
 31
0.0
  0
CIRCLE
  5
250
  8
DATA
  6
CONTINUOUS
 62
     7
 10
730.50385557628158
 20
672.4785659178433
 30
0.0
 40
0.5
  0
CIRCLE
  5
251
  8
DATA
  6
CONTINUOUS
 62
     7
 10
728.50385557628169
 20
672.4785659178433
 30
0.0
 40
0.5
  0
CIRCLE
  5
252
  8
DATA
  6
CONTINUOUS
 62
     7
 10
726.50385557628158
 20
672.4785659178433
 30
0.0
 40
0.5
  0
CIRCLE
  5
253
  8
DATA
  6
CONTINUOUS
 62
     7
 10
732.50385557628169
 20
672.4785659178433
 30
0.0
 40
0.5
  0
CIRCLE
  5
254
  8
DATA
  6
CONTINUOUS
 62
     7
 10
734.50385557628158
 20
672.4785659178433
 30
0.0
 40
0.5
  0
CIRCLE
  5
255
  8
DATA
  6
CONTINUOUS
 62
     7
 10
729.38651200081756
 20
674.95275717644824
 30
0.0
 40
0.5
  0
CIRCLE
  5
256
  8
DATA
  6
CONTINUOUS
 62
     7
 10
727.38651200081745
 20
674.95275717644824
 30
0.0
 40
0.5
  0
CIRCLE
  5
257
  8
DATA
  6
CONTINUOUS
 62
     7
 10
725.38651200081756
 20
674.95275717644824
 30
0.0
 40
0.5
  0
CIRCLE
  5
258
  8
DATA
  6
CONTINUOUS
 62
     7
 10
731.38651200081745
 20
674.95275717644824
 30
0.0
 40
0.5
  0
CIRCLE
  5
259
  8
DATA
  6
CONTINUOUS
 62
     7
 10
733.38651200081756
 20
674.95275717644824
 30
0.0
 40
0.5
  0
CIRCLE
  5
25A
  8
DATA
  6
CONTINUOUS
 62
     7
 10
730.50385557628158
 20
677.40122234237901
 30
0.0
 40
0.5
  0
CIRCLE
  5
25B
  8
DATA
  6
CONTINUOUS
 62
     7
 10
728.50385557628169
 20
677.40122234237901
 30
0.0
 40
0.5
  0
CIRCLE
  5
25C
  8
DATA
  6
CONTINUOUS
 62
     7
 10
726.50385557628158
 20
677.40122234237901
 30
0.0
 40
0.5
  0
CIRCLE
  5
25D
  8
DATA
  6
CONTINUOUS
 62
     7
 10
732.50385557628169
 20
677.40122234237901
 30
0.0
 40
0.5
  0
CIRCLE
  5
25E
  8
DATA
  6
CONTINUOUS
 62
     7
 10
734.50385557628158
 20
677.40122234237901
 30
0.0
 40
0.5
  0
ARC
  5
25F
  8
DATA
  6
CONTINUOUS
 62
     7
 10
736.02523318479109
 20
672.33989413011125
 30
0.0
 40
1.400000000000005
 50
270.0
 51
8.8806591505193637
  0
ARC
  5
260
  8
DATA
  6
CONTINUOUS
 62
     7
 10
725.00480010781416
 20
672.33989413011125
 30
0.0
 40
1.400000000000019
 50
171.1193408494795
 51
270.0
  0
ARC
  5
261
  8
DATA
  6
CONTINUOUS
 62
     7
 10
735.2127331847912
 20
677.53989413011118
 30
0.0
 40
1.400000000000015
 50
8.8806591505193833
 51
89.999999999999986
  0
ARC
  5
262
  8
DATA
  6
CONTINUOUS
 62
     7
 10
725.81730010781428
 20
677.53989413011118
 30
0.0
 40
1.400000000000005
 50
90.0
 51
171.11934084947831
  0
LINE
  5
263
  8
DATA
  6
CONTINUOUS
 62
     7
 10
724.60360255785895
 20
680.93989413011116
 30
0.0
 11
736.40410859470444
 21
680.93989413011116
 31
0.0
  0
LINE
  5
264
  8
DATA
  6
CONTINUOUS
 62
     7
 10
737.42295031530102
 20
668.93989413011127
 30
0.0
 11
723.58476083726271
 21
668.93989413011127
 31
0.0
  0
LINE
  5
265
  8
DATA
  6
CONTINUOUS
 62
     7
 10
721.61291561011933
 20
671.27429867582237
 30
0.0
 11
723.02612637614425
 21
679.60741776667999
 31
0.0
  0
ARC
  5
266
  8
DATA
  6
CONTINUOUS
 62
     7
 10
723.58476083726271
 20
670.93989413011116
 30
0.0
 40
1.999999999999962
 50
170.37480705637799
 51
270.0000000000033
  0
ARC
  5
267
  8
DATA
  6
CONTINUOUS
 62
     7
 10
724.60360255785895
 20
679.33989413011125
 30
0.0
 40
1.5999999999999941
 50
90.0
 51
170.37480705637901
  0
LINE
  5
268
  8
DATA
  6
CONTINUOUS
 62
     7
 10
739.39479554244406
 20
671.27429867582237
 30
0.0
 11
737.98158477641903
 21
679.60741776667999
 31
0.0
  0
ARC
  5
269
  8
DATA
  6
CONTINUOUS
 62
     7
 10
737.42295031530102
 20
670.93989413011116
 30
0.0
 40
1.999999999999992
 50
269.99999999999682
 51
9.6251929436219843
  0
ARC
  5
26A
  8
DATA
  6
CONTINUOUS
 62
     7
 10
736.40410859470444
 20
679.33989413011125
 30
0.0
 40
1.600000000000058
 50
9.6251929436210109
 51
90.0
  0
LINE
  5
26B
  8
DATA
  6
CONTINUOUS
 62
     7
 10
704.12237307390455
 20
575.49999999999989
 30
0.0
 11
704.12237307390455
 21
571.49999999999989
 31
0.0
  0
LINE
  5
26C
  8
DATA
  6
CONTINUOUS
 62
     7
 10
679.12237307390455
 20
575.49999999999989
 30
0.0
 11
679.12237307390455
 21
571.49999999999989
 31
0.0
  0
LINE
  5
26D
  8
DATA
  6
CONTINUOUS
 62
     7
 10
699.4458358934686
 20
575.49999999999989
 30
0.0
 11
699.4458358934686
 21
571.49999999999989
 31
0.0
  0
LINE
  5
26E
  8
DATA
  6
CONTINUOUS
 62
     7
 10
680.36512770690615
 20
575.49999999999989
 30
0.0
 11
680.36512770690615
 21
571.49999999999989
 31
0.0
  0
LINE
  5
26F
  8
DATA
  6
CONTINUOUS
 62
     7
 10
698.1860007050052
 20
575.49999999999989
 30
0.0
 11
698.1860007050052
 21
571.49999999999989
 31
0.0
  0
LINE
  5
270
  8
DATA
  6
CONTINUOUS
 62
     7
 10
674.4458358934686
 20
575.49999999999989
 30
0.0
 11
674.4458358934686
 21
571.49999999999989
 31
0.0
  0
LINE
  5
271
  8
DATA
  6
CONTINUOUS
 62
     7
 10
674.4458358934686
 20
575.49999999999989
 30
0.0
 11
679.12237307390455
 21
575.49999999999989
 31
0.0
  0
LINE
  5
272
  8
DATA
  6
CONTINUOUS
 62
     7
 10
745.15298997715774
 20
575.49999999999989
 30
0.0
 11
740.47645279672156
 21
575.49999999999989
 31
0.0
  0
LINE
  5
273
  8
DATA
  6
CONTINUOUS
 62
     7
 10
739.21661760825828
 20
575.49999999999989
 30
0.0
 11
721.395744610159
 21
575.49999999999989
 31
0.0
  0
LINE
  5
274
  8
DATA
  6
CONTINUOUS
 62
     7
 10
745.15298997715774
 20
575.49999999999989
 30
0.0
 11
745.15298997715774
 21
571.49999999999989
 31
0.0
  0
LINE
  5
275
  8
DATA
  6
CONTINUOUS
 62
     7
 10
720.15298997715774
 20
575.49999999999989
 30
0.0
 11
720.15298997715774
 21
571.49999999999989
 31
0.0
  0
LINE
  5
276
  8
DATA
  6
CONTINUOUS
 62
     7
 10
740.47645279672156
 20
575.49999999999989
 30
0.0
 11
740.47645279672156
 21
571.49999999999989
 31
0.0
  0
LINE
  5
277
  8
DATA
  6
CONTINUOUS
 62
     7
 10
721.395744610159
 20
575.49999999999989
 30
0.0
 11
721.395744610159
 21
571.49999999999989
 31
0.0
  0
LINE
  5
278
  8
DATA
  6
CONTINUOUS
 62
     7
 10
739.21661760825828
 20
575.49999999999989
 30
0.0
 11
739.21661760825828
 21
571.49999999999989
 31
0.0
  0
LINE
  5
279
  8
DATA
  6
CONTINUOUS
 62
     7
 10
715.47645279672156
 20
575.49999999999989
 30
0.0
 11
715.47645279672156
 21
571.49999999999989
 31
0.0
  0
LINE
  5
27A
  8
DATA
  6
CONTINUOUS
 62
     7
 10
715.47645279672156
 20
575.49999999999989
 30
0.0
 11
720.15298997715774
 21
575.49999999999989
 31
0.0
  0
TEXT
  5
27B
  8
DATA
 62
     7
 10
664.77400438887457
 20
672.98049999999989
 30
0.0
 40
2.4432617187500001
  1
Out
 50
180.0
 41
0.7
 11
664.77400438887457
 21
670.53723828124987
 31
0.0
 73
     3
  0
TEXT
  5
27C
  8
DATA
 62
     7
 10
664.77400438887457
 20
676.15550000000019
 30
0.0
 40
2.4432617187500001
  1
 
 50
180.0
 41
0.7
 11
664.77400438887457
 21
673.71223828125005
 31
0.0
 73
     3
  0
TEXT
  5
27D
  8
DATA
 62
     7
 10
588.38828412723092
 20
667.23026780498606
 30
0.0
 40
2.198935546875
  1
USB
 50
180.0
 41
0.7
 11
588.38828412723092
 21
665.03133225811098
 31
0.0
 73
     3
  0
ARC
  5
27E
  8
DATA
  6
CONTINUOUS
 62
     7
 10
758.38256335976394
 20
463.60044642857127
 30
0.0
 40
1.8004464285714401
 50
217.67686711595849
 51
322.3231328840393
  0
TEXT
  5
27F
  8
DATA
 62
     7
 10
740.04883025910226
 20
358.07742570038812
 30
0.0
 40
1.764577907986111
  1
Brightness
 41
0.7
 11
740.04883025910226
 21
359.84200360837423
 31
0.0
 73
     3
  0
CIRCLE
  5
280
  8
DATA
  6
CONTINUOUS
 62
     7
 10
746.49999999999989
 20
366.0
 30
0.0
 40
1.949999999999988
  0
LINE
  5
281
  8
DATA
  6
CONTINUOUS
 62
     7
 10
745.30459211981815
 20
366.0
 30
0.0
 11
747.69540788017935
 21
366.0
 31
0.0
  0
LINE
  5
282
  8
DATA
  6
CONTINUOUS
 62
     7
 10
746.49999999999989
 20
364.80459211981832
 30
0.0
 11
746.49999999999989
 21
367.19540788018168
 31
0.0
  0
LINE
  5
283
  8
DATA
  6
CONTINUOUS
 62
     7
 10
651.48152375325833
 20
678.83661984685887
 30
0.0
 11
651.48152375325833
 21
666.33661984685875
 31
0.0
  0
LINE
  5
284
  8
DATA
  6
CONTINUOUS
 62
     7
 10
639.58152375325801
 20
679.43661984685889
 30
0.0
 11
650.88152375325797
 21
679.43661984685889
 31
0.0
  0
LINE
  5
285
  8
DATA
  6
CONTINUOUS
 62
     7
 10
638.98152375325833
 20
666.33661984685875
 30
0.0
 11
638.98152375325833
 21
678.83661984685887
 31
0.0
  0
LINE
  5
286
  8
DATA
  6
CONTINUOUS
 62
     7
 10
650.88152375325797
 20
665.73661984685873
 30
0.0
 11
639.58152375325801
 21
665.73661984685873
 31
0.0
  0
LINE
  5
287
  8
DATA
  6
CONTINUOUS
 62
     7
 10
651.48152375325833
 20
670.83661984685875
 30
0.0
 11
638.98152375325833
 21
670.83661984685875
 31
0.0
  0
LINE
  5
288
  8
DATA
  6
CONTINUOUS
 62
     7
 10
638.98152375325833
 20
674.33661984685887
 30
0.0
 11
651.48152375325833
 21
674.33661984685887
 31
0.0
  0
LINE
  5
289
  8
DATA
  6
CONTINUOUS
 62
     7
 10
650.98152375325833
 20
668.43661984685878
 30
0.0
 11
639.48152375325833
 21
668.43661984685878
 31
0.0
  0
LINE
  5
28A
  8
DATA
  6
CONTINUOUS
 62
     7
 10
639.48152375325833
 20
677.0366198468588
 30
0.0
 11
650.98152375325833
 21
677.0366198468588
 31
0.0
  0
LINE
  5
28B
  8
DATA
  6
CONTINUOUS
 62
     7
 10
639.48152375325833
 20
675.73661984685884
 30
0.0
 11
650.98152375325833
 21
675.73661984685884
 31
0.0
  0
LINE
  5
28C
  8
DATA
  6
CONTINUOUS
 62
     7
 10
650.98152375325833
 20
667.13661984685871
 30
0.0
 11
639.48152375325833
 21
667.13661984685871
 31
0.0
  0
LINE
  5
28D
  8
DATA
  6
CONTINUOUS
 62
     7
 10
645.81937944390256
 20
677.0366198468588
 30
0.0
 11
645.81937944390256
 21
677.11161984685896
 31
0.0
  0
LINE
  5
28E
  8
DATA
  6
CONTINUOUS
 62
     7
 10
647.06937944390245
 20
677.0366198468588
 30
0.0
 11
647.06937944390245
 21
677.11161984685896
 31
0.0
  0
LINE
  5
28F
  8
DATA
  6
CONTINUOUS
 62
     7
 10
647.06937944390245
 20
677.11161984685896
 30
0.0
 11
645.81937944390256
 21
677.11161984685896
 31
0.0
  0
LINE
  5
290
  8
DATA
  6
CONTINUOUS
 62
     7
 10
644.64366806261376
 20
677.0366198468588
 30
0.0
 11
644.64366806261376
 21
677.11161984685896
 31
0.0
  0
LINE
  5
291
  8
DATA
  6
CONTINUOUS
 62
     7
 10
643.39366806261376
 20
677.0366198468588
 30
0.0
 11
643.39366806261376
 21
677.11161984685896
 31
0.0
  0
LINE
  5
292
  8
DATA
  6
CONTINUOUS
 62
     7
 10
643.39366806261376
 20
677.11161984685896
 30
0.0
 11
644.64366806261376
 21
677.11161984685896
 31
0.0
  0
LINE
  5
293
  8
DATA
  6
CONTINUOUS
 62
     7
 10
648.23937944390229
 20
677.0366198468588
 30
0.0
 11
648.23937944390229
 21
677.11161984685896
 31
0.0
  0
LINE
  5
294
  8
DATA
  6
CONTINUOUS
 62
     7
 10
649.48937944390241
 20
677.0366198468588
 30
0.0
 11
649.48937944390241
 21
677.11161984685896
 31
0.0
  0
LINE
  5
295
  8
DATA
  6
CONTINUOUS
 62
     7
 10
649.48937944390241
 20
677.11161984685896
 30
0.0
 11
648.23937944390229
 21
677.11161984685896
 31
0.0
  0
LINE
  5
296
  8
DATA
  6
CONTINUOUS
 62
     7
 10
642.22366806261391
 20
677.0366198468588
 30
0.0
 11
642.22366806261391
 21
677.11161984685896
 31
0.0
  0
LINE
  5
297
  8
DATA
  6
CONTINUOUS
 62
     7
 10
640.97366806261391
 20
677.0366198468588
 30
0.0
 11
640.97366806261391
 21
677.11161984685896
 31
0.0
  0
LINE
  5
298
  8
DATA
  6
CONTINUOUS
 62
     7
 10
640.97366806261391
 20
677.11161984685896
 30
0.0
 11
642.22366806261391
 21
677.11161984685896
 31
0.0
  0
LINE
  5
299
  8
DATA
  6
CONTINUOUS
 62
     7
 10
645.81937944390256
 20
668.43661984675873
 30
0.0
 11
645.81937944390256
 21
668.51161984675866
 31
0.0
  0
LINE
  5
29A
  8
DATA
  6
CONTINUOUS
 62
     7
 10
647.06937944390245
 20
668.43661984675873
 30
0.0
 11
647.06937944390245
 21
668.51161984675866
 31
0.0
  0
LINE
  5
29B
  8
DATA
  6
CONTINUOUS
 62
     7
 10
647.06937944390245
 20
668.51161984675866
 30
0.0
 11
645.81937944390256
 21
668.51161984675866
 31
0.0
  0
LINE
  5
29C
  8
DATA
  6
CONTINUOUS
 62
     7
 10
644.64366806261376
 20
668.43661984675873
 30
0.0
 11
644.64366806261376
 21
668.51161984675866
 31
0.0
  0
LINE
  5
29D
  8
DATA
  6
CONTINUOUS
 62
     7
 10
643.39366806261376
 20
668.43661984675873
 30
0.0
 11
643.39366806261376
 21
668.51161984675866
 31
0.0
  0
LINE
  5
29E
  8
DATA
  6
CONTINUOUS
 62
     7
 10
643.39366806261376
 20
668.51161984675866
 30
0.0
 11
644.64366806261376
 21
668.51161984675866
 31
0.0
  0
LINE
  5
29F
  8
DATA
  6
CONTINUOUS
 62
     7
 10
648.23937944390229
 20
668.43661984675873
 30
0.0
 11
648.23937944390229
 21
668.51161984675866
 31
0.0
  0
LINE
  5
2A0
  8
DATA
  6
CONTINUOUS
 62
     7
 10
649.48937944390241
 20
668.43661984675873
 30
0.0
 11
649.48937944390241
 21
668.51161984675866
 31
0.0
  0
LINE
  5
2A1
  8
DATA
  6
CONTINUOUS
 62
     7
 10
649.48937944390241
 20
668.51161984675866
 30
0.0
 11
648.23937944390229
 21
668.51161984675866
 31
0.0
  0
LINE
  5
2A2
  8
DATA
  6
CONTINUOUS
 62
     7
 10
642.22366806261391
 20
668.43661984675873
 30
0.0
 11
642.22366806261391
 21
668.51161984675866
 31
0.0
  0
LINE
  5
2A3
  8
DATA
  6
CONTINUOUS
 62
     7
 10
640.97366806261391
 20
668.43661984675873
 30
0.0
 11
640.97366806261391
 21
668.51161984675866
 31
0.0
  0
LINE
  5
2A4
  8
DATA
  6
CONTINUOUS
 62
     7
 10
640.97366806261391
 20
668.51161984675866
 30
0.0
 11
642.22366806261391
 21
668.51161984675866
 31
0.0
  0
POLYLINE
  5
2A5
  8
DATA
  6
CONTINUOUS
 62
     7
 66
     1
 10
0.0
 20
0.0
 30
0.0
 70
     1
  0
VERTEX
  5
411
  8
DATA
  6
CONTINUOUS
 62
     7
 10
645.8480289673571
 20
673.1566198468588
 30
0.0
  0
VERTEX
  5
412
  8
DATA
  6
CONTINUOUS
 62
     7
 10
649.44802896735712
 20
673.1566198468588
 30
0.0
  0
VERTEX
  5
413
  8
DATA
  6
CONTINUOUS
 62
     7
 10
649.44802896735712
 20
672.0166198468587
 30
0.0
  0
VERTEX
  5
414
  8
DATA
  6
CONTINUOUS
 62
     7
 10
645.8480289673571
 20
672.0166198468587
 30
0.0
  0
SEQEND
  5
415
  8
DATA
  6
CONTINUOUS
 62
     7
  0
POLYLINE
  5
2AC
  8
DATA
  6
CONTINUOUS
 62
     7
 66
     1
 10
0.0
 20
0.0
 30
0.0
 70
     1
  0
VERTEX
  5
416
  8
DATA
  6
CONTINUOUS
 62
     7
 10
641.0150185391592
 20
673.1566198468588
 30
0.0
  0
VERTEX
  5
417
  8
DATA
  6
CONTINUOUS
 62
     7
 10
644.61501853915922
 20
673.1566198468588
 30
0.0
  0
VERTEX
  5
418
  8
DATA
  6
CONTINUOUS
 62
     7
 10
644.61501853915922
 20
672.0166198468587
 30
0.0
  0
VERTEX
  5
419
  8
DATA
  6
CONTINUOUS
 62
     7
 10
641.0150185391592
 20
672.0166198468587
 30
0.0
  0
SEQEND
  5
41A
  8
DATA
  6
CONTINUOUS
 62
     7
  0
ARC
  5
2B3
  8
DATA
  6
CONTINUOUS
 62
     7
 10
650.88152375325797
 20
666.33661984685875
 30
0.0
 40
0.6000000000000086
 50
270.0
 51
0.0
  0
ARC
  5
2B4
  8
DATA
  6
CONTINUOUS
 62
     7
 10
639.58152375325801
 20
666.33661984685875
 30
0.0
 40
0.6000000000000229
 50
180.0
 51
269.99999999999449
  0
ARC
  5
2B5
  8
DATA
  6
CONTINUOUS
 62
     7
 10
650.88152375325797
 20
678.83661984685887
 30
0.0
 40
0.6000000000000229
 50
0.0
 51
90.0
  0
ARC
  5
2B6
  8
DATA
  6
CONTINUOUS
 62
     7
 10
639.58152375325801
 20
678.83661984685887
 30
0.0
 40
0.6000000000000015
 50
90.0
 51
180.0
  0
LINE
  5
2B7
  8
DATA
  6
CONTINUOUS
 62
     7
 10
650.98152375325833
 20
668.43661984685878
 30
0.0
 11
650.98152375325833
 21
667.13661984685871
 31
0.0
  0
LINE
  5
2B8
  8
DATA
  6
CONTINUOUS
 62
     7
 10
639.48152375325833
 20
668.43661984685878
 30
0.0
 11
639.48152375325833
 21
667.13661984685871
 31
0.0
  0
LINE
  5
2B9
  8
DATA
  6
CONTINUOUS
 62
     7
 10
650.98152375325833
 20
677.0366198468588
 30
0.0
 11
650.98152375325833
 21
675.73661984685884
 31
0.0
  0
LINE
  5
2BA
  8
DATA
  6
CONTINUOUS
 62
     7
 10
639.48152375325833
 20
677.0366198468588
 30
0.0
 11
639.48152375325833
 21
675.73661984685884
 31
0.0
  0
LINE
  5
2BB
  8
DATA
  6
CONTINUOUS
 62
     7
 10
650.82979326859981
 20
680.2866198468588
 30
0.0
 11
650.82979326859981
 21
679.43661984685889
 31
0.0
  0
LINE
  5
2BC
  8
DATA
  6
CONTINUOUS
 62
     7
 10
650.82979326859981
 20
665.73661984685873
 30
0.0
 11
650.82979326859981
 21
664.88661984685871
 31
0.0
  0
LINE
  5
2BD
  8
DATA
  6
CONTINUOUS
 62
     7
 10
639.62979326860386
 20
680.2866198468588
 30
0.0
 11
650.82979326859981
 21
680.2866198468588
 31
0.0
  0
LINE
  5
2BE
  8
DATA
  6
CONTINUOUS
 62
     7
 10
639.62979326860386
 20
664.88661984685871
 30
0.0
 11
639.62979326860386
 21
665.73661984685873
 31
0.0
  0
LINE
  5
2BF
  8
DATA
  6
CONTINUOUS
 62
     7
 10
639.62979326860386
 20
679.43661984685889
 30
0.0
 11
639.62979326860386
 21
680.2866198468588
 31
0.0
  0
LINE
  5
2C0
  8
DATA
  6
CONTINUOUS
 62
     7
 10
650.82979326859981
 20
664.88661984685871
 30
0.0
 11
639.62979326860386
 21
664.88661984685871
 31
0.0
  0
LINE
  5
2C1
  8
DATA
  6
CONTINUOUS
 62
     7
 10
652.43152375325815
 20
670.29844520218694
 30
0.0
 11
652.43152375325815
 21
666.29844520218694
 31
0.0
  0
LINE
  5
2C2
  8
DATA
  6
CONTINUOUS
 62
     7
 10
638.03152375325806
 20
670.29844520218694
 30
0.0
 11
638.98152375325833
 21
670.29844520218694
 31
0.0
  0
LINE
  5
2C3
  8
DATA
  6
CONTINUOUS
 62
     7
 10
651.48152375325833
 20
670.29844520218694
 30
0.0
 11
652.43152375325815
 21
670.29844520218694
 31
0.0
  0
LINE
  5
2C4
  8
DATA
  6
CONTINUOUS
 62
     7
 10
638.03152375325806
 20
666.29844520218694
 30
0.0
 11
638.03152375325806
 21
670.29844520218694
 31
0.0
  0
LINE
  5
2C5
  8
DATA
  6
CONTINUOUS
 62
     7
 10
652.43152375325815
 20
666.29844520218694
 30
0.0
 11
651.48030810219336
 21
666.29844520218694
 31
0.0
  0
LINE
  5
2C6
  8
DATA
  6
CONTINUOUS
 62
     7
 10
638.98273940433444
 20
666.29844520218694
 30
0.0
 11
638.03152375325806
 21
666.29844520218694
 31
0.0
  0
LINE
  5
2C7
  8
DATA
  6
CONTINUOUS
 62
     7
 10
652.43152375325815
 20
674.87479449153045
 30
0.0
 11
652.43152375325815
 21
678.87479449153045
 31
0.0
  0
LINE
  5
2C8
  8
DATA
  6
CONTINUOUS
 62
     7
 10
638.03152375325806
 20
674.87479449153045
 30
0.0
 11
638.98152375325833
 21
674.87479449153045
 31
0.0
  0
LINE
  5
2C9
  8
DATA
  6
CONTINUOUS
 62
     7
 10
651.48152375325833
 20
674.87479449153045
 30
0.0
 11
652.43152375325815
 21
674.87479449153045
 31
0.0
  0
LINE
  5
2CA
  8
DATA
  6
CONTINUOUS
 62
     7
 10
638.03152375325806
 20
678.87479449153045
 30
0.0
 11
638.03152375325806
 21
674.87479449153045
 31
0.0
  0
LINE
  5
2CB
  8
DATA
  6
CONTINUOUS
 62
     7
 10
652.43152375325815
 20
678.87479449153045
 30
0.0
 11
651.48030810219336
 21
678.87479449153045
 31
0.0
  0
LINE
  5
2CC
  8
DATA
  6
CONTINUOUS
 62
     7
 10
638.98273940433444
 20
678.87479449153045
 30
0.0
 11
638.03152375325806
 21
678.87479449153045
 31
0.0
  0
LINE
  5
2CD
  8
DATA
  6
CONTINUOUS
 62
     7
 10
653.18658358642699
 20
680.78657002628051
 30
0.0
 11
653.18658358642699
 21
664.48657002628045
 31
0.0
  0
LINE
  5
2CE
  8
DATA
  6
CONTINUOUS
 62
     7
 10
653.18658358642699
 20
680.78657002628051
 30
0.0
 11
637.38658358642715
 21
680.78657002628051
 31
0.0
  0
LINE
  5
2CF
  8
DATA
  6
CONTINUOUS
 62
     7
 10
637.38658358642715
 20
680.78657002628051
 30
0.0
 11
637.38658358642715
 21
664.48657002628045
 31
0.0
  0
LINE
  5
2D0
  8
DATA
  6
CONTINUOUS
 62
     7
 10
653.18658358642699
 20
664.48657002628045
 30
0.0
 11
637.38658358642715
 21
664.48657002628045
 31
0.0
  0
LINE
  5
2D1
  8
DATA
  6
CONTINUOUS
 62
     7
 10
631.4815237532581
 20
678.83661984685887
 30
0.0
 11
631.4815237532581
 21
666.33661984685875
 31
0.0
  0
LINE
  5
2D2
  8
DATA
  6
CONTINUOUS
 62
     7
 10
619.5815237532579
 20
679.43661984685889
 30
0.0
 11
630.88152375325808
 21
679.43661984685889
 31
0.0
  0
LINE
  5
2D3
  8
DATA
  6
CONTINUOUS
 62
     7
 10
618.98152375325776
 20
666.33661984685875
 30
0.0
 11
618.98152375325776
 21
678.83661984685887
 31
0.0
  0
LINE
  5
2D4
  8
DATA
  6
CONTINUOUS
 62
     7
 10
630.88152375325808
 20
665.73661984685873
 30
0.0
 11
619.5815237532579
 21
665.73661984685873
 31
0.0
  0
LINE
  5
2D5
  8
DATA
  6
CONTINUOUS
 62
     7
 10
631.4815237532581
 20
670.83661984685875
 30
0.0
 11
618.98152375325776
 21
670.83661984685875
 31
0.0
  0
LINE
  5
2D6
  8
DATA
  6
CONTINUOUS
 62
     7
 10
618.98152375325776
 20
674.33661984685887
 30
0.0
 11
631.4815237532581
 21
674.33661984685887
 31
0.0
  0
LINE
  5
2D7
  8
DATA
  6
CONTINUOUS
 62
     7
 10
630.9815237532581
 20
668.43661984685878
 30
0.0
 11
619.48152375325776
 21
668.43661984685878
 31
0.0
  0
LINE
  5
2D8
  8
DATA
  6
CONTINUOUS
 62
     7
 10
619.48152375325776
 20
677.0366198468588
 30
0.0
 11
630.9815237532581
 21
677.0366198468588
 31
0.0
  0
LINE
  5
2D9
  8
DATA
  6
CONTINUOUS
 62
     7
 10
619.48152375325776
 20
675.73661984685884
 30
0.0
 11
630.9815237532581
 21
675.73661984685884
 31
0.0
  0
LINE
  5
2DA
  8
DATA
  6
CONTINUOUS
 62
     7
 10
630.9815237532581
 20
667.13661984685871
 30
0.0
 11
619.48152375325776
 21
667.13661984685871
 31
0.0
  0
LINE
  5
2DB
  8
DATA
  6
CONTINUOUS
 62
     7
 10
625.81937944390211
 20
677.0366198468588
 30
0.0
 11
625.81937944390211
 21
677.11161984685896
 31
0.0
  0
LINE
  5
2DC
  8
DATA
  6
CONTINUOUS
 62
     7
 10
627.06937944390199
 20
677.0366198468588
 30
0.0
 11
627.06937944390199
 21
677.11161984685896
 31
0.0
  0
LINE
  5
2DD
  8
DATA
  6
CONTINUOUS
 62
     7
 10
627.06937944390199
 20
677.11161984685896
 30
0.0
 11
625.81937944390211
 21
677.11161984685896
 31
0.0
  0
LINE
  5
2DE
  8
DATA
  6
CONTINUOUS
 62
     7
 10
624.64366806261364
 20
677.0366198468588
 30
0.0
 11
624.64366806261364
 21
677.11161984685896
 31
0.0
  0
LINE
  5
2DF
  8
DATA
  6
CONTINUOUS
 62
     7
 10
623.39366806261364
 20
677.0366198468588
 30
0.0
 11
623.39366806261364
 21
677.11161984685896
 31
0.0
  0
LINE
  5
2E0
  8
DATA
  6
CONTINUOUS
 62
     7
 10
623.39366806261364
 20
677.11161984685896
 30
0.0
 11
624.64366806261364
 21
677.11161984685896
 31
0.0
  0
LINE
  5
2E1
  8
DATA
  6
CONTINUOUS
 62
     7
 10
628.23937944390218
 20
677.0366198468588
 30
0.0
 11
628.23937944390218
 21
677.11161984685896
 31
0.0
  0
LINE
  5
2E2
  8
DATA
  6
CONTINUOUS
 62
     7
 10
629.48937944390229
 20
677.0366198468588
 30
0.0
 11
629.48937944390229
 21
677.11161984685896
 31
0.0
  0
LINE
  5
2E3
  8
DATA
  6
CONTINUOUS
 62
     7
 10
629.48937944390229
 20
677.11161984685896
 30
0.0
 11
628.23937944390218
 21
677.11161984685896
 31
0.0
  0
LINE
  5
2E4
  8
DATA
  6
CONTINUOUS
 62
     7
 10
622.22366806261346
 20
677.0366198468588
 30
0.0
 11
622.22366806261346
 21
677.11161984685896
 31
0.0
  0
LINE
  5
2E5
  8
DATA
  6
CONTINUOUS
 62
     7
 10
620.97366806261357
 20
677.0366198468588
 30
0.0
 11
620.97366806261357
 21
677.11161984685896
 31
0.0
  0
LINE
  5
2E6
  8
DATA
  6
CONTINUOUS
 62
     7
 10
620.97366806261357
 20
677.11161984685896
 30
0.0
 11
622.22366806261346
 21
677.11161984685896
 31
0.0
  0
LINE
  5
2E7
  8
DATA
  6
CONTINUOUS
 62
     7
 10
625.81937944390211
 20
668.43661984675873
 30
0.0
 11
625.81937944390211
 21
668.51161984675866
 31
0.0
  0
LINE
  5
2E8
  8
DATA
  6
CONTINUOUS
 62
     7
 10
627.06937944390199
 20
668.43661984675873
 30
0.0
 11
627.06937944390199
 21
668.51161984675866
 31
0.0
  0
LINE
  5
2E9
  8
DATA
  6
CONTINUOUS
 62
     7
 10
627.06937944390199
 20
668.51161984675866
 30
0.0
 11
625.81937944390211
 21
668.51161984675866
 31
0.0
  0
LINE
  5
2EA
  8
DATA
  6
CONTINUOUS
 62
     7
 10
624.64366806261364
 20
668.43661984675873
 30
0.0
 11
624.64366806261364
 21
668.51161984675866
 31
0.0
  0
LINE
  5
2EB
  8
DATA
  6
CONTINUOUS
 62
     7
 10
623.39366806261364
 20
668.43661984675873
 30
0.0
 11
623.39366806261364
 21
668.51161984675866
 31
0.0
  0
LINE
  5
2EC
  8
DATA
  6
CONTINUOUS
 62
     7
 10
623.39366806261364
 20
668.51161984675866
 30
0.0
 11
624.64366806261364
 21
668.51161984675866
 31
0.0
  0
LINE
  5
2ED
  8
DATA
  6
CONTINUOUS
 62
     7
 10
628.23937944390218
 20
668.43661984675873
 30
0.0
 11
628.23937944390218
 21
668.51161984675866
 31
0.0
  0
LINE
  5
2EE
  8
DATA
  6
CONTINUOUS
 62
     7
 10
629.48937944390229
 20
668.43661984675873
 30
0.0
 11
629.48937944390229
 21
668.51161984675866
 31
0.0
  0
LINE
  5
2EF
  8
DATA
  6
CONTINUOUS
 62
     7
 10
629.48937944390229
 20
668.51161984675866
 30
0.0
 11
628.23937944390218
 21
668.51161984675866
 31
0.0
  0
LINE
  5
2F0
  8
DATA
  6
CONTINUOUS
 62
     7
 10
622.22366806261346
 20
668.43661984675873
 30
0.0
 11
622.22366806261346
 21
668.51161984675866
 31
0.0
  0
LINE
  5
2F1
  8
DATA
  6
CONTINUOUS
 62
     7
 10
620.97366806261357
 20
668.43661984675873
 30
0.0
 11
620.97366806261357
 21
668.51161984675866
 31
0.0
  0
LINE
  5
2F2
  8
DATA
  6
CONTINUOUS
 62
     7
 10
620.97366806261357
 20
668.51161984675866
 30
0.0
 11
622.22366806261346
 21
668.51161984675866
 31
0.0
  0
POLYLINE
  5
2F3
  8
DATA
  6
CONTINUOUS
 62
     7
 66
     1
 10
0.0
 20
0.0
 30
0.0
 70
     1
  0
VERTEX
  5
41B
  8
DATA
  6
CONTINUOUS
 62
     7
 10
625.84802896735687
 20
673.1566198468588
 30
0.0
  0
VERTEX
  5
41C
  8
DATA
  6
CONTINUOUS
 62
     7
 10
629.448028967357
 20
673.1566198468588
 30
0.0
  0
VERTEX
  5
41D
  8
DATA
  6
CONTINUOUS
 62
     7
 10
629.448028967357
 20
672.0166198468587
 30
0.0
  0
VERTEX
  5
41E
  8
DATA
  6
CONTINUOUS
 62
     7
 10
625.84802896735687
 20
672.0166198468587
 30
0.0
  0
SEQEND
  5
41F
  8
DATA
  6
CONTINUOUS
 62
     7
  0
POLYLINE
  5
2FA
  8
DATA
  6
CONTINUOUS
 62
     7
 66
     1
 10
0.0
 20
0.0
 30
0.0
 70
     1
  0
VERTEX
  5
420
  8
DATA
  6
CONTINUOUS
 62
     7
 10
621.01501853915886
 20
673.1566198468588
 30
0.0
  0
VERTEX
  5
421
  8
DATA
  6
CONTINUOUS
 62
     7
 10
624.61501853915888
 20
673.1566198468588
 30
0.0
  0
VERTEX
  5
422
  8
DATA
  6
CONTINUOUS
 62
     7
 10
624.61501853915888
 20
672.0166198468587
 30
0.0
  0
VERTEX
  5
423
  8
DATA
  6
CONTINUOUS
 62
     7
 10
621.01501853915886
 20
672.0166198468587
 30
0.0
  0
SEQEND
  5
424
  8
DATA
  6
CONTINUOUS
 62
     7
  0
ARC
  5
301
  8
DATA
  6
CONTINUOUS
 62
     7
 10
630.88152375325808
 20
666.33661984685875
 30
0.0
 40
0.6000000000000086
 50
270.0
 51
0.0
  0
ARC
  5
302
  8
DATA
  6
CONTINUOUS
 62
     7
 10
619.5815237532579
 20
666.33661984685875
 30
0.0
 40
0.6000000000000229
 50
180.0
 51
269.99999999999449
  0
ARC
  5
303
  8
DATA
  6
CONTINUOUS
 62
     7
 10
630.88152375325808
 20
678.83661984685887
 30
0.0
 40
0.6000000000000796
 50
0.0
 51
90.0
  0
ARC
  5
304
  8
DATA
  6
CONTINUOUS
 62
     7
 10
619.5815237532579
 20
678.83661984685887
 30
0.0
 40
0.6000000000000015
 50
90.0
 51
180.0
  0
LINE
  5
305
  8
DATA
  6
CONTINUOUS
 62
     7
 10
630.9815237532581
 20
668.43661984685878
 30
0.0
 11
630.9815237532581
 21
667.13661984685871
 31
0.0
  0
LINE
  5
306
  8
DATA
  6
CONTINUOUS
 62
     7
 10
619.48152375325776
 20
668.43661984685878
 30
0.0
 11
619.48152375325776
 21
667.13661984685871
 31
0.0
  0
LINE
  5
307
  8
DATA
  6
CONTINUOUS
 62
     7
 10
630.9815237532581
 20
677.0366198468588
 30
0.0
 11
630.9815237532581
 21
675.73661984685884
 31
0.0
  0
LINE
  5
308
  8
DATA
  6
CONTINUOUS
 62
     7
 10
619.48152375325776
 20
677.0366198468588
 30
0.0
 11
619.48152375325776
 21
675.73661984685884
 31
0.0
  0
LINE
  5
309
  8
DATA
  6
CONTINUOUS
 62
     7
 10
630.82979326859981
 20
680.2866198468588
 30
0.0
 11
630.82979326859981
 21
679.43661984685889
 31
0.0
  0
LINE
  5
30A
  8
DATA
  6
CONTINUOUS
 62
     7
 10
630.82979326859981
 20
665.73661984685873
 30
0.0
 11
630.82979326859981
 21
664.88661984685871
 31
0.0
  0
LINE
  5
30B
  8
DATA
  6
CONTINUOUS
 62
     7
 10
619.62979326860363
 20
680.2866198468588
 30
0.0
 11
630.82979326859981
 21
680.2866198468588
 31
0.0
  0
LINE
  5
30C
  8
DATA
  6
CONTINUOUS
 62
     7
 10
619.62979326860363
 20
664.88661984685871
 30
0.0
 11
619.62979326860363
 21
665.73661984685873
 31
0.0
  0
LINE
  5
30D
  8
DATA
  6
CONTINUOUS
 62
     7
 10
619.62979326860363
 20
679.43661984685889
 30
0.0
 11
619.62979326860363
 21
680.2866198468588
 31
0.0
  0
LINE
  5
30E
  8
DATA
  6
CONTINUOUS
 62
     7
 10
630.82979326859981
 20
664.88661984685871
 30
0.0
 11
619.62979326860363
 21
664.88661984685871
 31
0.0
  0
LINE
  5
30F
  8
DATA
  6
CONTINUOUS
 62
     7
 10
632.43152375325815
 20
670.29844520218694
 30
0.0
 11
632.43152375325815
 21
666.29844520218694
 31
0.0
  0
LINE
  5
310
  8
DATA
  6
CONTINUOUS
 62
     7
 10
618.03152375325794
 20
670.29844520218694
 30
0.0
 11
618.98152375325776
 21
670.29844520218694
 31
0.0
  0
LINE
  5
311
  8
DATA
  6
CONTINUOUS
 62
     7
 10
631.4815237532581
 20
670.29844520218694
 30
0.0
 11
632.43152375325815
 21
670.29844520218694
 31
0.0
  0
LINE
  5
312
  8
DATA
  6
CONTINUOUS
 62
     7
 10
618.03152375325794
 20
666.29844520218694
 30
0.0
 11
618.03152375325794
 21
670.29844520218694
 31
0.0
  0
LINE
  5
313
  8
DATA
  6
CONTINUOUS
 62
     7
 10
632.43152375325815
 20
666.29844520218694
 30
0.0
 11
631.48030810219348
 21
666.29844520218694
 31
0.0
  0
LINE
  5
314
  8
DATA
  6
CONTINUOUS
 62
     7
 10
618.98273940433444
 20
666.29844520218694
 30
0.0
 11
618.03152375325794
 21
666.29844520218694
 31
0.0
  0
LINE
  5
315
  8
DATA
  6
CONTINUOUS
 62
     7
 10
632.43152375325815
 20
674.87479449153045
 30
0.0
 11
632.43152375325815
 21
678.87479449153045
 31
0.0
  0
LINE
  5
316
  8
DATA
  6
CONTINUOUS
 62
     7
 10
618.03152375325794
 20
674.87479449153045
 30
0.0
 11
618.98152375325776
 21
674.87479449153045
 31
0.0
  0
LINE
  5
317
  8
DATA
  6
CONTINUOUS
 62
     7
 10
631.4815237532581
 20
674.87479449153045
 30
0.0
 11
632.43152375325815
 21
674.87479449153045
 31
0.0
  0
LINE
  5
318
  8
DATA
  6
CONTINUOUS
 62
     7
 10
618.03152375325794
 20
678.87479449153045
 30
0.0
 11
618.03152375325794
 21
674.87479449153045
 31
0.0
  0
LINE
  5
319
  8
DATA
  6
CONTINUOUS
 62
     7
 10
632.43152375325815
 20
678.87479449153045
 30
0.0
 11
631.48030810219348
 21
678.87479449153045
 31
0.0
  0
LINE
  5
31A
  8
DATA
  6
CONTINUOUS
 62
     7
 10
618.98273940433444
 20
678.87479449153045
 30
0.0
 11
618.03152375325794
 21
678.87479449153045
 31
0.0
  0
LINE
  5
31B
  8
DATA
  6
CONTINUOUS
 62
     7
 10
633.18658358642699
 20
680.78657002628051
 30
0.0
 11
633.18658358642699
 21
664.48657002628045
 31
0.0
  0
LINE
  5
31C
  8
DATA
  6
CONTINUOUS
 62
     7
 10
633.18658358642699
 20
680.78657002628051
 30
0.0
 11
617.38658358642681
 21
680.78657002628051
 31
0.0
  0
LINE
  5
31D
  8
DATA
  6
CONTINUOUS
 62
     7
 10
617.38658358642681
 20
680.78657002628051
 30
0.0
 11
617.38658358642681
 21
664.48657002628045
 31
0.0
  0
LINE
  5
31E
  8
DATA
  6
CONTINUOUS
 62
     7
 10
633.18658358642699
 20
664.48657002628045
 30
0.0
 11
617.38658358642681
 21
664.48657002628045
 31
0.0
  0
TEXT
  5
31F
  8
DATA
 62
     7
 10
641.99274682448811
 20
687.5870344919673
 30
0.0
 40
2.4432617187500001
  1
4 USB Out
 50
180.0
 41
0.7
 11
641.99274682448811
 21
685.14377277321717
 31
0.0
 73
     3
  0
TEXT
  5
320
  8
DATA
 62
     7
 10
739.15821588137339
 20
688.54124307132759
 30
0.0
 40
2.4432617187500001
  1
Video Out 1 
 50
180.0
 41
0.7
 11
739.15821588137339
 21
686.09798135257756
 31
0.0
 73
     3
  0
LINE
  5
321
  8
DATA
  6
CONTINUOUS
 62
     7
 10
462.99999999986528
 20
364.39999999999998
 30
0.0
 11
459.0
 21
364.39999999999998
 31
0.0
  0
LINE
  5
322
  8
DATA
  6
CONTINUOUS
 62
     7
 10
459.0
 20
369.60000000000002
 30
0.0
 11
462.99999999986528
 21
369.60000000000002
 31
0.0
  0
LINE
  5
323
  8
DATA
  6
CONTINUOUS
 62
     7
 10
462.99999999986528
 20
363.0
 30
0.0
 11
459.0
 21
363.0
 31
0.0
  0
LINE
  5
324
  8
DATA
  6
CONTINUOUS
 62
     7
 10
459.0
 20
371.0
 30
0.0
 11
462.99999999986528
 21
371.0
 31
0.0
  0
LINE
  5
325
  8
DATA
  6
CONTINUOUS
 62
     7
 10
462.99999999986528
 20
371.0
 30
0.0
 11
462.99999999986528
 21
363.0
 31
0.0
  0
LINE
  5
326
  8
DATA
  6
CONTINUOUS
 62
     7
 10
912.99999999986562
 20
364.39999999999998
 30
0.0
 11
909.0
 21
364.39999999999998
 31
0.0
  0
LINE
  5
327
  8
DATA
  6
CONTINUOUS
 62
     7
 10
909.0
 20
369.60000000000002
 30
0.0
 11
912.99999999986562
 21
369.60000000000002
 31
0.0
  0
LINE
  5
328
  8
DATA
  6
CONTINUOUS
 62
     7
 10
912.99999999986562
 20
363.0
 30
0.0
 11
909.0
 21
363.0
 31
0.0
  0
LINE
  5
329
  8
DATA
  6
CONTINUOUS
 62
     7
 10
909.0
 20
371.0
 30
0.0
 11
912.99999999986562
 21
371.0
 31
0.0
  0
LINE
  5
32A
  8
DATA
  6
CONTINUOUS
 62
     7
 10
912.99999999986562
 20
371.0
 30
0.0
 11
912.99999999986562
 21
363.0
 31
0.0
  0
ARC
  5
32B
  8
DATA
  6
CONTINUOUS
 62
     7
 10
350.69558652142842
 20
367.03552445820083
 30
0.0
 40
1.4250529764389559
 50
119.2166131442562
 51
240.7833868557438
  0
ARC
  5
32C
  8
DATA
  6
CONTINUOUS
 62
     7
 10
800.69558652142825
 20
367.03552445820083
 30
0.0
 40
1.4250529764389559
 50
119.2166131442562
 51
240.7833868557438
  0
TEXT
  5
32D
  8
DATA
 62
     7
 10
133.51202858006641
 20
285.61603609687018
 30
0.0
 40
13.57367621527778
  1
CAT5-1000S(センダー)
 41
0.7
 11
133.51202858006641
 21
299.189712312148
 31
0.0
 73
     3
  0
TEXT
  5
32E
  8
DATA
 62
     7
 10
574.60633053350341
 20
285.35153659719629
 30
0.0
 40
13.57367621527778
  1
CAT5-1000R(レシーバー)
 41
0.7
 11
574.60633053350341
 21
298.92521281247411
 31
0.0
 73
     3
  0
ENDSEC
  0
EOF
