  0
SECTION
  2
HEADER
  9
$ACADVER
  1
AC1009
  9
$INSBASE
 10
0.0
 20
0.0
 30
0.0
  9
$EXTMIN
 10
49.981691723202402
 20
11.90643626254314
 30
-0.0015258207003583
  9
$EXTMAX
 10
950.02899391114363
 20
1350.04120187373
 30
0.0000000349246037
  9
$LIMMIN
 10
0.0
 20
0.0
  9
$LIMMAX
 10
0.0
 20
0.0
  9
$ORTHOMODE
 70
     0
  9
$REGENMODE
 70
     1
  9
$FILLMODE
 70
     1
  9
$QTEXTMODE
 70
     0
  9
$MIRRTEXT
 70
     1
  9
$DRAGMODE
 70
     2
  9
$LTSCALE
 40
25.399999999999999
  9
$OSMODE
 70
   231
  9
$ATTMODE
 70
     1
  9
$TEXTSIZE
 40
0.0
  9
$TRACEWID
 40
1.0
  9
$TEXTSTYLE
  7
STANDARD
  9
$CLAYER
  8
DATA
  9
$CELTYPE
  6
BYLAYER
  9
$CECOLOR
 62
   256
  9
$DIMSCALE
 40
1.0
  9
$DIMASZ
 40
0.18
  9
$DIMEXO
 40
0.0625
  9
$DIMDLI
 40
0.38
  9
$DIMRND
 40
0.0
  9
$DIMDLE
 40
0.0
  9
$DIMEXE
 40
0.18
  9
$DIMTP
 40
0.0
  9
$DIMTM
 40
0.0
  9
$DIMTXT
 40
0.18
  9
$DIMCEN
 40
0.09
  9
$DIMTSZ
 40
0.0
  9
$DIMTOL
 70
     0
  9
$DIMLIM
 70
     0
  9
$DIMTIH
 70
     1
  9
$DIMTOH
 70
     1
  9
$DIMSE1
 70
     0
  9
$DIMSE2
 70
     0
  9
$DIMTAD
 70
     0
  9
$DIMZIN
 70
     0
  9
$DIMBLK
  1

  9
$DIMASO
 70
     1
  9
$DIMSHO
 70
     1
  9
$DIMPOST
  1

  9
$DIMAPOST
  1

  9
$DIMALT
 70
     0
  9
$DIMALTD
 70
     2
  9
$DIMALTF
 40
25.399999999999999
  9
$DIMLFAC
 40
1.0
  9
$DIMTOFL
 70
     0
  9
$DIMTVP
 40
0.0
  9
$DIMTIX
 70
     0
  9
$DIMSOXD
 70
     0
  9
$DIMSAH
 70
     0
  9
$DIMBLK1
  1

  9
$DIMBLK2
  1

  9
$DIMSTYLE
  2
STANDARD
  9
$DIMCLRD
 70
     0
  9
$DIMCLRE
 70
     0
  9
$DIMCLRT
 70
     0
  9
$DIMTFAC
 40
1.0
  9
$DIMGAP
 40
0.09
  9
$LUNITS
 70
     2
  9
$LUPREC
 70
     4
  9
$SKETCHINC
 40
0.1
  9
$FILLETRAD
 40
0.0
  9
$AUNITS
 70
     0
  9
$AUPREC
 70
     0
  9
$MENU
  1
acad
  9
$ELEVATION
 40
0.0
  9
$PELEVATION
 40
0.0
  9
$THICKNESS
 40
0.0
  9
$LIMCHECK
 70
     0
  9
$BLIPMODE
 70
     0
  9
$CHAMFERA
 40
0.0
  9
$CHAMFERB
 40
0.0
  9
$SKPOLY
 70
     0
  9
$TDCREATE
 40
2455202.6895601852
  9
$TDUPDATE
 40
2455202.694447407
  9
$TDINDWG
 40
0.000243588
  9
$TDUSRTIMER
 40
0.000243588
  9
$USRTIMER
 70
     1
  9
$ANGBASE
 50
0.0
  9
$ANGDIR
 70
     0
  9
$PDMODE
 70
     1
  9
$PDSIZE
 40
-2.0
  9
$PLINEWID
 40
0.0
  9
$COORDS
 70
     0
  9
$SPLFRAME
 70
     0
  9
$SPLINETYPE
 70
     6
  9
$SPLINESEGS
 70
     8
  9
$ATTDIA
 70
     0
  9
$ATTREQ
 70
     1
  9
$HANDLING
 70
     1
  9
$HANDSEED
  5
3F2
  9
$SURFTAB1
 70
     6
  9
$SURFTAB2
 70
     6
  9
$SURFTYPE
 70
     6
  9
$SURFU
 70
     6
  9
$SURFV
 70
     6
  9
$UCSNAME
  2

  9
$UCSORG
 10
0.0
 20
0.0
 30
0.0
  9
$UCSXDIR
 10
1.0
 20
0.0
 30
0.0
  9
$UCSYDIR
 10
0.0
 20
1.0
 30
0.0
  9
$PUCSNAME
  2

  9
$PUCSORG
 10
0.0
 20
0.0
 30
0.0
  9
$PUCSXDIR
 10
1.0
 20
0.0
 30
0.0
  9
$PUCSYDIR
 10
0.0
 20
1.0
 30
0.0
  9
$USERI1
 70
     0
  9
$USERI2
 70
     0
  9
$USERI3
 70
     0
  9
$USERI4
 70
     0
  9
$USERI5
 70
     0
  9
$USERR1
 40
0.0
  9
$USERR2
 40
0.0
  9
$USERR3
 40
0.0
  9
$USERR4
 40
0.0
  9
$USERR5
 40
0.0
  9
$WORLDVIEW
 70
     1
  9
$SHADEDGE
 70
     3
  9
$SHADEDIF
 70
    70
  9
$TILEMODE
 70
     1
  9
$MAXACTVP
 70
    64
  9
$PLIMCHECK
 70
     0
  9
$PEXTMIN
 10
1.0000000000000000E+020
 20
1.0000000000000000E+020
 30
1.0000000000000000E+020
  9
$PEXTMAX
 10
-1.0000000000000000E+020
 20
-1.0000000000000000E+020
 30
-1.0000000000000000E+020
  9
$PLIMMIN
 10
0.0
 20
0.0
  9
$PLIMMAX
 10
12.0
 20
9.0
  9
$UNITMODE
 70
     0
  9
$VISRETAIN
 70
     0
  9
$PLINEGEN
 70
     1
  9
$PSLTSCALE
 70
     0
  0
ENDSEC
  0
SECTION
  2
TABLES
  0
TABLE
  2
VPORT
 70
     1
  0
VPORT
  2
*ACTIVE
 70
     0
 10
0.0
 20
0.0
 11
1.0
 21
1.0
 12
500.00534281717307
 22
680.97381906813655
 13
0.0
 23
0.0
 14
1.0
 24
1.0
 15
0.0
 25
0.0
 16
0.0
 26
0.0
 36
1.0
 17
0.0
 27
0.0
 37
0.0
 40
1347.9981668319081
 41
1.964329643296433
 42
50.0
 43
0.0
 44
0.0
 50
0.0
 51
0.0
 71
     0
 72
  2000
 73
     1
 74
     1
 75
     0
 76
     0
 77
     0
 78
     0
  0
ENDTAB
  0
TABLE
  2
LTYPE
 70
    11
  0
LTYPE
  2
CONTINUOUS
 70
     0
  3
Solid line
 72
    65
 73
     0
 40
0.0
  0
ENDTAB
  0
TABLE
  2
LAYER
 70
     5
  0
LAYER
  2
0
 70
     0
 62
     7
  6
CONTINUOUS
  0
LAYER
  2
DATA
 70
     0
 62
     7
  6
CONTINUOUS
  0
LAYER
  2
HIBINO-BASE
 70
     0
 62
     7
  6
CONTINUOUS
  0
LAYER
  2
SPEC
 70
     0
 62
     7
  6
CONTINUOUS
  0
LAYER
  2
DIMNSIONS
 70
     0
 62
     7
  6
CONTINUOUS
  0
ENDTAB
  0
TABLE
  2
STYLE
 70
     3
  0
STYLE
  2
STANDARD
 70
     0
 40
0.0
 41
1.0
 50
0.0
 71
     0
 42
0.0
  3
txt
  4
BIGFONT.SHX
  0
ENDTAB
  0
TABLE
  2
VIEW
 70
     0
  0
ENDTAB
  0
TABLE
  2
UCS
 70
     0
  0
ENDTAB
  0
TABLE
  2
APPID
 70
     3
  0
APPID
  2
ACAD
 70
     0
  0
APPID
  2
ACADANNOTATIVE
 70
     0
  0
APPID
  2
ACAD_MLEADERVER
 70
     0
  0
ENDTAB
  0
TABLE
  2
DIMSTYLE
 70
     2
  0
DIMSTYLE
  2
STANDARD
 70
     0
  3

  4

  5

  6

  7

 40
1.0
 41
0.18
 42
0.0625
 43
0.38
 44
0.18
 45
0.0
 46
0.0
 47
0.0
 48
0.0
140
0.18
141
0.09
142
0.0
143
25.399999999999999
144
1.0
145
0.0
146
1.0
147
0.09
 71
     0
 72
     0
 73
     1
 74
     1
 75
     0
 76
     0
 77
     0
 78
     0
170
     0
171
     2
172
     0
173
     0
174
     0
175
     0
176
     0
177
     0
178
     0
  0
ENDTAB
  0
ENDSEC
  0
SECTION
  2
BLOCKS
  0
BLOCK
  8
0
  2
$MODEL_SPACE
 70
     0
 10
0.0
 20
0.0
 30
0.0
  3
$MODEL_SPACE
  1

  0
ENDBLK
  5
356
  8
0
  0
BLOCK
 67
     1
  8
0
  2
$PAPER_SPACE
 70
     0
 10
0.0
 20
0.0
 30
0.0
  3
$PAPER_SPACE
  1

  0
ENDBLK
  5
352
 67
     1
  8
0
  0
ENDSEC
  0
SECTION
  2
ENTITIES
  0
LINE
  5
2C
  8
HIBINO-BASE
  6
CONTINUOUS
 62
     7
 10
50.0
 20
1350.0
 30
0.0
 11
950.0
 21
1350.0
 31
0.0
  0
LINE
  5
2D
  8
HIBINO-BASE
  6
CONTINUOUS
 62
     7
 10
950.0
 20
50.0
 30
0.0
 11
50.0
 21
50.0
 31
0.0
  0
LINE
  5
2E
  8
HIBINO-BASE
  6
CONTINUOUS
 62
     7
 10
50.0
 20
50.0
 30
0.0
 11
50.0
 21
1350.0
 31
0.0
  0
TEXT
  5
2F
  8
HIBINO-BASE
 62
     7
 10
62.82012861104743
 20
17.956611000000098
 30
0.0
 40
18.00022089843749
  1
Hibino-Intersound Corporation
 41
0.7
 11
62.82012861104743
 21
35.956831898437599
 31
0.0
 73
     3
  0
LINE
  5
30
  8
HIBINO-BASE
  6
CONTINUOUS
 62
     7
 10
950.0
 20
1350.0
 30
0.0
 11
950.0
 21
50.0
 31
0.0
  0
LINE
  5
31
  8
HIBINO-BASE
  6
CONTINUOUS
 62
     7
 10
500.0
 20
162.50000000000011
 30
0.0
 11
950.0
 21
162.50000000000011
 31
0.0
  0
LINE
  5
32
  8
HIBINO-BASE
  6
CONTINUOUS
 62
     7
 10
500.0
 20
50.0
 30
0.0
 11
500.0
 21
162.50000000000011
 31
0.0
  0
TEXT
  5
33
  8
HIBINO-BASE
 62
     7
 10
504.49999999999989
 20
149.9565333333334
 30
0.0
 40
8.1442057291666661
  1
NOTE
 41
0.7
 11
504.49999999999989
 21
158.10073906250011
 31
0.0
 73
     3
  0
LINE
  5
34
  8
HIBINO-BASE
  6
CONTINUOUS
 62
     7
 10
675.0
 20
50.0
 30
0.0
 11
675.0
 21
162.50000000000011
 31
0.0
  0
TEXT
  5
35
  8
HIBINO-BASE
 62
     7
 10
679.49999999999989
 20
149.9565333333334
 30
0.0
 40
8.1442057291666661
  1
TITLE
 41
0.7
 11
679.49999999999989
 21
158.10073906250011
 31
0.0
 73
     3
  0
TEXT
  5
36
  8
HIBINO-BASE
 62
     7
 10
595.06609521503515
 20
16.861363937191111
 30
0.0
 40
18.00022089843749
  1
ヒビノインターサウンド株式会社
 41
0.7
 11
595.06609521503515
 21
34.861584835628598
 31
0.0
 73
     3
  0
LINE
  5
37
  8
HIBINO-BASE
  6
CONTINUOUS
 62
     7
 10
500.0
 20
100.0000000000001
 30
0.0
 11
950.0
 21
100.0000000000001
 31
0.0
  0
TEXT
  5
38
  8
HIBINO-BASE
 62
     7
 10
742.0
 20
87.738133333333465
 30
0.0
 40
8.1442057291666661
  1
DRAWN
 41
0.7
 11
742.0
 21
95.882339062500137
 31
0.0
 73
     3
  0
TEXT
  5
39
  8
HIBINO-BASE
 62
     7
 10
617.0
 20
87.738133333333465
 30
0.0
 40
8.1442057291666661
  1
DATE
 41
0.7
 11
617.0
 21
95.882339062500137
 31
0.0
 73
     3
  0
TEXT
  5
3A
  8
HIBINO-BASE
 62
     7
 10
567.0
 20
87.738133333333465
 30
0.0
 40
8.1442057291666661
  1
SCALE
 41
0.7
 11
567.0
 21
95.882339062500137
 31
0.0
 73
     3
  0
TEXT
  5
3B
  8
HIBINO-BASE
 62
     7
 10
679.49999999999989
 20
87.738133333333465
 30
0.0
 40
8.1442057291666661
  1
DESIGN
 41
0.7
 11
679.49999999999989
 21
95.882339062500137
 31
0.0
 73
     3
  0
TEXT
  5
3C
  8
HIBINO-BASE
 62
     7
 10
867.0
 20
87.738133333333465
 30
0.0
 40
8.1442057291666661
  1
DRAWING NO.
 41
0.7
 11
867.0
 21
95.882339062500137
 31
0.0
 73
     3
  0
TEXT
  5
3D
  8
HIBINO-BASE
 62
     7
 10
804.49999999999989
 20
87.738133333333465
 30
0.0
 40
8.1442057291666661
  1
CHECK
 41
0.7
 11
804.49999999999989
 21
95.882339062500137
 31
0.0
 73
     3
  0
LINE
  5
3E
  8
HIBINO-BASE
  6
CONTINUOUS
 62
     7
 10
571.87499999999989
 20
56.25
 30
0.0
 11
590.625
 21
75.000000000000099
 31
0.0
  0
TEXT
  5
3F
  8
HIBINO-BASE
 62
     7
 10
568.74999999999989
 20
69.455283333333384
 30
0.0
 40
8.1442057291666661
  1
1
 41
0.7
 11
568.74999999999989
 21
77.599489062500069
 31
0.0
 73
     3
  0
LINE
  5
40
  8
HIBINO-BASE
  6
CONTINUOUS
 62
     7
 10
562.49999999999989
 20
50.0
 30
0.0
 11
562.49999999999989
 21
100.0000000000001
 31
0.0
  0
LINE
  5
41
  8
HIBINO-BASE
  6
CONTINUOUS
 62
     7
 10
612.49999999999989
 20
50.0
 30
0.0
 11
612.49999999999989
 21
100.0000000000001
 31
0.0
  0
LINE
  5
42
  8
HIBINO-BASE
  6
CONTINUOUS
 62
     7
 10
737.5
 20
100.0000000000001
 30
0.0
 11
737.5
 21
50.0
 31
0.0
  0
LINE
  5
43
  8
HIBINO-BASE
  6
CONTINUOUS
 62
     7
 10
862.5
 20
100.0000000000001
 30
0.0
 11
862.5
 21
50.0
 31
0.0
  0
LINE
  5
44
  8
HIBINO-BASE
  6
CONTINUOUS
 62
     7
 10
800.0
 20
50.0
 30
0.0
 11
800.0
 21
100.0000000000001
 31
0.0
  0
TEXT
  5
45
  8
HIBINO-BASE
 62
     7
 10
616.78269999999986
 20
64.318233333333382
 30
0.0
 40
8.1442057291666661
  1
'09.06.
 41
0.7
 11
616.78269999999986
 21
72.462439062500053
 31
0.0
 73
     3
  0
TEXT
  5
46
  8
HIBINO-BASE
 62
     7
 10
587.5
 20
60.080283333333398
 30
0.0
 40
8.1442057291666661
  1
5
 41
0.7
 11
587.5
 21
68.224489062500069
 31
0.0
 73
     3
  0
TEXT
  5
47
  8
HIBINO-BASE
 62
     7
 10
745.029050055173
 20
64.318233333333382
 30
0.0
 40
8.1442057291666661
  1
T.Ootake
 41
0.7
 11
745.029050055173
 21
72.462439062500053
 31
0.0
 73
     3
  0
TEXT
  5
48
  8
HIBINO-BASE
 62
     7
 10
519.41666666666674
 20
59.880000000000031
 30
0.0
 40
16.288411458333329
  1
A4
 41
0.7
 11
519.41666666666674
 21
76.168411458333352
 31
0.0
 73
     3
  0
TEXT
  5
49
  8
HIBINO-BASE
 62
     7
 10
504.79166666666652
 20
86.902725000000103
 30
0.0
 40
8.1442057291666661
  1
PAPER SIZE
 41
0.7
 11
504.79166666666652
 21
95.046930729166775
 31
0.0
 73
     3
  0
LINE
  5
4A
  8
SPEC
  6
CONTINUOUS
 62
     7
 10
87.5
 20
1300.0
 30
0.0
 11
800.55480516773923
 21
1300.0
 31
0.0
  0
LINE
  5
4B
  8
SPEC
  6
CONTINUOUS
 62
     7
 10
87.5
 20
1281.25
 30
0.0
 11
800.55480516773923
 21
1281.25
 31
0.0
  0
LINE
  5
4C
  8
SPEC
  6
CONTINUOUS
 62
     7
 10
87.5
 20
1206.25
 30
0.0
 11
800.55480516773923
 21
1206.25
 31
0.0
  0
LINE
  5
4D
  8
SPEC
  6
CONTINUOUS
 62
     7
 10
87.5
 20
1225.0
 30
0.0
 11
800.55480516773923
 21
1225.0
 31
0.0
  0
LINE
  5
4E
  8
SPEC
  6
CONTINUOUS
 62
     7
 10
87.5
 20
1243.75
 30
0.0
 11
800.55480516773923
 21
1243.75
 31
0.0
  0
LINE
  5
4F
  8
SPEC
  6
CONTINUOUS
 62
     7
 10
87.5
 20
1187.5
 30
0.0
 11
800.55480516773923
 21
1187.5
 31
0.0
  0
LINE
  5
50
  8
SPEC
  6
CONTINUOUS
 62
     7
 10
87.5
 20
1150.0
 30
0.0
 11
800.55480516773923
 21
1150.0
 31
0.0
  0
LINE
  5
51
  8
SPEC
  6
CONTINUOUS
 62
     7
 10
87.5
 20
1168.75
 30
0.0
 11
800.55480516773923
 21
1168.75
 31
0.0
  0
LINE
  5
52
  8
SPEC
  6
CONTINUOUS
 62
     7
 10
87.5
 20
1131.25
 30
0.0
 11
800.55480516773923
 21
1131.25
 31
0.0
  0
LINE
  5
53
  8
SPEC
  6
CONTINUOUS
 62
     7
 10
87.5
 20
1112.5
 30
0.0
 11
800.55480516773923
 21
1112.5
 31
0.0
  0
LINE
  5
54
  8
SPEC
  6
CONTINUOUS
 62
     7
 10
87.5
 20
1262.5
 30
0.0
 11
800.55480516773923
 21
1262.5
 31
0.0
  0
TEXT
  5
55
  8
SPEC
 62
     7
 10
329.78045580457041
 20
1285.558800087329
 30
0.0
 40
9.5015562499999984
  1
KVM延長機
 41
0.7
 11
329.78045580457041
 21
1295.060356337329
 31
0.0
 73
     3
  0
TEXT
  5
56
  8
SPEC
 62
     7
 10
93.75
 20
1306.9663499999999
 30
0.0
 40
12.21630859375
  1
仕様
 41
0.7
 11
93.75
 21
1319.1826585937499
 31
0.0
 73
     3
  0
TEXT
  5
57
  8
SPEC
 62
     7
 10
91.936324545540685
 20
1192.349760892844
 30
0.0
 40
9.5015562499999984
  1
対応水平同期周波数
 41
0.7
 11
91.936324545540685
 21
1201.851317142844
 31
0.0
 73
     3
  0
TEXT
  5
58
  8
SPEC
 62
     7
 10
92.019780394399845
 20
1285.9519303107561
 30
0.0
 40
9.5015562499999984
  1
形式
 41
0.7
 11
92.019780394399845
 21
1295.4534865607559
 31
0.0
 73
     3
  0
TEXT
  5
59
  8
SPEC
 62
     7
 10
90.755185306450514
 20
1155.35604081206
 30
0.0
 40
9.5015562499999984
  1
フォーカス/ブライトネスコントロール
 41
0.7
 11
90.755185306450514
 21
1164.85759706206
 31
0.0
 73
     3
  0
TEXT
  5
5A
  8
SPEC
 62
     7
 10
92.044763012925557
 20
1136.536744387761
 30
0.0
 40
9.5015562499999984
  1
延長用コネクター
 41
0.7
 11
92.044763012925557
 21
1146.038300637761
 31
0.0
 73
     3
  0
TEXT
  5
5B
  8
SPEC
 62
     7
 10
90.186157571435274
 20
1229.9700195806961
 30
0.0
 40
9.5015562499999984
  1
ビデオ入力信号レベル
 41
0.7
 11
90.186157571435274
 21
1239.4715758306961
 31
0.0
 73
     3
  0
TEXT
  5
5C
  8
SPEC
 62
     7
 10
91.948362083553775
 20
1173.8864592722309
 30
0.0
 40
9.5015562499999984
  1
対応垂直同期周波数
 41
0.7
 11
91.948362083553775
 21
1183.3880155222309
 31
0.0
 73
     3
  0
TEXT
  5
5D
  8
SPEC
 62
     7
 10
90.142773040625343
 20
1267.148664963378
 30
0.0
 40
9.5015562499999984
  1
ビデオアンプ帯域
 41
0.7
 11
90.142773040625343
 21
1276.650221213378
 31
0.0
 73
     3
  0
TEXT
  5
5E
  8
SPEC
 62
     7
 10
92.248084141457412
 20
1248.877930662175
 30
0.0
 40
9.5015562499999984
  1
実働作帯域
 41
0.7
 11
92.248084141457412
 21
1258.379486912175
 31
0.0
 73
     3
  0
TEXT
  5
5F
  8
SPEC
 62
     7
 10
92.104153941685794
 20
1042.7857028897299
 30
0.0
 40
9.5015562499999984
  1
オーディオ入出力端子
 41
0.7
 11
92.104153941685794
 21
1052.2872591397299
 31
0.0
 73
     3
  0
TEXT
  5
60
  8
SPEC
 62
     7
 10
329.15244252956501
 20
1192.085735480244
 30
0.0
 40
9.5015562499999984
  1
15～70kHz
 41
0.7
 11
329.15244252956501
 21
1201.5872917302449
 31
0.0
 73
     3
  0
TEXT
  5
61
  8
SPEC
 62
     7
 10
329.83766657191632
 20
1135.6205163830109
 30
0.0
 40
9.5015562499999984
  1
RJ-45(CAT-5)8線
 41
0.7
 11
329.83766657191632
 21
1145.1220726330109
 31
0.0
 73
     3
  0
TEXT
  5
62
  8
SPEC
 62
     7
 10
329.11527726103571
 20
1229.634876045114
 30
0.0
 40
9.5015562499999984
  1
1.2Vp-p
 41
0.7
 11
329.11527726103571
 21
1239.136432295114
 31
0.0
 73
     3
  0
TEXT
  5
63
  8
SPEC
 62
     7
 10
329.64611803729281
 20
1173.5589325924309
 30
0.0
 40
9.5015562499999984
  1
30～170Hz
 41
0.7
 11
329.64611803729281
 21
1183.0604888424309
 31
0.0
 73
     3
  0
TEXT
  5
64
  8
SPEC
 62
     7
 10
329.30094862547679
 20
1248.5351662723881
 30
0.0
 40
9.5015562499999984
  1
120MHz
 41
0.7
 11
329.30094862547679
 21
1258.0367225223879
 31
0.0
 73
     3
  0
TEXT
  5
65
  8
SPEC
 62
     7
 10
329.65608842373791
 20
1266.8760208198059
 30
0.0
 40
9.5015562499999984
  1
350MHz
 41
0.7
 11
329.65608842373791
 21
1276.377577069806
 31
0.0
 73
     3
  0
LINE
  5
66
  8
SPEC
  6
CONTINUOUS
 62
     7
 10
325.0
 20
1300.0
 30
0.0
 11
325.0
 21
962.5
 31
0.0
  0
LINE
  5
67
  8
SPEC
  6
CONTINUOUS
 62
     7
 10
87.5
 20
1093.75
 30
0.0
 11
800.55480516773923
 21
1093.75
 31
0.0
  0
LINE
  5
68
  8
SPEC
  6
CONTINUOUS
 62
     7
 10
87.5
 20
1075.0
 30
0.0
 11
800.55480516773923
 21
1075.0
 31
0.0
  0
LINE
  5
69
  8
SPEC
  6
CONTINUOUS
 62
     7
 10
87.5
 20
1056.25
 30
0.0
 11
800.55480516773923
 21
1056.25
 31
0.0
  0
TEXT
  5
6A
  8
SPEC
 62
     7
 10
329.8589506598442
 20
1022.826162367327
 30
0.0
 40
9.5015562499999984
  1
5V DC
 41
0.7
 11
329.8589506598442
 21
1032.327718617327
 31
0.0
 73
     3
  0
TEXT
  5
6B
  8
SPEC
 62
     7
 10
91.996082525027632
 20
1023.603178965504
 30
0.0
 40
9.5015562499999984
  1
電源
 41
0.7
 11
91.996082525027632
 21
1033.104735215504
 31
0.0
 73
     3
  0
TEXT
  5
6C
  8
SPEC
 62
     7
 10
329.15856321837958
 20
1005.050639451328
 30
0.0
 40
9.5015562499999984
  1
1U(別売ラックマウントキット使用時)
 41
0.7
 11
329.15856321837958
 21
1014.5521957013279
 31
0.0
 73
     3
  0
TEXT
  5
6D
  8
SPEC
 62
     7
 10
91.180733782655764
 20
1004.585304872904
 30
0.0
 40
9.5015562499999984
  1
ラックマウントサイズ
 41
0.7
 11
91.180733782655764
 21
1014.086861122904
 31
0.0
 73
     3
  0
TEXT
  5
6E
  8
SPEC
 62
     7
 10
91.748523316276817
 20
986.07715898100059
 30
0.0
 40
9.5015562499999984
  1
寸法
 41
0.7
 11
91.748523316276817
 21
995.57871523100073
 31
0.0
 73
     3
  0
TEXT
  5
6F
  8
SPEC
 62
     7
 10
329.77646035214042
 20
985.84910518989454
 30
0.0
 40
9.5015562499999984
  1
214(W)\U+00D742(H)\U+00D7109(D)mm(突起部含まず）、(センダー、レシ－バー共に)
 41
0.7
 11
329.77646035214042
 21
995.35066143989457
 31
0.0
 73
     3
  0
LINE
  5
70
  8
SPEC
  6
CONTINUOUS
 62
     7
 10
87.5
 20
1018.75
 30
0.0
 11
800.55480516773923
 21
1018.75
 31
0.0
  0
LINE
  5
71
  8
SPEC
  6
CONTINUOUS
 62
     7
 10
87.5
 20
1300.0
 30
0.0
 11
87.5
 21
962.5
 31
0.0
  0
TEXT
  5
72
  8
SPEC
 62
     7
 10
329.6383938141588
 20
1154.235992787274
 30
0.0
 40
9.5015562499999984
  1
7.62～137.16m
 41
0.7
 11
329.6383938141588
 21
1163.737549037274
 31
0.0
 73
     3
  0
TEXT
  5
73
  8
SPEC
 62
     7
 10
329.67176349070593
 20
967.8273939246194
 30
0.0
 40
9.5015562499999984
  1
約500g(センダー、レシーバー共に）
 41
0.7
 11
329.67176349070593
 21
977.32895017461942
 31
0.0
 73
     3
  0
TEXT
  5
74
  8
SPEC
 62
     7
 10
92.057547162941347
 20
967.11092363104717
 30
0.0
 40
9.5015562499999984
  1
重量
 41
0.7
 11
92.057547162941347
 21
976.61247988104731
 31
0.0
 73
     3
  0
LINE
  5
75
  8
SPEC
  6
CONTINUOUS
 62
     7
 10
87.5
 20
1037.5
 30
0.0
 11
800.55480516773923
 21
1037.5
 31
0.0
  0
LINE
  5
76
  8
SPEC
  6
CONTINUOUS
 62
     7
 10
87.5
 20
1000.0
 30
0.0
 11
800.55480516773923
 21
1000.0
 31
0.0
  0
LINE
  5
77
  8
SPEC
  6
CONTINUOUS
 62
     7
 10
87.5
 20
981.25
 30
0.0
 11
800.55480516773923
 21
981.25
 31
0.0
  0
LINE
  5
78
  8
SPEC
  6
CONTINUOUS
 62
     7
 10
87.5
 20
962.5
 30
0.0
 11
800.55480516773923
 21
962.5
 31
0.0
  0
TEXT
  5
79
  8
SPEC
 62
     7
 10
92.351638443956674
 20
1080.172175083339
 30
0.0
 40
9.5015562499999984
  1
USB入力端子
 41
0.7
 11
92.351638443956674
 21
1089.673731333339
 31
0.0
 73
     3
  0
TEXT
  5
7A
  8
SPEC
 62
     7
 10
92.273073113409694
 20
1060.783602969979
 30
0.0
 40
9.5015562499999984
  1
USB出力端子
 41
0.7
 11
92.273073113409694
 21
1070.2851592199791
 31
0.0
 73
     3
  0
TEXT
  5
7B
  8
SPEC
 62
     7
 10
330.00130016754952
 20
1079.935760459296
 30
0.0
 40
9.5015562499999984
  1
Bタ イプコネクタ ー(センダー)
 41
0.7
 11
330.00130016754952
 21
1089.4373167092961
 31
0.0
 73
     3
  0
TEXT
  5
7C
  8
SPEC
 62
     7
 10
330.34764516593759
 20
1061.502974025434
 30
0.0
 40
9.5015562499999984
  1
Aタ イプコネクタ ー(レシーバー)
 41
0.7
 11
330.34764516593759
 21
1071.004530275434
 31
0.0
 73
     3
  0
LINE
  5
7D
  8
SPEC
  6
CONTINUOUS
 62
     7
 10
800.55480516773923
 20
1300.0
 30
0.0
 11
800.55480516773923
 21
962.5
 31
0.0
  0
TEXT
  5
7E
  8
SPEC
 62
     7
 10
91.108474942989787
 20
1211.3381719327931
 30
0.0
 40
9.5015562499999984
  1
シンク入力信号レベル
 41
0.7
 11
91.108474942989787
 21
1220.8397281827929
 31
0.0
 73
     3
  0
TEXT
  5
7F
  8
SPEC
 62
     7
 10
329.95446182476752
 20
1210.836956700658
 30
0.0
 40
9.5015562499999984
  1
5Vp-p(TTL)
 41
0.7
 11
329.95446182476752
 21
1220.338512950658
 31
0.0
 73
     3
  0
TEXT
  5
80
  8
SPEC
 62
     7
 10
92.629394154458694
 20
1117.2941521529231
 30
0.0
 40
9.5015562499999984
  1
VGA入力端子
 41
0.7
 11
92.629394154458694
 21
1126.7957084029231
 31
0.0
 73
     3
  0
TEXT
  5
81
  8
SPEC
 62
     7
 10
329.82946762248628
 20
1117.0746709847999
 30
0.0
 40
9.5015562499999984
  1
D-Sub HD-15(オス)(センダー)
 41
0.7
 11
329.82946762248628
 21
1126.5762272347999
 31
0.0
 73
     3
  0
TEXT
  5
82
  8
SPEC
 62
     7
 10
92.62900008814016
 20
1098.622426427532
 30
0.0
 40
9.5015562499999984
  1
VGA出力端子
 41
0.7
 11
92.62900008814016
 21
1108.123982677532
 31
0.0
 73
     3
  0
TEXT
  5
83
  8
SPEC
 62
     7
 10
329.81071723762238
 20
1098.2911089996301
 30
0.0
 40
9.5015562499999984
  1
D-Sub HD-15(メス)(センダー/レシーバー)
 41
0.7
 11
329.81071723762238
 21
1107.7926652496301
 31
0.0
 73
     3
  0
TEXT
  5
84
  8
SPEC
 62
     7
 10
329.68264250753577
 20
1042.533480477392
 30
0.0
 40
9.5015562499999984
  1
ステレオミニフォンジャック
 41
0.7
 11
329.68264250753577
 21
1052.035036727392
 31
0.0
 73
     3
  0
TEXT
  5
85
  8
DIMNSIONS
 62
     7
 10
400.0
 20
111.34744999999999
 30
0.0
 40
12.21630859375
  1
(単位：mm)
 41
0.7
 11
400.0
 21
123.5637585937499
 31
0.0
 73
     3
  0
LINE
  5
86
  8
DIMNSIONS
  6
CONTINUOUS
 62
     7
 10
102.4999999999999
 20
350.0
 30
0.0
 11
65.0
 21
350.0
 31
0.0
  0
LINE
  5
87
  8
DIMNSIONS
  6
CONTINUOUS
 62
     7
 10
102.4999999999999
 20
392.0
 30
0.0
 11
65.0
 21
392.0
 31
0.0
  0
LINE
  5
88
  8
DIMNSIONS
  6
CONTINUOUS
 62
     7
 10
75.0
 20
350.0
 30
0.0
 11
75.0
 21
392.0
 31
0.0
  0
LINE
  5
89
  8
DIMNSIONS
  6
CONTINUOUS
 62
     7
 10
75.0
 20
350.0
 30
0.0
 11
71.649801024248802
 21
362.50311279296881
 31
0.0
  0
LINE
  5
8A
  8
DIMNSIONS
  6
CONTINUOUS
 62
     7
 10
75.0
 20
350.0
 30
0.0
 11
78.350198975751184
 21
362.50311279296881
 31
0.0
  0
LINE
  5
8B
  8
DIMNSIONS
  6
CONTINUOUS
 62
     7
 10
75.0
 20
392.0
 30
0.0
 11
78.350198975751184
 21
379.49688720703131
 31
0.0
  0
LINE
  5
8C
  8
DIMNSIONS
  6
CONTINUOUS
 62
     7
 10
75.0
 20
392.0
 30
0.0
 11
71.649801024248802
 21
379.49688720703131
 31
0.0
  0
TEXT
  5
8D
  8
DIMNSIONS
 62
     7
 10
70.030555555555509
 20
362.18055555555549
 30
0.0
 40
13.57367621527778
  1
42
 50
90.0
 41
0.7
 11
56.45687934027773
 21
362.18055555555549
 31
0.0
 73
     3
  0
LINE
  5
8E
  8
DIMNSIONS
  6
CONTINUOUS
 62
     7
 10
112.4999999999999
 20
340.0
 30
0.0
 11
112.4999999999999
 21
302.5
 31
0.0
  0
LINE
  5
8F
  8
DIMNSIONS
  6
CONTINUOUS
 62
     7
 10
326.5
 20
340.0
 30
0.0
 11
326.5
 21
302.5
 31
0.0
  0
LINE
  5
90
  8
DIMNSIONS
  6
CONTINUOUS
 62
     7
 10
112.4999999999999
 20
312.5
 30
0.0
 11
326.5
 21
312.5
 31
0.0
  0
LINE
  5
91
  8
DIMNSIONS
  6
CONTINUOUS
 62
     7
 10
112.4999999999999
 20
312.5
 30
0.0
 11
125.00311279296869
 21
315.8501989757512
 31
0.0
  0
LINE
  5
92
  8
DIMNSIONS
  6
CONTINUOUS
 62
     7
 10
112.4999999999999
 20
312.5
 30
0.0
 11
125.00311279296869
 21
309.1498010242488
 31
0.0
  0
LINE
  5
93
  8
DIMNSIONS
  6
CONTINUOUS
 62
     7
 10
326.5
 20
312.5
 30
0.0
 11
313.99688720703119
 21
309.1498010242488
 31
0.0
  0
LINE
  5
94
  8
DIMNSIONS
  6
CONTINUOUS
 62
     7
 10
326.5
 20
312.5
 30
0.0
 11
313.99688720703119
 21
315.8501989757512
 31
0.0
  0
TEXT
  5
95
  8
DIMNSIONS
 62
     7
 10
206.27083333333329
 20
317.46944444444449
 30
0.0
 40
13.57367621527778
  1
214
 41
0.7
 11
206.27083333333329
 21
331.04312065972232
 31
0.0
 73
     3
  0
LINE
  5
96
  8
DIMNSIONS
  6
CONTINUOUS
 62
     7
 10
102.4999999999999
 20
571.49999999999989
 30
0.0
 11
65.0
 21
571.49999999999989
 31
0.0
  0
LINE
  5
97
  8
DIMNSIONS
  6
CONTINUOUS
 62
     7
 10
207.63
 20
575.49999999999989
 30
0.0
 11
65.0
 21
575.49999999999989
 31
0.0
  0
LINE
  5
98
  8
DIMNSIONS
  6
CONTINUOUS
 62
     7
 10
75.0
 20
575.49999999999989
 30
0.0
 11
75.0
 21
571.49999999999989
 31
0.0
  0
LINE
  5
99
  8
DIMNSIONS
  6
CONTINUOUS
 62
     7
 10
75.0
 20
571.49999999999989
 30
0.0
 11
75.0
 21
546.49999999999989
 31
0.0
  0
LINE
  5
9A
  8
DIMNSIONS
  6
CONTINUOUS
 62
     7
 10
75.0
 20
571.49999999999989
 30
0.0
 11
78.350198975751184
 21
558.99688720703125
 31
0.0
  0
LINE
  5
9B
  8
DIMNSIONS
  6
CONTINUOUS
 62
     7
 10
75.0
 20
571.49999999999989
 30
0.0
 11
71.649801024248802
 21
558.99688720703125
 31
0.0
  0
LINE
  5
9C
  8
DIMNSIONS
  6
CONTINUOUS
 62
     7
 10
75.0
 20
575.49999999999989
 30
0.0
 11
75.0
 21
596.31944444444434
 31
0.0
  0
LINE
  5
9D
  8
DIMNSIONS
  6
CONTINUOUS
 62
     7
 10
75.0
 20
575.49999999999989
 30
0.0
 11
71.649801024248802
 21
588.00311279296875
 31
0.0
  0
LINE
  5
9E
  8
DIMNSIONS
  6
CONTINUOUS
 62
     7
 10
75.0
 20
575.49999999999989
 30
0.0
 11
78.350198975751184
 21
588.00311279296875
 31
0.0
  0
TEXT
  5
9F
  8
DIMNSIONS
 62
     7
 10
70.030555555555509
 20
587.5
 30
0.0
 40
13.57367621527778
  1
4
 50
90.0
 41
0.7
 11
56.45687934027773
 21
587.5
 31
0.0
 73
     3
  0
LINE
  5
A0
  8
DIMNSIONS
  6
CONTINUOUS
 62
     7
 10
552.5
 20
350.0
 30
0.0
 11
515.0
 21
350.0
 31
0.0
  0
LINE
  5
A1
  8
DIMNSIONS
  6
CONTINUOUS
 62
     7
 10
552.5
 20
392.0
 30
0.0
 11
515.0
 21
392.0
 31
0.0
  0
LINE
  5
A2
  8
DIMNSIONS
  6
CONTINUOUS
 62
     7
 10
525.0
 20
350.0
 30
0.0
 11
525.0
 21
392.0
 31
0.0
  0
LINE
  5
A3
  8
DIMNSIONS
  6
CONTINUOUS
 62
     7
 10
525.0
 20
350.0
 30
0.0
 11
521.64980102424875
 21
362.50311279296881
 31
0.0
  0
LINE
  5
A4
  8
DIMNSIONS
  6
CONTINUOUS
 62
     7
 10
525.0
 20
350.0
 30
0.0
 11
528.35019897575125
 21
362.50311279296881
 31
0.0
  0
LINE
  5
A5
  8
DIMNSIONS
  6
CONTINUOUS
 62
     7
 10
525.0
 20
392.0
 30
0.0
 11
528.35019897575125
 21
379.49688720703131
 31
0.0
  0
LINE
  5
A6
  8
DIMNSIONS
  6
CONTINUOUS
 62
     7
 10
525.0
 20
392.0
 30
0.0
 11
521.64980102424875
 21
379.49688720703131
 31
0.0
  0
TEXT
  5
A7
  8
DIMNSIONS
 62
     7
 10
520.03055555555545
 20
362.18055555555549
 30
0.0
 40
13.57367621527778
  1
42
 50
90.0
 41
0.7
 11
506.45687934027768
 21
362.18055555555549
 31
0.0
 73
     3
  0
LINE
  5
A8
  8
DIMNSIONS
  6
CONTINUOUS
 62
     7
 10
562.5
 20
340.0
 30
0.0
 11
562.5
 21
302.5
 31
0.0
  0
LINE
  5
A9
  8
DIMNSIONS
  6
CONTINUOUS
 62
     7
 10
776.5
 20
340.0
 30
0.0
 11
776.5
 21
302.5
 31
0.0
  0
LINE
  5
AA
  8
DIMNSIONS
  6
CONTINUOUS
 62
     7
 10
562.5
 20
312.5
 30
0.0
 11
776.5
 21
312.5
 31
0.0
  0
LINE
  5
AB
  8
DIMNSIONS
  6
CONTINUOUS
 62
     7
 10
562.5
 20
312.5
 30
0.0
 11
575.00311279296875
 21
315.8501989757512
 31
0.0
  0
LINE
  5
AC
  8
DIMNSIONS
  6
CONTINUOUS
 62
     7
 10
562.5
 20
312.5
 30
0.0
 11
575.00311279296875
 21
309.1498010242488
 31
0.0
  0
LINE
  5
AD
  8
DIMNSIONS
  6
CONTINUOUS
 62
     7
 10
776.5
 20
312.5
 30
0.0
 11
763.99688720703125
 21
309.1498010242488
 31
0.0
  0
LINE
  5
AE
  8
DIMNSIONS
  6
CONTINUOUS
 62
     7
 10
776.5
 20
312.5
 30
0.0
 11
763.99688720703125
 21
315.8501989757512
 31
0.0
  0
TEXT
  5
AF
  8
DIMNSIONS
 62
     7
 10
656.27083333333326
 20
317.46944444444449
 30
0.0
 40
13.57367621527778
  1
214
 41
0.7
 11
656.27083333333326
 21
331.04312065972232
 31
0.0
 73
     3
  0
LINE
  5
B0
  8
DIMNSIONS
  6
CONTINUOUS
 62
     7
 10
552.5
 20
571.49999999999989
 30
0.0
 11
515.0
 21
571.49999999999989
 31
0.0
  0
LINE
  5
B1
  8
DIMNSIONS
  6
CONTINUOUS
 62
     7
 10
657.62999999999988
 20
575.49999999999989
 30
0.0
 11
515.0
 21
575.49999999999989
 31
0.0
  0
LINE
  5
B2
  8
DIMNSIONS
  6
CONTINUOUS
 62
     7
 10
525.0
 20
575.49999999999989
 30
0.0
 11
525.0
 21
571.49999999999989
 31
0.0
  0
LINE
  5
B3
  8
DIMNSIONS
  6
CONTINUOUS
 62
     7
 10
525.0
 20
571.49999999999989
 30
0.0
 11
525.0
 21
546.49999999999989
 31
0.0
  0
LINE
  5
B4
  8
DIMNSIONS
  6
CONTINUOUS
 62
     7
 10
525.0
 20
571.49999999999989
 30
0.0
 11
528.35019897575125
 21
558.99688720703125
 31
0.0
  0
LINE
  5
B5
  8
DIMNSIONS
  6
CONTINUOUS
 62
     7
 10
525.0
 20
571.49999999999989
 30
0.0
 11
521.64980102424875
 21
558.99688720703125
 31
0.0
  0
LINE
  5
B6
  8
DIMNSIONS
  6
CONTINUOUS
 62
     7
 10
525.0
 20
575.49999999999989
 30
0.0
 11
525.0
 21
596.31944444444434
 31
0.0
  0
LINE
  5
B7
  8
DIMNSIONS
  6
CONTINUOUS
 62
     7
 10
525.0
 20
575.49999999999989
 30
0.0
 11
521.64980102424875
 21
588.00311279296875
 31
0.0
  0
LINE
  5
B8
  8
DIMNSIONS
  6
CONTINUOUS
 62
     7
 10
525.0
 20
575.49999999999989
 30
0.0
 11
528.35019897575125
 21
588.00311279296875
 31
0.0
  0
TEXT
  5
B9
  8
DIMNSIONS
 62
     7
 10
520.03055555555545
 20
587.5
 30
0.0
 40
13.57367621527778
  1
4
 50
90.0
 41
0.7
 11
506.45687934027768
 21
587.5
 31
0.0
 73
     3
  0
LINE
  5
BA
  8
DIMNSIONS
  6
CONTINUOUS
 62
     7
 10
102.4999999999999
 20
462.5
 30
0.0
 11
65.0
 21
462.5
 31
0.0
  0
LINE
  5
BB
  8
DIMNSIONS
  6
CONTINUOUS
 62
     7
 10
102.4999999999999
 20
571.49999999999989
 30
0.0
 11
65.0
 21
571.49999999999989
 31
0.0
  0
LINE
  5
BC
  8
DIMNSIONS
  6
CONTINUOUS
 62
     7
 10
75.0
 20
462.5
 30
0.0
 11
75.0
 21
571.49999999999989
 31
0.0
  0
LINE
  5
BD
  8
DIMNSIONS
  6
CONTINUOUS
 62
     7
 10
75.0
 20
462.5
 30
0.0
 11
71.649801024248802
 21
475.00311279296881
 31
0.0
  0
LINE
  5
BE
  8
DIMNSIONS
  6
CONTINUOUS
 62
     7
 10
75.0
 20
462.5
 30
0.0
 11
78.350198975751184
 21
475.00311279296881
 31
0.0
  0
LINE
  5
BF
  8
DIMNSIONS
  6
CONTINUOUS
 62
     7
 10
75.0
 20
571.49999999999989
 30
0.0
 11
78.350198975751184
 21
558.99688720703125
 31
0.0
  0
LINE
  5
C0
  8
DIMNSIONS
  6
CONTINUOUS
 62
     7
 10
75.0
 20
571.49999999999989
 30
0.0
 11
71.649801024248802
 21
558.99688720703125
 31
0.0
  0
TEXT
  5
C1
  8
DIMNSIONS
 62
     7
 10
70.030555555555509
 20
503.77083333333331
 30
0.0
 40
13.57367621527778
  1
109
 50
90.0
 41
0.7
 11
56.45687934027773
 21
503.77083333333331
 31
0.0
 73
     3
  0
LINE
  5
C2
  8
DIMNSIONS
  6
CONTINUOUS
 62
     7
 10
552.5
 20
462.5
 30
0.0
 11
515.0
 21
462.5
 31
0.0
  0
LINE
  5
C3
  8
DIMNSIONS
  6
CONTINUOUS
 62
     7
 10
552.5
 20
571.49999999999989
 30
0.0
 11
515.0
 21
571.49999999999989
 31
0.0
  0
LINE
  5
C4
  8
DIMNSIONS
  6
CONTINUOUS
 62
     7
 10
525.0
 20
462.5
 30
0.0
 11
525.0
 21
571.49999999999989
 31
0.0
  0
LINE
  5
C5
  8
DIMNSIONS
  6
CONTINUOUS
 62
     7
 10
525.0
 20
462.5
 30
0.0
 11
521.64980102424875
 21
475.00311279296881
 31
0.0
  0
LINE
  5
C6
  8
DIMNSIONS
  6
CONTINUOUS
 62
     7
 10
525.0
 20
462.5
 30
0.0
 11
528.35019897575125
 21
475.00311279296881
 31
0.0
  0
LINE
  5
C7
  8
DIMNSIONS
  6
CONTINUOUS
 62
     7
 10
525.0
 20
571.49999999999989
 30
0.0
 11
528.35019897575125
 21
558.99688720703125
 31
0.0
  0
LINE
  5
C8
  8
DIMNSIONS
  6
CONTINUOUS
 62
     7
 10
525.0
 20
571.49999999999989
 30
0.0
 11
521.64980102424875
 21
558.99688720703125
 31
0.0
  0
TEXT
  5
C9
  8
DIMNSIONS
 62
     7
 10
520.03055555555545
 20
503.77083333333331
 30
0.0
 40
13.57367621527778
  1
109
 50
90.0
 41
0.7
 11
506.45687934027768
 21
503.77083333333331
 31
0.0
 73
     3
  0
LINE
  5
CA
  8
DIMNSIONS
  6
CONTINUOUS
 62
     7
 10
102.4999999999999
 20
350.0
 30
0.0
 11
65.0
 21
350.0
 31
0.0
  0
LINE
  5
CB
  8
DIMNSIONS
  6
CONTINUOUS
 62
     7
 10
107.59935527955641
 20
346.0
 30
0.0
 11
65.0
 21
346.0
 31
0.0
  0
LINE
  5
CC
  8
DIMNSIONS
  6
CONTINUOUS
 62
     7
 10
75.0
 20
346.0
 30
0.0
 11
75.0
 21
350.0
 31
0.0
  0
LINE
  5
CD
  8
DIMNSIONS
  6
CONTINUOUS
 62
     7
 10
75.0
 20
350.0
 30
0.0
 11
75.0
 21
375.0
 31
0.0
  0
LINE
  5
CE
  8
DIMNSIONS
  6
CONTINUOUS
 62
     7
 10
75.0
 20
350.0
 30
0.0
 11
71.649801024248802
 21
362.50311279296881
 31
0.0
  0
LINE
  5
CF
  8
DIMNSIONS
  6
CONTINUOUS
 62
     7
 10
75.0
 20
350.0
 30
0.0
 11
78.350198975751184
 21
362.50311279296881
 31
0.0
  0
LINE
  5
D0
  8
DIMNSIONS
  6
CONTINUOUS
 62
     7
 10
75.0
 20
346.0
 30
0.0
 11
75.0
 21
328.6805555555556
 31
0.0
  0
LINE
  5
D1
  8
DIMNSIONS
  6
CONTINUOUS
 62
     7
 10
75.0
 20
346.0
 30
0.0
 11
78.350198975751184
 21
333.49688720703131
 31
0.0
  0
LINE
  5
D2
  8
DIMNSIONS
  6
CONTINUOUS
 62
     7
 10
75.0
 20
346.0
 30
0.0
 11
71.649801024248802
 21
333.49688720703131
 31
0.0
  0
TEXT
  5
D3
  8
DIMNSIONS
 62
     7
 10
70.030555555555509
 20
328.6805555555556
 30
0.0
 40
13.57367621527778
  1
4
 50
90.0
 41
0.7
 11
56.45687934027773
 21
328.6805555555556
 31
0.0
 73
     3
  0
LINE
  5
D4
  8
DIMNSIONS
  6
CONTINUOUS
 62
     7
 10
557.59935527955645
 20
346.0
 30
0.0
 11
515.0
 21
346.0
 31
0.0
  0
LINE
  5
D5
  8
DIMNSIONS
  6
CONTINUOUS
 62
     7
 10
552.5
 20
350.0
 30
0.0
 11
515.0
 21
350.0
 31
0.0
  0
LINE
  5
D6
  8
DIMNSIONS
  6
CONTINUOUS
 62
     7
 10
525.0
 20
350.0
 30
0.0
 11
525.0
 21
346.0
 31
0.0
  0
LINE
  5
D7
  8
DIMNSIONS
  6
CONTINUOUS
 62
     7
 10
525.0
 20
346.0
 30
0.0
 11
525.0
 21
328.6805555555556
 31
0.0
  0
LINE
  5
D8
  8
DIMNSIONS
  6
CONTINUOUS
 62
     7
 10
525.0
 20
346.0
 30
0.0
 11
528.35019897575125
 21
333.49688720703131
 31
0.0
  0
LINE
  5
D9
  8
DIMNSIONS
  6
CONTINUOUS
 62
     7
 10
525.0
 20
346.0
 30
0.0
 11
521.64980102424875
 21
333.49688720703131
 31
0.0
  0
LINE
  5
DA
  8
DIMNSIONS
  6
CONTINUOUS
 62
     7
 10
525.0
 20
350.0
 30
0.0
 11
525.0
 21
375.0
 31
0.0
  0
LINE
  5
DB
  8
DIMNSIONS
  6
CONTINUOUS
 62
     7
 10
525.0
 20
350.0
 30
0.0
 11
521.64980102424875
 21
362.50311279296881
 31
0.0
  0
LINE
  5
DC
  8
DIMNSIONS
  6
CONTINUOUS
 62
     7
 10
525.0
 20
350.0
 30
0.0
 11
528.35019897575125
 21
362.50311279296881
 31
0.0
  0
TEXT
  5
DD
  8
DIMNSIONS
 62
     7
 10
520.03055555555545
 20
328.6805555555556
 30
0.0
 40
13.57367621527778
  1
4
 50
90.0
 41
0.7
 11
506.45687934027768
 21
328.6805555555556
 31
0.0
 73
     3
  0
TEXT
  5
DE
  8
DATA
 62
     7
 10
750.0
 20
105.65445
 30
0.0
 40
12.21630859375
  1
EXT-CAT5-1500
 41
0.7
 11
750.0
 21
117.87075859375
 31
0.0
 73
     3
  0
TEXT
  5
DF
  8
DATA
 62
     7
 10
750.0
 20
141.90445
 30
0.0
 40
12.21630859375
  1
Gefen
 41
0.7
 11
750.0
 21
154.12075859375
 31
0.0
 73
     3
  0
TEXT
  5
E0
  8
DATA
 62
     7
 10
737.5
 20
124.51966899999999
 30
0.0
 40
8.1442185546874981
  1
KVM延長機
 41
0.7
 11
737.5
 21
132.66388755468751
 31
0.0
 73
     3
  0
TEXT
  5
E1
  8
DATA
 62
     7
 10
100.0
 20
71.190000000000111
 30
0.0
 40
8.1442057291666661
  1
仕様および外観は予告なく変更されることがありますので、ご了承ください。
 41
0.7
 11
100.0
 21
79.334205729166783
 31
0.0
 73
     3
  0
LINE
  5
E2
  8
DATA
  6
CONTINUOUS
 62
     7
 10
112.4999999999999
 20
352.60000000000002
 30
0.0
 11
112.4999999999999
 21
392.0
 31
0.0
  0
LINE
  5
E3
  8
DATA
  6
CONTINUOUS
 62
     7
 10
326.5
 20
350.0
 30
0.0
 11
112.4999999999999
 21
350.0
 31
0.0
  0
LINE
  5
E4
  8
DATA
  6
CONTINUOUS
 62
     7
 10
112.4999999999999
 20
462.5
 30
0.0
 11
112.4999999999999
 21
571.49999999999989
 31
0.0
  0
LINE
  5
E5
  8
DATA
  6
CONTINUOUS
 62
     7
 10
326.5
 20
462.5
 30
0.0
 11
112.4999999999999
 21
462.5
 31
0.0
  0
LINE
  5
E6
  8
DATA
  6
CONTINUOUS
 62
     7
 10
350.0
 20
350.0
 30
0.0
 11
350.0
 21
392.0
 31
0.0
  0
LINE
  5
E7
  8
DATA
  6
CONTINUOUS
 62
     7
 10
459.0
 20
350.0
 30
0.0
 11
350.0
 21
350.0
 31
0.0
  0
CIRCLE
  5
E8
  8
DATA
  6
CONTINUOUS
 62
     7
 10
298.5827411285772
 20
367.03557743365508
 30
0.0
 40
1.4249999999999541
  0
TEXT
  5
E9
  8
DATA
 62
     7
 10
295.54495171830388
 20
363.02187077569943
 30
0.0
 40
1.764577907986111
  1
Power
 41
0.7
 11
295.54495171830388
 21
364.78644868368548
 31
0.0
 73
     3
  0
TEXT
  5
EA
  8
DATA
 62
     7
 10
259.89592472634769
 20
373.55743008952379
 30
0.0
 40
9.7730468750000004
  1
CAT5
 41
0.7
 11
259.89592472634769
 21
383.33047696452383
 31
0.0
 73
     3
  0
TEXT
  5
EB
  8
DATA
 62
     7
 10
289.67657711940149
 20
373.55743008952379
 30
0.0
 40
9.7730468750000004
  1
1500S
 41
0.7
 11
289.67657711940149
 21
383.33047696452383
 31
0.0
 73
     3
  0
CIRCLE
  5
EC
  8
DATA
  6
CONTINUOUS
 62
     7
 10
287.61772556371642
 20
378.67681432528991
 30
0.0
 40
0.7835705481053945
  0
LINE
  5
ED
  8
DATA
  6
CONTINUOUS
 62
     7
 10
117.59935527955641
 20
346.0
 30
0.0
 11
116.1993552795563
 21
350.0
 31
0.0
  0
LINE
  5
EE
  8
DATA
  6
CONTINUOUS
 62
     7
 10
127.3993552795563
 20
346.0
 30
0.0
 11
128.79935527955629
 21
350.0
 31
0.0
  0
LINE
  5
EF
  8
DATA
  6
CONTINUOUS
 62
     7
 10
117.59935527955641
 20
346.0
 30
0.0
 11
127.3993552795563
 21
346.0
 31
0.0
  0
LINE
  5
F0
  8
DATA
  6
CONTINUOUS
 62
     7
 10
321.40104681624558
 20
346.0
 30
0.0
 11
322.8010468162455
 21
350.0
 31
0.0
  0
LINE
  5
F1
  8
DATA
  6
CONTINUOUS
 62
     7
 10
311.6010468162454
 20
346.0
 30
0.0
 11
310.20104681624548
 21
350.0
 31
0.0
  0
LINE
  5
F2
  8
DATA
  6
CONTINUOUS
 62
     7
 10
321.40104681624558
 20
346.0
 30
0.0
 11
311.6010468162454
 21
346.0
 31
0.0
  0
CIRCLE
  5
F3
  8
DATA
  6
CONTINUOUS
 62
     7
 10
366.0
 20
360.0
 30
0.0
 40
2.5
  0
LINE
  5
F4
  8
DATA
  6
CONTINUOUS
 62
     7
 10
364.4988893001069
 20
360.0
 30
0.0
 11
367.5011106998931
 21
360.0
 31
0.0
  0
LINE
  5
F5
  8
DATA
  6
CONTINUOUS
 62
     7
 10
366.0
 20
358.4988893001069
 30
0.0
 11
366.0
 21
361.5011106998931
 31
0.0
  0
CIRCLE
  5
F6
  8
DATA
  6
CONTINUOUS
 62
     7
 10
439.0
 20
360.0
 30
0.0
 40
2.5
  0
LINE
  5
F7
  8
DATA
  6
CONTINUOUS
 62
     7
 10
437.49888930010678
 20
360.0
 30
0.0
 11
440.5011106998931
 21
360.0
 31
0.0
  0
LINE
  5
F8
  8
DATA
  6
CONTINUOUS
 62
     7
 10
439.0
 20
358.4988893001069
 30
0.0
 11
439.0
 21
361.5011106998931
 31
0.0
  0
TEXT
  5
F9
  8
DATA
 62
     7
 10
238.8670972691373
 20
687.0354885017241
 30
0.0
 40
2.4432617187500001
  1
Video In 
 50
180.0
 41
0.7
 11
238.8670972691373
 21
684.59222678297408
 31
0.0
 73
     3
  0
TEXT
  5
FA
  8
DATA
 62
     7
 10
189.37548147817819
 20
663.04321370196647
 30
0.0
 40
2.198935546875
  1
CAT-5
 50
180.0
 41
0.7
 11
189.37548147817819
 21
660.84427815509162
 31
0.0
 73
     3
  0
TEXT
  5
FB
  8
DATA
 62
     7
 10
167.67355672275971
 20
670.51158680806452
 30
0.0
 40
2.4432617187500001
  1
Audio In
 50
180.0
 41
0.7
 11
167.67355672275971
 21
668.0683250893145
 31
0.0
 73
     3
  0
TEXT
  5
FC
  8
DATA
 62
     7
 10
167.67355672275971
 20
673.68658680806436
 30
0.0
 40
2.4432617187500001
  1
 
 50
180.0
 41
0.7
 11
167.67355672275971
 21
671.24332508931445
 31
0.0
 73
     3
  0
LINE
  5
FD
  8
DATA
  6
CONTINUOUS
 62
     7
 10
363.9067045303189
 20
346.0
 30
0.0
 11
365.30670453031888
 21
350.0
 31
0.0
  0
LINE
  5
FE
  8
DATA
  6
CONTINUOUS
 62
     7
 10
354.10670453031889
 20
346.0
 30
0.0
 11
352.70670453031892
 21
350.0
 31
0.0
  0
LINE
  5
FF
  8
DATA
  6
CONTINUOUS
 62
     7
 10
363.9067045303189
 20
346.0
 30
0.0
 11
354.10670453031889
 21
346.0
 31
0.0
  0
TEXT
  5
100
  8
DATA
 62
     7
 10
144.19404985353501
 20
665.93051668185444
 30
0.0
 40
2.4432617187500001
  1
USB In
 50
180.0
 41
0.7
 11
144.19404985353501
 21
663.48725496310442
 31
0.0
 73
     3
  0
LINE
  5
101
  8
DATA
  6
CONTINUOUS
 62
     7
 10
112.4999999999999
 20
350.0
 30
0.0
 11
112.4999999999999
 21
392.0
 31
0.0
  0
LINE
  5
102
  8
DATA
  6
CONTINUOUS
 62
     7
 10
326.5
 20
350.0
 30
0.0
 11
326.5
 21
392.0
 31
0.0
  0
LINE
  5
103
  8
DATA
  6
CONTINUOUS
 62
     7
 10
326.5
 20
392.0
 30
0.0
 11
112.4999999999999
 21
392.0
 31
0.0
  0
LINE
  5
104
  8
DATA
  6
CONTINUOUS
 62
     7
 10
326.5
 20
571.49999999999989
 30
0.0
 11
112.4999999999999
 21
571.49999999999989
 31
0.0
  0
LINE
  5
105
  8
DATA
  6
CONTINUOUS
 62
     7
 10
326.5
 20
462.5
 30
0.0
 11
326.5
 21
571.49999999999989
 31
0.0
  0
LINE
  5
106
  8
DATA
  6
CONTINUOUS
 62
     7
 10
326.5
 20
469.5
 30
0.0
 11
112.4999999999999
 21
469.5
 31
0.0
  0
LINE
  5
107
  8
DATA
  6
CONTINUOUS
 62
     7
 10
350.0
 20
392.0
 30
0.0
 11
459.0
 21
392.0
 31
0.0
  0
LINE
  5
108
  8
DATA
  6
CONTINUOUS
 62
     7
 10
459.0
 20
350.0
 30
0.0
 11
459.0
 21
392.0
 31
0.0
  0
LINE
  5
109
  8
DATA
  6
CONTINUOUS
 62
     7
 10
443.9067045303189
 20
346.0
 30
0.0
 11
445.30670453031883
 21
350.0
 31
0.0
  0
LINE
  5
10A
  8
DATA
  6
CONTINUOUS
 62
     7
 10
434.10670453031889
 20
346.0
 30
0.0
 11
432.70670453031892
 21
350.0
 31
0.0
  0
LINE
  5
10B
  8
DATA
  6
CONTINUOUS
 62
     7
 10
443.9067045303189
 20
346.0
 30
0.0
 11
434.10670453031889
 21
346.0
 31
0.0
  0
LINE
  5
10C
  8
DATA
  6
CONTINUOUS
 62
     7
 10
112.4999999999999
 20
689.39999999999998
 30
0.0
 11
112.4999999999999
 21
650.0
 31
0.0
  0
LINE
  5
10D
  8
DATA
  6
CONTINUOUS
 62
     7
 10
326.5
 20
692.0
 30
0.0
 11
112.4999999999999
 21
692.0
 31
0.0
  0
LINE
  5
10E
  8
DATA
  6
CONTINUOUS
 62
     7
 10
117.59935527955641
 20
696.0
 30
0.0
 11
116.1993552795563
 21
692.0
 31
0.0
  0
LINE
  5
10F
  8
DATA
  6
CONTINUOUS
 62
     7
 10
127.3993552795563
 20
696.0
 30
0.0
 11
128.79935527955629
 21
692.0
 31
0.0
  0
LINE
  5
110
  8
DATA
  6
CONTINUOUS
 62
     7
 10
117.59935527955641
 20
696.0
 30
0.0
 11
127.3993552795563
 21
696.0
 31
0.0
  0
LINE
  5
111
  8
DATA
  6
CONTINUOUS
 62
     7
 10
321.40104681624558
 20
696.0
 30
0.0
 11
322.8010468162455
 21
692.0
 31
0.0
  0
LINE
  5
112
  8
DATA
  6
CONTINUOUS
 62
     7
 10
311.6010468162454
 20
696.0
 30
0.0
 11
310.20104681624548
 21
692.0
 31
0.0
  0
LINE
  5
113
  8
DATA
  6
CONTINUOUS
 62
     7
 10
321.40104681624558
 20
696.0
 30
0.0
 11
311.6010468162454
 21
696.0
 31
0.0
  0
LINE
  5
114
  8
DATA
  6
CONTINUOUS
 62
     7
 10
112.4999999999999
 20
692.0
 30
0.0
 11
112.4999999999999
 21
650.0
 31
0.0
  0
LINE
  5
115
  8
DATA
  6
CONTINUOUS
 62
     7
 10
326.5
 20
692.0
 30
0.0
 11
326.5
 21
650.0
 31
0.0
  0
LINE
  5
116
  8
DATA
  6
CONTINUOUS
 62
     7
 10
326.5
 20
650.0
 30
0.0
 11
112.4999999999999
 21
650.0
 31
0.0
  0
CIRCLE
  5
117
  8
DATA
  6
CONTINUOUS
 62
     7
 10
306.49999999999989
 20
675.0
 30
0.0
 40
3.3000000000000682
  0
CIRCLE
  5
118
  8
DATA
  6
CONTINUOUS
 62
     7
 10
306.49999999999989
 20
675.0
 30
0.0
 40
0.5850000000000364
  0
LINE
  5
119
  8
DATA
  6
CONTINUOUS
 62
     7
 10
194.64999999999989
 20
668.35000000000002
 30
0.0
 11
194.64999999999989
 21
681.64999999999986
 31
0.0
  0
LINE
  5
11A
  8
DATA
  6
CONTINUOUS
 62
     7
 10
210.34999999999999
 20
668.35000000000002
 30
0.0
 11
210.34999999999999
 21
681.64999999999986
 31
0.0
  0
LINE
  5
11B
  8
DATA
  6
CONTINUOUS
 62
     7
 10
210.34999999999999
 20
681.64999999999986
 30
0.0
 11
194.64999999999989
 21
681.64999999999986
 31
0.0
  0
LINE
  5
11C
  8
DATA
  6
CONTINUOUS
 62
     7
 10
210.34999999999999
 20
668.35000000000002
 30
0.0
 11
194.64999999999989
 21
668.35000000000002
 31
0.0
  0
LINE
  5
11D
  8
DATA
  6
CONTINUOUS
 62
     7
 10
208.64999999999989
 20
671.35000000000002
 30
0.0
 11
196.34999999999999
 21
671.35000000000002
 31
0.0
  0
LINE
  5
11E
  8
DATA
  6
CONTINUOUS
 62
     7
 10
208.64999999999989
 20
671.35000000000002
 30
0.0
 11
208.64999999999989
 21
678.64999999999998
 31
0.0
  0
LINE
  5
11F
  8
DATA
  6
CONTINUOUS
 62
     7
 10
196.34999999999999
 20
671.35000000000002
 30
0.0
 11
196.34999999999999
 21
678.64999999999998
 31
0.0
  0
LINE
  5
120
  8
DATA
  6
CONTINUOUS
 62
     7
 10
204.72499999999999
 20
681.64999999999986
 30
0.0
 11
204.72499999999999
 21
680.14999999999986
 31
0.0
  0
LINE
  5
121
  8
DATA
  6
CONTINUOUS
 62
     7
 10
200.27499999999989
 20
680.14999999999986
 30
0.0
 11
200.27499999999989
 21
681.64999999999986
 31
0.0
  0
LINE
  5
122
  8
DATA
  6
CONTINUOUS
 62
     7
 10
205.84999999999999
 20
680.14999999999986
 30
0.0
 11
204.72499999999999
 21
680.14999999999986
 31
0.0
  0
LINE
  5
123
  8
DATA
  6
CONTINUOUS
 62
     7
 10
200.27499999999989
 20
680.14999999999986
 30
0.0
 11
199.14999999999989
 21
680.14999999999986
 31
0.0
  0
LINE
  5
124
  8
DATA
  6
CONTINUOUS
 62
     7
 10
208.64999999999989
 20
678.64999999999998
 30
0.0
 11
205.84999999999999
 21
678.64999999999998
 31
0.0
  0
LINE
  5
125
  8
DATA
  6
CONTINUOUS
 62
     7
 10
199.14999999999989
 20
678.64999999999998
 30
0.0
 11
196.34999999999999
 21
678.64999999999998
 31
0.0
  0
LINE
  5
126
  8
DATA
  6
CONTINUOUS
 62
     7
 10
205.84999999999999
 20
680.14999999999986
 30
0.0
 11
205.84999999999999
 21
678.64999999999998
 31
0.0
  0
LINE
  5
127
  8
DATA
  6
CONTINUOUS
 62
     7
 10
199.14999999999989
 20
678.64999999999998
 30
0.0
 11
199.14999999999989
 21
680.14999999999986
 31
0.0
  0
CIRCLE
  5
128
  8
DATA
  6
CONTINUOUS
 62
     7
 10
161.49999999999989
 20
675.0
 30
0.0
 40
3.0
  0
CIRCLE
  5
129
  8
DATA
  6
CONTINUOUS
 62
     7
 10
161.49999999999989
 20
675.0
 30
0.0
 40
1.649999999999977
  0
LINE
  5
12A
  8
DATA
  6
CONTINUOUS
 62
     7
 10
145.49999999999989
 20
681.67110016324921
 30
0.0
 11
145.49999999999989
 21
669.67110016324932
 31
0.0
  0
LINE
  5
12B
  8
DATA
  6
CONTINUOUS
 62
     7
 10
133.49999999999989
 20
681.67110016324921
 30
0.0
 11
145.49999999999989
 21
681.67110016324921
 31
0.0
  0
LINE
  5
12C
  8
DATA
  6
CONTINUOUS
 62
     7
 10
133.49999999999989
 20
669.67110016324932
 30
0.0
 11
133.49999999999989
 21
681.67110016324921
 31
0.0
  0
LINE
  5
12D
  8
DATA
  6
CONTINUOUS
 62
     7
 10
145.49999999999989
 20
669.67110016324932
 30
0.0
 11
133.49999999999989
 21
669.67110016324932
 31
0.0
  0
LINE
  5
12E
  8
DATA
  6
CONTINUOUS
 62
     7
 10
135.24999999999989
 20
679.92110016324921
 30
0.0
 11
143.74999999999989
 21
679.92110016324921
 31
0.0
  0
LINE
  5
12F
  8
DATA
  6
CONTINUOUS
 62
     7
 10
143.74999999999989
 20
679.92110016324921
 30
0.0
 11
143.74999999999989
 21
673.07110016324918
 31
0.0
  0
LINE
  5
130
  8
DATA
  6
CONTINUOUS
 62
     7
 10
135.24999999999989
 20
673.07110016324918
 30
0.0
 11
135.24999999999989
 21
679.92110016324921
 31
0.0
  0
LINE
  5
131
  8
DATA
  6
CONTINUOUS
 62
     7
 10
141.74999999999989
 20
671.0711001632493
 30
0.0
 11
137.24999999999989
 21
671.0711001632493
 31
0.0
  0
LINE
  5
132
  8
DATA
  6
CONTINUOUS
 62
     7
 10
143.74999999999989
 20
673.07110016324918
 30
0.0
 11
141.74999999999989
 21
671.0711001632493
 31
0.0
  0
LINE
  5
133
  8
DATA
  6
CONTINUOUS
 62
     7
 10
135.24999999999989
 20
673.07110016324918
 30
0.0
 11
137.24999999999989
 21
671.0711001632493
 31
0.0
  0
POLYLINE
  5
134
  8
DATA
  6
CONTINUOUS
 62
     7
 66
     1
 10
0.0
 20
0.0
 30
0.0
 70
     1
  0
VERTEX
  5
382
  8
DATA
  6
CONTINUOUS
 62
     7
 10
136.49999999999989
 20
677.97945223104819
 30
0.0
  0
VERTEX
  5
383
  8
DATA
  6
CONTINUOUS
 62
     7
 10
142.49999999999989
 20
677.97945223104819
 30
0.0
  0
VERTEX
  5
384
  8
DATA
  6
CONTINUOUS
 62
     7
 10
142.49999999999989
 20
674.17945223104834
 30
0.0
  0
VERTEX
  5
385
  8
DATA
  6
CONTINUOUS
 62
     7
 10
136.49999999999989
 20
674.17945223104834
 30
0.0
  0
SEQEND
  5
386
  8
DATA
  6
CONTINUOUS
 62
     7
  0
LINE
  5
13B
  8
DATA
  6
CONTINUOUS
 62
     7
 10
177.64999999999989
 20
668.35000000000002
 30
0.0
 11
177.64999999999989
 21
681.64999999999986
 31
0.0
  0
LINE
  5
13C
  8
DATA
  6
CONTINUOUS
 62
     7
 10
193.34999999999999
 20
668.35000000000002
 30
0.0
 11
193.34999999999999
 21
681.64999999999986
 31
0.0
  0
LINE
  5
13D
  8
DATA
  6
CONTINUOUS
 62
     7
 10
193.34999999999999
 20
681.64999999999986
 30
0.0
 11
177.64999999999989
 21
681.64999999999986
 31
0.0
  0
LINE
  5
13E
  8
DATA
  6
CONTINUOUS
 62
     7
 10
193.34999999999999
 20
668.35000000000002
 30
0.0
 11
177.64999999999989
 21
668.35000000000002
 31
0.0
  0
LINE
  5
13F
  8
DATA
  6
CONTINUOUS
 62
     7
 10
191.64999999999989
 20
671.35000000000002
 30
0.0
 11
179.34999999999991
 21
671.35000000000002
 31
0.0
  0
LINE
  5
140
  8
DATA
  6
CONTINUOUS
 62
     7
 10
191.64999999999989
 20
671.35000000000002
 30
0.0
 11
191.64999999999989
 21
678.64999999999998
 31
0.0
  0
LINE
  5
141
  8
DATA
  6
CONTINUOUS
 62
     7
 10
179.34999999999991
 20
671.35000000000002
 30
0.0
 11
179.34999999999991
 21
678.64999999999998
 31
0.0
  0
LINE
  5
142
  8
DATA
  6
CONTINUOUS
 62
     7
 10
187.72499999999999
 20
681.64999999999986
 30
0.0
 11
187.72499999999999
 21
680.14999999999986
 31
0.0
  0
LINE
  5
143
  8
DATA
  6
CONTINUOUS
 62
     7
 10
183.27499999999989
 20
680.14999999999986
 30
0.0
 11
183.27499999999989
 21
681.64999999999986
 31
0.0
  0
LINE
  5
144
  8
DATA
  6
CONTINUOUS
 62
     7
 10
188.84999999999999
 20
680.14999999999986
 30
0.0
 11
187.72499999999999
 21
680.14999999999986
 31
0.0
  0
LINE
  5
145
  8
DATA
  6
CONTINUOUS
 62
     7
 10
183.27499999999989
 20
680.14999999999986
 30
0.0
 11
182.14999999999989
 21
680.14999999999986
 31
0.0
  0
LINE
  5
146
  8
DATA
  6
CONTINUOUS
 62
     7
 10
191.64999999999989
 20
678.64999999999998
 30
0.0
 11
188.84999999999999
 21
678.64999999999998
 31
0.0
  0
LINE
  5
147
  8
DATA
  6
CONTINUOUS
 62
     7
 10
182.14999999999989
 20
678.64999999999998
 30
0.0
 11
179.34999999999991
 21
678.64999999999998
 31
0.0
  0
LINE
  5
148
  8
DATA
  6
CONTINUOUS
 62
     7
 10
188.84999999999999
 20
680.14999999999986
 30
0.0
 11
188.84999999999999
 21
678.64999999999998
 31
0.0
  0
LINE
  5
149
  8
DATA
  6
CONTINUOUS
 62
     7
 10
182.14999999999989
 20
678.64999999999998
 30
0.0
 11
182.14999999999989
 21
680.14999999999986
 31
0.0
  0
TEXT
  5
14A
  8
DATA
 62
     7
 10
206.16290138964979
 20
663.05471582800908
 30
0.0
 40
2.198935546875
  1
CAT-5
 50
180.0
 41
0.7
 11
206.16290138964979
 21
660.85578028113412
 31
0.0
 73
     3
  0
TEXT
  5
14B
  8
DATA
 62
     7
 10
206.50327717981739
 20
666.04101811987834
 30
0.0
 40
2.4432617187500001
  1
Video
 50
180.0
 41
0.7
 11
206.50327717981739
 21
663.59775640112844
 31
0.0
 73
     3
  0
TEXT
  5
14C
  8
DATA
 62
     7
 10
191.64306375600901
 20
665.95156349105378
 30
0.0
 40
2.198935546875
  1
USB/Audio
 50
180.0
 41
0.7
 11
191.64306375600901
 21
663.75262794417881
 31
0.0
 73
     3
  0
CIRCLE
  5
14D
  8
DATA
  6
CONTINUOUS
 62
     7
 10
220.0
 20
674.93989413011116
 30
0.0
 40
1.175000000000068
  0
POLYLINE
  5
14E
  8
DATA
  6
CONTINUOUS
 62
     7
 66
     1
 10
0.0
 20
0.0
 30
0.0
 70
     1
  0
VERTEX
  5
387
  8
DATA
  6
CONTINUOUS
 62
     7
 10
220.0
 20
672.23989413011122
 30
0.0
  0
VERTEX
  5
388
  8
DATA
  6
CONTINUOUS
 62
     7
 10
222.33826859021801
 20
673.58989413011125
 30
0.0
  0
VERTEX
  5
389
  8
DATA
  6
CONTINUOUS
 62
     7
 10
222.33826859021801
 20
676.28989413011129
 30
0.0
  0
VERTEX
  5
38A
  8
DATA
  6
CONTINUOUS
 62
     7
 10
220.0
 20
677.6398941301112
 30
0.0
  0
VERTEX
  5
38B
  8
DATA
  6
CONTINUOUS
 62
     7
 10
217.66173140978191
 20
676.28989413011129
 30
0.0
  0
VERTEX
  5
38C
  8
DATA
  6
CONTINUOUS
 62
     7
 10
217.66173140978191
 20
673.58989413011125
 30
0.0
  0
SEQEND
  5
38D
  8
DATA
  6
CONTINUOUS
 62
     7
  0
CIRCLE
  5
157
  8
DATA
  6
CONTINUOUS
 62
     7
 10
245.0
 20
674.93989413011116
 30
0.0
 40
1.175000000000068
  0
POLYLINE
  5
158
  8
DATA
  6
CONTINUOUS
 62
     7
 66
     1
 10
0.0
 20
0.0
 30
0.0
 70
     1
  0
VERTEX
  5
38E
  8
DATA
  6
CONTINUOUS
 62
     7
 10
245.0
 20
672.23989413011122
 30
0.0
  0
VERTEX
  5
38F
  8
DATA
  6
CONTINUOUS
 62
     7
 10
247.33826859021801
 20
673.58989413011125
 30
0.0
  0
VERTEX
  5
390
  8
DATA
  6
CONTINUOUS
 62
     7
 10
247.33826859021801
 20
676.28989413011129
 30
0.0
  0
VERTEX
  5
391
  8
DATA
  6
CONTINUOUS
 62
     7
 10
245.0
 20
677.6398941301112
 30
0.0
  0
VERTEX
  5
392
  8
DATA
  6
CONTINUOUS
 62
     7
 10
242.66173140978191
 20
676.28989413011129
 30
0.0
  0
VERTEX
  5
393
  8
DATA
  6
CONTINUOUS
 62
     7
 10
242.66173140978191
 20
673.58989413011125
 30
0.0
  0
SEQEND
  5
394
  8
DATA
  6
CONTINUOUS
 62
     7
  0
LINE
  5
161
  8
DATA
  6
CONTINUOUS
 62
     7
 10
227.8134445315325
 20
678.93989413011116
 30
0.0
 11
237.20887760850951
 21
678.93989413011116
 31
0.0
  0
LINE
  5
162
  8
DATA
  6
CONTINUOUS
 62
     7
 10
238.02137760850931
 20
670.93989413011116
 30
0.0
 11
227.0009445315325
 21
670.93989413011116
 31
0.0
  0
LINE
  5
163
  8
DATA
  6
CONTINUOUS
 62
     7
 10
238.59209445576101
 20
677.75602176249424
 30
0.0
 11
239.4045944557609
 21
672.55602176249431
 31
0.0
  0
LINE
  5
164
  8
DATA
  6
CONTINUOUS
 62
     7
 10
225.61772768428099
 20
672.55602176249431
 30
0.0
 11
226.43022768428099
 21
677.75602176249424
 31
0.0
  0
CIRCLE
  5
165
  8
DATA
  6
CONTINUOUS
 62
     7
 10
232.5
 20
672.4785659178433
 30
0.0
 40
0.5
  0
CIRCLE
  5
166
  8
DATA
  6
CONTINUOUS
 62
     7
 10
230.5
 20
672.4785659178433
 30
0.0
 40
0.5
  0
CIRCLE
  5
167
  8
DATA
  6
CONTINUOUS
 62
     7
 10
228.5
 20
672.4785659178433
 30
0.0
 40
0.5
  0
CIRCLE
  5
168
  8
DATA
  6
CONTINUOUS
 62
     7
 10
234.5
 20
672.4785659178433
 30
0.0
 40
0.5
  0
CIRCLE
  5
169
  8
DATA
  6
CONTINUOUS
 62
     7
 10
236.5
 20
672.4785659178433
 30
0.0
 40
0.5
  0
CIRCLE
  5
16A
  8
DATA
  6
CONTINUOUS
 62
     7
 10
231.3826564245357
 20
674.95275717644824
 30
0.0
 40
0.5
  0
CIRCLE
  5
16B
  8
DATA
  6
CONTINUOUS
 62
     7
 10
229.3826564245357
 20
674.95275717644824
 30
0.0
 40
0.5
  0
CIRCLE
  5
16C
  8
DATA
  6
CONTINUOUS
 62
     7
 10
227.3826564245357
 20
674.95275717644824
 30
0.0
 40
0.5
  0
CIRCLE
  5
16D
  8
DATA
  6
CONTINUOUS
 62
     7
 10
233.3826564245357
 20
674.95275717644824
 30
0.0
 40
0.5
  0
CIRCLE
  5
16E
  8
DATA
  6
CONTINUOUS
 62
     7
 10
235.3826564245357
 20
674.95275717644824
 30
0.0
 40
0.5
  0
CIRCLE
  5
16F
  8
DATA
  6
CONTINUOUS
 62
     7
 10
232.5
 20
677.40122234237901
 30
0.0
 40
0.5
  0
CIRCLE
  5
170
  8
DATA
  6
CONTINUOUS
 62
     7
 10
230.5
 20
677.40122234237901
 30
0.0
 40
0.5
  0
CIRCLE
  5
171
  8
DATA
  6
CONTINUOUS
 62
     7
 10
228.5
 20
677.40122234237901
 30
0.0
 40
0.5
  0
CIRCLE
  5
172
  8
DATA
  6
CONTINUOUS
 62
     7
 10
234.5
 20
677.40122234237901
 30
0.0
 40
0.5
  0
CIRCLE
  5
173
  8
DATA
  6
CONTINUOUS
 62
     7
 10
236.5
 20
677.40122234237901
 30
0.0
 40
0.5
  0
ARC
  5
174
  8
DATA
  6
CONTINUOUS
 62
     7
 10
238.02137760850931
 20
672.33989413011125
 30
0.0
 40
1.400000000000005
 50
270.0
 51
8.8806591505193637
  0
ARC
  5
175
  8
DATA
  6
CONTINUOUS
 62
     7
 10
227.0009445315325
 20
672.33989413011125
 30
0.0
 40
1.400000000000019
 50
171.1193408494795
 51
270.0
  0
ARC
  5
176
  8
DATA
  6
CONTINUOUS
 62
     7
 10
237.20887760850951
 20
677.53989413011118
 30
0.0
 40
1.400000000000015
 50
8.8806591505193833
 51
89.999999999999986
  0
ARC
  5
177
  8
DATA
  6
CONTINUOUS
 62
     7
 10
227.8134445315325
 20
677.53989413011118
 30
0.0
 40
1.400000000000005
 50
90.0
 51
171.11934084947831
  0
LINE
  5
178
  8
DATA
  6
CONTINUOUS
 62
     7
 10
226.5997469815772
 20
680.93989413011116
 30
0.0
 11
238.40025301842269
 21
680.93989413011116
 31
0.0
  0
LINE
  5
179
  8
DATA
  6
CONTINUOUS
 62
     7
 10
239.41909473901919
 20
668.93989413011127
 30
0.0
 11
225.5809052609809
 21
668.93989413011127
 31
0.0
  0
LINE
  5
17A
  8
DATA
  6
CONTINUOUS
 62
     7
 10
223.60906003383761
 20
671.27429867582237
 30
0.0
 11
225.02227079986261
 21
679.60741776667999
 31
0.0
  0
ARC
  5
17B
  8
DATA
  6
CONTINUOUS
 62
     7
 10
225.5809052609809
 20
670.93989413011116
 30
0.0
 40
1.999999999999962
 50
170.37480705637799
 51
270.0000000000033
  0
ARC
  5
17C
  8
DATA
  6
CONTINUOUS
 62
     7
 10
226.5997469815772
 20
679.33989413011125
 30
0.0
 40
1.5999999999999941
 50
90.0
 51
170.37480705637901
  0
TEXT
  5
17D
  8
DATA
 62
     7
 10
284.14903608372367
 20
686.99987673887165
 30
0.0
 40
2.4432617187500001
  1
Monitor Out
 50
180.0
 41
0.7
 11
284.14903608372367
 21
684.55661502012174
 31
0.0
 73
     3
  0
TEXT
  5
17E
  8
DATA
 62
     7
 10
310.57789810876648
 20
687.01664863028532
 30
0.0
 40
2.4432617187500001
  1
+5 Vdc
 50
180.0
 41
0.7
 11
310.57789810876648
 21
684.57338691153529
 31
0.0
 73
     3
  0
LINE
  5
17F
  8
DATA
  6
CONTINUOUS
 62
     7
 10
247.33826859021801
 20
575.49999999999989
 30
0.0
 11
242.66173140978191
 21
575.49999999999989
 31
0.0
  0
LINE
  5
180
  8
DATA
  6
CONTINUOUS
 62
     7
 10
241.40189622131859
 20
575.49999999999989
 30
0.0
 11
223.58102322321929
 21
575.49999999999989
 31
0.0
  0
LINE
  5
181
  8
DATA
  6
CONTINUOUS
 62
     7
 10
241.39093996616239
 20
671.27429867582237
 30
0.0
 11
239.97772920013739
 21
679.60741776667999
 31
0.0
  0
ARC
  5
182
  8
DATA
  6
CONTINUOUS
 62
     7
 10
239.41909473901919
 20
670.93989413011116
 30
0.0
 40
1.999999999999992
 50
269.99999999999682
 51
9.6251929436219843
  0
ARC
  5
183
  8
DATA
  6
CONTINUOUS
 62
     7
 10
238.40025301842269
 20
679.33989413011125
 30
0.0
 40
1.600000000000058
 50
9.6251929436210109
 51
90.0
  0
CIRCLE
  5
184
  8
DATA
  6
CONTINUOUS
 62
     7
 10
262.99999999999989
 20
674.93989413011116
 30
0.0
 40
1.175000000000068
  0
POLYLINE
  5
185
  8
DATA
  6
CONTINUOUS
 62
     7
 66
     1
 10
0.0
 20
0.0
 30
0.0
 70
     1
  0
VERTEX
  5
395
  8
DATA
  6
CONTINUOUS
 62
     7
 10
262.99999999999989
 20
672.23989413011122
 30
0.0
  0
VERTEX
  5
396
  8
DATA
  6
CONTINUOUS
 62
     7
 10
265.33826859021798
 20
673.58989413011125
 30
0.0
  0
VERTEX
  5
397
  8
DATA
  6
CONTINUOUS
 62
     7
 10
265.33826859021798
 20
676.28989413011129
 30
0.0
  0
VERTEX
  5
398
  8
DATA
  6
CONTINUOUS
 62
     7
 10
262.99999999999989
 20
677.6398941301112
 30
0.0
  0
VERTEX
  5
399
  8
DATA
  6
CONTINUOUS
 62
     7
 10
260.66173140978191
 20
676.28989413011129
 30
0.0
  0
VERTEX
  5
39A
  8
DATA
  6
CONTINUOUS
 62
     7
 10
260.66173140978191
 20
673.58989413011125
 30
0.0
  0
SEQEND
  5
39B
  8
DATA
  6
CONTINUOUS
 62
     7
  0
CIRCLE
  5
18E
  8
DATA
  6
CONTINUOUS
 62
     7
 10
287.99999999999989
 20
674.93989413011116
 30
0.0
 40
1.175000000000068
  0
POLYLINE
  5
18F
  8
DATA
  6
CONTINUOUS
 62
     7
 66
     1
 10
0.0
 20
0.0
 30
0.0
 70
     1
  0
VERTEX
  5
39C
  8
DATA
  6
CONTINUOUS
 62
     7
 10
287.99999999999989
 20
672.23989413011122
 30
0.0
  0
VERTEX
  5
39D
  8
DATA
  6
CONTINUOUS
 62
     7
 10
290.33826859021798
 20
673.58989413011125
 30
0.0
  0
VERTEX
  5
39E
  8
DATA
  6
CONTINUOUS
 62
     7
 10
290.33826859021798
 20
676.28989413011129
 30
0.0
  0
VERTEX
  5
39F
  8
DATA
  6
CONTINUOUS
 62
     7
 10
287.99999999999989
 20
677.6398941301112
 30
0.0
  0
VERTEX
  5
3A0
  8
DATA
  6
CONTINUOUS
 62
     7
 10
285.66173140978202
 20
676.28989413011129
 30
0.0
  0
VERTEX
  5
3A1
  8
DATA
  6
CONTINUOUS
 62
     7
 10
285.66173140978202
 20
673.58989413011125
 30
0.0
  0
SEQEND
  5
3A2
  8
DATA
  6
CONTINUOUS
 62
     7
  0
LINE
  5
198
  8
DATA
  6
CONTINUOUS
 62
     7
 10
270.81344453153253
 20
678.93989413011116
 30
0.0
 11
280.20887760850951
 21
678.93989413011116
 31
0.0
  0
LINE
  5
199
  8
DATA
  6
CONTINUOUS
 62
     7
 10
281.0213776085094
 20
670.93989413011116
 30
0.0
 11
270.00094453153253
 21
670.93989413011116
 31
0.0
  0
LINE
  5
19A
  8
DATA
  6
CONTINUOUS
 62
     7
 10
281.59209445576101
 20
677.75602176249424
 30
0.0
 11
282.4045944557609
 21
672.55602176249431
 31
0.0
  0
LINE
  5
19B
  8
DATA
  6
CONTINUOUS
 62
     7
 10
268.61772768428102
 20
672.55602176249431
 30
0.0
 11
269.43022768428091
 21
677.75602176249424
 31
0.0
  0
CIRCLE
  5
19C
  8
DATA
  6
CONTINUOUS
 62
     7
 10
275.49999999999989
 20
672.4785659178433
 30
0.0
 40
0.5
  0
CIRCLE
  5
19D
  8
DATA
  6
CONTINUOUS
 62
     7
 10
273.49999999999989
 20
672.4785659178433
 30
0.0
 40
0.5
  0
CIRCLE
  5
19E
  8
DATA
  6
CONTINUOUS
 62
     7
 10
271.49999999999989
 20
672.4785659178433
 30
0.0
 40
0.5
  0
CIRCLE
  5
19F
  8
DATA
  6
CONTINUOUS
 62
     7
 10
277.49999999999989
 20
672.4785659178433
 30
0.0
 40
0.5
  0
CIRCLE
  5
1A0
  8
DATA
  6
CONTINUOUS
 62
     7
 10
279.49999999999989
 20
672.4785659178433
 30
0.0
 40
0.5
  0
CIRCLE
  5
1A1
  8
DATA
  6
CONTINUOUS
 62
     7
 10
274.3826564245357
 20
674.95275717644824
 30
0.0
 40
0.5
  0
CIRCLE
  5
1A2
  8
DATA
  6
CONTINUOUS
 62
     7
 10
272.3826564245357
 20
674.95275717644824
 30
0.0
 40
0.5
  0
CIRCLE
  5
1A3
  8
DATA
  6
CONTINUOUS
 62
     7
 10
270.3826564245357
 20
674.95275717644824
 30
0.0
 40
0.5
  0
CIRCLE
  5
1A4
  8
DATA
  6
CONTINUOUS
 62
     7
 10
276.3826564245357
 20
674.95275717644824
 30
0.0
 40
0.5
  0
CIRCLE
  5
1A5
  8
DATA
  6
CONTINUOUS
 62
     7
 10
278.3826564245357
 20
674.95275717644824
 30
0.0
 40
0.5
  0
CIRCLE
  5
1A6
  8
DATA
  6
CONTINUOUS
 62
     7
 10
275.49999999999989
 20
677.40122234237901
 30
0.0
 40
0.5
  0
CIRCLE
  5
1A7
  8
DATA
  6
CONTINUOUS
 62
     7
 10
273.49999999999989
 20
677.40122234237901
 30
0.0
 40
0.5
  0
CIRCLE
  5
1A8
  8
DATA
  6
CONTINUOUS
 62
     7
 10
271.49999999999989
 20
677.40122234237901
 30
0.0
 40
0.5
  0
CIRCLE
  5
1A9
  8
DATA
  6
CONTINUOUS
 62
     7
 10
277.49999999999989
 20
677.40122234237901
 30
0.0
 40
0.5
  0
CIRCLE
  5
1AA
  8
DATA
  6
CONTINUOUS
 62
     7
 10
279.49999999999989
 20
677.40122234237901
 30
0.0
 40
0.5
  0
ARC
  5
1AB
  8
DATA
  6
CONTINUOUS
 62
     7
 10
281.0213776085094
 20
672.33989413011125
 30
0.0
 40
1.400000000000005
 50
270.0
 51
8.8806591505193637
  0
ARC
  5
1AC
  8
DATA
  6
CONTINUOUS
 62
     7
 10
270.00094453153253
 20
672.33989413011125
 30
0.0
 40
1.400000000000019
 50
171.1193408494795
 51
270.0
  0
ARC
  5
1AD
  8
DATA
  6
CONTINUOUS
 62
     7
 10
280.20887760850951
 20
677.53989413011118
 30
0.0
 40
1.400000000000015
 50
8.8806591505193833
 51
89.999999999999986
  0
ARC
  5
1AE
  8
DATA
  6
CONTINUOUS
 62
     7
 10
270.81344453153253
 20
677.53989413011118
 30
0.0
 40
1.400000000000005
 50
90.0
 51
171.11934084947831
  0
LINE
  5
1AF
  8
DATA
  6
CONTINUOUS
 62
     7
 10
269.59974698157731
 20
680.93989413011116
 30
0.0
 11
281.40025301842269
 21
680.93989413011116
 31
0.0
  0
LINE
  5
1B0
  8
DATA
  6
CONTINUOUS
 62
     7
 10
282.41909473901922
 20
668.93989413011127
 30
0.0
 11
268.58090526098078
 21
668.93989413011127
 31
0.0
  0
LINE
  5
1B1
  8
DATA
  6
CONTINUOUS
 62
     7
 10
266.60906003383758
 20
671.27429867582237
 30
0.0
 11
268.02227079986261
 21
679.60741776667999
 31
0.0
  0
ARC
  5
1B2
  8
DATA
  6
CONTINUOUS
 62
     7
 10
268.58090526098078
 20
670.93989413011116
 30
0.0
 40
1.999999999999962
 50
170.37480705637799
 51
270.0000000000033
  0
ARC
  5
1B3
  8
DATA
  6
CONTINUOUS
 62
     7
 10
269.59974698157731
 20
679.33989413011125
 30
0.0
 40
1.5999999999999941
 50
90.0
 51
170.37480705637901
  0
LINE
  5
1B4
  8
DATA
  6
CONTINUOUS
 62
     7
 10
284.39093996616242
 20
671.27429867582237
 30
0.0
 11
282.97772920013739
 21
679.60741776667999
 31
0.0
  0
ARC
  5
1B5
  8
DATA
  6
CONTINUOUS
 62
     7
 10
282.41909473901922
 20
670.93989413011116
 30
0.0
 40
1.999999999999992
 50
269.99999999999682
 51
9.6251929436219843
  0
ARC
  5
1B6
  8
DATA
  6
CONTINUOUS
 62
     7
 10
281.40025301842269
 20
679.33989413011125
 30
0.0
 40
1.600000000000058
 50
9.6251929436210109
 51
90.0
  0
LINE
  5
1B7
  8
DATA
  6
CONTINUOUS
 62
     7
 10
247.33826859021801
 20
575.49999999999989
 30
0.0
 11
247.33826859021801
 21
571.49999999999989
 31
0.0
  0
LINE
  5
1B8
  8
DATA
  6
CONTINUOUS
 62
     7
 10
222.33826859021801
 20
575.49999999999989
 30
0.0
 11
222.33826859021801
 21
571.49999999999989
 31
0.0
  0
LINE
  5
1B9
  8
DATA
  6
CONTINUOUS
 62
     7
 10
242.66173140978191
 20
575.49999999999989
 30
0.0
 11
242.66173140978191
 21
571.49999999999989
 31
0.0
  0
LINE
  5
1BA
  8
DATA
  6
CONTINUOUS
 62
     7
 10
223.58102322321929
 20
575.49999999999989
 30
0.0
 11
223.58102322321929
 21
571.49999999999989
 31
0.0
  0
LINE
  5
1BB
  8
DATA
  6
CONTINUOUS
 62
     7
 10
241.40189622131859
 20
575.49999999999989
 30
0.0
 11
241.40189622131859
 21
571.49999999999989
 31
0.0
  0
LINE
  5
1BC
  8
DATA
  6
CONTINUOUS
 62
     7
 10
217.66173140978191
 20
575.49999999999989
 30
0.0
 11
217.66173140978191
 21
571.49999999999989
 31
0.0
  0
LINE
  5
1BD
  8
DATA
  6
CONTINUOUS
 62
     7
 10
217.66173140978191
 20
575.49999999999989
 30
0.0
 11
222.33826859021801
 21
575.49999999999989
 31
0.0
  0
LINE
  5
1BE
  8
DATA
  6
CONTINUOUS
 62
     7
 10
290.33826859021798
 20
575.49999999999989
 30
0.0
 11
285.66173140978202
 21
575.49999999999989
 31
0.0
  0
LINE
  5
1BF
  8
DATA
  6
CONTINUOUS
 62
     7
 10
284.40189622131862
 20
575.49999999999989
 30
0.0
 11
266.58102322321929
 21
575.49999999999989
 31
0.0
  0
LINE
  5
1C0
  8
DATA
  6
CONTINUOUS
 62
     7
 10
290.33826859021798
 20
575.49999999999989
 30
0.0
 11
290.33826859021798
 21
571.49999999999989
 31
0.0
  0
LINE
  5
1C1
  8
DATA
  6
CONTINUOUS
 62
     7
 10
265.33826859021798
 20
575.49999999999989
 30
0.0
 11
265.33826859021798
 21
571.49999999999989
 31
0.0
  0
LINE
  5
1C2
  8
DATA
  6
CONTINUOUS
 62
     7
 10
285.66173140978202
 20
575.49999999999989
 30
0.0
 11
285.66173140978202
 21
571.49999999999989
 31
0.0
  0
LINE
  5
1C3
  8
DATA
  6
CONTINUOUS
 62
     7
 10
266.58102322321929
 20
575.49999999999989
 30
0.0
 11
266.58102322321929
 21
571.49999999999989
 31
0.0
  0
LINE
  5
1C4
  8
DATA
  6
CONTINUOUS
 62
     7
 10
284.40189622131862
 20
575.49999999999989
 30
0.0
 11
284.40189622131862
 21
571.49999999999989
 31
0.0
  0
LINE
  5
1C5
  8
DATA
  6
CONTINUOUS
 62
     7
 10
260.66173140978191
 20
575.49999999999989
 30
0.0
 11
260.66173140978191
 21
571.49999999999989
 31
0.0
  0
LINE
  5
1C6
  8
DATA
  6
CONTINUOUS
 62
     7
 10
260.66173140978191
 20
575.49999999999989
 30
0.0
 11
265.33826859021798
 21
575.49999999999989
 31
0.0
  0
LINE
  5
1C7
  8
DATA
  6
CONTINUOUS
 62
     7
 10
562.5
 20
352.60000000000002
 30
0.0
 11
562.5
 21
392.0
 31
0.0
  0
LINE
  5
1C8
  8
DATA
  6
CONTINUOUS
 62
     7
 10
776.5
 20
350.0
 30
0.0
 11
562.5
 21
350.0
 31
0.0
  0
LINE
  5
1C9
  8
DATA
  6
CONTINUOUS
 62
     7
 10
562.5
 20
462.5
 30
0.0
 11
562.5
 21
571.49999999999989
 31
0.0
  0
LINE
  5
1CA
  8
DATA
  6
CONTINUOUS
 62
     7
 10
776.5
 20
462.5
 30
0.0
 11
562.5
 21
462.5
 31
0.0
  0
LINE
  5
1CB
  8
DATA
  6
CONTINUOUS
 62
     7
 10
800.0
 20
350.0
 30
0.0
 11
800.0
 21
392.0
 31
0.0
  0
LINE
  5
1CC
  8
DATA
  6
CONTINUOUS
 62
     7
 10
909.0
 20
350.0
 30
0.0
 11
800.0
 21
350.0
 31
0.0
  0
CIRCLE
  5
1CD
  8
DATA
  6
CONTINUOUS
 62
     7
 10
760.58618693302094
 20
367.03557743365508
 30
0.0
 40
1.4249999999999541
  0
TEXT
  5
1CE
  8
DATA
 62
     7
 10
757.96770431346511
 20
363.02187077569943
 30
0.0
 40
1.764577907986111
  1
Power
 41
0.7
 11
757.96770431346511
 21
364.78644868368548
 31
0.0
 73
     3
  0
TEXT
  5
1CF
  8
DATA
 62
     7
 10
709.89592472634763
 20
373.55743008952379
 30
0.0
 40
9.7730468750000004
  1
CAT5
 41
0.7
 11
709.89592472634763
 21
383.33047696452383
 31
0.0
 73
     3
  0
TEXT
  5
1D0
  8
DATA
 62
     7
 10
739.6765771194016
 20
373.55743008952379
 30
0.0
 40
9.7730468750000004
  1
1500R
 41
0.7
 11
739.6765771194016
 21
383.33047696452383
 31
0.0
 73
     3
  0
CIRCLE
  5
1D1
  8
DATA
  6
CONTINUOUS
 62
     7
 10
737.61772556371636
 20
378.67681432528991
 30
0.0
 40
0.7835705481053945
  0
LINE
  5
1D2
  8
DATA
  6
CONTINUOUS
 62
     7
 10
567.59935527955645
 20
346.0
 30
0.0
 11
566.19935527955624
 21
350.0
 31
0.0
  0
LINE
  5
1D3
  8
DATA
  6
CONTINUOUS
 62
     7
 10
577.39935527955629
 20
346.0
 30
0.0
 11
578.79935527955615
 21
350.0
 31
0.0
  0
LINE
  5
1D4
  8
DATA
  6
CONTINUOUS
 62
     7
 10
567.59935527955645
 20
346.0
 30
0.0
 11
577.39935527955629
 21
346.0
 31
0.0
  0
LINE
  5
1D5
  8
DATA
  6
CONTINUOUS
 62
     7
 10
771.40104681624553
 20
346.0
 30
0.0
 11
772.80104681624562
 21
350.0
 31
0.0
  0
LINE
  5
1D6
  8
DATA
  6
CONTINUOUS
 62
     7
 10
761.60104681624546
 20
346.0
 30
0.0
 11
760.20104681624559
 21
350.0
 31
0.0
  0
LINE
  5
1D7
  8
DATA
  6
CONTINUOUS
 62
     7
 10
771.40104681624553
 20
346.0
 30
0.0
 11
761.60104681624546
 21
346.0
 31
0.0
  0
CIRCLE
  5
1D8
  8
DATA
  6
CONTINUOUS
 62
     7
 10
816.0
 20
360.0
 30
0.0
 40
2.5
  0
LINE
  5
1D9
  8
DATA
  6
CONTINUOUS
 62
     7
 10
814.49888930010684
 20
360.0
 30
0.0
 11
817.50111069989305
 21
360.0
 31
0.0
  0
LINE
  5
1DA
  8
DATA
  6
CONTINUOUS
 62
     7
 10
816.0
 20
358.4988893001069
 30
0.0
 11
816.0
 21
361.5011106998931
 31
0.0
  0
CIRCLE
  5
1DB
  8
DATA
  6
CONTINUOUS
 62
     7
 10
889.0
 20
360.0
 30
0.0
 40
2.5
  0
LINE
  5
1DC
  8
DATA
  6
CONTINUOUS
 62
     7
 10
887.49888930010684
 20
360.0
 30
0.0
 11
890.50111069989316
 21
360.0
 31
0.0
  0
LINE
  5
1DD
  8
DATA
  6
CONTINUOUS
 62
     7
 10
889.0
 20
358.4988893001069
 30
0.0
 11
889.0
 21
361.5011106998931
 31
0.0
  0
TEXT
  5
1DE
  8
DATA
 62
     7
 10
691.30681106141515
 20
687.0354885017241
 30
0.0
 40
2.4432617187500001
  1
Video Out 2 
 50
180.0
 41
0.7
 11
691.30681106141515
 21
684.59222678297408
 31
0.0
 73
     3
  0
TEXT
  5
1DF
  8
DATA
 62
     7
 10
611.428585240958
 20
663.04321370196647
 30
0.0
 40
2.198935546875
  1
CAT-5
 50
180.0
 41
0.7
 11
611.428585240958
 21
660.84427815509162
 31
0.0
 73
     3
  0
TEXT
  5
1E0
  8
DATA
 62
     7
 10
665.57402913714554
 20
669.11966254870231
 30
0.0
 40
2.4432617187500001
  1
Audio 
 50
180.0
 41
0.7
 11
665.57402913714554
 21
666.67640082995229
 31
0.0
 73
     3
  0
TEXT
  5
1E1
  8
DATA
 62
     7
 10
665.57402913714554
 20
672.29466254870238
 30
0.0
 40
2.4432617187500001
  1
 
 50
180.0
 41
0.7
 11
665.57402913714554
 21
669.85140082995235
 31
0.0
 73
     3
  0
LINE
  5
1E2
  8
DATA
  6
CONTINUOUS
 62
     7
 10
813.90670453031908
 20
346.0
 30
0.0
 11
815.30670453031883
 21
350.0
 31
0.0
  0
LINE
  5
1E3
  8
DATA
  6
CONTINUOUS
 62
     7
 10
804.10670453031878
 20
346.0
 30
0.0
 11
802.70670453031914
 21
350.0
 31
0.0
  0
LINE
  5
1E4
  8
DATA
  6
CONTINUOUS
 62
     7
 10
813.90670453031908
 20
346.0
 30
0.0
 11
804.10670453031878
 21
346.0
 31
0.0
  0
LINE
  5
1E5
  8
DATA
  6
CONTINUOUS
 62
     7
 10
562.5
 20
350.0
 30
0.0
 11
562.5
 21
392.0
 31
0.0
  0
LINE
  5
1E6
  8
DATA
  6
CONTINUOUS
 62
     7
 10
776.5
 20
350.0
 30
0.0
 11
776.5
 21
392.0
 31
0.0
  0
LINE
  5
1E7
  8
DATA
  6
CONTINUOUS
 62
     7
 10
776.5
 20
392.0
 30
0.0
 11
562.5
 21
392.0
 31
0.0
  0
LINE
  5
1E8
  8
DATA
  6
CONTINUOUS
 62
     7
 10
776.5
 20
571.49999999999989
 30
0.0
 11
562.5
 21
571.49999999999989
 31
0.0
  0
LINE
  5
1E9
  8
DATA
  6
CONTINUOUS
 62
     7
 10
776.5
 20
462.5
 30
0.0
 11
776.5
 21
571.49999999999989
 31
0.0
  0
LINE
  5
1EA
  8
DATA
  6
CONTINUOUS
 62
     7
 10
776.5
 20
469.5
 30
0.0
 11
562.5
 21
469.5
 31
0.0
  0
LINE
  5
1EB
  8
DATA
  6
CONTINUOUS
 62
     7
 10
800.0
 20
392.0
 30
0.0
 11
909.0
 21
392.0
 31
0.0
  0
LINE
  5
1EC
  8
DATA
  6
CONTINUOUS
 62
     7
 10
909.0
 20
350.0
 30
0.0
 11
909.0
 21
392.0
 31
0.0
  0
LINE
  5
1ED
  8
DATA
  6
CONTINUOUS
 62
     7
 10
893.90670453031896
 20
346.0
 30
0.0
 11
895.30670453031894
 21
350.0
 31
0.0
  0
LINE
  5
1EE
  8
DATA
  6
CONTINUOUS
 62
     7
 10
884.10670453031889
 20
346.0
 30
0.0
 11
882.70670453031903
 21
350.0
 31
0.0
  0
LINE
  5
1EF
  8
DATA
  6
CONTINUOUS
 62
     7
 10
893.90670453031896
 20
346.0
 30
0.0
 11
884.10670453031889
 21
346.0
 31
0.0
  0
LINE
  5
1F0
  8
DATA
  6
CONTINUOUS
 62
     7
 10
562.5
 20
689.39999999999998
 30
0.0
 11
562.5
 21
650.0
 31
0.0
  0
LINE
  5
1F1
  8
DATA
  6
CONTINUOUS
 62
     7
 10
776.5
 20
692.0
 30
0.0
 11
562.5
 21
692.0
 31
0.0
  0
LINE
  5
1F2
  8
DATA
  6
CONTINUOUS
 62
     7
 10
567.59935527955645
 20
696.0
 30
0.0
 11
566.19935527955624
 21
692.0
 31
0.0
  0
LINE
  5
1F3
  8
DATA
  6
CONTINUOUS
 62
     7
 10
577.39935527955629
 20
696.0
 30
0.0
 11
578.79935527955615
 21
692.0
 31
0.0
  0
LINE
  5
1F4
  8
DATA
  6
CONTINUOUS
 62
     7
 10
567.59935527955645
 20
696.0
 30
0.0
 11
577.39935527955629
 21
696.0
 31
0.0
  0
LINE
  5
1F5
  8
DATA
  6
CONTINUOUS
 62
     7
 10
771.40104681624553
 20
696.0
 30
0.0
 11
772.80104681624562
 21
692.0
 31
0.0
  0
LINE
  5
1F6
  8
DATA
  6
CONTINUOUS
 62
     7
 10
761.60104681624546
 20
696.0
 30
0.0
 11
760.20104681624559
 21
692.0
 31
0.0
  0
LINE
  5
1F7
  8
DATA
  6
CONTINUOUS
 62
     7
 10
771.40104681624553
 20
696.0
 30
0.0
 11
761.60104681624546
 21
696.0
 31
0.0
  0
LINE
  5
1F8
  8
DATA
  6
CONTINUOUS
 62
     7
 10
562.5
 20
692.0
 30
0.0
 11
562.5
 21
650.0
 31
0.0
  0
LINE
  5
1F9
  8
DATA
  6
CONTINUOUS
 62
     7
 10
776.5
 20
692.0
 30
0.0
 11
776.5
 21
650.0
 31
0.0
  0
LINE
  5
1FA
  8
DATA
  6
CONTINUOUS
 62
     7
 10
776.5
 20
650.0
 30
0.0
 11
562.5
 21
650.0
 31
0.0
  0
CIRCLE
  5
1FB
  8
DATA
  6
CONTINUOUS
 62
     7
 10
756.5
 20
675.0
 30
0.0
 40
3.3000000000000682
  0
CIRCLE
  5
1FC
  8
DATA
  6
CONTINUOUS
 62
     7
 10
756.5
 20
675.0
 30
0.0
 40
0.5850000000000364
  0
LINE
  5
1FD
  8
DATA
  6
CONTINUOUS
 62
     7
 10
616.70310376277962
 20
668.35000000000002
 30
0.0
 11
616.70310376277962
 21
681.64999999999986
 31
0.0
  0
LINE
  5
1FE
  8
DATA
  6
CONTINUOUS
 62
     7
 10
632.40310376277966
 20
668.35000000000002
 30
0.0
 11
632.40310376277966
 21
681.64999999999986
 31
0.0
  0
LINE
  5
1FF
  8
DATA
  6
CONTINUOUS
 62
     7
 10
632.40310376277966
 20
681.64999999999986
 30
0.0
 11
616.70310376277962
 21
681.64999999999986
 31
0.0
  0
LINE
  5
200
  8
DATA
  6
CONTINUOUS
 62
     7
 10
632.40310376277966
 20
668.35000000000002
 30
0.0
 11
616.70310376277962
 21
668.35000000000002
 31
0.0
  0
LINE
  5
201
  8
DATA
  6
CONTINUOUS
 62
     7
 10
630.70310376277962
 20
671.35000000000002
 30
0.0
 11
618.40310376277966
 21
671.35000000000002
 31
0.0
  0
LINE
  5
202
  8
DATA
  6
CONTINUOUS
 62
     7
 10
630.70310376277962
 20
671.35000000000002
 30
0.0
 11
630.70310376277962
 21
678.64999999999998
 31
0.0
  0
LINE
  5
203
  8
DATA
  6
CONTINUOUS
 62
     7
 10
618.40310376277966
 20
671.35000000000002
 30
0.0
 11
618.40310376277966
 21
678.64999999999998
 31
0.0
  0
LINE
  5
204
  8
DATA
  6
CONTINUOUS
 62
     7
 10
626.77810376277978
 20
681.64999999999986
 30
0.0
 11
626.77810376277978
 21
680.14999999999986
 31
0.0
  0
LINE
  5
205
  8
DATA
  6
CONTINUOUS
 62
     7
 10
622.32810376277962
 20
680.14999999999986
 30
0.0
 11
622.32810376277962
 21
681.64999999999986
 31
0.0
  0
LINE
  5
206
  8
DATA
  6
CONTINUOUS
 62
     7
 10
627.90310376277966
 20
680.14999999999986
 30
0.0
 11
626.77810376277978
 21
680.14999999999986
 31
0.0
  0
LINE
  5
207
  8
DATA
  6
CONTINUOUS
 62
     7
 10
622.32810376277962
 20
680.14999999999986
 30
0.0
 11
621.20310376277962
 21
680.14999999999986
 31
0.0
  0
LINE
  5
208
  8
DATA
  6
CONTINUOUS
 62
     7
 10
630.70310376277962
 20
678.64999999999998
 30
0.0
 11
627.90310376277966
 21
678.64999999999998
 31
0.0
  0
LINE
  5
209
  8
DATA
  6
CONTINUOUS
 62
     7
 10
621.20310376277962
 20
678.64999999999998
 30
0.0
 11
618.40310376277966
 21
678.64999999999998
 31
0.0
  0
LINE
  5
20A
  8
DATA
  6
CONTINUOUS
 62
     7
 10
627.90310376277966
 20
680.14999999999986
 30
0.0
 11
627.90310376277966
 21
678.64999999999998
 31
0.0
  0
LINE
  5
20B
  8
DATA
  6
CONTINUOUS
 62
     7
 10
621.20310376277962
 20
678.64999999999998
 30
0.0
 11
621.20310376277962
 21
680.14999999999986
 31
0.0
  0
CIRCLE
  5
20C
  8
DATA
  6
CONTINUOUS
 62
     7
 10
661.71909208985517
 20
680.47730224638394
 30
0.0
 40
3.0
  0
CIRCLE
  5
20D
  8
DATA
  6
CONTINUOUS
 62
     7
 10
661.71909208985517
 20
680.47730224638394
 30
0.0
 40
1.649999999999977
  0
LINE
  5
20E
  8
DATA
  6
CONTINUOUS
 62
     7
 10
599.70310376277962
 20
668.35000000000002
 30
0.0
 11
599.70310376277962
 21
681.64999999999986
 31
0.0
  0
LINE
  5
20F
  8
DATA
  6
CONTINUOUS
 62
     7
 10
615.40310376277966
 20
668.35000000000002
 30
0.0
 11
615.40310376277966
 21
681.64999999999986
 31
0.0
  0
LINE
  5
210
  8
DATA
  6
CONTINUOUS
 62
     7
 10
615.40310376277966
 20
681.64999999999986
 30
0.0
 11
599.70310376277962
 21
681.64999999999986
 31
0.0
  0
LINE
  5
211
  8
DATA
  6
CONTINUOUS
 62
     7
 10
615.40310376277966
 20
668.35000000000002
 30
0.0
 11
599.70310376277962
 21
668.35000000000002
 31
0.0
  0
LINE
  5
212
  8
DATA
  6
CONTINUOUS
 62
     7
 10
613.70310376277962
 20
671.35000000000002
 30
0.0
 11
601.40310376277966
 21
671.35000000000002
 31
0.0
  0
LINE
  5
213
  8
DATA
  6
CONTINUOUS
 62
     7
 10
613.70310376277962
 20
671.35000000000002
 30
0.0
 11
613.70310376277962
 21
678.64999999999998
 31
0.0
  0
LINE
  5
214
  8
DATA
  6
CONTINUOUS
 62
     7
 10
601.40310376277966
 20
671.35000000000002
 30
0.0
 11
601.40310376277966
 21
678.64999999999998
 31
0.0
  0
LINE
  5
215
  8
DATA
  6
CONTINUOUS
 62
     7
 10
609.77810376277978
 20
681.64999999999986
 30
0.0
 11
609.77810376277978
 21
680.14999999999986
 31
0.0
  0
LINE
  5
216
  8
DATA
  6
CONTINUOUS
 62
     7
 10
605.32810376277962
 20
680.14999999999986
 30
0.0
 11
605.32810376277962
 21
681.64999999999986
 31
0.0
  0
LINE
  5
217
  8
DATA
  6
CONTINUOUS
 62
     7
 10
610.90310376277966
 20
680.14999999999986
 30
0.0
 11
609.77810376277978
 21
680.14999999999986
 31
0.0
  0
LINE
  5
218
  8
DATA
  6
CONTINUOUS
 62
     7
 10
605.32810376277962
 20
680.14999999999986
 30
0.0
 11
604.20310376277962
 21
680.14999999999986
 31
0.0
  0
LINE
  5
219
  8
DATA
  6
CONTINUOUS
 62
     7
 10
613.70310376277962
 20
678.64999999999998
 30
0.0
 11
610.90310376277966
 21
678.64999999999998
 31
0.0
  0
LINE
  5
21A
  8
DATA
  6
CONTINUOUS
 62
     7
 10
604.20310376277962
 20
678.64999999999998
 30
0.0
 11
601.40310376277966
 21
678.64999999999998
 31
0.0
  0
LINE
  5
21B
  8
DATA
  6
CONTINUOUS
 62
     7
 10
610.90310376277966
 20
680.14999999999986
 30
0.0
 11
610.90310376277966
 21
678.64999999999998
 31
0.0
  0
LINE
  5
21C
  8
DATA
  6
CONTINUOUS
 62
     7
 10
604.20310376277962
 20
678.64999999999998
 30
0.0
 11
604.20310376277962
 21
680.14999999999986
 31
0.0
  0
TEXT
  5
21D
  8
DATA
 62
     7
 10
628.2160051524296
 20
663.05471582800908
 30
0.0
 40
2.198935546875
  1
CAT-5
 50
180.0
 41
0.7
 11
628.2160051524296
 21
660.85578028113412
 31
0.0
 73
     3
  0
TEXT
  5
21E
  8
DATA
 62
     7
 10
628.55638094259723
 20
666.04101811987834
 30
0.0
 40
2.4432617187500001
  1
Video
 50
180.0
 41
0.7
 11
628.55638094259723
 21
663.59775640112844
 31
0.0
 73
     3
  0
TEXT
  5
21F
  8
DATA
 62
     7
 10
613.6961675187888
 20
665.95156349105378
 30
0.0
 40
2.198935546875
  1
USB/Audio
 50
180.0
 41
0.7
 11
613.6961675187888
 21
663.75262794417881
 31
0.0
 73
     3
  0
CIRCLE
  5
220
  8
DATA
  6
CONTINUOUS
 62
     7
 10
670.0
 20
674.93989413011116
 30
0.0
 40
1.175000000000068
  0
POLYLINE
  5
221
  8
DATA
  6
CONTINUOUS
 62
     7
 66
     1
 10
0.0
 20
0.0
 30
0.0
 70
     1
  0
VERTEX
  5
3A3
  8
DATA
  6
CONTINUOUS
 62
     7
 10
670.0
 20
672.23989413011122
 30
0.0
  0
VERTEX
  5
3A4
  8
DATA
  6
CONTINUOUS
 62
     7
 10
672.33826859021792
 20
673.58989413011125
 30
0.0
  0
VERTEX
  5
3A5
  8
DATA
  6
CONTINUOUS
 62
     7
 10
672.33826859021792
 20
676.28989413011129
 30
0.0
  0
VERTEX
  5
3A6
  8
DATA
  6
CONTINUOUS
 62
     7
 10
670.0
 20
677.6398941301112
 30
0.0
  0
VERTEX
  5
3A7
  8
DATA
  6
CONTINUOUS
 62
     7
 10
667.66173140978185
 20
676.28989413011129
 30
0.0
  0
VERTEX
  5
3A8
  8
DATA
  6
CONTINUOUS
 62
     7
 10
667.66173140978185
 20
673.58989413011125
 30
0.0
  0
SEQEND
  5
3A9
  8
DATA
  6
CONTINUOUS
 62
     7
  0
CIRCLE
  5
22A
  8
DATA
  6
CONTINUOUS
 62
     7
 10
695.0
 20
674.93989413011116
 30
0.0
 40
1.175000000000068
  0
POLYLINE
  5
22B
  8
DATA
  6
CONTINUOUS
 62
     7
 66
     1
 10
0.0
 20
0.0
 30
0.0
 70
     1
  0
VERTEX
  5
3AA
  8
DATA
  6
CONTINUOUS
 62
     7
 10
695.0
 20
672.23989413011122
 30
0.0
  0
VERTEX
  5
3AB
  8
DATA
  6
CONTINUOUS
 62
     7
 10
697.33826859021792
 20
673.58989413011125
 30
0.0
  0
VERTEX
  5
3AC
  8
DATA
  6
CONTINUOUS
 62
     7
 10
697.33826859021792
 20
676.28989413011129
 30
0.0
  0
VERTEX
  5
3AD
  8
DATA
  6
CONTINUOUS
 62
     7
 10
695.0
 20
677.6398941301112
 30
0.0
  0
VERTEX
  5
3AE
  8
DATA
  6
CONTINUOUS
 62
     7
 10
692.66173140978185
 20
676.28989413011129
 30
0.0
  0
VERTEX
  5
3AF
  8
DATA
  6
CONTINUOUS
 62
     7
 10
692.66173140978185
 20
673.58989413011125
 30
0.0
  0
SEQEND
  5
3B0
  8
DATA
  6
CONTINUOUS
 62
     7
  0
LINE
  5
234
  8
DATA
  6
CONTINUOUS
 62
     7
 10
677.81344453153235
 20
678.93989413011116
 30
0.0
 11
687.20887760850951
 21
678.93989413011116
 31
0.0
  0
LINE
  5
235
  8
DATA
  6
CONTINUOUS
 62
     7
 10
688.02137760850906
 20
670.93989413011116
 30
0.0
 11
677.00094453153247
 21
670.93989413011116
 31
0.0
  0
LINE
  5
236
  8
DATA
  6
CONTINUOUS
 62
     7
 10
688.59209445576084
 20
677.75602176249424
 30
0.0
 11
689.40459445576084
 21
672.55602176249431
 31
0.0
  0
LINE
  5
237
  8
DATA
  6
CONTINUOUS
 62
     7
 10
675.61772768428091
 20
672.55602176249431
 30
0.0
 11
676.43022768428079
 21
677.75602176249424
 31
0.0
  0
CIRCLE
  5
238
  8
DATA
  6
CONTINUOUS
 62
     7
 10
682.5
 20
672.4785659178433
 30
0.0
 40
0.5
  0
CIRCLE
  5
239
  8
DATA
  6
CONTINUOUS
 62
     7
 10
680.49999999999989
 20
672.4785659178433
 30
0.0
 40
0.5
  0
CIRCLE
  5
23A
  8
DATA
  6
CONTINUOUS
 62
     7
 10
678.5
 20
672.4785659178433
 30
0.0
 40
0.5
  0
CIRCLE
  5
23B
  8
DATA
  6
CONTINUOUS
 62
     7
 10
684.49999999999989
 20
672.4785659178433
 30
0.0
 40
0.5
  0
CIRCLE
  5
23C
  8
DATA
  6
CONTINUOUS
 62
     7
 10
686.5
 20
672.4785659178433
 30
0.0
 40
0.5
  0
CIRCLE
  5
23D
  8
DATA
  6
CONTINUOUS
 62
     7
 10
681.38265642453575
 20
674.95275717644824
 30
0.0
 40
0.5
  0
CIRCLE
  5
23E
  8
DATA
  6
CONTINUOUS
 62
     7
 10
679.38265642453575
 20
674.95275717644824
 30
0.0
 40
0.5
  0
CIRCLE
  5
23F
  8
DATA
  6
CONTINUOUS
 62
     7
 10
677.38265642453575
 20
674.95275717644824
 30
0.0
 40
0.5
  0
CIRCLE
  5
240
  8
DATA
  6
CONTINUOUS
 62
     7
 10
683.38265642453575
 20
674.95275717644824
 30
0.0
 40
0.5
  0
CIRCLE
  5
241
  8
DATA
  6
CONTINUOUS
 62
     7
 10
685.38265642453575
 20
674.95275717644824
 30
0.0
 40
0.5
  0
CIRCLE
  5
242
  8
DATA
  6
CONTINUOUS
 62
     7
 10
682.5
 20
677.40122234237901
 30
0.0
 40
0.5
  0
CIRCLE
  5
243
  8
DATA
  6
CONTINUOUS
 62
     7
 10
680.49999999999989
 20
677.40122234237901
 30
0.0
 40
0.5
  0
CIRCLE
  5
244
  8
DATA
  6
CONTINUOUS
 62
     7
 10
678.5
 20
677.40122234237901
 30
0.0
 40
0.5
  0
CIRCLE
  5
245
  8
DATA
  6
CONTINUOUS
 62
     7
 10
684.49999999999989
 20
677.40122234237901
 30
0.0
 40
0.5
  0
CIRCLE
  5
246
  8
DATA
  6
CONTINUOUS
 62
     7
 10
686.5
 20
677.40122234237901
 30
0.0
 40
0.5
  0
ARC
  5
247
  8
DATA
  6
CONTINUOUS
 62
     7
 10
688.02137760850906
 20
672.33989413011125
 30
0.0
 40
1.400000000000005
 50
270.0
 51
8.8806591505193637
  0
ARC
  5
248
  8
DATA
  6
CONTINUOUS
 62
     7
 10
677.00094453153247
 20
672.33989413011125
 30
0.0
 40
1.400000000000019
 50
171.1193408494795
 51
270.0
  0
ARC
  5
249
  8
DATA
  6
CONTINUOUS
 62
     7
 10
687.20887760850951
 20
677.53989413011118
 30
0.0
 40
1.400000000000015
 50
8.8806591505193833
 51
89.999999999999986
  0
ARC
  5
24A
  8
DATA
  6
CONTINUOUS
 62
     7
 10
677.81344453153235
 20
677.53989413011118
 30
0.0
 40
1.400000000000005
 50
90.0
 51
171.11934084947831
  0
LINE
  5
24B
  8
DATA
  6
CONTINUOUS
 62
     7
 10
676.59974698157725
 20
680.93989413011116
 30
0.0
 11
688.40025301842275
 21
680.93989413011116
 31
0.0
  0
LINE
  5
24C
  8
DATA
  6
CONTINUOUS
 62
     7
 10
689.41909473901922
 20
668.93989413011127
 30
0.0
 11
675.5809052609809
 21
668.93989413011127
 31
0.0
  0
LINE
  5
24D
  8
DATA
  6
CONTINUOUS
 62
     7
 10
673.60906003383752
 20
671.27429867582237
 30
0.0
 11
675.02227079986255
 21
679.60741776667999
 31
0.0
  0
ARC
  5
24E
  8
DATA
  6
CONTINUOUS
 62
     7
 10
675.5809052609809
 20
670.93989413011116
 30
0.0
 40
1.999999999999962
 50
170.37480705637799
 51
270.0000000000033
  0
ARC
  5
24F
  8
DATA
  6
CONTINUOUS
 62
     7
 10
676.59974698157725
 20
679.33989413011125
 30
0.0
 40
1.5999999999999941
 50
90.0
 51
170.37480705637901
  0
TEXT
  5
250
  8
DATA
 62
     7
 10
760.57789810876625
 20
687.01664863028532
 30
0.0
 40
2.4432617187500001
  1
+5 Vdc
 50
180.0
 41
0.7
 11
760.57789810876625
 21
684.57338691153529
 31
0.0
 73
     3
  0
LINE
  5
251
  8
DATA
  6
CONTINUOUS
 62
     7
 10
697.33826859021792
 20
575.49999999999989
 30
0.0
 11
692.66173140978185
 21
575.49999999999989
 31
0.0
  0
LINE
  5
252
  8
DATA
  6
CONTINUOUS
 62
     7
 10
691.40189622131857
 20
575.49999999999989
 30
0.0
 11
673.58102322321906
 21
575.49999999999989
 31
0.0
  0
LINE
  5
253
  8
DATA
  6
CONTINUOUS
 62
     7
 10
691.39093996616248
 20
671.27429867582237
 30
0.0
 11
689.97772920013745
 21
679.60741776667999
 31
0.0
  0
ARC
  5
254
  8
DATA
  6
CONTINUOUS
 62
     7
 10
689.41909473901922
 20
670.93989413011116
 30
0.0
 40
1.999999999999992
 50
269.99999999999682
 51
9.6251929436219843
  0
ARC
  5
255
  8
DATA
  6
CONTINUOUS
 62
     7
 10
688.40025301842275
 20
679.33989413011125
 30
0.0
 40
1.600000000000058
 50
9.6251929436210109
 51
90.0
  0
CIRCLE
  5
256
  8
DATA
  6
CONTINUOUS
 62
     7
 10
713.0
 20
674.93989413011116
 30
0.0
 40
1.175000000000068
  0
POLYLINE
  5
257
  8
DATA
  6
CONTINUOUS
 62
     7
 66
     1
 10
0.0
 20
0.0
 30
0.0
 70
     1
  0
VERTEX
  5
3B1
  8
DATA
  6
CONTINUOUS
 62
     7
 10
713.0
 20
672.23989413011122
 30
0.0
  0
VERTEX
  5
3B2
  8
DATA
  6
CONTINUOUS
 62
     7
 10
715.33826859021792
 20
673.58989413011125
 30
0.0
  0
VERTEX
  5
3B3
  8
DATA
  6
CONTINUOUS
 62
     7
 10
715.33826859021792
 20
676.28989413011129
 30
0.0
  0
VERTEX
  5
3B4
  8
DATA
  6
CONTINUOUS
 62
     7
 10
713.0
 20
677.6398941301112
 30
0.0
  0
VERTEX
  5
3B5
  8
DATA
  6
CONTINUOUS
 62
     7
 10
710.66173140978185
 20
676.28989413011129
 30
0.0
  0
VERTEX
  5
3B6
  8
DATA
  6
CONTINUOUS
 62
     7
 10
710.66173140978185
 20
673.58989413011125
 30
0.0
  0
SEQEND
  5
3B7
  8
DATA
  6
CONTINUOUS
 62
     7
  0
CIRCLE
  5
260
  8
DATA
  6
CONTINUOUS
 62
     7
 10
738.0
 20
674.93989413011116
 30
0.0
 40
1.175000000000068
  0
POLYLINE
  5
261
  8
DATA
  6
CONTINUOUS
 62
     7
 66
     1
 10
0.0
 20
0.0
 30
0.0
 70
     1
  0
VERTEX
  5
3B8
  8
DATA
  6
CONTINUOUS
 62
     7
 10
738.0
 20
672.23989413011122
 30
0.0
  0
VERTEX
  5
3B9
  8
DATA
  6
CONTINUOUS
 62
     7
 10
740.33826859021792
 20
673.58989413011125
 30
0.0
  0
VERTEX
  5
3BA
  8
DATA
  6
CONTINUOUS
 62
     7
 10
740.33826859021792
 20
676.28989413011129
 30
0.0
  0
VERTEX
  5
3BB
  8
DATA
  6
CONTINUOUS
 62
     7
 10
738.0
 20
677.6398941301112
 30
0.0
  0
VERTEX
  5
3BC
  8
DATA
  6
CONTINUOUS
 62
     7
 10
735.66173140978185
 20
676.28989413011129
 30
0.0
  0
VERTEX
  5
3BD
  8
DATA
  6
CONTINUOUS
 62
     7
 10
735.66173140978185
 20
673.58989413011125
 30
0.0
  0
SEQEND
  5
3BE
  8
DATA
  6
CONTINUOUS
 62
     7
  0
LINE
  5
26A
  8
DATA
  6
CONTINUOUS
 62
     7
 10
720.81344453153235
 20
678.93989413011116
 30
0.0
 11
730.20887760850951
 21
678.93989413011116
 31
0.0
  0
LINE
  5
26B
  8
DATA
  6
CONTINUOUS
 62
     7
 10
731.02137760850906
 20
670.93989413011116
 30
0.0
 11
720.00094453153235
 21
670.93989413011116
 31
0.0
  0
LINE
  5
26C
  8
DATA
  6
CONTINUOUS
 62
     7
 10
731.59209445576096
 20
677.75602176249424
 30
0.0
 11
732.40459445576084
 21
672.55602176249431
 31
0.0
  0
LINE
  5
26D
  8
DATA
  6
CONTINUOUS
 62
     7
 10
718.61772768428079
 20
672.55602176249431
 30
0.0
 11
719.43022768428091
 21
677.75602176249424
 31
0.0
  0
CIRCLE
  5
26E
  8
DATA
  6
CONTINUOUS
 62
     7
 10
725.49999999999989
 20
672.4785659178433
 30
0.0
 40
0.5
  0
CIRCLE
  5
26F
  8
DATA
  6
CONTINUOUS
 62
     7
 10
723.5
 20
672.4785659178433
 30
0.0
 40
0.5
  0
CIRCLE
  5
270
  8
DATA
  6
CONTINUOUS
 62
     7
 10
721.49999999999989
 20
672.4785659178433
 30
0.0
 40
0.5
  0
CIRCLE
  5
271
  8
DATA
  6
CONTINUOUS
 62
     7
 10
727.5
 20
672.4785659178433
 30
0.0
 40
0.5
  0
CIRCLE
  5
272
  8
DATA
  6
CONTINUOUS
 62
     7
 10
729.49999999999989
 20
672.4785659178433
 30
0.0
 40
0.5
  0
CIRCLE
  5
273
  8
DATA
  6
CONTINUOUS
 62
     7
 10
724.38265642453564
 20
674.95275717644824
 30
0.0
 40
0.5
  0
CIRCLE
  5
274
  8
DATA
  6
CONTINUOUS
 62
     7
 10
722.38265642453564
 20
674.95275717644824
 30
0.0
 40
0.5
  0
CIRCLE
  5
275
  8
DATA
  6
CONTINUOUS
 62
     7
 10
720.38265642453564
 20
674.95275717644824
 30
0.0
 40
0.5
  0
CIRCLE
  5
276
  8
DATA
  6
CONTINUOUS
 62
     7
 10
726.38265642453564
 20
674.95275717644824
 30
0.0
 40
0.5
  0
CIRCLE
  5
277
  8
DATA
  6
CONTINUOUS
 62
     7
 10
728.38265642453564
 20
674.95275717644824
 30
0.0
 40
0.5
  0
CIRCLE
  5
278
  8
DATA
  6
CONTINUOUS
 62
     7
 10
725.49999999999989
 20
677.40122234237901
 30
0.0
 40
0.5
  0
CIRCLE
  5
279
  8
DATA
  6
CONTINUOUS
 62
     7
 10
723.5
 20
677.40122234237901
 30
0.0
 40
0.5
  0
CIRCLE
  5
27A
  8
DATA
  6
CONTINUOUS
 62
     7
 10
721.49999999999989
 20
677.40122234237901
 30
0.0
 40
0.5
  0
CIRCLE
  5
27B
  8
DATA
  6
CONTINUOUS
 62
     7
 10
727.5
 20
677.40122234237901
 30
0.0
 40
0.5
  0
CIRCLE
  5
27C
  8
DATA
  6
CONTINUOUS
 62
     7
 10
729.49999999999989
 20
677.40122234237901
 30
0.0
 40
0.5
  0
ARC
  5
27D
  8
DATA
  6
CONTINUOUS
 62
     7
 10
731.02137760850906
 20
672.33989413011125
 30
0.0
 40
1.400000000000005
 50
270.0
 51
8.8806591505193637
  0
ARC
  5
27E
  8
DATA
  6
CONTINUOUS
 62
     7
 10
720.00094453153235
 20
672.33989413011125
 30
0.0
 40
1.400000000000019
 50
171.1193408494795
 51
270.0
  0
ARC
  5
27F
  8
DATA
  6
CONTINUOUS
 62
     7
 10
730.20887760850951
 20
677.53989413011118
 30
0.0
 40
1.400000000000015
 50
8.8806591505193833
 51
89.999999999999986
  0
ARC
  5
280
  8
DATA
  6
CONTINUOUS
 62
     7
 10
720.81344453153235
 20
677.53989413011118
 30
0.0
 40
1.400000000000005
 50
90.0
 51
171.11934084947831
  0
LINE
  5
281
  8
DATA
  6
CONTINUOUS
 62
     7
 10
719.59974698157725
 20
680.93989413011116
 30
0.0
 11
731.40025301842275
 21
680.93989413011116
 31
0.0
  0
LINE
  5
282
  8
DATA
  6
CONTINUOUS
 62
     7
 10
732.41909473901922
 20
668.93989413011127
 30
0.0
 11
718.58090526098067
 21
668.93989413011127
 31
0.0
  0
LINE
  5
283
  8
DATA
  6
CONTINUOUS
 62
     7
 10
716.60906003383741
 20
671.27429867582237
 30
0.0
 11
718.02227079986255
 21
679.60741776667999
 31
0.0
  0
ARC
  5
284
  8
DATA
  6
CONTINUOUS
 62
     7
 10
718.58090526098067
 20
670.93989413011116
 30
0.0
 40
1.999999999999962
 50
170.37480705637799
 51
270.0000000000033
  0
ARC
  5
285
  8
DATA
  6
CONTINUOUS
 62
     7
 10
719.59974698157725
 20
679.33989413011125
 30
0.0
 40
1.5999999999999941
 50
90.0
 51
170.37480705637901
  0
LINE
  5
286
  8
DATA
  6
CONTINUOUS
 62
     7
 10
734.39093996616259
 20
671.27429867582237
 30
0.0
 11
732.97772920013745
 21
679.60741776667999
 31
0.0
  0
ARC
  5
287
  8
DATA
  6
CONTINUOUS
 62
     7
 10
732.41909473901922
 20
670.93989413011116
 30
0.0
 40
1.999999999999992
 50
269.99999999999682
 51
9.6251929436219843
  0
ARC
  5
288
  8
DATA
  6
CONTINUOUS
 62
     7
 10
731.40025301842275
 20
679.33989413011125
 30
0.0
 40
1.600000000000058
 50
9.6251929436210109
 51
90.0
  0
LINE
  5
289
  8
DATA
  6
CONTINUOUS
 62
     7
 10
697.33826859021792
 20
575.49999999999989
 30
0.0
 11
697.33826859021792
 21
571.49999999999989
 31
0.0
  0
LINE
  5
28A
  8
DATA
  6
CONTINUOUS
 62
     7
 10
672.33826859021792
 20
575.49999999999989
 30
0.0
 11
672.33826859021792
 21
571.49999999999989
 31
0.0
  0
LINE
  5
28B
  8
DATA
  6
CONTINUOUS
 62
     7
 10
692.66173140978185
 20
575.49999999999989
 30
0.0
 11
692.66173140978185
 21
571.49999999999989
 31
0.0
  0
LINE
  5
28C
  8
DATA
  6
CONTINUOUS
 62
     7
 10
673.58102322321906
 20
575.49999999999989
 30
0.0
 11
673.58102322321906
 21
571.49999999999989
 31
0.0
  0
LINE
  5
28D
  8
DATA
  6
CONTINUOUS
 62
     7
 10
691.40189622131857
 20
575.49999999999989
 30
0.0
 11
691.40189622131857
 21
571.49999999999989
 31
0.0
  0
LINE
  5
28E
  8
DATA
  6
CONTINUOUS
 62
     7
 10
667.66173140978185
 20
575.49999999999989
 30
0.0
 11
667.66173140978185
 21
571.49999999999989
 31
0.0
  0
LINE
  5
28F
  8
DATA
  6
CONTINUOUS
 62
     7
 10
667.66173140978185
 20
575.49999999999989
 30
0.0
 11
672.33826859021792
 21
575.49999999999989
 31
0.0
  0
LINE
  5
290
  8
DATA
  6
CONTINUOUS
 62
     7
 10
740.33826859021792
 20
575.49999999999989
 30
0.0
 11
735.66173140978185
 21
575.49999999999989
 31
0.0
  0
LINE
  5
291
  8
DATA
  6
CONTINUOUS
 62
     7
 10
734.40189622131845
 20
575.49999999999989
 30
0.0
 11
716.58102322321929
 21
575.49999999999989
 31
0.0
  0
LINE
  5
292
  8
DATA
  6
CONTINUOUS
 62
     7
 10
740.33826859021792
 20
575.49999999999989
 30
0.0
 11
740.33826859021792
 21
571.49999999999989
 31
0.0
  0
LINE
  5
293
  8
DATA
  6
CONTINUOUS
 62
     7
 10
715.33826859021792
 20
575.49999999999989
 30
0.0
 11
715.33826859021792
 21
571.49999999999989
 31
0.0
  0
LINE
  5
294
  8
DATA
  6
CONTINUOUS
 62
     7
 10
735.66173140978185
 20
575.49999999999989
 30
0.0
 11
735.66173140978185
 21
571.49999999999989
 31
0.0
  0
LINE
  5
295
  8
DATA
  6
CONTINUOUS
 62
     7
 10
716.58102322321929
 20
575.49999999999989
 30
0.0
 11
716.58102322321929
 21
571.49999999999989
 31
0.0
  0
LINE
  5
296
  8
DATA
  6
CONTINUOUS
 62
     7
 10
734.40189622131845
 20
575.49999999999989
 30
0.0
 11
734.40189622131845
 21
571.49999999999989
 31
0.0
  0
LINE
  5
297
  8
DATA
  6
CONTINUOUS
 62
     7
 10
710.66173140978185
 20
575.49999999999989
 30
0.0
 11
710.66173140978185
 21
571.49999999999989
 31
0.0
  0
LINE
  5
298
  8
DATA
  6
CONTINUOUS
 62
     7
 10
710.66173140978185
 20
575.49999999999989
 30
0.0
 11
715.33826859021792
 21
575.49999999999989
 31
0.0
  0
CIRCLE
  5
299
  8
DATA
  6
CONTINUOUS
 62
     7
 10
751.5
 20
365.0
 30
0.0
 40
1.949999999999988
  0
LINE
  5
29A
  8
DATA
  6
CONTINUOUS
 62
     7
 10
750.30459211981815
 20
365.0
 30
0.0
 11
752.69540788017935
 21
365.0
 31
0.0
  0
LINE
  5
29B
  8
DATA
  6
CONTINUOUS
 62
     7
 10
751.5
 20
363.80459211981832
 30
0.0
 11
751.5
 21
366.19540788018168
 31
0.0
  0
CIRCLE
  5
29C
  8
DATA
  6
CONTINUOUS
 62
     7
 10
741.5
 20
365.0
 30
0.0
 40
1.949999999999988
  0
LINE
  5
29D
  8
DATA
  6
CONTINUOUS
 62
     7
 10
740.30459211981827
 20
365.0
 30
0.0
 11
742.69540788017935
 21
365.0
 31
0.0
  0
LINE
  5
29E
  8
DATA
  6
CONTINUOUS
 62
     7
 10
741.5
 20
363.80459211981832
 30
0.0
 11
741.5
 21
366.19540788018168
 31
0.0
  0
TEXT
  5
29F
  8
DATA
 62
     7
 10
747.79999999999995
 20
354.38852220163312
 30
0.0
 40
1.764577907986111
  1
Brightness
 41
0.7
 11
747.79999999999995
 21
356.15310010961917
 31
0.0
 73
     3
  0
TEXT
  5
2A0
  8
DATA
 62
     7
 10
736.29512043302111
 20
354.38852220163312
 30
0.0
 40
1.764577907986111
  1
Focus
 41
0.7
 11
736.29512043302111
 21
356.15310010961917
 31
0.0
 73
     3
  0
TEXT
  5
2A1
  8
DATA
 62
     7
 10
663.88185802330247
 20
672.69244151538089
 30
0.0
 40
2.4432617187500001
  1
Out
 50
180.0
 41
0.7
 11
663.88185802330247
 21
670.24917979663087
 31
0.0
 73
     3
  0
TEXT
  5
2A2
  8
DATA
 62
     7
 10
663.88185802330247
 20
675.86744151538085
 30
0.0
 40
2.4432617187500001
  1
 
 50
180.0
 41
0.7
 11
663.88185802330247
 21
673.42417979663082
 31
0.0
 73
     3
  0
LINE
  5
2A3
  8
DATA
  6
CONTINUOUS
 62
     7
 10
590.50006448337194
 20
681.68886133189505
 30
0.0
 11
590.50006448337194
 21
676.58886133189515
 31
0.0
  0
LINE
  5
2A4
  8
DATA
  6
CONTINUOUS
 62
     7
 10
578.00006448337194
 20
681.68886133189505
 30
0.0
 11
590.50006448337194
 21
681.68886133189505
 31
0.0
  0
LINE
  5
2A5
  8
DATA
  6
CONTINUOUS
 62
     7
 10
578.00006448337194
 20
676.58886133189515
 30
0.0
 11
578.00006448337194
 21
681.68886133189505
 31
0.0
  0
LINE
  5
2A6
  8
DATA
  6
CONTINUOUS
 62
     7
 10
578.00006448337194
 20
676.58886133189515
 30
0.0
 11
590.50006448337194
 21
676.58886133189515
 31
0.0
  0
LINE
  5
2A7
  8
DATA
  6
CONTINUOUS
 62
     7
 10
578.50006448337194
 20
679.28886133189508
 30
0.0
 11
590.00006448337194
 21
679.28886133189508
 31
0.0
  0
LINE
  5
2A8
  8
DATA
  6
CONTINUOUS
 62
     7
 10
578.50006448337194
 20
677.98886133189512
 30
0.0
 11
590.00006448337194
 21
677.98886133189512
 31
0.0
  0
LINE
  5
2A9
  8
DATA
  6
CONTINUOUS
 62
     7
 10
584.83792017401606
 20
679.28886133189508
 30
0.0
 11
584.83792017401606
 21
679.36386133189512
 31
0.0
  0
LINE
  5
2AA
  8
DATA
  6
CONTINUOUS
 62
     7
 10
586.08792017401595
 20
679.28886133189508
 30
0.0
 11
586.08792017401595
 21
679.36386133189512
 31
0.0
  0
LINE
  5
2AB
  8
DATA
  6
CONTINUOUS
 62
     7
 10
586.08792017401595
 20
679.36386133189512
 30
0.0
 11
584.83792017401606
 21
679.36386133189512
 31
0.0
  0
LINE
  5
2AC
  8
DATA
  6
CONTINUOUS
 62
     7
 10
583.66220879272771
 20
679.28886133189508
 30
0.0
 11
583.66220879272771
 21
679.36386133189512
 31
0.0
  0
LINE
  5
2AD
  8
DATA
  6
CONTINUOUS
 62
     7
 10
582.41220879272771
 20
679.28886133189508
 30
0.0
 11
582.41220879272771
 21
679.36386133189512
 31
0.0
  0
LINE
  5
2AE
  8
DATA
  6
CONTINUOUS
 62
     7
 10
582.41220879272771
 20
679.36386133189512
 30
0.0
 11
583.66220879272771
 21
679.36386133189512
 31
0.0
  0
LINE
  5
2AF
  8
DATA
  6
CONTINUOUS
 62
     7
 10
587.25792017401625
 20
679.28886133189508
 30
0.0
 11
587.25792017401625
 21
679.36386133189512
 31
0.0
  0
LINE
  5
2B0
  8
DATA
  6
CONTINUOUS
 62
     7
 10
588.50792017401625
 20
679.28886133189508
 30
0.0
 11
588.50792017401625
 21
679.36386133189512
 31
0.0
  0
LINE
  5
2B1
  8
DATA
  6
CONTINUOUS
 62
     7
 10
588.50792017401625
 20
679.36386133189512
 30
0.0
 11
587.25792017401625
 21
679.36386133189512
 31
0.0
  0
LINE
  5
2B2
  8
DATA
  6
CONTINUOUS
 62
     7
 10
581.24220879272764
 20
679.28886133189508
 30
0.0
 11
581.24220879272764
 21
679.36386133189512
 31
0.0
  0
LINE
  5
2B3
  8
DATA
  6
CONTINUOUS
 62
     7
 10
579.99220879272764
 20
679.28886133189508
 30
0.0
 11
579.99220879272764
 21
679.36386133189512
 31
0.0
  0
LINE
  5
2B4
  8
DATA
  6
CONTINUOUS
 62
     7
 10
579.99220879272764
 20
679.36386133189512
 30
0.0
 11
581.24220879272764
 21
679.36386133189512
 31
0.0
  0
LINE
  5
2B5
  8
DATA
  6
CONTINUOUS
 62
     7
 10
590.00006448337194
 20
679.28886133189508
 30
0.0
 11
590.00006448337194
 21
677.98886133189512
 31
0.0
  0
LINE
  5
2B6
  8
DATA
  6
CONTINUOUS
 62
     7
 10
578.50006448337194
 20
679.28886133189508
 30
0.0
 11
578.50006448337194
 21
677.98886133189512
 31
0.0
  0
LINE
  5
2B7
  8
DATA
  6
CONTINUOUS
 62
     7
 10
590.50006448337194
 20
672.92985586422253
 30
0.0
 11
590.50006448337194
 21
667.82985586422251
 31
0.0
  0
LINE
  5
2B8
  8
DATA
  6
CONTINUOUS
 62
     7
 10
578.00006448337194
 20
672.92985586422253
 30
0.0
 11
590.50006448337194
 21
672.92985586422253
 31
0.0
  0
LINE
  5
2B9
  8
DATA
  6
CONTINUOUS
 62
     7
 10
578.00006448337194
 20
667.82985586422251
 30
0.0
 11
578.00006448337194
 21
672.92985586422253
 31
0.0
  0
LINE
  5
2BA
  8
DATA
  6
CONTINUOUS
 62
     7
 10
578.00006448337194
 20
667.82985586422251
 30
0.0
 11
590.50006448337194
 21
667.82985586422251
 31
0.0
  0
LINE
  5
2BB
  8
DATA
  6
CONTINUOUS
 62
     7
 10
578.50006448337194
 20
670.52985586422244
 30
0.0
 11
590.00006448337194
 21
670.52985586422244
 31
0.0
  0
LINE
  5
2BC
  8
DATA
  6
CONTINUOUS
 62
     7
 10
578.50006448337194
 20
669.22985586422249
 30
0.0
 11
590.00006448337194
 21
669.22985586422249
 31
0.0
  0
LINE
  5
2BD
  8
DATA
  6
CONTINUOUS
 62
     7
 10
584.83792017401606
 20
670.52985586422244
 30
0.0
 11
584.83792017401606
 21
670.60485586422237
 31
0.0
  0
LINE
  5
2BE
  8
DATA
  6
CONTINUOUS
 62
     7
 10
586.08792017401595
 20
670.52985586422244
 30
0.0
 11
586.08792017401595
 21
670.60485586422237
 31
0.0
  0
LINE
  5
2BF
  8
DATA
  6
CONTINUOUS
 62
     7
 10
586.08792017401595
 20
670.60485586422237
 30
0.0
 11
584.83792017401606
 21
670.60485586422237
 31
0.0
  0
LINE
  5
2C0
  8
DATA
  6
CONTINUOUS
 62
     7
 10
583.66220879272771
 20
670.52985586422244
 30
0.0
 11
583.66220879272771
 21
670.60485586422237
 31
0.0
  0
LINE
  5
2C1
  8
DATA
  6
CONTINUOUS
 62
     7
 10
582.41220879272771
 20
670.52985586422244
 30
0.0
 11
582.41220879272771
 21
670.60485586422237
 31
0.0
  0
LINE
  5
2C2
  8
DATA
  6
CONTINUOUS
 62
     7
 10
582.41220879272771
 20
670.60485586422237
 30
0.0
 11
583.66220879272771
 21
670.60485586422237
 31
0.0
  0
LINE
  5
2C3
  8
DATA
  6
CONTINUOUS
 62
     7
 10
587.25792017401625
 20
670.52985586422244
 30
0.0
 11
587.25792017401625
 21
670.60485586422237
 31
0.0
  0
LINE
  5
2C4
  8
DATA
  6
CONTINUOUS
 62
     7
 10
588.50792017401625
 20
670.52985586422244
 30
0.0
 11
588.50792017401625
 21
670.60485586422237
 31
0.0
  0
LINE
  5
2C5
  8
DATA
  6
CONTINUOUS
 62
     7
 10
588.50792017401625
 20
670.60485586422237
 30
0.0
 11
587.25792017401625
 21
670.60485586422237
 31
0.0
  0
LINE
  5
2C6
  8
DATA
  6
CONTINUOUS
 62
     7
 10
581.24220879272764
 20
670.52985586422244
 30
0.0
 11
581.24220879272764
 21
670.60485586422237
 31
0.0
  0
LINE
  5
2C7
  8
DATA
  6
CONTINUOUS
 62
     7
 10
579.99220879272764
 20
670.52985586422244
 30
0.0
 11
579.99220879272764
 21
670.60485586422237
 31
0.0
  0
LINE
  5
2C8
  8
DATA
  6
CONTINUOUS
 62
     7
 10
579.99220879272764
 20
670.60485586422237
 30
0.0
 11
581.24220879272764
 21
670.60485586422237
 31
0.0
  0
LINE
  5
2C9
  8
DATA
  6
CONTINUOUS
 62
     7
 10
590.00006448337194
 20
670.52985586422244
 30
0.0
 11
590.00006448337194
 21
669.22985586422249
 31
0.0
  0
LINE
  5
2CA
  8
DATA
  6
CONTINUOUS
 62
     7
 10
578.50006448337194
 20
670.52985586422244
 30
0.0
 11
578.50006448337194
 21
669.22985586422249
 31
0.0
  0
TEXT
  5
2CB
  8
DATA
 62
     7
 10
589.30536674619725
 20
665.95156349105378
 30
0.0
 40
2.198935546875
  1
USB Out
 50
180.0
 41
0.7
 11
589.30536674619725
 21
663.75262794417881
 31
0.0
 73
     3
  0
TEXT
  5
2CC
  8
DATA
 62
     7
 10
733.64587803928873
 20
687.0354885017241
 30
0.0
 40
2.4432617187500001
  1
Video Out 1
 50
180.0
 41
0.7
 11
733.64587803928873
 21
684.59222678297408
 31
0.0
 73
     3
  0
ARC
  5
2CD
  8
DATA
  6
CONTINUOUS
 62
     7
 10
298.5827411285772
 20
463.47874999999988
 30
0.0
 40
1.728749999999972
 50
214.48291879787789
 51
325.51708120212157
  0
ARC
  5
2CE
  8
DATA
  6
CONTINUOUS
 62
     7
 10
760.58618693302094
 20
463.4787500000001
 30
0.0
 40
1.7287500000000839
 50
214.48291879788329
 51
325.51708120211669
  0
LINE
  5
2CF
  8
DATA
  6
CONTINUOUS
 62
     7
 10
462.99999999990882
 20
364.51008396685972
 30
0.0
 11
459.0
 21
364.51008396685972
 31
0.0
  0
LINE
  5
2D0
  8
DATA
  6
CONTINUOUS
 62
     7
 10
459.0
 20
369.71008396685971
 30
0.0
 11
462.99999999990882
 21
369.71008396685971
 31
0.0
  0
LINE
  5
2D1
  8
DATA
  6
CONTINUOUS
 62
     7
 10
462.99999999990882
 20
363.11008396685969
 30
0.0
 11
459.0
 21
363.11008396685969
 31
0.0
  0
LINE
  5
2D2
  8
DATA
  6
CONTINUOUS
 62
     7
 10
459.0
 20
371.11008396685969
 30
0.0
 11
462.99999999990882
 21
371.11008396685969
 31
0.0
  0
LINE
  5
2D3
  8
DATA
  6
CONTINUOUS
 62
     7
 10
462.99999999990882
 20
371.11008396685969
 30
0.0
 11
462.99999999990882
 21
363.11008396685969
 31
0.0
  0
LINE
  5
2D4
  8
DATA
  6
CONTINUOUS
 62
     7
 10
912.99999999990871
 20
364.51008396685972
 30
0.0
 11
909.0
 21
364.51008396685972
 31
0.0
  0
LINE
  5
2D5
  8
DATA
  6
CONTINUOUS
 62
     7
 10
909.0
 20
369.71008396685971
 30
0.0
 11
912.99999999990871
 21
369.71008396685971
 31
0.0
  0
LINE
  5
2D6
  8
DATA
  6
CONTINUOUS
 62
     7
 10
912.99999999990871
 20
363.11008396685969
 30
0.0
 11
909.0
 21
363.11008396685969
 31
0.0
  0
LINE
  5
2D7
  8
DATA
  6
CONTINUOUS
 62
     7
 10
909.0
 20
371.11008396685969
 30
0.0
 11
912.99999999990871
 21
371.11008396685969
 31
0.0
  0
LINE
  5
2D8
  8
DATA
  6
CONTINUOUS
 62
     7
 10
912.99999999990871
 20
371.11008396685969
 30
0.0
 11
912.99999999990871
 21
363.11008396685969
 31
0.0
  0
ARC
  5
2D9
  8
DATA
  6
CONTINUOUS
 62
     7
 10
350.97874999999999
 20
367.03557743365508
 30
0.0
 40
1.728750000000036
 50
124.482918797881
 51
235.51708120211899
  0
ARC
  5
2DA
  8
DATA
  6
CONTINUOUS
 62
     7
 10
800.97874999999988
 20
367.03557743365508
 30
0.0
 40
1.728750000000036
 50
124.482918797881
 51
235.51708120211899
  0
TEXT
  5
2DB
  8
DATA
 62
     7
 10
133.6638339485491
 20
284.68663458978989
 30
0.0
 40
13.57367621527778
  1
CAT5-1500S(センダー)
 41
0.7
 11
133.6638339485491
 21
298.2603108050676
 31
0.0
 73
     3
  0
TEXT
  5
2DC
  8
DATA
 62
     7
 10
576.12435035312444
 20
285.774967250842
 30
0.0
 40
13.57367621527778
  1
CAT5-1500R(レシーバー)
 41
0.7
 11
576.12435035312444
 21
299.34864346611982
 31
0.0
 73
     3
  0
ENDSEC
  0
EOF
