  0
SECTION
  2
HEADER
  9
$ACADVER
  1
AC1009
  9
$INSBASE
 10
0.0
 20
0.0
 30
0.0
  9
$EXTMIN
 10
-170.0164782349211
 20
-265.68665945661201
 30
-0.0015258207003583
  9
$EXTMAX
 10
370.0164807494923
 20
537.06099888531526
 30
0.0000000349246037
  9
$LIMMIN
 10
0.0
 20
0.0
  9
$LIMMAX
 10
0.0
 20
0.0
  9
$ORTHOMODE
 70
     0
  9
$REGENMODE
 70
     1
  9
$FILLMODE
 70
     1
  9
$QTEXTMODE
 70
     0
  9
$MIRRTEXT
 70
     1
  9
$DRAGMODE
 70
     2
  9
$LTSCALE
 40
15.24
  9
$OSMODE
 70
   231
  9
$ATTMODE
 70
     1
  9
$TEXTSIZE
 40
0.0
  9
$TRACEWID
 40
1.0
  9
$TEXTSTYLE
  7
STANDARD
  9
$CLAYER
  8
DATA
  9
$CELTYPE
  6
BYLAYER
  9
$CECOLOR
 62
   256
  9
$DIMSCALE
 40
1.0
  9
$DIMASZ
 40
0.18
  9
$DIMEXO
 40
0.0625
  9
$DIMDLI
 40
0.38
  9
$DIMRND
 40
0.0
  9
$DIMDLE
 40
0.0
  9
$DIMEXE
 40
0.18
  9
$DIMTP
 40
0.0
  9
$DIMTM
 40
0.0
  9
$DIMTXT
 40
0.18
  9
$DIMCEN
 40
0.09
  9
$DIMTSZ
 40
0.0
  9
$DIMTOL
 70
     0
  9
$DIMLIM
 70
     0
  9
$DIMTIH
 70
     1
  9
$DIMTOH
 70
     1
  9
$DIMSE1
 70
     0
  9
$DIMSE2
 70
     0
  9
$DIMTAD
 70
     0
  9
$DIMZIN
 70
     0
  9
$DIMBLK
  1

  9
$DIMASO
 70
     1
  9
$DIMSHO
 70
     1
  9
$DIMPOST
  1

  9
$DIMAPOST
  1

  9
$DIMALT
 70
     0
  9
$DIMALTD
 70
     2
  9
$DIMALTF
 40
25.399999999999999
  9
$DIMLFAC
 40
1.0
  9
$DIMTOFL
 70
     0
  9
$DIMTVP
 40
0.0
  9
$DIMTIX
 70
     0
  9
$DIMSOXD
 70
     0
  9
$DIMSAH
 70
     0
  9
$DIMBLK1
  1

  9
$DIMBLK2
  1

  9
$DIMSTYLE
  2
STANDARD
  9
$DIMCLRD
 70
     0
  9
$DIMCLRE
 70
     0
  9
$DIMCLRT
 70
     0
  9
$DIMTFAC
 40
1.0
  9
$DIMGAP
 40
0.09
  9
$LUNITS
 70
     2
  9
$LUPREC
 70
     4
  9
$SKETCHINC
 40
0.1
  9
$FILLETRAD
 40
0.0
  9
$AUNITS
 70
     0
  9
$AUPREC
 70
     0
  9
$MENU
  1
acad
  9
$ELEVATION
 40
0.0
  9
$PELEVATION
 40
0.0
  9
$THICKNESS
 40
0.0
  9
$LIMCHECK
 70
     0
  9
$BLIPMODE
 70
     0
  9
$CHAMFERA
 40
0.0
  9
$CHAMFERB
 40
0.0
  9
$SKPOLY
 70
     0
  9
$TDCREATE
 40
2455202.6991898152
  9
$TDUPDATE
 40
2455202.7005728818
  9
$TDINDWG
 40
0.0002511921
  9
$TDUSRTIMER
 40
0.0002511921
  9
$USRTIMER
 70
     1
  9
$ANGBASE
 50
0.0
  9
$ANGDIR
 70
     0
  9
$PDMODE
 70
     1
  9
$PDSIZE
 40
-2.0
  9
$PLINEWID
 40
0.0
  9
$COORDS
 70
     0
  9
$SPLFRAME
 70
     0
  9
$SPLINETYPE
 70
     6
  9
$SPLINESEGS
 70
     8
  9
$ATTDIA
 70
     0
  9
$ATTREQ
 70
     1
  9
$HANDLING
 70
     1
  9
$HANDSEED
  5
480
  9
$SURFTAB1
 70
     6
  9
$SURFTAB2
 70
     6
  9
$SURFTYPE
 70
     6
  9
$SURFU
 70
     6
  9
$SURFV
 70
     6
  9
$UCSNAME
  2

  9
$UCSORG
 10
0.0
 20
0.0
 30
0.0
  9
$UCSXDIR
 10
1.0
 20
0.0
 30
0.0
  9
$UCSYDIR
 10
0.0
 20
1.0
 30
0.0
  9
$PUCSNAME
  2

  9
$PUCSORG
 10
0.0
 20
0.0
 30
0.0
  9
$PUCSXDIR
 10
1.0
 20
0.0
 30
0.0
  9
$PUCSYDIR
 10
0.0
 20
1.0
 30
0.0
  9
$USERI1
 70
     0
  9
$USERI2
 70
     0
  9
$USERI3
 70
     0
  9
$USERI4
 70
     0
  9
$USERI5
 70
     0
  9
$USERR1
 40
0.0
  9
$USERR2
 40
0.0
  9
$USERR3
 40
0.0
  9
$USERR4
 40
0.0
  9
$USERR5
 40
0.0
  9
$WORLDVIEW
 70
     1
  9
$SHADEDGE
 70
     3
  9
$SHADEDIF
 70
    70
  9
$TILEMODE
 70
     1
  9
$MAXACTVP
 70
    64
  9
$PLIMCHECK
 70
     0
  9
$PEXTMIN
 10
1.0000000000000000E+020
 20
1.0000000000000000E+020
 30
1.0000000000000000E+020
  9
$PEXTMAX
 10
-1.0000000000000000E+020
 20
-1.0000000000000000E+020
 30
-1.0000000000000000E+020
  9
$PLIMMIN
 10
0.0
 20
0.0
  9
$PLIMMAX
 10
12.0
 20
9.0
  9
$UNITMODE
 70
     0
  9
$VISRETAIN
 70
     0
  9
$PLINEGEN
 70
     1
  9
$PSLTSCALE
 70
     0
  0
ENDSEC
  0
SECTION
  2
TABLES
  0
TABLE
  2
VPORT
 70
     1
  0
VPORT
  2
*ACTIVE
 70
     0
 10
0.0
 20
0.0
 11
1.0
 21
1.0
 12
100.0000012572856
 22
135.68716971435171
 13
0.0
 23
0.0
 14
1.0
 24
1.0
 15
0.0
 25
0.0
 16
0.0
 26
0.0
 36
1.0
 17
0.0
 27
0.0
 37
0.0
 40
808.66471724862458
 41
1.964329643296433
 42
50.0
 43
0.0
 44
0.0
 50
0.0
 51
0.0
 71
     0
 72
  2000
 73
     1
 74
     1
 75
     0
 76
     0
 77
     0
 78
     0
  0
ENDTAB
  0
TABLE
  2
LTYPE
 70
    11
  0
LTYPE
  2
CONTINUOUS
 70
     0
  3
Solid line
 72
    65
 73
     0
 40
0.0
  0
ENDTAB
  0
TABLE
  2
LAYER
 70
     5
  0
LAYER
  2
0
 70
     0
 62
     7
  6
CONTINUOUS
  0
LAYER
  2
DATA
 70
     0
 62
     7
  6
CONTINUOUS
  0
LAYER
  2
HIBINO-BASE
 70
     0
 62
     7
  6
CONTINUOUS
  0
LAYER
  2
SPEC
 70
     0
 62
     7
  6
CONTINUOUS
  0
LAYER
  2
DIMNSIONS
 70
     0
 62
     7
  6
CONTINUOUS
  0
ENDTAB
  0
TABLE
  2
STYLE
 70
     3
  0
STYLE
  2
STANDARD
 70
     0
 40
0.0
 41
1.0
 50
0.0
 71
     0
 42
0.0
  3
txt
  4
BIGFONT.SHX
  0
ENDTAB
  0
TABLE
  2
VIEW
 70
     0
  0
ENDTAB
  0
TABLE
  2
UCS
 70
     0
  0
ENDTAB
  0
TABLE
  2
APPID
 70
     3
  0
APPID
  2
ACAD
 70
     0
  0
APPID
  2
ACADANNOTATIVE
 70
     0
  0
APPID
  2
ACAD_MLEADERVER
 70
     0
  0
ENDTAB
  0
TABLE
  2
DIMSTYLE
 70
     2
  0
DIMSTYLE
  2
STANDARD
 70
     0
  3

  4

  5

  6

  7

 40
1.0
 41
0.18
 42
0.0625
 43
0.38
 44
0.18
 45
0.0
 46
0.0
 47
0.0
 48
0.0
140
0.18
141
0.09
142
0.0
143
25.399999999999999
144
1.0
145
0.0
146
1.0
147
0.09
 71
     0
 72
     0
 73
     1
 74
     1
 75
     0
 76
     0
 77
     0
 78
     0
170
     0
171
     2
172
     0
173
     0
174
     0
175
     0
176
     0
177
     0
178
     0
  0
ENDTAB
  0
ENDSEC
  0
SECTION
  2
BLOCKS
  0
BLOCK
  8
0
  2
$MODEL_SPACE
 70
     0
 10
0.0
 20
0.0
 30
0.0
  3
$MODEL_SPACE
  1

  0
ENDBLK
  5
339
  8
0
  0
BLOCK
 67
     1
  8
0
  2
$PAPER_SPACE
 70
     0
 10
0.0
 20
0.0
 30
0.0
  3
$PAPER_SPACE
  1

  0
ENDBLK
  5
335
 67
     1
  8
0
  0
ENDSEC
  0
SECTION
  2
ENTITIES
  0
LINE
  5
2C
  8
HIBINO-BASE
  6
CONTINUOUS
 62
     7
 10
-169.99999999999989
 20
537.03654909381032
 30
0.0
 11
370.0
 21
537.03654909381032
 31
0.0
  0
LINE
  5
2D
  8
HIBINO-BASE
  6
CONTINUOUS
 62
     7
 10
370.0
 20
-242.96345090618959
 30
0.0
 11
-169.99999999999989
 21
-242.96345090618959
 31
0.0
  0
LINE
  5
2E
  8
HIBINO-BASE
  6
CONTINUOUS
 62
     7
 10
-169.99999999999989
 20
-242.96345090618959
 30
0.0
 11
-169.99999999999989
 21
537.03654909381032
 31
0.0
  0
LINE
  5
2F
  8
HIBINO-BASE
  6
CONTINUOUS
 62
     7
 10
370.0
 20
537.03654909381032
 30
0.0
 11
370.0
 21
-242.96345090618959
 31
0.0
  0
LINE
  5
30
  8
HIBINO-BASE
  6
CONTINUOUS
 62
     7
 10
100.0
 20
-175.46345090618959
 30
0.0
 11
370.0
 21
-175.46345090618959
 31
0.0
  0
LINE
  5
31
  8
HIBINO-BASE
  6
CONTINUOUS
 62
     7
 10
100.0
 20
-242.96345090618959
 30
0.0
 11
100.0
 21
-175.46345090618959
 31
0.0
  0
TEXT
  5
32
  8
HIBINO-BASE
 62
     7
 10
102.7
 20
-182.98953090618949
 30
0.0
 40
4.8865234374999993
  1
NOTE
 41
0.7
 11
102.7
 21
-178.10300746868961
 31
0.0
 73
     3
  0
LINE
  5
33
  8
HIBINO-BASE
  6
CONTINUOUS
 62
     7
 10
205.0
 20
-242.96345090618959
 30
0.0
 11
205.0
 21
-175.46345090618959
 31
0.0
  0
TEXT
  5
34
  8
HIBINO-BASE
 62
     7
 10
207.69999999999999
 20
-182.98953090618949
 30
0.0
 40
4.8865234374999993
  1
TITLE
 41
0.7
 11
207.69999999999999
 21
-178.10300746868961
 31
0.0
 73
     3
  0
LINE
  5
35
  8
HIBINO-BASE
  6
CONTINUOUS
 62
     7
 10
100.0
 20
-212.96345090618951
 30
0.0
 11
370.0
 21
-212.96345090618951
 31
0.0
  0
TEXT
  5
36
  8
HIBINO-BASE
 62
     7
 10
245.19999999999999
 20
-220.3205709061896
 30
0.0
 40
4.8865234374999993
  1
DRAWN
 41
0.7
 11
245.19999999999999
 21
-215.43404746868961
 31
0.0
 73
     3
  0
TEXT
  5
37
  8
HIBINO-BASE
 62
     7
 10
170.19999999999999
 20
-220.3205709061896
 30
0.0
 40
4.8865234374999993
  1
DATE
 41
0.7
 11
170.19999999999999
 21
-215.43404746868961
 31
0.0
 73
     3
  0
TEXT
  5
38
  8
HIBINO-BASE
 62
     7
 10
140.19999999999999
 20
-220.3205709061896
 30
0.0
 40
4.8865234374999993
  1
SCALE
 41
0.7
 11
140.19999999999999
 21
-215.43404746868961
 31
0.0
 73
     3
  0
TEXT
  5
39
  8
HIBINO-BASE
 62
     7
 10
207.69999999999999
 20
-220.3205709061896
 30
0.0
 40
4.8865234374999993
  1
DESIGN
 41
0.7
 11
207.69999999999999
 21
-215.43404746868961
 31
0.0
 73
     3
  0
TEXT
  5
3A
  8
HIBINO-BASE
 62
     7
 10
320.19999999999999
 20
-220.3205709061896
 30
0.0
 40
4.8865234374999993
  1
DRAWING NO.
 41
0.7
 11
320.19999999999999
 21
-215.43404746868961
 31
0.0
 73
     3
  0
TEXT
  5
3B
  8
HIBINO-BASE
 62
     7
 10
282.69999999999999
 20
-220.3205709061896
 30
0.0
 40
4.8865234374999993
  1
CHECK
 41
0.7
 11
282.69999999999999
 21
-215.43404746868961
 31
0.0
 73
     3
  0
LINE
  5
3C
  8
HIBINO-BASE
  6
CONTINUOUS
 62
     7
 10
143.12499999999989
 20
-239.21345090618959
 30
0.0
 11
154.375
 21
-227.96345090618959
 31
0.0
  0
TEXT
  5
3D
  8
HIBINO-BASE
 62
     7
 10
141.24999999999989
 20
-231.29028090618951
 30
0.0
 40
4.8865234374999993
  1
1
 41
0.7
 11
141.24999999999989
 21
-226.40375746868961
 31
0.0
 73
     3
  0
LINE
  5
3E
  8
HIBINO-BASE
  6
CONTINUOUS
 62
     7
 10
137.5
 20
-242.96345090618959
 30
0.0
 11
137.5
 21
-212.96345090618951
 31
0.0
  0
LINE
  5
3F
  8
HIBINO-BASE
  6
CONTINUOUS
 62
     7
 10
167.5
 20
-242.96345090618959
 30
0.0
 11
167.5
 21
-212.96345090618951
 31
0.0
  0
LINE
  5
40
  8
HIBINO-BASE
  6
CONTINUOUS
 62
     7
 10
242.5
 20
-212.96345090618951
 30
0.0
 11
242.5
 21
-242.96345090618959
 31
0.0
  0
LINE
  5
41
  8
HIBINO-BASE
  6
CONTINUOUS
 62
     7
 10
317.5
 20
-212.96345090618951
 30
0.0
 11
317.5
 21
-242.96345090618959
 31
0.0
  0
LINE
  5
42
  8
HIBINO-BASE
  6
CONTINUOUS
 62
     7
 10
279.99999999999989
 20
-242.96345090618959
 30
0.0
 11
279.99999999999989
 21
-212.96345090618951
 31
0.0
  0
TEXT
  5
43
  8
HIBINO-BASE
 62
     7
 10
170.06961999999999
 20
-234.3725109061896
 30
0.0
 40
4.8865234374999993
  1
'09.06.
 41
0.7
 11
170.06961999999999
 21
-229.48598746868959
 31
0.0
 73
     3
  0
TEXT
  5
44
  8
HIBINO-BASE
 62
     7
 10
152.5
 20
-236.91528090618959
 30
0.0
 40
4.8865234374999993
  1
3
 41
0.7
 11
152.5
 21
-232.02875746868961
 31
0.0
 73
     3
  0
TEXT
  5
45
  8
HIBINO-BASE
 62
     7
 10
111.65000000000001
 20
-237.0354509061896
 30
0.0
 40
9.7730468749999986
  1
A4
 41
0.7
 11
111.65000000000001
 21
-227.26240403118959
 31
0.0
 73
     3
  0
TEXT
  5
46
  8
HIBINO-BASE
 62
     7
 10
102.875
 20
-220.82181590618961
 30
0.0
 40
4.8865234374999993
  1
PAPER SIZE
 41
0.7
 11
102.875
 21
-215.9352924686896
 31
0.0
 73
     3
  0
TEXT
  5
47
  8
HIBINO-BASE
 62
     7
 10
-161.25736775960559
 20
-262.14693152095401
 30
0.0
 40
10.58746744791666
  1
Hibino-Intersound Corporation
 41
0.7
 11
-161.25736775960559
 21
-251.5594640730373
 31
0.0
 73
     3
  0
TEXT
  5
48
  8
HIBINO-BASE
 62
     7
 10
161.9378998119634
 20
-261.21591451957607
 30
0.0
 40
10.58746744791666
  1
ヒビノインターサウンド株式会社
 41
0.7
 11
161.9378998119634
 21
-250.62844707165939
 31
0.0
 73
     3
  0
TEXT
  5
49
  8
HIBINO-BASE
 62
     7
 10
248.37601470145461
 20
-234.47802021449999
 30
0.0
 40
4.8865234374999993
  1
T.Ootake
 41
0.7
 11
248.37601470145461
 21
-229.591496777
 31
0.0
 73
     3
  0
LINE
  5
4A
  8
SPEC
  6
CONTINUOUS
 62
     7
 10
-147.49999999999989
 20
507.03654909381032
 30
0.0
 11
295.0
 21
507.03654909381032
 31
0.0
  0
LINE
  5
4B
  8
SPEC
  6
CONTINUOUS
 62
     7
 10
-147.49999999999989
 20
495.78654909381032
 30
0.0
 11
295.0
 21
495.78654909381032
 31
0.0
  0
LINE
  5
4C
  8
SPEC
  6
CONTINUOUS
 62
     7
 10
-147.49999999999989
 20
450.78654909381032
 30
0.0
 11
295.0
 21
450.78654909381032
 31
0.0
  0
LINE
  5
4D
  8
SPEC
  6
CONTINUOUS
 62
     7
 10
-147.49999999999989
 20
462.03654909381032
 30
0.0
 11
295.0
 21
462.03654909381032
 31
0.0
  0
LINE
  5
4E
  8
SPEC
  6
CONTINUOUS
 62
     7
 10
-147.49999999999989
 20
473.28654909381021
 30
0.0
 11
295.0
 21
473.28654909381021
 31
0.0
  0
LINE
  5
4F
  8
SPEC
  6
CONTINUOUS
 62
     7
 10
-147.49999999999989
 20
439.53654909381032
 30
0.0
 11
295.0
 21
439.53654909381032
 31
0.0
  0
LINE
  5
50
  8
SPEC
  6
CONTINUOUS
 62
     7
 10
-147.49999999999989
 20
417.03654909381021
 30
0.0
 11
295.0
 21
417.03654909381021
 31
0.0
  0
LINE
  5
51
  8
SPEC
  6
CONTINUOUS
 62
     7
 10
-147.49999999999989
 20
428.28654909381032
 30
0.0
 11
295.0
 21
428.28654909381032
 31
0.0
  0
LINE
  5
52
  8
SPEC
  6
CONTINUOUS
 62
     7
 10
-147.49999999999989
 20
405.78654909381032
 30
0.0
 11
295.0
 21
405.78654909381032
 31
0.0
  0
LINE
  5
53
  8
SPEC
  6
CONTINUOUS
 62
     7
 10
-147.49999999999989
 20
394.53654909381032
 30
0.0
 11
295.0
 21
394.53654909381032
 31
0.0
  0
LINE
  5
54
  8
SPEC
  6
CONTINUOUS
 62
     7
 10
-147.49999999999989
 20
484.53654909381032
 30
0.0
 11
295.0
 21
484.53654909381032
 31
0.0
  0
LINE
  5
55
  8
SPEC
  6
CONTINUOUS
 62
     7
 10
-147.49999999999989
 20
507.03654909381032
 30
0.0
 11
-147.49999999999989
 21
383.28654909381038
 31
0.0
  0
TEXT
  5
56
  8
SPEC
 62
     7
 10
-143.74999999999989
 20
511.2163590938103
 30
0.0
 40
7.3297851562499989
  1
仕様
 41
0.7
 11
-143.74999999999989
 21
518.54614425006025
 31
0.0
 73
     3
  0
LINE
  5
57
  8
SPEC
  6
CONTINUOUS
 62
     7
 10
-50.0
 20
507.03654909381032
 30
0.0
 11
-50.0
 21
383.28654909381038
 31
0.0
  0
LINE
  5
58
  8
SPEC
  6
CONTINUOUS
 62
     7
 10
295.0
 20
507.03654909381032
 30
0.0
 11
295.0
 21
383.28654909381038
 31
0.0
  0
TEXT
  5
59
  8
SPEC
 62
     7
 10
-144.80000000000001
 20
498.15031389381028
 30
0.0
 40
5.700933749999999
  1
形式
 41
0.7
 11
-144.80000000000001
 21
503.85124764381032
 31
0.0
 73
     3
  0
LINE
  5
5A
  8
SPEC
  6
CONTINUOUS
 62
     7
 10
-147.49999999999989
 20
383.28654909381038
 30
0.0
 11
295.0
 21
383.28654909381038
 31
0.0
  0
TEXT
  5
5B
  8
SPEC
 62
     7
 10
-47.29999999999999
 20
486.90031389381028
 30
0.0
 40
5.700933749999999
  1
165MHz
 41
0.7
 11
-47.29999999999999
 21
492.60124764381032
 31
0.0
 73
     3
  0
TEXT
  5
5C
  8
SPEC
 62
     7
 10
-144.80000000000001
 20
486.90031389381028
 30
0.0
 40
5.700933749999999
  1
入力ビデオ帯域
 41
0.7
 11
-144.80000000000001
 21
492.60124764381032
 31
0.0
 73
     3
  0
TEXT
  5
5D
  8
SPEC
 62
     7
 10
-47.500193091177422
 20
476.01066145792981
 30
0.0
 40
5.700933749999999
  1
1.485Gbps
 41
0.7
 11
-47.500193091177422
 21
481.71159520792969
 31
0.0
 73
     3
  0
TEXT
  5
5E
  8
SPEC
 62
     7
 10
-145.00321181926941
 20
476.25994935161918
 30
0.0
 40
5.700933749999999
  1
出力ビデオ帯域
 41
0.7
 11
-145.00321181926941
 21
481.96088310161912
 31
0.0
 73
     3
  0
TEXT
  5
5F
  8
SPEC
 62
     7
 10
-47.29999999999999
 20
464.40031389381028
 30
0.0
 40
5.700933749999999
  1
2048\U+00D71080
 41
0.7
 11
-47.29999999999999
 21
470.10124764381032
 31
0.0
 73
     3
  0
TEXT
  5
60
  8
SPEC
 62
     7
 10
-144.63704591669449
 20
464.7805400881893
 30
0.0
 40
5.700933749999999
  1
最大入力解像度
 41
0.7
 11
-144.63704591669449
 21
470.4814738381894
 31
0.0
 73
     3
  0
TEXT
  5
61
  8
SPEC
 62
     7
 10
-47.29999999999999
 20
453.15031389381028
 30
0.0
 40
5.700933749999999
  1
2048\U+00D71080P24
 41
0.7
 11
-47.29999999999999
 21
458.85124764381032
 31
0.0
 73
     3
  0
TEXT
  5
62
  8
SPEC
 62
     7
 10
-144.6365316635767
 20
453.66796362581778
 30
0.0
 40
5.700933749999999
  1
最大出力解像度
 41
0.7
 11
-144.6365316635767
 21
459.36889737581771
 31
0.0
 73
     3
  0
TEXT
  5
63
  8
SPEC
 62
     7
 10
-47.099333266058437
 20
442.30164736169343
 30
0.0
 40
5.700933749999999
  1
DVI-I 29pinメス(digital only)
 41
0.7
 11
-47.099333266058437
 21
448.00258111169342
 31
0.0
 73
     3
  0
TEXT
  5
64
  8
SPEC
 62
     7
 10
-144.63601578757061
 20
442.36493582902648
 30
0.0
 40
5.700933749999999
  1
DVIコネクタ ー
 41
0.7
 11
-144.63601578757061
 21
448.06586957902641
 31
0.0
 73
     3
  0
TEXT
  5
65
  8
SPEC
 62
     7
 10
-47.099016881820823
 20
431.29345987198371
 30
0.0
 40
5.700933749999999
  1
BNCメス
 41
0.7
 11
-47.099016881820823
 21
436.99439362198359
 31
0.0
 73
     3
  0
TEXT
  5
66
  8
SPEC
 62
     7
 10
-144.55363585907699
 20
431.03354700191318
 30
0.0
 40
5.700933749999999
  1
SDI/HD-SDI端子
 41
0.7
 11
-144.55363585907699
 21
436.73448075191322
 31
0.0
 73
     3
  0
TEXT
  5
67
  8
SPEC
 62
     7
 10
-46.998049998126518
 20
419.82304389643332
 30
0.0
 40
5.700933749999999
  1
Sereal RS-232
 41
0.7
 11
-46.998049998126518
 21
425.5239776464332
 31
0.0
 73
     3
  0
TEXT
  5
68
  8
SPEC
 62
     7
 10
-144.9856484603097
 20
419.77161081443012
 30
0.0
 40
5.700933749999999
  1
コントロール端子
 41
0.7
 11
-144.9856484603097
 21
425.47254456443011
 31
0.0
 73
     3
  0
TEXT
  5
69
  8
SPEC
 62
     7
 10
-144.92265341840491
 20
397.62519342884042
 30
0.0
 40
5.700933749999999
  1
寸法
 41
0.7
 11
-144.92265341840491
 21
403.3261271788403
 31
0.0
 73
     3
  0
TEXT
  5
6A
  8
SPEC
 62
     7
 10
-144.80792683368011
 20
386.2237506309682
 30
0.0
 40
5.700933749999999
  1
重量
 41
0.7
 11
-144.80792683368011
 21
391.92468438096819
 31
0.0
 73
     3
  0
TEXT
  5
6B
  8
SPEC
 62
     7
 10
-144.7770764574598
 20
408.73783328399441
 30
0.0
 40
5.700933749999999
  1
電源
 41
0.7
 11
-144.7770764574598
 21
414.43876703399428
 31
0.0
 73
     3
  0
TEXT
  5
6C
  8
SPEC
 62
     7
 10
-47.078538196841478
 20
408.40182633860672
 30
0.0
 40
5.700933749999999
  1
5V DC
 41
0.7
 11
-47.078538196841478
 21
414.10276008860671
 31
0.0
 73
     3
  0
TEXT
  5
6D
  8
SPEC
 62
     7
 10
-47.094888771794771
 20
397.49964956608068
 30
0.0
 40
5.7009440104166647
  1
214(W)\U+00D742(H)\U+00D7173(D)mm(突起部含まず)
 41
0.7
 11
-47.094888771794771
 21
403.20059357649728
 31
0.0
 73
     3
  0
TEXT
  5
6E
  8
SPEC
 62
     7
 10
-47.200095616703379
 20
386.4594109666898
 30
0.0
 40
5.7009440104166647
  1
約600g
 41
0.7
 11
-47.200095616703379
 21
392.16035497710652
 31
0.0
 73
     3
  0
TEXT
  5
6F
  8
SPEC
 62
     7
 10
-47.041828263476603
 20
498.36502536085681
 30
0.0
 40
5.7009440104166647
  1
DVI to HDSDIシングルリンクスケーラー
 41
0.7
 11
-47.041828263476603
 21
504.06596937127352
 31
0.0
 73
     3
  0
TEXT
  5
70
  8
DIMNSIONS
 62
     7
 10
40.0
 20
-206.15498090618959
 30
0.0
 40
7.3297851562499989
  1
(単位：mm)
 41
0.7
 11
40.0
 21
-198.82519574993961
 31
0.0
 73
     3
  0
LINE
  5
71
  8
DIMNSIONS
  6
CONTINUOUS
 62
     7
 10
-100.0
 20
-131.0
 30
0.0
 11
-100.0
 21
-156.0
 31
0.0
  0
LINE
  5
72
  8
DIMNSIONS
  6
CONTINUOUS
 62
     7
 10
114.0
 20
-131.0
 30
0.0
 11
114.0
 21
-156.0
 31
0.0
  0
LINE
  5
73
  8
DIMNSIONS
  6
CONTINUOUS
 62
     7
 10
-100.0
 20
-150.0
 30
0.0
 11
114.0
 21
-150.0
 31
0.0
  0
LINE
  5
74
  8
DIMNSIONS
  6
CONTINUOUS
 62
     7
 10
-100.0
 20
-150.0
 30
0.0
 11
-92.498132324218759
 21
-147.98988061454921
 31
0.0
  0
LINE
  5
75
  8
DIMNSIONS
  6
CONTINUOUS
 62
     7
 10
-100.0
 20
-150.0
 30
0.0
 11
-92.498132324218759
 21
-152.01011938545071
 31
0.0
  0
LINE
  5
76
  8
DIMNSIONS
  6
CONTINUOUS
 62
     7
 10
114.0
 20
-150.0
 30
0.0
 11
106.4981323242187
 21
-152.01011938545071
 31
0.0
  0
LINE
  5
77
  8
DIMNSIONS
  6
CONTINUOUS
 62
     7
 10
114.0
 20
-150.0
 30
0.0
 11
106.4981323242187
 21
-147.98988061454921
 31
0.0
  0
TEXT
  5
78
  8
DIMNSIONS
 62
     7
 10
-0.9375000000000145
 20
-147.01833333333329
 30
0.0
 40
8.1442057291666661
  1
214
 41
0.7
 11
-0.9375000000000142
 21
-138.87412760416669
 31
0.0
 73
     3
  0
LINE
  5
79
  8
DIMNSIONS
  6
CONTINUOUS
 62
     7
 10
-106.0
 20
-125.0
 30
0.0
 11
-131.0
 21
-125.0
 31
0.0
  0
LINE
  5
7A
  8
DIMNSIONS
  6
CONTINUOUS
 62
     7
 10
-106.0
 20
-83.0
 30
0.0
 11
-131.0
 21
-83.0
 31
0.0
  0
LINE
  5
7B
  8
DIMNSIONS
  6
CONTINUOUS
 62
     7
 10
-125.0
 20
-125.0
 30
0.0
 11
-125.0
 21
-83.0
 31
0.0
  0
LINE
  5
7C
  8
DIMNSIONS
  6
CONTINUOUS
 62
     7
 10
-125.0
 20
-125.0
 30
0.0
 11
-127.01011938545069
 21
-117.4981323242187
 31
0.0
  0
LINE
  5
7D
  8
DIMNSIONS
  6
CONTINUOUS
 62
     7
 10
-125.0
 20
-125.0
 30
0.0
 11
-122.98988061454919
 21
-117.4981323242187
 31
0.0
  0
LINE
  5
7E
  8
DIMNSIONS
  6
CONTINUOUS
 62
     7
 10
-125.0
 20
-83.0
 30
0.0
 11
-122.98988061454919
 21
-90.501867675781227
 31
0.0
  0
LINE
  5
7F
  8
DIMNSIONS
  6
CONTINUOUS
 62
     7
 10
-125.0
 20
-83.0
 30
0.0
 11
-127.01011938545069
 21
-90.501867675781227
 31
0.0
  0
TEXT
  5
80
  8
DIMNSIONS
 62
     7
 10
-127.9816666666666
 20
-109.2916666666666
 30
0.0
 40
8.1442057291666661
  1
42
 50
90.0
 41
0.7
 11
-136.12587239583331
 21
-109.2916666666666
 31
0.0
 73
     3
  0
LINE
  5
81
  8
DIMNSIONS
  6
CONTINUOUS
 62
     7
 10
-95.900000000000006
 20
-128.99889641733631
 30
0.0
 11
-131.0
 21
-128.99889641733631
 31
0.0
  0
LINE
  5
82
  8
DIMNSIONS
  6
CONTINUOUS
 62
     7
 10
-106.0
 20
-125.0
 30
0.0
 11
-131.0
 21
-125.0
 31
0.0
  0
LINE
  5
83
  8
DIMNSIONS
  6
CONTINUOUS
 62
     7
 10
-125.0
 20
-125.0
 30
0.0
 11
-125.0
 21
-128.99889641733631
 31
0.0
  0
LINE
  5
84
  8
DIMNSIONS
  6
CONTINUOUS
 62
     7
 10
-125.0
 20
-128.99889641733631
 30
0.0
 11
-125.0
 21
-142.79166666666671
 31
0.0
  0
LINE
  5
85
  8
DIMNSIONS
  6
CONTINUOUS
 62
     7
 10
-125.0
 20
-128.99889641733631
 30
0.0
 11
-122.98988061454919
 21
-136.50076409311751
 31
0.0
  0
LINE
  5
86
  8
DIMNSIONS
  6
CONTINUOUS
 62
     7
 10
-125.0
 20
-128.99889641733631
 30
0.0
 11
-127.01011938545069
 21
-136.50076409311751
 31
0.0
  0
LINE
  5
87
  8
DIMNSIONS
  6
CONTINUOUS
 62
     7
 10
-125.0
 20
-125.0
 30
0.0
 11
-125.0
 21
-110.0
 31
0.0
  0
LINE
  5
88
  8
DIMNSIONS
  6
CONTINUOUS
 62
     7
 10
-125.0
 20
-125.0
 30
0.0
 11
-127.01011938545069
 21
-117.4981323242187
 31
0.0
  0
LINE
  5
89
  8
DIMNSIONS
  6
CONTINUOUS
 62
     7
 10
-125.0
 20
-125.0
 30
0.0
 11
-122.98988061454919
 21
-117.4981323242187
 31
0.0
  0
TEXT
  5
8A
  8
DIMNSIONS
 62
     7
 10
-127.9816666666667
 20
-142.79166666666671
 30
0.0
 40
8.1442057291666661
  1
4
 50
90.0
 41
0.7
 11
-136.1258723958334
 21
-142.79166666666671
 31
0.0
 73
     3
  0
LINE
  5
8B
  8
DIMNSIONS
  6
CONTINUOUS
 62
     7
 10
-106.0
 20
-50.0
 30
0.0
 11
-131.0
 21
-50.0
 31
0.0
  0
LINE
  5
8C
  8
DIMNSIONS
  6
CONTINUOUS
 62
     7
 10
-106.0
 20
123.0
 30
0.0
 11
-131.0
 21
123.0
 31
0.0
  0
LINE
  5
8D
  8
DIMNSIONS
  6
CONTINUOUS
 62
     7
 10
-125.0
 20
-50.0
 30
0.0
 11
-125.0
 21
123.0
 31
0.0
  0
LINE
  5
8E
  8
DIMNSIONS
  6
CONTINUOUS
 62
     7
 10
-125.0
 20
-50.0
 30
0.0
 11
-127.01011938545069
 21
-42.498132324218737
 31
0.0
  0
LINE
  5
8F
  8
DIMNSIONS
  6
CONTINUOUS
 62
     7
 10
-125.0
 20
-50.0
 30
0.0
 11
-122.98988061454919
 21
-42.498132324218737
 31
0.0
  0
LINE
  5
90
  8
DIMNSIONS
  6
CONTINUOUS
 62
     7
 10
-125.0
 20
123.0
 30
0.0
 11
-122.98988061454919
 21
115.4981323242187
 31
0.0
  0
LINE
  5
91
  8
DIMNSIONS
  6
CONTINUOUS
 62
     7
 10
-125.0
 20
123.0
 30
0.0
 11
-127.01011938545069
 21
115.4981323242187
 31
0.0
  0
TEXT
  5
92
  8
DIMNSIONS
 62
     7
 10
-127.9816666666666
 20
28.5625
 30
0.0
 40
8.1442057291666661
  1
173
 50
90.0
 41
0.7
 11
-136.12587239583331
 21
28.5625
 31
0.0
 73
     3
  0
LINE
  5
93
  8
DIMNSIONS
  6
CONTINUOUS
 62
     7
 10
-106.0
 20
123.0
 30
0.0
 11
-131.0
 21
123.0
 31
0.0
  0
LINE
  5
94
  8
DIMNSIONS
  6
CONTINUOUS
 62
     7
 10
-62.91115689432435
 20
139.0
 30
0.0
 11
-131.0
 21
139.0
 31
0.0
  0
LINE
  5
95
  8
DIMNSIONS
  6
CONTINUOUS
 62
     7
 10
-125.0
 20
139.0
 30
0.0
 11
-125.0
 21
123.0
 31
0.0
  0
LINE
  5
96
  8
DIMNSIONS
  6
CONTINUOUS
 62
     7
 10
-125.0
 20
123.0
 30
0.0
 11
-125.0
 21
108.0
 31
0.0
  0
LINE
  5
97
  8
DIMNSIONS
  6
CONTINUOUS
 62
     7
 10
-125.0
 20
123.0
 30
0.0
 11
-122.98988061454919
 21
115.4981323242187
 31
0.0
  0
LINE
  5
98
  8
DIMNSIONS
  6
CONTINUOUS
 62
     7
 10
-125.0
 20
123.0
 30
0.0
 11
-127.01011938545069
 21
115.4981323242187
 31
0.0
  0
LINE
  5
99
  8
DIMNSIONS
  6
CONTINUOUS
 62
     7
 10
-125.0
 20
139.0
 30
0.0
 11
-125.0
 21
154.0
 31
0.0
  0
LINE
  5
9A
  8
DIMNSIONS
  6
CONTINUOUS
 62
     7
 10
-125.0
 20
139.0
 30
0.0
 11
-127.01011938545069
 21
146.5018676757812
 31
0.0
  0
LINE
  5
9B
  8
DIMNSIONS
  6
CONTINUOUS
 62
     7
 10
-125.0
 20
139.0
 30
0.0
 11
-122.98988061454919
 21
146.5018676757812
 31
0.0
  0
TEXT
  5
9C
  8
DIMNSIONS
 62
     7
 10
-127.9816666666666
 20
125.7083333333333
 30
0.0
 40
8.1442057291666661
  1
16
 50
90.0
 41
0.7
 11
-136.12587239583331
 21
125.7083333333333
 31
0.0
 73
     3
  0
TEXT
  5
9D
  8
DATA
 62
     7
 10
-139.99999999999989
 20
-230.24945090618959
 30
0.0
 40
4.8865234374999993
  1
仕様および外観は予告なく変更されることがありますので、ご了承ください。
 41
0.7
 11
-139.99999999999989
 21
-225.36292746868961
 31
0.0
 73
     3
  0
CIRCLE
  5
9E
  8
DATA
  6
CONTINUOUS
 62
     7
 10
76.997004827446588
 20
224.9852290927322
 30
0.0
 40
3.8000000000000318
  0
POLYLINE
  5
9F
  8
DATA
  6
CONTINUOUS
 62
     7
 66
     1
 10
0.0
 20
0.0
 30
0.0
 70
     1
  0
VERTEX
  5
365
  8
DATA
  6
CONTINUOUS
 62
     7
 10
72.297004827446614
 20
222.27168282754101
 30
0.0
  0
VERTEX
  5
366
  8
DATA
  6
CONTINUOUS
 62
     7
 10
76.997004827446588
 20
219.55813656234969
 30
0.0
  0
VERTEX
  5
367
  8
DATA
  6
CONTINUOUS
 62
     7
 10
81.697004827446619
 20
222.27168282754101
 30
0.0
  0
VERTEX
  5
368
  8
DATA
  6
CONTINUOUS
 62
     7
 10
81.697004827446619
 20
227.69877535792349
 30
0.0
  0
VERTEX
  5
369
  8
DATA
  6
CONTINUOUS
 62
     7
 10
76.997004827446588
 20
230.41232162311471
 30
0.0
  0
VERTEX
  5
36A
  8
DATA
  6
CONTINUOUS
 62
     7
 10
72.297004827446614
 20
227.69877535792349
 30
0.0
  0
SEQEND
  5
36B
  8
DATA
  6
CONTINUOUS
 62
     7
  0
CIRCLE
  5
A8
  8
DATA
  6
CONTINUOUS
 62
     7
 10
76.997004827446588
 20
224.9852290927322
 30
0.0
 40
0.4000000000000057
  0
LINE
  5
A9
  8
DATA
  6
CONTINUOUS
 62
     7
 10
-100.0
 20
-125.0
 30
0.0
 11
114.0
 21
-125.0
 31
0.0
  0
LINE
  5
AA
  8
DATA
  6
CONTINUOUS
 62
     7
 10
-100.0
 20
-83.0
 30
0.0
 11
114.0
 21
-83.0
 31
0.0
  0
LINE
  5
AB
  8
DATA
  6
CONTINUOUS
 62
     7
 10
-100.0
 20
-125.0
 30
0.0
 11
-100.0
 21
-83.0
 31
0.0
  0
LINE
  5
AC
  8
DATA
  6
CONTINUOUS
 62
     7
 10
-100.0
 20
-50.0
 30
0.0
 11
-100.0
 21
123.0
 31
0.0
  0
LINE
  5
AD
  8
DATA
  6
CONTINUOUS
 62
     7
 10
-100.0
 20
-50.0
 30
0.0
 11
114.0
 21
-50.0
 31
0.0
  0
LINE
  5
AE
  8
DATA
  6
CONTINUOUS
 62
     7
 10
-100.0
 20
123.0
 30
0.0
 11
114.0
 21
123.0
 31
0.0
  0
LINE
  5
AF
  8
DATA
  6
CONTINUOUS
 62
     7
 10
114.0
 20
-125.0
 30
0.0
 11
114.0
 21
-83.0
 31
0.0
  0
LINE
  5
B0
  8
DATA
  6
CONTINUOUS
 62
     7
 10
114.0
 20
-50.0
 30
0.0
 11
114.0
 21
123.0
 31
0.0
  0
LINE
  5
B1
  8
DATA
  6
CONTINUOUS
 62
     7
 10
150.0
 20
-125.0
 30
0.0
 11
150.0
 21
-83.0
 31
0.0
  0
LINE
  5
B2
  8
DATA
  6
CONTINUOUS
 62
     7
 10
150.0
 20
-83.0
 30
0.0
 11
323.0
 21
-83.0
 31
0.0
  0
LINE
  5
B3
  8
DATA
  6
CONTINUOUS
 62
     7
 10
150.0
 20
-125.0
 30
0.0
 11
323.0
 21
-125.0
 31
0.0
  0
LINE
  5
B4
  8
DATA
  6
CONTINUOUS
 62
     7
 10
323.0
 20
-125.0
 30
0.0
 11
323.0
 21
-83.0
 31
0.0
  0
ARC
  5
B5
  8
DATA
  6
CONTINUOUS
 62
     7
 10
-90.000000000000014
 20
-124.46875
 30
0.0
 40
4.53125
 50
186.73292132685961
 51
353.26707867314042
  0
ARC
  5
B6
  8
DATA
  6
CONTINUOUS
 62
     7
 10
104.0
 20
-124.46875
 30
0.0
 40
4.5312499999999707
 50
186.73292132685961
 51
353.26707867314047
  0
LINE
  5
B7
  8
DATA
  6
CONTINUOUS
 62
     7
 10
-100.0
 20
-42.800000000000011
 30
0.0
 11
114.0
 21
-42.800000000000011
 31
0.0
  0
LINE
  5
B8
  8
DATA
  6
CONTINUOUS
 62
     7
 10
-74.700000000000003
 20
-125.0
 30
0.0
 11
-47.29999999999999
 21
-125.0
 31
0.0
  0
CIRCLE
  5
B9
  8
DATA
  6
CONTINUOUS
 62
     7
 10
-61.102755572389938
 20
-110.0
 30
0.0
 40
2.5
  0
TEXT
  5
BA
  8
DATA
 62
     7
 10
-62.581423210754842
 20
-121.920045471799
 30
0.0
 40
2.4432617187500001
  1
IR
 41
0.7
 11
-62.581423210754842
 21
-119.47678375304901
 31
0.0
 73
     3
  0
CIRCLE
  5
BB
  8
DATA
  6
CONTINUOUS
 62
     7
 10
73.964683812398377
 20
-110.0
 30
0.0
 40
1.4499999999999491
  0
TEXT
  5
BC
  8
DATA
 62
     7
 10
70.017124657307647
 20
-121.920045471799
 30
0.0
 40
2.4432617187500001
  1
Rower
 41
0.7
 11
70.017124657307647
 21
-119.47678375304901
 31
0.0
 73
     3
  0
ARC
  5
BD
  8
DATA
  6
CONTINUOUS
 62
     7
 10
150.38982054306669
 20
-110.0
 30
0.0
 40
1.449999999999994
 50
105.595356083852
 51
254.40464391614799
  0
TEXT
  5
BE
  8
DATA
 62
     7
 10
37.103717833944003
 20
-99.224988337061717
 30
0.0
 40
9.7730468749999986
  1
DVI
 41
0.7
 11
37.103717833944003
 21
-89.451941462061725
 31
0.0
 73
     3
  0
TEXT
  5
BF
  8
DATA
 62
     7
 10
59.744799451156283
 20
-99.253247811923345
 30
0.0
 40
6.5153645833333318
  1
to
 41
0.7
 11
59.744799451156283
 21
-92.737883228590007
 31
0.0
 73
     3
  0
TEXT
  5
C0
  8
DATA
 62
     7
 10
73.001645366893172
 20
-99.224988337061717
 30
0.0
 40
9.7730468749999986
  1
HDSDI
 41
0.7
 11
73.001645366893172
 21
-89.451941462061725
 31
0.0
 73
     3
  0
TEXT
  5
C1
  8
DATA
 62
     7
 10
36.121586599464678
 20
-109.0245184646179
 30
0.0
 40
6.5153645833333318
  1
Scaler
 41
0.7
 11
36.121586599464678
 21
-102.5091538812846
 31
0.0
 73
     3
  0
LINE
  5
C2
  8
DATA
  6
CONTINUOUS
 62
     7
 10
-100.0
 20
242.0
 30
0.0
 11
114.0
 21
242.0
 31
0.0
  0
LINE
  5
C3
  8
DATA
  6
CONTINUOUS
 62
     7
 10
-100.0
 20
200.0
 30
0.0
 11
114.0
 21
200.0
 31
0.0
  0
LINE
  5
C4
  8
DATA
  6
CONTINUOUS
 62
     7
 10
-100.0
 20
242.0
 30
0.0
 11
-100.0
 21
200.0
 31
0.0
  0
LINE
  5
C5
  8
DATA
  6
CONTINUOUS
 62
     7
 10
114.0
 20
242.0
 30
0.0
 11
114.0
 21
200.0
 31
0.0
  0
ARC
  5
C6
  8
DATA
  6
CONTINUOUS
 62
     7
 10
-90.000000000000014
 20
241.46875
 30
0.0
 40
4.5312499999999707
 50
6.7329213268596453
 51
173.26707867314039
  0
ARC
  5
C7
  8
DATA
  6
CONTINUOUS
 62
     7
 10
104.0
 20
241.46875
 30
0.0
 40
4.53125
 50
6.7329213268596009
 51
173.26707867314039
  0
TEXT
  5
C8
  8
DATA
 62
     7
 10
81.428388914709373
 20
238.9937158423503
 30
0.0
 40
2.8504720052083319
  1
5 VDC
 50
180.0
 41
0.7
 11
81.428388914709373
 21
236.14324383714199
 31
0.0
 73
     3
  0
LINE
  5
C9
  8
DATA
  6
CONTINUOUS
 62
     7
 10
-56.91115689432435
 20
139.0
 30
0.0
 11
-47.412089022497419
 21
139.0
 31
0.0
  0
LINE
  5
CA
  8
DATA
  6
CONTINUOUS
 62
     7
 10
-60.244445051809357
 20
128.0
 30
0.0
 11
-44.079732993185488
 21
128.0
 31
0.0
  0
LINE
  5
CB
  8
DATA
  6
CONTINUOUS
 62
     7
 10
-60.244445051809357
 20
128.0
 30
0.0
 11
-60.244445051809357
 21
123.0
 31
0.0
  0
LINE
  5
CC
  8
DATA
  6
CONTINUOUS
 62
     7
 10
-44.079732993185488
 20
128.0
 30
0.0
 11
-44.079732993185488
 21
123.0
 31
0.0
  0
LINE
  5
CD
  8
DATA
  6
CONTINUOUS
 62
     7
 10
-56.91115689432435
 20
139.0
 30
0.0
 11
-56.91115689432435
 21
128.0
 31
0.0
  0
LINE
  5
CE
  8
DATA
  6
CONTINUOUS
 62
     7
 10
-47.412089022497419
 20
139.0
 30
0.0
 11
-47.412089022497419
 21
128.0
 31
0.0
  0
POLYLINE
  5
CF
  8
DATA
  6
CONTINUOUS
 62
     7
 66
     1
 10
0.0
 20
0.0
 30
0.0
  0
VERTEX
  5
36C
  8
DATA
  6
CONTINUOUS
 62
     7
 10
-56.91115689432435
 20
133.90000000000001
 30
0.0
  0
VERTEX
  5
36D
  8
DATA
  6
CONTINUOUS
 62
     7
 10
-57.762089022497449
 20
133.90000000000001
 30
0.0
  0
VERTEX
  5
36E
  8
DATA
  6
CONTINUOUS
 62
     7
 10
-57.762089022497449
 20
135.09999999999999
 30
0.0
  0
VERTEX
  5
36F
  8
DATA
  6
CONTINUOUS
 62
     7
 10
-56.91115689432435
 20
135.09999999999999
 30
0.0
  0
SEQEND
  5
370
  8
DATA
  6
CONTINUOUS
 62
     7
  0
POLYLINE
  5
D6
  8
DATA
  6
CONTINUOUS
 62
     7
 66
     1
 10
0.0
 20
0.0
 30
0.0
  0
VERTEX
  5
371
  8
DATA
  6
CONTINUOUS
 62
     7
 10
-47.412089022497419
 20
135.09999999999999
 30
0.0
  0
VERTEX
  5
372
  8
DATA
  6
CONTINUOUS
 62
     7
 10
-46.562089022497403
 20
135.09999999999999
 30
0.0
  0
VERTEX
  5
373
  8
DATA
  6
CONTINUOUS
 62
     7
 10
-46.562089022497403
 20
133.90000000000001
 30
0.0
  0
VERTEX
  5
374
  8
DATA
  6
CONTINUOUS
 62
     7
 10
-47.412089022497419
 20
133.90000000000001
 30
0.0
  0
SEQEND
  5
375
  8
DATA
  6
CONTINUOUS
 62
     7
  0
LINE
  5
DD
  8
DATA
  6
CONTINUOUS
 62
     7
 10
57.594979607191028
 20
127.5000000003607
 30
0.0
 11
52.918442426754957
 21
127.5000000003607
 31
0.0
  0
LINE
  5
DE
  8
DATA
  6
CONTINUOUS
 62
     7
 10
51.658607238291673
 20
127.5000000003607
 30
0.0
 11
33.837734240192418
 21
127.5000000003607
 31
0.0
  0
LINE
  5
DF
  8
DATA
  6
CONTINUOUS
 62
     7
 10
57.594979607191028
 20
127.5000000003607
 30
0.0
 11
57.594979607191028
 21
123.0
 31
0.0
  0
LINE
  5
E0
  8
DATA
  6
CONTINUOUS
 62
     7
 10
32.594979607191071
 20
127.5000000003607
 30
0.0
 11
32.594979607191071
 21
123.0
 31
0.0
  0
LINE
  5
E1
  8
DATA
  6
CONTINUOUS
 62
     7
 10
52.918442426754957
 20
127.5000000003607
 30
0.0
 11
52.918442426754957
 21
123.0
 31
0.0
  0
LINE
  5
E2
  8
DATA
  6
CONTINUOUS
 62
     7
 10
33.837734240192418
 20
127.5000000003607
 30
0.0
 11
33.837734240192418
 21
123.0
 31
0.0
  0
LINE
  5
E3
  8
DATA
  6
CONTINUOUS
 62
     7
 10
51.658607238291673
 20
127.5000000003607
 30
0.0
 11
51.658607238291673
 21
123.0
 31
0.0
  0
LINE
  5
E4
  8
DATA
  6
CONTINUOUS
 62
     7
 10
27.91844242675522
 20
127.5000000003607
 30
0.0
 11
27.91844242675522
 21
123.0
 31
0.0
  0
LINE
  5
E5
  8
DATA
  6
CONTINUOUS
 62
     7
 10
27.91844242675522
 20
127.5000000003607
 30
0.0
 11
32.594979607191071
 21
127.5000000003607
 31
0.0
  0
LINE
  5
E6
  8
DATA
  6
CONTINUOUS
 62
     7
 10
72.206774907282636
 20
124.8
 30
0.0
 11
72.206774907282636
 21
123.0
 31
0.0
  0
LINE
  5
E7
  8
DATA
  6
CONTINUOUS
 62
     7
 10
81.606774907282613
 20
124.8
 30
0.0
 11
81.606774907282613
 21
123.0
 31
0.0
  0
LINE
  5
E8
  8
DATA
  6
CONTINUOUS
 62
     7
 10
73.106774907282613
 20
129.0
 30
0.0
 11
73.106774907282613
 21
124.8
 31
0.0
  0
LINE
  5
E9
  8
DATA
  6
CONTINUOUS
 62
     7
 10
80.706774907282636
 20
129.0
 30
0.0
 11
80.706774907282636
 21
124.8
 31
0.0
  0
LINE
  5
EA
  8
DATA
  6
CONTINUOUS
 62
     7
 10
72.206774907282636
 20
124.8
 30
0.0
 11
81.606774907282627
 21
124.8
 31
0.0
  0
LINE
  5
EB
  8
DATA
  6
CONTINUOUS
 62
     7
 10
73.106774907282613
 20
129.0
 30
0.0
 11
80.706774907282636
 21
129.0
 31
0.0
  0
ARC
  5
EC
  8
DATA
  6
CONTINUOUS
 62
     7
 10
168.58800696536011
 20
-124.46875
 30
0.0
 40
4.5312499999999707
 50
186.73292132685961
 51
353.26707867314047
  0
ARC
  5
ED
  8
DATA
  6
CONTINUOUS
 62
     7
 10
304.41199303463981
 20
-124.46875
 30
0.0
 40
4.53125
 50
186.73292132685961
 51
353.26707867314042
  0
CIRCLE
  5
EE
  8
DATA
  6
CONTINUOUS
 62
     7
 10
163.40000000000001
 20
-119.0
 30
0.0
 40
2.4000000000000048
  0
LINE
  5
EF
  8
DATA
  6
CONTINUOUS
 62
     7
 10
162.28756443470181
 20
-119.0
 30
0.0
 11
164.71243556529819
 21
-119.0
 31
0.0
  0
LINE
  5
F0
  8
DATA
  6
CONTINUOUS
 62
     7
 10
163.5
 20
-120.21243556529819
 30
0.0
 11
163.5
 21
-117.78756443470181
 31
0.0
  0
LINE
  5
F1
  8
DATA
  6
CONTINUOUS
 62
     7
 10
162.28756443470181
 20
-119.0
 30
0.0
 11
164.71243556529819
 21
-119.0
 31
0.0
  0
CIRCLE
  5
F2
  8
DATA
  6
CONTINUOUS
 62
     7
 10
163.5
 20
-88.0
 30
0.0
 40
2.4000000000000048
  0
LINE
  5
F3
  8
DATA
  6
CONTINUOUS
 62
     7
 10
162.38756443470169
 20
-88.0
 30
0.0
 11
164.81243556529819
 21
-88.0
 31
0.0
  0
LINE
  5
F4
  8
DATA
  6
CONTINUOUS
 62
     7
 10
163.59999999999999
 20
-89.212435565298208
 30
0.0
 11
163.59999999999999
 21
-86.787564434701807
 31
0.0
  0
LINE
  5
F5
  8
DATA
  6
CONTINUOUS
 62
     7
 10
162.38756443470169
 20
-88.0
 30
0.0
 11
164.81243556529819
 21
-88.0
 31
0.0
  0
CIRCLE
  5
F6
  8
DATA
  6
CONTINUOUS
 62
     7
 10
233.90000000000001
 20
-119.0
 30
0.0
 40
2.3999999999999768
  0
LINE
  5
F7
  8
DATA
  6
CONTINUOUS
 62
     7
 10
232.78756443470181
 20
-119.0
 30
0.0
 11
235.21243556529819
 21
-119.0
 31
0.0
  0
LINE
  5
F8
  8
DATA
  6
CONTINUOUS
 62
     7
 10
234.0
 20
-120.21243556529819
 30
0.0
 11
234.0
 21
-117.78756443470181
 31
0.0
  0
LINE
  5
F9
  8
DATA
  6
CONTINUOUS
 62
     7
 10
232.78756443470181
 20
-119.0
 30
0.0
 11
235.21243556529819
 21
-119.0
 31
0.0
  0
CIRCLE
  5
FA
  8
DATA
  6
CONTINUOUS
 62
     7
 10
303.90000000000009
 20
-119.0
 30
0.0
 40
2.3999999999999768
  0
LINE
  5
FB
  8
DATA
  6
CONTINUOUS
 62
     7
 10
302.78756443470178
 20
-119.0
 30
0.0
 11
305.21243556529822
 21
-119.0
 31
0.0
  0
LINE
  5
FC
  8
DATA
  6
CONTINUOUS
 62
     7
 10
304.0
 20
-120.21243556529819
 30
0.0
 11
304.0
 21
-117.78756443470181
 31
0.0
  0
LINE
  5
FD
  8
DATA
  6
CONTINUOUS
 62
     7
 10
302.78756443470178
 20
-119.0
 30
0.0
 11
305.21243556529822
 21
-119.0
 31
0.0
  0
CIRCLE
  5
FE
  8
DATA
  6
CONTINUOUS
 62
     7
 10
180.0
 20
-89.0
 30
0.0
 40
1.6749999999999969
  0
CIRCLE
  5
FF
  8
DATA
  6
CONTINUOUS
 62
     7
 10
188.0
 20
-89.0
 30
0.0
 40
1.6749999999999969
  0
CIRCLE
  5
100
  8
DATA
  6
CONTINUOUS
 62
     7
 10
196.0
 20
-89.0
 30
0.0
 40
1.6749999999999969
  0
CIRCLE
  5
101
  8
DATA
  6
CONTINUOUS
 62
     7
 10
204.0
 20
-89.0
 30
0.0
 40
1.6749999999999969
  0
CIRCLE
  5
102
  8
DATA
  6
CONTINUOUS
 62
     7
 10
212.0
 20
-89.0
 30
0.0
 40
1.6749999999999969
  0
CIRCLE
  5
103
  8
DATA
  6
CONTINUOUS
 62
     7
 10
220.0
 20
-89.0
 30
0.0
 40
1.6749999999999969
  0
CIRCLE
  5
104
  8
DATA
  6
CONTINUOUS
 62
     7
 10
228.0
 20
-89.0
 30
0.0
 40
1.6750000000000109
  0
CIRCLE
  5
105
  8
DATA
  6
CONTINUOUS
 62
     7
 10
236.0
 20
-89.0
 30
0.0
 40
1.6750000000000109
  0
CIRCLE
  5
106
  8
DATA
  6
CONTINUOUS
 62
     7
 10
244.0
 20
-89.0
 30
0.0
 40
1.6750000000000109
  0
CIRCLE
  5
107
  8
DATA
  6
CONTINUOUS
 62
     7
 10
252.0
 20
-89.0
 30
0.0
 40
1.6750000000000109
  0
CIRCLE
  5
108
  8
DATA
  6
CONTINUOUS
 62
     7
 10
260.0
 20
-89.0
 30
0.0
 40
1.6750000000000109
  0
CIRCLE
  5
109
  8
DATA
  6
CONTINUOUS
 62
     7
 10
268.0
 20
-89.0
 30
0.0
 40
1.6750000000000109
  0
CIRCLE
  5
10A
  8
DATA
  6
CONTINUOUS
 62
     7
 10
180.0
 20
-93.0
 30
0.0
 40
1.6749999999999969
  0
CIRCLE
  5
10B
  8
DATA
  6
CONTINUOUS
 62
     7
 10
188.0
 20
-93.0
 30
0.0
 40
1.6749999999999969
  0
CIRCLE
  5
10C
  8
DATA
  6
CONTINUOUS
 62
     7
 10
196.0
 20
-93.0
 30
0.0
 40
1.6749999999999969
  0
CIRCLE
  5
10D
  8
DATA
  6
CONTINUOUS
 62
     7
 10
204.0
 20
-93.0
 30
0.0
 40
1.6749999999999969
  0
CIRCLE
  5
10E
  8
DATA
  6
CONTINUOUS
 62
     7
 10
212.0
 20
-93.0
 30
0.0
 40
1.6749999999999969
  0
CIRCLE
  5
10F
  8
DATA
  6
CONTINUOUS
 62
     7
 10
220.0
 20
-93.0
 30
0.0
 40
1.6749999999999969
  0
CIRCLE
  5
110
  8
DATA
  6
CONTINUOUS
 62
     7
 10
228.0
 20
-93.0
 30
0.0
 40
1.6750000000000109
  0
CIRCLE
  5
111
  8
DATA
  6
CONTINUOUS
 62
     7
 10
236.0
 20
-93.0
 30
0.0
 40
1.6750000000000109
  0
CIRCLE
  5
112
  8
DATA
  6
CONTINUOUS
 62
     7
 10
244.0
 20
-93.0
 30
0.0
 40
1.6750000000000109
  0
CIRCLE
  5
113
  8
DATA
  6
CONTINUOUS
 62
     7
 10
252.0
 20
-93.0
 30
0.0
 40
1.6750000000000109
  0
CIRCLE
  5
114
  8
DATA
  6
CONTINUOUS
 62
     7
 10
260.0
 20
-93.0
 30
0.0
 40
1.6750000000000109
  0
CIRCLE
  5
115
  8
DATA
  6
CONTINUOUS
 62
     7
 10
268.0
 20
-93.0
 30
0.0
 40
1.6750000000000109
  0
CIRCLE
  5
116
  8
DATA
  6
CONTINUOUS
 62
     7
 10
180.0
 20
-97.0
 30
0.0
 40
1.6749999999999969
  0
CIRCLE
  5
117
  8
DATA
  6
CONTINUOUS
 62
     7
 10
188.0
 20
-97.0
 30
0.0
 40
1.6749999999999969
  0
CIRCLE
  5
118
  8
DATA
  6
CONTINUOUS
 62
     7
 10
196.0
 20
-97.0
 30
0.0
 40
1.6749999999999969
  0
CIRCLE
  5
119
  8
DATA
  6
CONTINUOUS
 62
     7
 10
204.0
 20
-97.0
 30
0.0
 40
1.6749999999999969
  0
CIRCLE
  5
11A
  8
DATA
  6
CONTINUOUS
 62
     7
 10
212.0
 20
-97.0
 30
0.0
 40
1.6749999999999969
  0
CIRCLE
  5
11B
  8
DATA
  6
CONTINUOUS
 62
     7
 10
220.0
 20
-97.0
 30
0.0
 40
1.6749999999999969
  0
CIRCLE
  5
11C
  8
DATA
  6
CONTINUOUS
 62
     7
 10
228.0
 20
-97.0
 30
0.0
 40
1.6750000000000109
  0
CIRCLE
  5
11D
  8
DATA
  6
CONTINUOUS
 62
     7
 10
236.0
 20
-97.0
 30
0.0
 40
1.6750000000000109
  0
CIRCLE
  5
11E
  8
DATA
  6
CONTINUOUS
 62
     7
 10
244.0
 20
-97.0
 30
0.0
 40
1.6750000000000109
  0
CIRCLE
  5
11F
  8
DATA
  6
CONTINUOUS
 62
     7
 10
252.0
 20
-97.0
 30
0.0
 40
1.6750000000000109
  0
CIRCLE
  5
120
  8
DATA
  6
CONTINUOUS
 62
     7
 10
260.0
 20
-97.0
 30
0.0
 40
1.6750000000000109
  0
CIRCLE
  5
121
  8
DATA
  6
CONTINUOUS
 62
     7
 10
268.0
 20
-97.0
 30
0.0
 40
1.6750000000000109
  0
CIRCLE
  5
122
  8
DATA
  6
CONTINUOUS
 62
     7
 10
180.0
 20
-101.0
 30
0.0
 40
1.6749999999999969
  0
CIRCLE
  5
123
  8
DATA
  6
CONTINUOUS
 62
     7
 10
188.0
 20
-101.0
 30
0.0
 40
1.6749999999999969
  0
CIRCLE
  5
124
  8
DATA
  6
CONTINUOUS
 62
     7
 10
196.0
 20
-101.0
 30
0.0
 40
1.6749999999999969
  0
CIRCLE
  5
125
  8
DATA
  6
CONTINUOUS
 62
     7
 10
204.0
 20
-101.0
 30
0.0
 40
1.6749999999999969
  0
CIRCLE
  5
126
  8
DATA
  6
CONTINUOUS
 62
     7
 10
212.0
 20
-101.0
 30
0.0
 40
1.6749999999999969
  0
CIRCLE
  5
127
  8
DATA
  6
CONTINUOUS
 62
     7
 10
220.0
 20
-101.0
 30
0.0
 40
1.6749999999999969
  0
CIRCLE
  5
128
  8
DATA
  6
CONTINUOUS
 62
     7
 10
228.0
 20
-101.0
 30
0.0
 40
1.6750000000000109
  0
CIRCLE
  5
129
  8
DATA
  6
CONTINUOUS
 62
     7
 10
236.0
 20
-101.0
 30
0.0
 40
1.6750000000000109
  0
CIRCLE
  5
12A
  8
DATA
  6
CONTINUOUS
 62
     7
 10
244.0
 20
-101.0
 30
0.0
 40
1.6750000000000109
  0
CIRCLE
  5
12B
  8
DATA
  6
CONTINUOUS
 62
     7
 10
252.0
 20
-101.0
 30
0.0
 40
1.6750000000000109
  0
CIRCLE
  5
12C
  8
DATA
  6
CONTINUOUS
 62
     7
 10
260.0
 20
-101.0
 30
0.0
 40
1.6750000000000109
  0
CIRCLE
  5
12D
  8
DATA
  6
CONTINUOUS
 62
     7
 10
268.0
 20
-101.0
 30
0.0
 40
1.6750000000000109
  0
CIRCLE
  5
12E
  8
DATA
  6
CONTINUOUS
 62
     7
 10
176.0
 20
-91.0
 30
0.0
 40
1.6749999999999969
  0
CIRCLE
  5
12F
  8
DATA
  6
CONTINUOUS
 62
     7
 10
176.0
 20
-95.0
 30
0.0
 40
1.6749999999999969
  0
CIRCLE
  5
130
  8
DATA
  6
CONTINUOUS
 62
     7
 10
176.0
 20
-99.0
 30
0.0
 40
1.6749999999999969
  0
CIRCLE
  5
131
  8
DATA
  6
CONTINUOUS
 62
     7
 10
184.0
 20
-91.0
 30
0.0
 40
1.6749999999999969
  0
CIRCLE
  5
132
  8
DATA
  6
CONTINUOUS
 62
     7
 10
184.0
 20
-95.0
 30
0.0
 40
1.6749999999999969
  0
CIRCLE
  5
133
  8
DATA
  6
CONTINUOUS
 62
     7
 10
184.0
 20
-99.0
 30
0.0
 40
1.6749999999999969
  0
CIRCLE
  5
134
  8
DATA
  6
CONTINUOUS
 62
     7
 10
192.0
 20
-91.0
 30
0.0
 40
1.6749999999999969
  0
CIRCLE
  5
135
  8
DATA
  6
CONTINUOUS
 62
     7
 10
192.0
 20
-95.0
 30
0.0
 40
1.6749999999999969
  0
CIRCLE
  5
136
  8
DATA
  6
CONTINUOUS
 62
     7
 10
192.0
 20
-99.0
 30
0.0
 40
1.6749999999999969
  0
CIRCLE
  5
137
  8
DATA
  6
CONTINUOUS
 62
     7
 10
200.0
 20
-91.0
 30
0.0
 40
1.6749999999999969
  0
CIRCLE
  5
138
  8
DATA
  6
CONTINUOUS
 62
     7
 10
200.0
 20
-95.0
 30
0.0
 40
1.6749999999999969
  0
CIRCLE
  5
139
  8
DATA
  6
CONTINUOUS
 62
     7
 10
200.0
 20
-99.0
 30
0.0
 40
1.6749999999999969
  0
CIRCLE
  5
13A
  8
DATA
  6
CONTINUOUS
 62
     7
 10
208.0
 20
-91.0
 30
0.0
 40
1.6749999999999969
  0
CIRCLE
  5
13B
  8
DATA
  6
CONTINUOUS
 62
     7
 10
208.0
 20
-95.0
 30
0.0
 40
1.6749999999999969
  0
CIRCLE
  5
13C
  8
DATA
  6
CONTINUOUS
 62
     7
 10
208.0
 20
-99.0
 30
0.0
 40
1.6749999999999969
  0
CIRCLE
  5
13D
  8
DATA
  6
CONTINUOUS
 62
     7
 10
216.0
 20
-91.0
 30
0.0
 40
1.6749999999999969
  0
CIRCLE
  5
13E
  8
DATA
  6
CONTINUOUS
 62
     7
 10
216.0
 20
-95.0
 30
0.0
 40
1.6749999999999969
  0
CIRCLE
  5
13F
  8
DATA
  6
CONTINUOUS
 62
     7
 10
216.0
 20
-99.0
 30
0.0
 40
1.6749999999999969
  0
CIRCLE
  5
140
  8
DATA
  6
CONTINUOUS
 62
     7
 10
224.0
 20
-91.0
 30
0.0
 40
1.6750000000000109
  0
CIRCLE
  5
141
  8
DATA
  6
CONTINUOUS
 62
     7
 10
224.0
 20
-95.0
 30
0.0
 40
1.6750000000000109
  0
CIRCLE
  5
142
  8
DATA
  6
CONTINUOUS
 62
     7
 10
224.0
 20
-99.0
 30
0.0
 40
1.6750000000000109
  0
CIRCLE
  5
143
  8
DATA
  6
CONTINUOUS
 62
     7
 10
232.0
 20
-91.0
 30
0.0
 40
1.6750000000000109
  0
CIRCLE
  5
144
  8
DATA
  6
CONTINUOUS
 62
     7
 10
232.0
 20
-95.0
 30
0.0
 40
1.6750000000000109
  0
CIRCLE
  5
145
  8
DATA
  6
CONTINUOUS
 62
     7
 10
232.0
 20
-99.0
 30
0.0
 40
1.6750000000000109
  0
CIRCLE
  5
146
  8
DATA
  6
CONTINUOUS
 62
     7
 10
240.0
 20
-91.0
 30
0.0
 40
1.6750000000000109
  0
CIRCLE
  5
147
  8
DATA
  6
CONTINUOUS
 62
     7
 10
240.0
 20
-95.0
 30
0.0
 40
1.6750000000000109
  0
CIRCLE
  5
148
  8
DATA
  6
CONTINUOUS
 62
     7
 10
240.0
 20
-99.0
 30
0.0
 40
1.6750000000000109
  0
CIRCLE
  5
149
  8
DATA
  6
CONTINUOUS
 62
     7
 10
248.0
 20
-91.0
 30
0.0
 40
1.6750000000000109
  0
CIRCLE
  5
14A
  8
DATA
  6
CONTINUOUS
 62
     7
 10
248.0
 20
-95.0
 30
0.0
 40
1.6750000000000109
  0
CIRCLE
  5
14B
  8
DATA
  6
CONTINUOUS
 62
     7
 10
248.0
 20
-99.0
 30
0.0
 40
1.6750000000000109
  0
CIRCLE
  5
14C
  8
DATA
  6
CONTINUOUS
 62
     7
 10
256.0
 20
-91.0
 30
0.0
 40
1.6750000000000109
  0
CIRCLE
  5
14D
  8
DATA
  6
CONTINUOUS
 62
     7
 10
256.0
 20
-95.0
 30
0.0
 40
1.6750000000000109
  0
CIRCLE
  5
14E
  8
DATA
  6
CONTINUOUS
 62
     7
 10
256.0
 20
-99.0
 30
0.0
 40
1.6750000000000109
  0
CIRCLE
  5
14F
  8
DATA
  6
CONTINUOUS
 62
     7
 10
264.0
 20
-91.0
 30
0.0
 40
1.6750000000000109
  0
CIRCLE
  5
150
  8
DATA
  6
CONTINUOUS
 62
     7
 10
264.0
 20
-95.0
 30
0.0
 40
1.6750000000000109
  0
CIRCLE
  5
151
  8
DATA
  6
CONTINUOUS
 62
     7
 10
264.0
 20
-99.0
 30
0.0
 40
1.6750000000000109
  0
LINE
  5
152
  8
DATA
  6
CONTINUOUS
 62
     7
 10
339.00000000000011
 20
-102.333288157485
 30
0.0
 11
339.00000000000011
 21
-111.8323560293119
 31
0.0
  0
LINE
  5
153
  8
DATA
  6
CONTINUOUS
 62
     7
 10
328.00000000000011
 20
-99.000000000000057
 30
0.0
 11
328.00000000000011
 21
-103.09999999999999
 31
0.0
  0
LINE
  5
154
  8
DATA
  6
CONTINUOUS
 62
     7
 10
328.00000000000011
 20
-110.7
 30
0.0
 11
328.00000000000011
 21
-115.16471205862391
 31
0.0
  0
LINE
  5
155
  8
DATA
  6
CONTINUOUS
 62
     7
 10
328.00000000000011
 20
-99.000000000000057
 30
0.0
 11
323.0
 21
-99.000000000000057
 31
0.0
  0
LINE
  5
156
  8
DATA
  6
CONTINUOUS
 62
     7
 10
328.00000000000011
 20
-115.16471205862391
 30
0.0
 11
323.0
 21
-115.16471205862391
 31
0.0
  0
LINE
  5
157
  8
DATA
  6
CONTINUOUS
 62
     7
 10
339.00000000000011
 20
-102.333288157485
 30
0.0
 11
328.00000000000011
 21
-102.333288157485
 31
0.0
  0
LINE
  5
158
  8
DATA
  6
CONTINUOUS
 62
     7
 10
339.00000000000011
 20
-111.8323560293119
 30
0.0
 11
328.00000000000011
 21
-111.8323560293119
 31
0.0
  0
POLYLINE
  5
159
  8
DATA
  6
CONTINUOUS
 62
     7
 66
     1
 10
0.0
 20
0.0
 30
0.0
  0
VERTEX
  5
376
  8
DATA
  6
CONTINUOUS
 62
     7
 10
333.90000000000009
 20
-102.333288157485
 30
0.0
  0
VERTEX
  5
377
  8
DATA
  6
CONTINUOUS
 62
     7
 10
333.90000000000009
 20
-101.482356029312
 30
0.0
  0
VERTEX
  5
378
  8
DATA
  6
CONTINUOUS
 62
     7
 10
335.10000000000002
 20
-101.482356029312
 30
0.0
  0
VERTEX
  5
379
  8
DATA
  6
CONTINUOUS
 62
     7
 10
335.10000000000002
 20
-102.333288157485
 30
0.0
  0
SEQEND
  5
37A
  8
DATA
  6
CONTINUOUS
 62
     7
  0
POLYLINE
  5
160
  8
DATA
  6
CONTINUOUS
 62
     7
 66
     1
 10
0.0
 20
0.0
 30
0.0
  0
VERTEX
  5
37B
  8
DATA
  6
CONTINUOUS
 62
     7
 10
335.10000000000002
 20
-111.8323560293119
 30
0.0
  0
VERTEX
  5
37C
  8
DATA
  6
CONTINUOUS
 62
     7
 10
335.10000000000002
 20
-112.6823560293119
 30
0.0
  0
VERTEX
  5
37D
  8
DATA
  6
CONTINUOUS
 62
     7
 10
333.90000000000009
 20
-112.6823560293119
 30
0.0
  0
VERTEX
  5
37E
  8
DATA
  6
CONTINUOUS
 62
     7
 10
333.90000000000009
 20
-111.8323560293119
 30
0.0
  0
SEQEND
  5
37F
  8
DATA
  6
CONTINUOUS
 62
     7
  0
LINE
  5
167
  8
DATA
  6
CONTINUOUS
 62
     7
 10
324.77551569993773
 20
-102.2
 30
0.0
 11
323.0
 21
-102.2
 31
0.0
  0
LINE
  5
168
  8
DATA
  6
CONTINUOUS
 62
     7
 10
324.77551569993773
 20
-111.59999999999999
 30
0.0
 11
323.0
 21
-111.59999999999999
 31
0.0
  0
LINE
  5
169
  8
DATA
  6
CONTINUOUS
 62
     7
 10
328.97551569993772
 20
-103.09999999999999
 30
0.0
 11
324.77551569993773
 21
-103.09999999999999
 31
0.0
  0
LINE
  5
16A
  8
DATA
  6
CONTINUOUS
 62
     7
 10
328.97551569993772
 20
-110.7
 30
0.0
 11
324.77551569993773
 21
-110.7
 31
0.0
  0
LINE
  5
16B
  8
DATA
  6
CONTINUOUS
 62
     7
 10
324.77551569993773
 20
-102.2
 30
0.0
 11
324.77551569993773
 21
-111.59999999999999
 31
0.0
  0
LINE
  5
16C
  8
DATA
  6
CONTINUOUS
 62
     7
 10
328.97551569993772
 20
-103.09999999999999
 30
0.0
 11
328.97551569993772
 21
-110.7
 31
0.0
  0
LINE
  5
16D
  8
DATA
  6
CONTINUOUS
 62
     7
 10
327.00000000007589
 20
-96.600000000000037
 30
0.0
 11
323.00000000016712
 21
-96.600000000000037
 31
0.0
  0
LINE
  5
16E
  8
DATA
  6
CONTINUOUS
 62
     7
 10
323.00000000016712
 20
-91.399999999999963
 30
0.0
 11
327.00000000007589
 21
-91.399999999999963
 31
0.0
  0
LINE
  5
16F
  8
DATA
  6
CONTINUOUS
 62
     7
 10
327.00000000007589
 20
-98.0
 30
0.0
 11
323.00000000016712
 21
-98.0
 31
0.0
  0
LINE
  5
170
  8
DATA
  6
CONTINUOUS
 62
     7
 10
323.00000000016712
 20
-90.0
 30
0.0
 11
327.00000000007589
 21
-90.0
 31
0.0
  0
LINE
  5
171
  8
DATA
  6
CONTINUOUS
 62
     7
 10
327.00000000007589
 20
-90.0
 30
0.0
 11
327.00000000007589
 21
-98.0
 31
0.0
  0
ARC
  5
172
  8
DATA
  6
CONTINUOUS
 62
     7
 10
73.991995680054103
 20
-49.610179456691533
 30
0.0
 40
1.449999999999994
 50
195.59535608385201
 51
344.40464391614802
  0
TEXT
  5
173
  8
DATA
 62
     7
 10
249.5500000000001
 20
-209.75018477607051
 30
0.0
 40
7.3297851562499989
  1
EXT-DVI-2-HDSDISSL
 41
0.7
 11
249.5500000000001
 21
-202.4203996198205
 31
0.0
 73
     3
  0
TEXT
  5
174
  8
DATA
 62
     7
 10
249.66413013082831
 20
-185.93043427305719
 30
0.0
 40
7.3297851562499989
  1
Gefen
 41
0.7
 11
249.66413013082831
 21
-178.60064911680709
 31
0.0
 73
     3
  0
TEXT
  5
175
  8
DATA
 62
     7
 10
243.54050862484729
 20
-196.99713447426251
 30
0.0
 40
4.8865234374999993
  1
DVI to HDSDIシングルリンクスケーラー
 41
0.7
 11
243.54050862484729
 21
-192.11061103676261
 31
0.0
 73
     3
  0
CIRCLE
  5
176
  8
DATA
  6
CONTINUOUS
 62
     7
 10
-52.074382806962177
 20
226.24936856397849
 30
0.0
 40
4.75
  0
POLYLINE
  5
177
  8
DATA
  6
CONTINUOUS
 62
     7
 66
     1
 10
0.0
 20
0.0
 30
0.0
 70
     1
  0
VERTEX
  5
380
  8
DATA
  6
CONTINUOUS
 62
     7
 10
-59.074382806962191
 20
222.20791667965119
 30
0.0
  0
VERTEX
  5
381
  8
DATA
  6
CONTINUOUS
 62
     7
 10
-52.074382806962177
 20
218.16646479532369
 30
0.0
  0
VERTEX
  5
382
  8
DATA
  6
CONTINUOUS
 62
     7
 10
-45.074382806962177
 20
222.20791667965111
 30
0.0
  0
VERTEX
  5
383
  8
DATA
  6
CONTINUOUS
 62
     7
 10
-45.074382806962177
 20
230.29082044830591
 30
0.0
  0
VERTEX
  5
384
  8
DATA
  6
CONTINUOUS
 62
     7
 10
-52.074382806962177
 20
234.33227233263329
 30
0.0
  0
VERTEX
  5
385
  8
DATA
  6
CONTINUOUS
 62
     7
 10
-59.074382806962191
 20
230.29082044830591
 30
0.0
  0
SEQEND
  5
386
  8
DATA
  6
CONTINUOUS
 62
     7
  0
CIRCLE
  5
180
  8
DATA
  6
CONTINUOUS
 62
     7
 10
-52.074382806962177
 20
226.24936856397849
 30
0.0
 40
0.5
  0
CIRCLE
  5
181
  8
DATA
  6
CONTINUOUS
 62
     7
 10
-52.074382806962177
 20
226.24936856397849
 30
0.0
 40
8.0829037686547576
  0
TEXT
  5
182
  8
DATA
 62
     7
 10
-43.802349172158479
 20
238.99876002514131
 30
0.0
 40
2.8504720052083319
  1
HDSDI Out
 50
180.0
 41
0.7
 11
-43.802349172158479
 21
236.14828801993301
 31
0.0
 73
     3
  0
POLYLINE
  5
183
  8
DATA
  6
CONTINUOUS
 62
     7
 66
     1
 10
0.0
 20
0.0
 30
0.0
  0
VERTEX
  5
387
  8
DATA
  6
CONTINUOUS
 62
     7
 10
-56.786335692974177
 20
225.64936856397861
 30
0.0
  0
VERTEX
  5
388
  8
DATA
  6
CONTINUOUS
 62
     7
 10
-57.674382806962178
 20
225.64936856397861
 30
0.0
  0
VERTEX
  5
389
  8
DATA
  6
CONTINUOUS
 62
     7
 10
-57.674382806962178
 20
226.8493685639786
 30
0.0
  0
VERTEX
  5
38A
  8
DATA
  6
CONTINUOUS
 62
     7
 10
-56.786335692974177
 20
226.8493685639786
 30
0.0
  0
SEQEND
  5
38B
  8
DATA
  6
CONTINUOUS
 62
     7
  0
POLYLINE
  5
18A
  8
DATA
  6
CONTINUOUS
 62
     7
 66
     1
 10
0.0
 20
0.0
 30
0.0
  0
VERTEX
  5
38C
  8
DATA
  6
CONTINUOUS
 62
     7
 10
-47.362429920950177
 20
226.8493685639786
 30
0.0
  0
VERTEX
  5
38D
  8
DATA
  6
CONTINUOUS
 62
     7
 10
-46.474382806962197
 20
226.8493685639786
 30
0.0
  0
VERTEX
  5
38E
  8
DATA
  6
CONTINUOUS
 62
     7
 10
-46.474382806962197
 20
225.64936856397861
 30
0.0
  0
VERTEX
  5
38F
  8
DATA
  6
CONTINUOUS
 62
     7
 10
-47.362429920950177
 20
225.64936856397861
 30
0.0
  0
SEQEND
  5
390
  8
DATA
  6
CONTINUOUS
 62
     7
  0
CIRCLE
  5
191
  8
DATA
  6
CONTINUOUS
 62
     7
 10
31.49255485561747
 20
209.85080833675519
 30
0.0
 40
1.175000000000068
  0
POLYLINE
  5
192
  8
DATA
  6
CONTINUOUS
 62
     7
 66
     1
 10
0.0
 20
0.0
 30
0.0
 70
     1
  0
VERTEX
  5
391
  8
DATA
  6
CONTINUOUS
 62
     7
 10
31.49255485561747
 20
207.1508083367552
 30
0.0
  0
VERTEX
  5
392
  8
DATA
  6
CONTINUOUS
 62
     7
 10
33.830823445835392
 20
208.5008083367552
 30
0.0
  0
VERTEX
  5
393
  8
DATA
  6
CONTINUOUS
 62
     7
 10
33.830823445835392
 20
211.2008083367551
 30
0.0
  0
VERTEX
  5
394
  8
DATA
  6
CONTINUOUS
 62
     7
 10
31.49255485561747
 20
212.5508083367551
 30
0.0
  0
VERTEX
  5
395
  8
DATA
  6
CONTINUOUS
 62
     7
 10
29.154286265399431
 20
211.2008083367551
 30
0.0
  0
VERTEX
  5
396
  8
DATA
  6
CONTINUOUS
 62
     7
 10
29.154286265399431
 20
208.5008083367552
 30
0.0
  0
SEQEND
  5
397
  8
DATA
  6
CONTINUOUS
 62
     7
  0
CIRCLE
  5
19B
  8
DATA
  6
CONTINUOUS
 62
     7
 10
56.492554855617698
 20
209.85080833675519
 30
0.0
 40
1.175000000000068
  0
POLYLINE
  5
19C
  8
DATA
  6
CONTINUOUS
 62
     7
 66
     1
 10
0.0
 20
0.0
 30
0.0
 70
     1
  0
VERTEX
  5
398
  8
DATA
  6
CONTINUOUS
 62
     7
 10
56.492554855617698
 20
207.1508083367552
 30
0.0
  0
VERTEX
  5
399
  8
DATA
  6
CONTINUOUS
 62
     7
 10
58.83082344583562
 20
208.5008083367552
 30
0.0
  0
VERTEX
  5
39A
  8
DATA
  6
CONTINUOUS
 62
     7
 10
58.83082344583562
 20
211.2008083367551
 30
0.0
  0
VERTEX
  5
39B
  8
DATA
  6
CONTINUOUS
 62
     7
 10
56.492554855617698
 20
212.5508083367551
 30
0.0
  0
VERTEX
  5
39C
  8
DATA
  6
CONTINUOUS
 62
     7
 10
54.154286265399662
 20
211.2008083367551
 30
0.0
  0
VERTEX
  5
39D
  8
DATA
  6
CONTINUOUS
 62
     7
 10
54.154286265399662
 20
208.5008083367552
 30
0.0
  0
SEQEND
  5
39E
  8
DATA
  6
CONTINUOUS
 62
     7
  0
LINE
  5
1A5
  8
DATA
  6
CONTINUOUS
 62
     7
 10
38.390791645428983
 20
213.85080833675499
 30
0.0
 11
49.594318065806192
 21
213.85080833675499
 31
0.0
  0
LINE
  5
1A6
  8
DATA
  6
CONTINUOUS
 62
     7
 10
50.406818065806071
 20
205.85080833675519
 30
0.0
 11
37.578291645428962
 21
205.85080833675519
 31
0.0
  0
LINE
  5
1A7
  8
DATA
  6
CONTINUOUS
 62
     7
 10
50.977534913057738
 20
212.66693596913811
 30
0.0
 11
51.790034913057632
 21
207.46693596913821
 31
0.0
  0
LINE
  5
1A8
  8
DATA
  6
CONTINUOUS
 62
     7
 10
36.195074798177373
 20
207.46693596913821
 30
0.0
 11
37.007574798177387
 21
212.66693596913811
 31
0.0
  0
CIRCLE
  5
1A9
  8
DATA
  6
CONTINUOUS
 62
     7
 10
44.019184626092454
 20
208.21450016560149
 30
0.0
 40
0.5
  0
ARC
  5
1AA
  8
DATA
  6
CONTINUOUS
 62
     7
 10
50.406818065806071
 20
207.25080833675511
 30
0.0
 40
1.400000000000019
 50
270.0
 51
8.8806591505199872
  0
ARC
  5
1AB
  8
DATA
  6
CONTINUOUS
 62
     7
 10
37.578291645428962
 20
207.25080833675511
 30
0.0
 40
1.4000000000000501
 50
171.1193408494791
 51
270.0
  0
ARC
  5
1AC
  8
DATA
  6
CONTINUOUS
 62
     7
 10
49.594318065806192
 20
212.45080833675499
 30
0.0
 40
1.400000000000015
 50
8.8806591505193833
 51
89.999999999999986
  0
ARC
  5
1AD
  8
DATA
  6
CONTINUOUS
 62
     7
 10
38.390791645428983
 20
212.45080833675499
 30
0.0
 40
1.399999999999991
 50
90.0
 51
171.11934084947961
  0
LINE
  5
1AE
  8
DATA
  6
CONTINUOUS
 62
     7
 10
36.833750924963368
 20
215.85080833675499
 30
0.0
 11
51.151358786271658
 21
215.85080833675499
 31
0.0
  0
LINE
  5
1AF
  8
DATA
  6
CONTINUOUS
 62
     7
 10
52.170200506868028
 20
203.85080833675511
 30
0.0
 11
35.814909204366977
 21
203.85080833675511
 31
0.0
  0
LINE
  5
1B0
  8
DATA
  6
CONTINUOUS
 62
     7
 10
54.142045734011447
 20
206.1852128824662
 30
0.0
 11
52.728834967986288
 21
214.5183319733238
 31
0.0
  0
LINE
  5
1B1
  8
DATA
  6
CONTINUOUS
 62
     7
 10
33.843063977223721
 20
206.1852128824662
 30
0.0
 11
35.25627474324876
 21
214.5183319733238
 31
0.0
  0
ARC
  5
1B2
  8
DATA
  6
CONTINUOUS
 62
     7
 10
52.170200506868028
 20
205.85080833675519
 30
0.0
 40
2.0000000000000422
 50
270.0
 51
9.6251929436212986
  0
ARC
  5
1B3
  8
DATA
  6
CONTINUOUS
 62
     7
 10
35.814909204366977
 20
205.85080833675519
 30
0.0
 40
1.999999999999962
 50
170.37480705637799
 51
270.0
  0
ARC
  5
1B4
  8
DATA
  6
CONTINUOUS
 62
     7
 10
51.151358786271537
 20
214.250808336755
 30
0.0
 40
1.600000000000114
 50
9.6251929436206716
 51
89.999999999995936
  0
ARC
  5
1B5
  8
DATA
  6
CONTINUOUS
 62
     7
 10
36.833750924963368
 20
214.250808336755
 30
0.0
 40
1.5999999999999941
 50
90.0
 51
170.3748070563785
  0
CIRCLE
  5
1B6
  8
DATA
  6
CONTINUOUS
 62
     7
 10
46.519184626092454
 20
208.21450016560149
 30
0.0
 40
0.5
  0
CIRCLE
  5
1B7
  8
DATA
  6
CONTINUOUS
 62
     7
 10
49.019184626092454
 20
208.21450016560149
 30
0.0
 40
0.5
  0
CIRCLE
  5
1B8
  8
DATA
  6
CONTINUOUS
 62
     7
 10
41.519184626092454
 20
208.21450016560149
 30
0.0
 40
0.5
  0
CIRCLE
  5
1B9
  8
DATA
  6
CONTINUOUS
 62
     7
 10
39.019184626092454
 20
208.21450016560149
 30
0.0
 40
0.5
  0
CIRCLE
  5
1BA
  8
DATA
  6
CONTINUOUS
 62
     7
 10
45.214695802163753
 20
211.83302058436411
 30
0.0
 40
0.5
  0
CIRCLE
  5
1BB
  8
DATA
  6
CONTINUOUS
 62
     7
 10
47.714695802163753
 20
211.83302058436411
 30
0.0
 40
0.5
  0
CIRCLE
  5
1BC
  8
DATA
  6
CONTINUOUS
 62
     7
 10
42.71469580216376
 20
211.83302058436411
 30
0.0
 40
0.5
  0
CIRCLE
  5
1BD
  8
DATA
  6
CONTINUOUS
 62
     7
 10
40.21469580216376
 20
211.83302058436411
 30
0.0
 40
0.5
  0
TEXT
  5
1BE
  8
DATA
 62
     7
 10
49.179429172907533
 20
219.34573001359271
 30
0.0
 40
2.4432617187500001
  1
RS-232
 50
180.0
 41
0.7
 11
49.179429172907533
 21
216.90246829484269
 31
0.0
 73
     3
  0
CIRCLE
  5
1BF
  8
DATA
  6
CONTINUOUS
 62
     7
 10
60.449717476745512
 20
226.1501676684785
 30
0.0
 40
1.175000000000068
  0
POLYLINE
  5
1C0
  8
DATA
  6
CONTINUOUS
 62
     7
 66
     1
 10
0.0
 20
0.0
 30
0.0
 70
     1
  0
VERTEX
  5
39F
  8
DATA
  6
CONTINUOUS
 62
     7
 10
60.449717476745512
 20
223.4501676684786
 30
0.0
  0
VERTEX
  5
3A0
  8
DATA
  6
CONTINUOUS
 62
     7
 10
62.787986066963427
 20
224.80016766847859
 30
0.0
  0
VERTEX
  5
3A1
  8
DATA
  6
CONTINUOUS
 62
     7
 10
62.787986066963427
 20
227.50016766847861
 30
0.0
  0
VERTEX
  5
3A2
  8
DATA
  6
CONTINUOUS
 62
     7
 10
60.449717476745512
 20
228.8501676684786
 30
0.0
  0
VERTEX
  5
3A3
  8
DATA
  6
CONTINUOUS
 62
     7
 10
58.111448886527491
 20
227.50016766847861
 30
0.0
  0
VERTEX
  5
3A4
  8
DATA
  6
CONTINUOUS
 62
     7
 10
58.111448886527491
 20
224.80016766847859
 30
0.0
  0
SEQEND
  5
3A5
  8
DATA
  6
CONTINUOUS
 62
     7
  0
CIRCLE
  5
1C9
  8
DATA
  6
CONTINUOUS
 62
     7
 10
27.949717476744979
 20
226.1501676684785
 30
0.0
 40
1.175000000000068
  0
POLYLINE
  5
1CA
  8
DATA
  6
CONTINUOUS
 62
     7
 66
     1
 10
0.0
 20
0.0
 30
0.0
 70
     1
  0
VERTEX
  5
3A6
  8
DATA
  6
CONTINUOUS
 62
     7
 10
27.949717476744979
 20
223.4501676684786
 30
0.0
  0
VERTEX
  5
3A7
  8
DATA
  6
CONTINUOUS
 62
     7
 10
30.287986066962901
 20
224.80016766847859
 30
0.0
  0
VERTEX
  5
3A8
  8
DATA
  6
CONTINUOUS
 62
     7
 10
30.287986066962901
 20
227.50016766847861
 30
0.0
  0
VERTEX
  5
3A9
  8
DATA
  6
CONTINUOUS
 62
     7
 10
27.949717476744979
 20
228.8501676684786
 30
0.0
  0
VERTEX
  5
3AA
  8
DATA
  6
CONTINUOUS
 62
     7
 10
25.611448886526951
 20
227.50016766847861
 30
0.0
  0
VERTEX
  5
3AB
  8
DATA
  6
CONTINUOUS
 62
     7
 10
25.611448886526951
 20
224.80016766847859
 30
0.0
  0
SEQEND
  5
3AC
  8
DATA
  6
CONTINUOUS
 62
     7
  0
LINE
  5
1D3
  8
DATA
  6
CONTINUOUS
 62
     7
 10
55.149622363937212
 20
222.22516766847849
 30
0.0
 11
33.249812589553017
 21
222.22516766847849
 31
0.0
  0
LINE
  5
1D4
  8
DATA
  6
CONTINUOUS
 62
     7
 10
33.808729787005227
 20
230.0751676684786
 30
0.0
 11
54.590705166484902
 21
230.0751676684786
 31
0.0
  0
POLYLINE
  5
1D5
  8
DATA
  6
CONTINUOUS
 62
     7
 66
     1
 10
0.0
 20
0.0
 30
0.0
 70
     1
  0
VERTEX
  5
3AD
  8
DATA
  6
CONTINUOUS
 62
     7
 10
53.669783647924817
 20
226.91516766847849
 30
0.0
  0
VERTEX
  5
3AE
  8
DATA
  6
CONTINUOUS
 62
     7
 10
55.199783647924818
 20
226.91516766847849
 30
0.0
  0
VERTEX
  5
3AF
  8
DATA
  6
CONTINUOUS
 62
     7
 10
55.199783647924818
 20
225.3851676684786
 30
0.0
  0
VERTEX
  5
3B0
  8
DATA
  6
CONTINUOUS
 62
     7
 10
53.669783647924817
 20
225.3851676684786
 30
0.0
  0
SEQEND
  5
3B1
  8
DATA
  6
CONTINUOUS
 62
     7
  0
POLYLINE
  5
1DC
  8
DATA
  6
CONTINUOUS
 62
     7
 66
     1
 10
0.0
 20
0.0
 30
0.0
 70
     1
  0
VERTEX
  5
3B2
  8
DATA
  6
CONTINUOUS
 62
     7
 10
51.66978364792476
 20
226.91516766847849
 30
0.0
  0
VERTEX
  5
3B3
  8
DATA
  6
CONTINUOUS
 62
     7
 10
53.199783647924718
 20
226.91516766847849
 30
0.0
  0
VERTEX
  5
3B4
  8
DATA
  6
CONTINUOUS
 62
     7
 10
53.199783647924718
 20
225.3851676684786
 30
0.0
  0
VERTEX
  5
3B5
  8
DATA
  6
CONTINUOUS
 62
     7
 10
51.66978364792476
 20
225.3851676684786
 30
0.0
  0
SEQEND
  5
3B6
  8
DATA
  6
CONTINUOUS
 62
     7
  0
POLYLINE
  5
1E3
  8
DATA
  6
CONTINUOUS
 62
     7
 66
     1
 10
0.0
 20
0.0
 30
0.0
 70
     1
  0
VERTEX
  5
3B7
  8
DATA
  6
CONTINUOUS
 62
     7
 10
49.66978364792476
 20
226.91516766847849
 30
0.0
  0
VERTEX
  5
3B8
  8
DATA
  6
CONTINUOUS
 62
     7
 10
51.199783647924733
 20
226.91516766847849
 30
0.0
  0
VERTEX
  5
3B9
  8
DATA
  6
CONTINUOUS
 62
     7
 10
51.199783647924733
 20
225.3851676684786
 30
0.0
  0
VERTEX
  5
3BA
  8
DATA
  6
CONTINUOUS
 62
     7
 10
49.66978364792476
 20
225.3851676684786
 30
0.0
  0
SEQEND
  5
3BB
  8
DATA
  6
CONTINUOUS
 62
     7
  0
POLYLINE
  5
1EA
  8
DATA
  6
CONTINUOUS
 62
     7
 66
     1
 10
0.0
 20
0.0
 30
0.0
 70
     1
  0
VERTEX
  5
3BC
  8
DATA
  6
CONTINUOUS
 62
     7
 10
47.669783647924781
 20
226.91516766847849
 30
0.0
  0
VERTEX
  5
3BD
  8
DATA
  6
CONTINUOUS
 62
     7
 10
49.199783647924747
 20
226.91516766847849
 30
0.0
  0
VERTEX
  5
3BE
  8
DATA
  6
CONTINUOUS
 62
     7
 10
49.199783647924747
 20
225.3851676684786
 30
0.0
  0
VERTEX
  5
3BF
  8
DATA
  6
CONTINUOUS
 62
     7
 10
47.669783647924781
 20
225.3851676684786
 30
0.0
  0
SEQEND
  5
3C0
  8
DATA
  6
CONTINUOUS
 62
     7
  0
POLYLINE
  5
1F1
  8
DATA
  6
CONTINUOUS
 62
     7
 66
     1
 10
0.0
 20
0.0
 30
0.0
 70
     1
  0
VERTEX
  5
3C1
  8
DATA
  6
CONTINUOUS
 62
     7
 10
45.669783647924667
 20
226.91516766847849
 30
0.0
  0
VERTEX
  5
3C2
  8
DATA
  6
CONTINUOUS
 62
     7
 10
47.199783647924747
 20
226.91516766847849
 30
0.0
  0
VERTEX
  5
3C3
  8
DATA
  6
CONTINUOUS
 62
     7
 10
47.199783647924747
 20
225.3851676684786
 30
0.0
  0
VERTEX
  5
3C4
  8
DATA
  6
CONTINUOUS
 62
     7
 10
45.669783647924667
 20
225.3851676684786
 30
0.0
  0
SEQEND
  5
3C5
  8
DATA
  6
CONTINUOUS
 62
     7
  0
POLYLINE
  5
1F8
  8
DATA
  6
CONTINUOUS
 62
     7
 66
     1
 10
0.0
 20
0.0
 30
0.0
 70
     1
  0
VERTEX
  5
3C6
  8
DATA
  6
CONTINUOUS
 62
     7
 10
43.669783647924518
 20
226.91516766847849
 30
0.0
  0
VERTEX
  5
3C7
  8
DATA
  6
CONTINUOUS
 62
     7
 10
45.199783647924612
 20
226.91516766847849
 30
0.0
  0
VERTEX
  5
3C8
  8
DATA
  6
CONTINUOUS
 62
     7
 10
45.199783647924612
 20
225.3851676684786
 30
0.0
  0
VERTEX
  5
3C9
  8
DATA
  6
CONTINUOUS
 62
     7
 10
43.669783647924518
 20
225.3851676684786
 30
0.0
  0
SEQEND
  5
3CA
  8
DATA
  6
CONTINUOUS
 62
     7
  0
POLYLINE
  5
1FF
  8
DATA
  6
CONTINUOUS
 62
     7
 66
     1
 10
0.0
 20
0.0
 30
0.0
 70
     1
  0
VERTEX
  5
3CB
  8
DATA
  6
CONTINUOUS
 62
     7
 10
41.66978364792439
 20
226.91516766847849
 30
0.0
  0
VERTEX
  5
3CC
  8
DATA
  6
CONTINUOUS
 62
     7
 10
43.199783647924477
 20
226.91516766847849
 30
0.0
  0
VERTEX
  5
3CD
  8
DATA
  6
CONTINUOUS
 62
     7
 10
43.199783647924477
 20
225.3851676684786
 30
0.0
  0
VERTEX
  5
3CE
  8
DATA
  6
CONTINUOUS
 62
     7
 10
41.66978364792439
 20
225.3851676684786
 30
0.0
  0
SEQEND
  5
3CF
  8
DATA
  6
CONTINUOUS
 62
     7
  0
POLYLINE
  5
206
  8
DATA
  6
CONTINUOUS
 62
     7
 66
     1
 10
0.0
 20
0.0
 30
0.0
 70
     1
  0
VERTEX
  5
3D0
  8
DATA
  6
CONTINUOUS
 62
     7
 10
39.669783647924248
 20
226.91516766847849
 30
0.0
  0
VERTEX
  5
3D1
  8
DATA
  6
CONTINUOUS
 62
     7
 10
41.199783647924328
 20
226.91516766847849
 30
0.0
  0
VERTEX
  5
3D2
  8
DATA
  6
CONTINUOUS
 62
     7
 10
41.199783647924328
 20
225.3851676684786
 30
0.0
  0
VERTEX
  5
3D3
  8
DATA
  6
CONTINUOUS
 62
     7
 10
39.669783647924248
 20
225.3851676684786
 30
0.0
  0
SEQEND
  5
3D4
  8
DATA
  6
CONTINUOUS
 62
     7
  0
POLYLINE
  5
20D
  8
DATA
  6
CONTINUOUS
 62
     7
 66
     1
 10
0.0
 20
0.0
 30
0.0
 70
     1
  0
VERTEX
  5
3D5
  8
DATA
  6
CONTINUOUS
 62
     7
 10
53.669783647924817
 20
224.91516766847849
 30
0.0
  0
VERTEX
  5
3D6
  8
DATA
  6
CONTINUOUS
 62
     7
 10
55.199783647924818
 20
224.91516766847849
 30
0.0
  0
VERTEX
  5
3D7
  8
DATA
  6
CONTINUOUS
 62
     7
 10
55.199783647924818
 20
223.3851676684786
 30
0.0
  0
VERTEX
  5
3D8
  8
DATA
  6
CONTINUOUS
 62
     7
 10
53.669783647924817
 20
223.3851676684786
 30
0.0
  0
SEQEND
  5
3D9
  8
DATA
  6
CONTINUOUS
 62
     7
  0
POLYLINE
  5
214
  8
DATA
  6
CONTINUOUS
 62
     7
 66
     1
 10
0.0
 20
0.0
 30
0.0
 70
     1
  0
VERTEX
  5
3DA
  8
DATA
  6
CONTINUOUS
 62
     7
 10
51.66978364792476
 20
224.91516766847849
 30
0.0
  0
VERTEX
  5
3DB
  8
DATA
  6
CONTINUOUS
 62
     7
 10
53.199783647924718
 20
224.91516766847849
 30
0.0
  0
VERTEX
  5
3DC
  8
DATA
  6
CONTINUOUS
 62
     7
 10
53.199783647924718
 20
223.3851676684786
 30
0.0
  0
VERTEX
  5
3DD
  8
DATA
  6
CONTINUOUS
 62
     7
 10
51.66978364792476
 20
223.3851676684786
 30
0.0
  0
SEQEND
  5
3DE
  8
DATA
  6
CONTINUOUS
 62
     7
  0
POLYLINE
  5
21B
  8
DATA
  6
CONTINUOUS
 62
     7
 66
     1
 10
0.0
 20
0.0
 30
0.0
 70
     1
  0
VERTEX
  5
3DF
  8
DATA
  6
CONTINUOUS
 62
     7
 10
49.66978364792476
 20
224.91516766847849
 30
0.0
  0
VERTEX
  5
3E0
  8
DATA
  6
CONTINUOUS
 62
     7
 10
51.199783647924733
 20
224.91516766847849
 30
0.0
  0
VERTEX
  5
3E1
  8
DATA
  6
CONTINUOUS
 62
     7
 10
51.199783647924733
 20
223.3851676684786
 30
0.0
  0
VERTEX
  5
3E2
  8
DATA
  6
CONTINUOUS
 62
     7
 10
49.66978364792476
 20
223.3851676684786
 30
0.0
  0
SEQEND
  5
3E3
  8
DATA
  6
CONTINUOUS
 62
     7
  0
POLYLINE
  5
222
  8
DATA
  6
CONTINUOUS
 62
     7
 66
     1
 10
0.0
 20
0.0
 30
0.0
 70
     1
  0
VERTEX
  5
3E4
  8
DATA
  6
CONTINUOUS
 62
     7
 10
47.669783647924781
 20
224.91516766847849
 30
0.0
  0
VERTEX
  5
3E5
  8
DATA
  6
CONTINUOUS
 62
     7
 10
49.199783647924747
 20
224.91516766847849
 30
0.0
  0
VERTEX
  5
3E6
  8
DATA
  6
CONTINUOUS
 62
     7
 10
49.199783647924747
 20
223.3851676684786
 30
0.0
  0
VERTEX
  5
3E7
  8
DATA
  6
CONTINUOUS
 62
     7
 10
47.669783647924781
 20
223.3851676684786
 30
0.0
  0
SEQEND
  5
3E8
  8
DATA
  6
CONTINUOUS
 62
     7
  0
POLYLINE
  5
229
  8
DATA
  6
CONTINUOUS
 62
     7
 66
     1
 10
0.0
 20
0.0
 30
0.0
 70
     1
  0
VERTEX
  5
3E9
  8
DATA
  6
CONTINUOUS
 62
     7
 10
45.669783647924667
 20
224.91516766847849
 30
0.0
  0
VERTEX
  5
3EA
  8
DATA
  6
CONTINUOUS
 62
     7
 10
47.199783647924747
 20
224.91516766847849
 30
0.0
  0
VERTEX
  5
3EB
  8
DATA
  6
CONTINUOUS
 62
     7
 10
47.199783647924747
 20
223.3851676684786
 30
0.0
  0
VERTEX
  5
3EC
  8
DATA
  6
CONTINUOUS
 62
     7
 10
45.669783647924667
 20
223.3851676684786
 30
0.0
  0
SEQEND
  5
3ED
  8
DATA
  6
CONTINUOUS
 62
     7
  0
POLYLINE
  5
230
  8
DATA
  6
CONTINUOUS
 62
     7
 66
     1
 10
0.0
 20
0.0
 30
0.0
 70
     1
  0
VERTEX
  5
3EE
  8
DATA
  6
CONTINUOUS
 62
     7
 10
43.669783647924518
 20
224.91516766847849
 30
0.0
  0
VERTEX
  5
3EF
  8
DATA
  6
CONTINUOUS
 62
     7
 10
45.199783647924612
 20
224.91516766847849
 30
0.0
  0
VERTEX
  5
3F0
  8
DATA
  6
CONTINUOUS
 62
     7
 10
45.199783647924612
 20
223.3851676684786
 30
0.0
  0
VERTEX
  5
3F1
  8
DATA
  6
CONTINUOUS
 62
     7
 10
43.669783647924518
 20
223.3851676684786
 30
0.0
  0
SEQEND
  5
3F2
  8
DATA
  6
CONTINUOUS
 62
     7
  0
POLYLINE
  5
237
  8
DATA
  6
CONTINUOUS
 62
     7
 66
     1
 10
0.0
 20
0.0
 30
0.0
 70
     1
  0
VERTEX
  5
3F3
  8
DATA
  6
CONTINUOUS
 62
     7
 10
41.66978364792439
 20
224.91516766847849
 30
0.0
  0
VERTEX
  5
3F4
  8
DATA
  6
CONTINUOUS
 62
     7
 10
43.199783647924477
 20
224.91516766847849
 30
0.0
  0
VERTEX
  5
3F5
  8
DATA
  6
CONTINUOUS
 62
     7
 10
43.199783647924477
 20
223.3851676684786
 30
0.0
  0
VERTEX
  5
3F6
  8
DATA
  6
CONTINUOUS
 62
     7
 10
41.66978364792439
 20
223.3851676684786
 30
0.0
  0
SEQEND
  5
3F7
  8
DATA
  6
CONTINUOUS
 62
     7
  0
POLYLINE
  5
23E
  8
DATA
  6
CONTINUOUS
 62
     7
 66
     1
 10
0.0
 20
0.0
 30
0.0
 70
     1
  0
VERTEX
  5
3F8
  8
DATA
  6
CONTINUOUS
 62
     7
 10
39.669783647924248
 20
224.91516766847849
 30
0.0
  0
VERTEX
  5
3F9
  8
DATA
  6
CONTINUOUS
 62
     7
 10
41.199783647924328
 20
224.91516766847849
 30
0.0
  0
VERTEX
  5
3FA
  8
DATA
  6
CONTINUOUS
 62
     7
 10
41.199783647924328
 20
223.3851676684786
 30
0.0
  0
VERTEX
  5
3FB
  8
DATA
  6
CONTINUOUS
 62
     7
 10
39.669783647924248
 20
223.3851676684786
 30
0.0
  0
SEQEND
  5
3FC
  8
DATA
  6
CONTINUOUS
 62
     7
  0
POLYLINE
  5
245
  8
DATA
  6
CONTINUOUS
 62
     7
 66
     1
 10
0.0
 20
0.0
 30
0.0
 70
     1
  0
VERTEX
  5
3FD
  8
DATA
  6
CONTINUOUS
 62
     7
 10
53.669783647924817
 20
228.91516766847849
 30
0.0
  0
VERTEX
  5
3FE
  8
DATA
  6
CONTINUOUS
 62
     7
 10
55.199783647924818
 20
228.91516766847849
 30
0.0
  0
VERTEX
  5
3FF
  8
DATA
  6
CONTINUOUS
 62
     7
 10
55.199783647924818
 20
227.3851676684786
 30
0.0
  0
VERTEX
  5
400
  8
DATA
  6
CONTINUOUS
 62
     7
 10
53.669783647924817
 20
227.3851676684786
 30
0.0
  0
SEQEND
  5
401
  8
DATA
  6
CONTINUOUS
 62
     7
  0
POLYLINE
  5
24C
  8
DATA
  6
CONTINUOUS
 62
     7
 66
     1
 10
0.0
 20
0.0
 30
0.0
 70
     1
  0
VERTEX
  5
402
  8
DATA
  6
CONTINUOUS
 62
     7
 10
51.66978364792476
 20
228.91516766847849
 30
0.0
  0
VERTEX
  5
403
  8
DATA
  6
CONTINUOUS
 62
     7
 10
53.199783647924718
 20
228.91516766847849
 30
0.0
  0
VERTEX
  5
404
  8
DATA
  6
CONTINUOUS
 62
     7
 10
53.199783647924718
 20
227.3851676684786
 30
0.0
  0
VERTEX
  5
405
  8
DATA
  6
CONTINUOUS
 62
     7
 10
51.66978364792476
 20
227.3851676684786
 30
0.0
  0
SEQEND
  5
406
  8
DATA
  6
CONTINUOUS
 62
     7
  0
POLYLINE
  5
253
  8
DATA
  6
CONTINUOUS
 62
     7
 66
     1
 10
0.0
 20
0.0
 30
0.0
 70
     1
  0
VERTEX
  5
407
  8
DATA
  6
CONTINUOUS
 62
     7
 10
49.66978364792476
 20
228.91516766847849
 30
0.0
  0
VERTEX
  5
408
  8
DATA
  6
CONTINUOUS
 62
     7
 10
51.199783647924733
 20
228.91516766847849
 30
0.0
  0
VERTEX
  5
409
  8
DATA
  6
CONTINUOUS
 62
     7
 10
51.199783647924733
 20
227.3851676684786
 30
0.0
  0
VERTEX
  5
40A
  8
DATA
  6
CONTINUOUS
 62
     7
 10
49.66978364792476
 20
227.3851676684786
 30
0.0
  0
SEQEND
  5
40B
  8
DATA
  6
CONTINUOUS
 62
     7
  0
POLYLINE
  5
25A
  8
DATA
  6
CONTINUOUS
 62
     7
 66
     1
 10
0.0
 20
0.0
 30
0.0
 70
     1
  0
VERTEX
  5
40C
  8
DATA
  6
CONTINUOUS
 62
     7
 10
47.669783647924781
 20
228.91516766847849
 30
0.0
  0
VERTEX
  5
40D
  8
DATA
  6
CONTINUOUS
 62
     7
 10
49.199783647924747
 20
228.91516766847849
 30
0.0
  0
VERTEX
  5
40E
  8
DATA
  6
CONTINUOUS
 62
     7
 10
49.199783647924747
 20
227.3851676684786
 30
0.0
  0
VERTEX
  5
40F
  8
DATA
  6
CONTINUOUS
 62
     7
 10
47.669783647924781
 20
227.3851676684786
 30
0.0
  0
SEQEND
  5
410
  8
DATA
  6
CONTINUOUS
 62
     7
  0
POLYLINE
  5
261
  8
DATA
  6
CONTINUOUS
 62
     7
 66
     1
 10
0.0
 20
0.0
 30
0.0
 70
     1
  0
VERTEX
  5
411
  8
DATA
  6
CONTINUOUS
 62
     7
 10
45.669783647924667
 20
228.91516766847849
 30
0.0
  0
VERTEX
  5
412
  8
DATA
  6
CONTINUOUS
 62
     7
 10
47.199783647924747
 20
228.91516766847849
 30
0.0
  0
VERTEX
  5
413
  8
DATA
  6
CONTINUOUS
 62
     7
 10
47.199783647924747
 20
227.3851676684786
 30
0.0
  0
VERTEX
  5
414
  8
DATA
  6
CONTINUOUS
 62
     7
 10
45.669783647924667
 20
227.3851676684786
 30
0.0
  0
SEQEND
  5
415
  8
DATA
  6
CONTINUOUS
 62
     7
  0
POLYLINE
  5
268
  8
DATA
  6
CONTINUOUS
 62
     7
 66
     1
 10
0.0
 20
0.0
 30
0.0
 70
     1
  0
VERTEX
  5
416
  8
DATA
  6
CONTINUOUS
 62
     7
 10
43.669783647924518
 20
228.91516766847849
 30
0.0
  0
VERTEX
  5
417
  8
DATA
  6
CONTINUOUS
 62
     7
 10
45.199783647924612
 20
228.91516766847849
 30
0.0
  0
VERTEX
  5
418
  8
DATA
  6
CONTINUOUS
 62
     7
 10
45.199783647924612
 20
227.3851676684786
 30
0.0
  0
VERTEX
  5
419
  8
DATA
  6
CONTINUOUS
 62
     7
 10
43.669783647924518
 20
227.3851676684786
 30
0.0
  0
SEQEND
  5
41A
  8
DATA
  6
CONTINUOUS
 62
     7
  0
POLYLINE
  5
26F
  8
DATA
  6
CONTINUOUS
 62
     7
 66
     1
 10
0.0
 20
0.0
 30
0.0
 70
     1
  0
VERTEX
  5
41B
  8
DATA
  6
CONTINUOUS
 62
     7
 10
41.66978364792439
 20
228.91516766847849
 30
0.0
  0
VERTEX
  5
41C
  8
DATA
  6
CONTINUOUS
 62
     7
 10
43.199783647924477
 20
228.91516766847849
 30
0.0
  0
VERTEX
  5
41D
  8
DATA
  6
CONTINUOUS
 62
     7
 10
43.199783647924477
 20
227.3851676684786
 30
0.0
  0
VERTEX
  5
41E
  8
DATA
  6
CONTINUOUS
 62
     7
 10
41.66978364792439
 20
227.3851676684786
 30
0.0
  0
SEQEND
  5
41F
  8
DATA
  6
CONTINUOUS
 62
     7
  0
POLYLINE
  5
276
  8
DATA
  6
CONTINUOUS
 62
     7
 66
     1
 10
0.0
 20
0.0
 30
0.0
 70
     1
  0
VERTEX
  5
420
  8
DATA
  6
CONTINUOUS
 62
     7
 10
39.669783647924248
 20
228.91516766847849
 30
0.0
  0
VERTEX
  5
421
  8
DATA
  6
CONTINUOUS
 62
     7
 10
41.199783647924328
 20
228.91516766847849
 30
0.0
  0
VERTEX
  5
422
  8
DATA
  6
CONTINUOUS
 62
     7
 10
41.199783647924328
 20
227.3851676684786
 30
0.0
  0
VERTEX
  5
423
  8
DATA
  6
CONTINUOUS
 62
     7
 10
39.669783647924248
 20
227.3851676684786
 30
0.0
  0
SEQEND
  5
424
  8
DATA
  6
CONTINUOUS
 62
     7
  0
POLYLINE
  5
27D
  8
DATA
  6
CONTINUOUS
 62
     7
 66
     1
 10
0.0
 20
0.0
 30
0.0
  0
VERTEX
  5
425
  8
DATA
  6
CONTINUOUS
 62
     7
 10
35.649717476744641
 20
225.75016766847861
 30
0.0
  0
VERTEX
  5
426
  8
DATA
  6
CONTINUOUS
 62
     7
 10
33.549717476744718
 20
225.75016766847861
 30
0.0
  0
VERTEX
  5
427
  8
DATA
  6
CONTINUOUS
 62
     7
 10
33.549717476744718
 20
226.55016766847859
 30
0.0
  0
VERTEX
  5
428
  8
DATA
  6
CONTINUOUS
 62
     7
 10
35.649717476744641
 20
226.55016766847859
 30
0.0
  0
SEQEND
  5
429
  8
DATA
  6
CONTINUOUS
 62
     7
  0
POLYLINE
  5
284
  8
DATA
  6
CONTINUOUS
 62
     7
 66
     1
 10
0.0
 20
0.0
 30
0.0
  0
VERTEX
  5
42A
  8
DATA
  6
CONTINUOUS
 62
     7
 10
36.449717476744581
 20
226.55016766847859
 30
0.0
  0
VERTEX
  5
42B
  8
DATA
  6
CONTINUOUS
 62
     7
 10
38.549717476744682
 20
226.55016766847859
 30
0.0
  0
VERTEX
  5
42C
  8
DATA
  6
CONTINUOUS
 62
     7
 10
38.549717476744682
 20
225.75016766847861
 30
0.0
  0
VERTEX
  5
42D
  8
DATA
  6
CONTINUOUS
 62
     7
 10
36.449717476744581
 20
225.75016766847861
 30
0.0
  0
SEQEND
  5
42E
  8
DATA
  6
CONTINUOUS
 62
     7
  0
POLYLINE
  5
28B
  8
DATA
  6
CONTINUOUS
 62
     7
 66
     1
 10
0.0
 20
0.0
 30
0.0
  0
VERTEX
  5
42F
  8
DATA
  6
CONTINUOUS
 62
     7
 10
35.649717476744641
 20
226.55016766847859
 30
0.0
  0
VERTEX
  5
430
  8
DATA
  6
CONTINUOUS
 62
     7
 10
35.649717476744641
 20
228.6501676684785
 30
0.0
  0
VERTEX
  5
431
  8
DATA
  6
CONTINUOUS
 62
     7
 10
36.449717476744581
 20
228.6501676684785
 30
0.0
  0
VERTEX
  5
432
  8
DATA
  6
CONTINUOUS
 62
     7
 10
36.449717476744581
 20
226.55016766847859
 30
0.0
  0
SEQEND
  5
433
  8
DATA
  6
CONTINUOUS
 62
     7
  0
POLYLINE
  5
292
  8
DATA
  6
CONTINUOUS
 62
     7
 66
     1
 10
0.0
 20
0.0
 30
0.0
  0
VERTEX
  5
434
  8
DATA
  6
CONTINUOUS
 62
     7
 10
36.449717476744581
 20
225.75016766847861
 30
0.0
  0
VERTEX
  5
435
  8
DATA
  6
CONTINUOUS
 62
     7
 10
36.449717476744581
 20
223.65016766847859
 30
0.0
  0
VERTEX
  5
436
  8
DATA
  6
CONTINUOUS
 62
     7
 10
35.649717476744641
 20
223.65016766847859
 30
0.0
  0
VERTEX
  5
437
  8
DATA
  6
CONTINUOUS
 62
     7
 10
35.649717476744641
 20
225.75016766847861
 30
0.0
  0
SEQEND
  5
438
  8
DATA
  6
CONTINUOUS
 62
     7
  0
POLYLINE
  5
299
  8
DATA
  6
CONTINUOUS
 62
     7
 66
     1
 10
0.0
 20
0.0
 30
0.0
 70
     1
  0
VERTEX
  5
439
  8
DATA
  6
CONTINUOUS
 62
     7
 10
36.910001907216298
 20
225.39073985782861
 30
0.0
  0
VERTEX
  5
43A
  8
DATA
  6
CONTINUOUS
 62
     7
 10
37.910001907216362
 20
225.39073985782861
 30
0.0
  0
VERTEX
  5
43B
  8
DATA
  6
CONTINUOUS
 62
     7
 10
37.910001907216362
 20
224.39073985782861
 30
0.0
  0
VERTEX
  5
43C
  8
DATA
  6
CONTINUOUS
 62
     7
 10
36.910001907216298
 20
224.39073985782861
 30
0.0
  0
SEQEND
  5
43D
  8
DATA
  6
CONTINUOUS
 62
     7
  0
POLYLINE
  5
2A0
  8
DATA
  6
CONTINUOUS
 62
     7
 66
     1
 10
0.0
 20
0.0
 30
0.0
 70
     1
  0
VERTEX
  5
43E
  8
DATA
  6
CONTINUOUS
 62
     7
 10
34.189433046272939
 20
225.39073985782861
 30
0.0
  0
VERTEX
  5
43F
  8
DATA
  6
CONTINUOUS
 62
     7
 10
35.189433046272882
 20
225.39073985782861
 30
0.0
  0
VERTEX
  5
440
  8
DATA
  6
CONTINUOUS
 62
     7
 10
35.189433046272882
 20
224.39073985782861
 30
0.0
  0
VERTEX
  5
441
  8
DATA
  6
CONTINUOUS
 62
     7
 10
34.189433046272939
 20
224.39073985782861
 30
0.0
  0
SEQEND
  5
442
  8
DATA
  6
CONTINUOUS
 62
     7
  0
POLYLINE
  5
2A7
  8
DATA
  6
CONTINUOUS
 62
     7
 66
     1
 10
0.0
 20
0.0
 30
0.0
 70
     1
  0
VERTEX
  5
443
  8
DATA
  6
CONTINUOUS
 62
     7
 10
36.910001907216298
 20
227.90959547912851
 30
0.0
  0
VERTEX
  5
444
  8
DATA
  6
CONTINUOUS
 62
     7
 10
37.910001907216362
 20
227.90959547912851
 30
0.0
  0
VERTEX
  5
445
  8
DATA
  6
CONTINUOUS
 62
     7
 10
37.910001907216362
 20
226.90959547912851
 30
0.0
  0
VERTEX
  5
446
  8
DATA
  6
CONTINUOUS
 62
     7
 10
36.910001907216298
 20
226.90959547912851
 30
0.0
  0
SEQEND
  5
447
  8
DATA
  6
CONTINUOUS
 62
     7
  0
POLYLINE
  5
2AE
  8
DATA
  6
CONTINUOUS
 62
     7
 66
     1
 10
0.0
 20
0.0
 30
0.0
 70
     1
  0
VERTEX
  5
448
  8
DATA
  6
CONTINUOUS
 62
     7
 10
34.189433046272939
 20
227.90959547912851
 30
0.0
  0
VERTEX
  5
449
  8
DATA
  6
CONTINUOUS
 62
     7
 10
35.189433046272882
 20
227.90959547912851
 30
0.0
  0
VERTEX
  5
44A
  8
DATA
  6
CONTINUOUS
 62
     7
 10
35.189433046272882
 20
226.90959547912851
 30
0.0
  0
VERTEX
  5
44B
  8
DATA
  6
CONTINUOUS
 62
     7
 10
34.189433046272939
 20
226.90959547912851
 30
0.0
  0
SEQEND
  5
44C
  8
DATA
  6
CONTINUOUS
 62
     7
  0
LINE
  5
2B5
  8
DATA
  6
CONTINUOUS
 62
     7
 10
56.145089294692568
 20
223.32027597396481
 30
0.0
 11
55.586172097240308
 21
229.17027597396481
 31
0.0
  0
LINE
  5
2B6
  8
DATA
  6
CONTINUOUS
 62
     7
 10
32.254345658797753
 20
223.32027597396481
 30
0.0
 11
32.813262856249992
 21
229.17027597396481
 31
0.0
  0
ARC
  5
2B7
  8
DATA
  6
CONTINUOUS
 62
     7
 10
55.149622363937212
 20
223.2251676684786
 30
0.0
 40
1.0
 50
270.0
 51
5.4575534851075531
  0
ARC
  5
2B8
  8
DATA
  6
CONTINUOUS
 62
     7
 10
33.249812589553017
 20
223.2251676684786
 30
0.0
 40
0.9999999999998908
 50
174.54244651489179
 51
270.0
  0
ARC
  5
2B9
  8
DATA
  6
CONTINUOUS
 62
     7
 10
54.590705166484902
 20
229.0751676684786
 30
0.0
 40
1.000000000000032
 50
5.4575534851074012
 51
90.0
  0
ARC
  5
2BA
  8
DATA
  6
CONTINUOUS
 62
     7
 10
33.808729787005227
 20
229.0751676684786
 30
0.0
 40
1.0
 50
90.0
 51
174.542446514895
  0
TEXT
  5
2BB
  8
DATA
 62
     7
 10
49.790270110014582
 20
238.93731691513949
 30
0.0
 40
2.8097509765624999
  1
DVI In
 50
180.0
 41
0.7
 11
49.790270110014582
 21
236.12756593857691
 31
0.0
 73
     3
  0
LINE
  5
2BC
  8
DATA
  6
CONTINUOUS
 62
     7
 10
24.362404452530271
 20
127.5000000003607
 30
0.0
 11
24.362404452530271
 21
123.0
 31
0.0
  0
LINE
  5
2BD
  8
DATA
  6
CONTINUOUS
 62
     7
 10
24.362404452530271
 20
127.5000000003607
 30
0.0
 11
27.91844242675522
 21
127.5000000003607
 31
0.0
  0
LINE
  5
2BE
  8
DATA
  6
CONTINUOUS
 62
     7
 10
61.317391105227593
 20
127.5000000003607
 30
0.0
 11
61.317391105227593
 21
123.0
 31
0.0
  0
LINE
  5
2BF
  8
DATA
  6
CONTINUOUS
 62
     7
 10
61.317391105227593
 20
127.5000000003607
 30
0.0
 11
57.594979607191028
 21
127.5000000003607
 31
0.0
  0
ENDSEC
  0
EOF
