  0
SECTION
  2
HEADER
  9
$ACADVER
  1
AC1009
  9
$INSBASE
 10
0.0
 20
0.0
 30
0.0
  9
$EXTMIN
 10
-170.0164782349211
 20
-265.74833863455001
 30
-0.0015258207003583
  9
$EXTMAX
 10
370.0164807494923
 20
537.09174839639525
 30
0.0000000349246037
  9
$LIMMIN
 10
0.0
 20
0.0
  9
$LIMMAX
 10
0.0
 20
0.0
  9
$ORTHOMODE
 70
     0
  9
$REGENMODE
 70
     1
  9
$FILLMODE
 70
     1
  9
$QTEXTMODE
 70
     0
  9
$MIRRTEXT
 70
     1
  9
$DRAGMODE
 70
     2
  9
$LTSCALE
 40
15.24
  9
$OSMODE
 70
   231
  9
$ATTMODE
 70
     1
  9
$TEXTSIZE
 40
0.0
  9
$TRACEWID
 40
1.0
  9
$TEXTSTYLE
  7
STANDARD
  9
$CLAYER
  8
DATA
  9
$CELTYPE
  6
BYLAYER
  9
$CECOLOR
 62
   256
  9
$DIMSCALE
 40
1.0
  9
$DIMASZ
 40
0.18
  9
$DIMEXO
 40
0.0625
  9
$DIMDLI
 40
0.38
  9
$DIMRND
 40
0.0
  9
$DIMDLE
 40
0.0
  9
$DIMEXE
 40
0.18
  9
$DIMTP
 40
0.0
  9
$DIMTM
 40
0.0
  9
$DIMTXT
 40
0.18
  9
$DIMCEN
 40
0.09
  9
$DIMTSZ
 40
0.0
  9
$DIMTOL
 70
     0
  9
$DIMLIM
 70
     0
  9
$DIMTIH
 70
     1
  9
$DIMTOH
 70
     1
  9
$DIMSE1
 70
     0
  9
$DIMSE2
 70
     0
  9
$DIMTAD
 70
     0
  9
$DIMZIN
 70
     0
  9
$DIMBLK
  1

  9
$DIMASO
 70
     1
  9
$DIMSHO
 70
     1
  9
$DIMPOST
  1

  9
$DIMAPOST
  1

  9
$DIMALT
 70
     0
  9
$DIMALTD
 70
     2
  9
$DIMALTF
 40
25.399999999999999
  9
$DIMLFAC
 40
1.0
  9
$DIMTOFL
 70
     0
  9
$DIMTVP
 40
0.0
  9
$DIMTIX
 70
     0
  9
$DIMSOXD
 70
     0
  9
$DIMSAH
 70
     0
  9
$DIMBLK1
  1

  9
$DIMBLK2
  1

  9
$DIMSTYLE
  2
STANDARD
  9
$DIMCLRD
 70
     0
  9
$DIMCLRE
 70
     0
  9
$DIMCLRT
 70
     0
  9
$DIMTFAC
 40
1.0
  9
$DIMGAP
 40
0.09
  9
$LUNITS
 70
     2
  9
$LUPREC
 70
     4
  9
$SKETCHINC
 40
0.1
  9
$FILLETRAD
 40
0.0
  9
$AUNITS
 70
     0
  9
$AUPREC
 70
     0
  9
$MENU
  1
acad
  9
$ELEVATION
 40
0.0
  9
$PELEVATION
 40
0.0
  9
$THICKNESS
 40
0.0
  9
$LIMCHECK
 70
     0
  9
$BLIPMODE
 70
     0
  9
$CHAMFERA
 40
0.0
  9
$CHAMFERB
 40
0.0
  9
$SKPOLY
 70
     0
  9
$TDCREATE
 40
2455583.7893402781
  9
$TDUPDATE
 40
2455583.7911590161
  9
$TDINDWG
 40
0.0004868403
  9
$TDUSRTIMER
 40
0.0004857639
  9
$USRTIMER
 70
     1
  9
$ANGBASE
 50
0.0
  9
$ANGDIR
 70
     0
  9
$PDMODE
 70
     1
  9
$PDSIZE
 40
-2.0
  9
$PLINEWID
 40
0.0
  9
$COORDS
 70
     0
  9
$SPLFRAME
 70
     0
  9
$SPLINETYPE
 70
     6
  9
$SPLINESEGS
 70
     8
  9
$ATTDIA
 70
     0
  9
$ATTREQ
 70
     1
  9
$HANDLING
 70
     1
  9
$HANDSEED
  5
3CC
  9
$SURFTAB1
 70
     6
  9
$SURFTAB2
 70
     6
  9
$SURFTYPE
 70
     6
  9
$SURFU
 70
     6
  9
$SURFV
 70
     6
  9
$UCSNAME
  2

  9
$UCSORG
 10
0.0
 20
0.0
 30
0.0
  9
$UCSXDIR
 10
1.0
 20
0.0
 30
0.0
  9
$UCSYDIR
 10
0.0
 20
1.0
 30
0.0
  9
$PUCSNAME
  2

  9
$PUCSORG
 10
0.0
 20
0.0
 30
0.0
  9
$PUCSXDIR
 10
1.0
 20
0.0
 30
0.0
  9
$PUCSYDIR
 10
0.0
 20
1.0
 30
0.0
  9
$USERI1
 70
     0
  9
$USERI2
 70
     0
  9
$USERI3
 70
     0
  9
$USERI4
 70
     0
  9
$USERI5
 70
     0
  9
$USERR1
 40
0.0
  9
$USERR2
 40
0.0
  9
$USERR3
 40
0.0
  9
$USERR4
 40
0.0
  9
$USERR5
 40
0.0
  9
$WORLDVIEW
 70
     1
  9
$SHADEDGE
 70
     3
  9
$SHADEDIF
 70
    70
  9
$TILEMODE
 70
     1
  9
$MAXACTVP
 70
    64
  9
$PLIMCHECK
 70
     0
  9
$PEXTMIN
 10
1.0000000000000000E+020
 20
1.0000000000000000E+020
 30
1.0000000000000000E+020
  9
$PEXTMAX
 10
-1.0000000000000000E+020
 20
-1.0000000000000000E+020
 30
-1.0000000000000000E+020
  9
$PLIMMIN
 10
0.0
 20
0.0
  9
$PLIMMAX
 10
12.0
 20
9.0
  9
$UNITMODE
 70
     0
  9
$VISRETAIN
 70
     0
  9
$PLINEGEN
 70
     1
  9
$PSLTSCALE
 70
     0
  0
ENDSEC
  0
SECTION
  2
TABLES
  0
TABLE
  2
VPORT
 70
     1
  0
VPORT
  2
*ACTIVE
 70
     0
 10
0.0
 20
0.0
 11
1.0
 21
1.0
 12
100.0000012572856
 22
135.6717048809227
 13
0.0
 23
0.0
 14
1.0
 24
1.0
 15
0.0
 25
0.0
 16
0.0
 26
0.0
 36
1.0
 17
0.0
 27
0.0
 37
0.0
 40
808.75056619927125
 41
1.9619164619164611
 42
50.0
 43
0.0
 44
0.0
 50
0.0
 51
0.0
 71
     0
 72
  2000
 73
     1
 74
     1
 75
     0
 76
     0
 77
     0
 78
     0
  0
ENDTAB
  0
TABLE
  2
LTYPE
 70
    11
  0
LTYPE
  2
CONTINUOUS
 70
     0
  3
Solid line
 72
    65
 73
     0
 40
0.0
  0
ENDTAB
  0
TABLE
  2
LAYER
 70
     6
  0
LAYER
  2
0
 70
     0
 62
     7
  6
CONTINUOUS
  0
LAYER
  2
DATA
 70
     0
 62
     7
  6
CONTINUOUS
  0
LAYER
  2
HIBINO-BASE
 70
     0
 62
     7
  6
CONTINUOUS
  0
LAYER
  2
SPEC
 70
     0
 62
     7
  6
CONTINUOUS
  0
LAYER
  2
DIMNSIONS
 70
     0
 62
     7
  6
CONTINUOUS
  0
ENDTAB
  0
TABLE
  2
STYLE
 70
     3
  0
STYLE
  2
STANDARD
 70
     0
 40
0.0
 41
1.0
 50
0.0
 71
     0
 42
0.0
  3
txt
  4
BIGFONT.SHX
  0
ENDTAB
  0
TABLE
  2
VIEW
 70
     0
  0
ENDTAB
  0
TABLE
  2
UCS
 70
     0
  0
ENDTAB
  0
TABLE
  2
APPID
 70
     3
  0
APPID
  2
ACAD
 70
     0
  0
APPID
  2
ACADANNOTATIVE
 70
     0
  0
APPID
  2
ACAD_MLEADERVER
 70
     0
  0
ENDTAB
  0
TABLE
  2
DIMSTYLE
 70
     2
  0
DIMSTYLE
  2
STANDARD
 70
     0
  3

  4

  5

  6

  7

 40
1.0
 41
0.18
 42
0.0625
 43
0.38
 44
0.18
 45
0.0
 46
0.0
 47
0.0
 48
0.0
140
0.18
141
0.09
142
0.0
143
25.399999999999999
144
1.0
145
0.0
146
1.0
147
0.09
 71
     0
 72
     0
 73
     1
 74
     1
 75
     0
 76
     0
 77
     0
 78
     0
170
     0
171
     2
172
     0
173
     0
174
     0
175
     0
176
     0
177
     0
178
     0
  0
ENDTAB
  0
ENDSEC
  0
SECTION
  2
BLOCKS
  0
BLOCK
  8
0
  2
$MODEL_SPACE
 70
     0
 10
0.0
 20
0.0
 30
0.0
  3
$MODEL_SPACE
  1

  0
ENDBLK
  5
2C6
  8
0
  0
BLOCK
 67
     1
  8
0
  2
$PAPER_SPACE
 70
     0
 10
0.0
 20
0.0
 30
0.0
  3
$PAPER_SPACE
  1

  0
ENDBLK
  5
2C2
 67
     1
  8
0
  0
ENDSEC
  0
SECTION
  2
ENTITIES
  0
LINE
  5
2D
  8
HIBINO-BASE
  6
CONTINUOUS
 62
     7
 10
-169.99999999999989
 20
537.06729578973182
 30
0.0
 11
370.0
 21
537.06729578973182
 31
0.0
  0
LINE
  5
2E
  8
HIBINO-BASE
  6
CONTINUOUS
 62
     7
 10
370.0
 20
-242.93270421026821
 30
0.0
 11
-169.99999999999989
 21
-242.93270421026821
 31
0.0
  0
LINE
  5
2F
  8
HIBINO-BASE
  6
CONTINUOUS
 62
     7
 10
-169.99999999999989
 20
-242.93270421026821
 30
0.0
 11
-169.99999999999989
 21
537.06729578973182
 31
0.0
  0
LINE
  5
30
  8
HIBINO-BASE
  6
CONTINUOUS
 62
     7
 10
370.0
 20
537.06729578973182
 30
0.0
 11
370.0
 21
-242.93270421026821
 31
0.0
  0
LINE
  5
31
  8
HIBINO-BASE
  6
CONTINUOUS
 62
     7
 10
100.0
 20
-175.4327042102681
 30
0.0
 11
370.0
 21
-175.4327042102681
 31
0.0
  0
LINE
  5
32
  8
HIBINO-BASE
  6
CONTINUOUS
 62
     7
 10
100.0
 20
-242.93270421026821
 30
0.0
 11
100.0
 21
-175.4327042102681
 31
0.0
  0
TEXT
  5
33
  8
HIBINO-BASE
 62
     7
 10
102.7
 20
-182.95878421026811
 30
0.0
 40
4.8865234374999993
  1
NOTE
 41
0.75
 11
102.7
 21
-178.0722607727682
 31
0.0
 73
     3
  0
LINE
  5
34
  8
HIBINO-BASE
  6
CONTINUOUS
 62
     7
 10
205.0
 20
-242.93270421026821
 30
0.0
 11
205.0
 21
-175.4327042102681
 31
0.0
  0
TEXT
  5
35
  8
HIBINO-BASE
 62
     7
 10
207.69999999999999
 20
-182.95878421026811
 30
0.0
 40
4.8865234374999993
  1
TITLE
 41
0.75
 11
207.69999999999999
 21
-178.0722607727682
 31
0.0
 73
     3
  0
LINE
  5
36
  8
HIBINO-BASE
  6
CONTINUOUS
 62
     7
 10
100.0
 20
-212.9327042102681
 30
0.0
 11
370.0
 21
-212.9327042102681
 31
0.0
  0
TEXT
  5
37
  8
HIBINO-BASE
 62
     7
 10
245.19999999999999
 20
-220.28982421026819
 30
0.0
 40
4.8865234374999993
  1
DRAWN
 41
0.75
 11
245.19999999999999
 21
-215.4033007727682
 31
0.0
 73
     3
  0
TEXT
  5
38
  8
HIBINO-BASE
 62
     7
 10
170.19999999999999
 20
-220.28982421026819
 30
0.0
 40
4.8865234374999993
  1
DATE
 41
0.75
 11
170.19999999999999
 21
-215.4033007727682
 31
0.0
 73
     3
  0
TEXT
  5
39
  8
HIBINO-BASE
 62
     7
 10
140.19999999999999
 20
-220.28982421026819
 30
0.0
 40
4.8865234374999993
  1
SCALE
 41
0.75
 11
140.19999999999999
 21
-215.4033007727682
 31
0.0
 73
     3
  0
TEXT
  5
3A
  8
HIBINO-BASE
 62
     7
 10
207.69999999999999
 20
-220.28982421026819
 30
0.0
 40
4.8865234374999993
  1
DESIGN
 41
0.75
 11
207.69999999999999
 21
-215.4033007727682
 31
0.0
 73
     3
  0
TEXT
  5
3B
  8
HIBINO-BASE
 62
     7
 10
320.19999999999999
 20
-220.28982421026819
 30
0.0
 40
4.8865234374999993
  1
DRAWING NO.
 41
0.75
 11
320.19999999999999
 21
-215.4033007727682
 31
0.0
 73
     3
  0
TEXT
  5
3C
  8
HIBINO-BASE
 62
     7
 10
282.69999999999999
 20
-220.28982421026819
 30
0.0
 40
4.8865234374999993
  1
CHECK
 41
0.75
 11
282.69999999999999
 21
-215.4033007727682
 31
0.0
 73
     3
  0
LINE
  5
3D
  8
HIBINO-BASE
  6
CONTINUOUS
 62
     7
 10
143.12499999999989
 20
-239.18270421026821
 30
0.0
 11
154.375
 21
-227.9327042102681
 31
0.0
  0
TEXT
  5
3E
  8
HIBINO-BASE
 62
     7
 10
141.24999999999989
 20
-231.25953421026821
 30
0.0
 40
4.8865234374999993
  1
1
 41
0.75
 11
141.24999999999989
 21
-226.3730107727682
 31
0.0
 73
     3
  0
LINE
  5
3F
  8
HIBINO-BASE
  6
CONTINUOUS
 62
     7
 10
137.5
 20
-242.93270421026821
 30
0.0
 11
137.5
 21
-212.9327042102681
 31
0.0
  0
LINE
  5
40
  8
HIBINO-BASE
  6
CONTINUOUS
 62
     7
 10
167.5
 20
-242.93270421026821
 30
0.0
 11
167.5
 21
-212.9327042102681
 31
0.0
  0
LINE
  5
41
  8
HIBINO-BASE
  6
CONTINUOUS
 62
     7
 10
242.5
 20
-212.9327042102681
 30
0.0
 11
242.5
 21
-242.93270421026821
 31
0.0
  0
LINE
  5
42
  8
HIBINO-BASE
  6
CONTINUOUS
 62
     7
 10
317.5
 20
-212.9327042102681
 30
0.0
 11
317.5
 21
-242.93270421026821
 31
0.0
  0
LINE
  5
43
  8
HIBINO-BASE
  6
CONTINUOUS
 62
     7
 10
279.99999999999989
 20
-242.93270421026821
 30
0.0
 11
279.99999999999989
 21
-212.9327042102681
 31
0.0
  0
TEXT
  5
44
  8
HIBINO-BASE
 62
     7
 10
170.06961999999999
 20
-234.3417642102682
 30
0.0
 40
4.8865234374999993
  1
'11.01.
 41
0.75
 11
170.06961999999999
 21
-229.45524077276821
 31
0.0
 73
     3
  0
TEXT
  5
45
  8
HIBINO-BASE
 62
     7
 10
152.5
 20
-236.88453421026821
 30
0.0
 40
4.8865234374999993
  1
3
 41
0.75
 11
152.5
 21
-231.9980107727682
 31
0.0
 73
     3
  0
TEXT
  5
46
  8
HIBINO-BASE
 62
     7
 10
247.01743003310389
 20
-234.3417642102682
 30
0.0
 40
4.8865234374999993
  1
T.Ootake
 41
0.75
 11
247.01743003310389
 21
-229.45524077276821
 31
0.0
 73
     3
  0
TEXT
  5
47
  8
HIBINO-BASE
 62
     7
 10
111.65000000000001
 20
-237.0047042102681
 30
0.0
 40
9.7730468749999986
  1
A4
 41
0.75
 11
111.65000000000001
 21
-227.2316573352681
 31
0.0
 73
     3
  0
TEXT
  5
48
  8
HIBINO-BASE
 62
     7
 10
102.875
 20
-220.79106921026809
 30
0.0
 40
4.8865234374999993
  1
PAPER SIZE
 41
0.75
 11
102.875
 21
-215.9045457727681
 31
0.0
 73
     3
  0
TEXT
  5
49
  8
HIBINO-BASE
 62
     7
 10
-161.7210942293294
 20
-262.20842491279689
 30
0.0
 40
10.58746744791666
  1
Hibino-Intersound Corporation
 41
0.75
 11
-161.7210942293294
 21
-251.62095746488029
 31
0.0
 73
     3
  0
TEXT
  5
4A
  8
HIBINO-BASE
 62
     7
 10
160.54182904064169
 20
-261.15516015292872
 30
0.0
 40
10.58746744791666
  1
ヒビノインターサウンド株式会社
 41
0.75
 11
160.54182904064169
 21
-250.56769270501201
 31
0.0
 73
     3
  0
LINE
  5
4B
  8
SPEC
  6
CONTINUOUS
 62
     7
 10
-147.49999999999989
 20
507.0672957897317
 30
0.0
 11
295.0
 21
507.0672957897317
 31
0.0
  0
LINE
  5
4C
  8
SPEC
  6
CONTINUOUS
 62
     7
 10
-147.49999999999989
 20
495.8172957897317
 30
0.0
 11
295.0
 21
495.8172957897317
 31
0.0
  0
LINE
  5
4D
  8
SPEC
  6
CONTINUOUS
 62
     7
 10
-147.49999999999989
 20
473.3172957897317
 30
0.0
 11
295.0
 21
473.3172957897317
 31
0.0
  0
LINE
  5
4E
  8
SPEC
  6
CONTINUOUS
 62
     7
 10
-147.49999999999989
 20
484.5672957897317
 30
0.0
 11
295.0
 21
484.5672957897317
 31
0.0
  0
LINE
  5
4F
  8
SPEC
  6
CONTINUOUS
 62
     7
 10
-147.49999999999989
 20
507.0672957897317
 30
0.0
 11
-147.49999999999989
 21
327.06729578973182
 31
0.0
  0
TEXT
  5
50
  8
SPEC
 62
     7
 10
-143.74999999999989
 20
511.24710578973179
 30
0.0
 40
7.3297851562499989
  1
仕様
 41
0.75
 11
-143.74999999999989
 21
518.57689094598175
 31
0.0
 73
     3
  0
LINE
  5
51
  8
SPEC
  6
CONTINUOUS
 62
     7
 10
295.0
 20
507.0672957897317
 30
0.0
 11
295.0
 21
327.06729578973182
 31
0.0
  0
LINE
  5
52
  8
SPEC
  6
CONTINUOUS
 62
     7
 10
-147.49999999999989
 20
462.0672957897317
 30
0.0
 11
295.0
 21
462.0672957897317
 31
0.0
  0
LINE
  5
53
  8
SPEC
  6
CONTINUOUS
 62
     7
 10
-147.49999999999989
 20
450.8172957897317
 30
0.0
 11
295.0
 21
450.8172957897317
 31
0.0
  0
LINE
  5
54
  8
SPEC
  6
CONTINUOUS
 62
     7
 10
-147.49999999999989
 20
439.5672957897317
 30
0.0
 11
295.0
 21
439.5672957897317
 31
0.0
  0
LINE
  5
55
  8
SPEC
  6
CONTINUOUS
 62
     7
 10
-147.49999999999989
 20
428.3172957897317
 30
0.0
 11
295.0
 21
428.3172957897317
 31
0.0
  0
LINE
  5
56
  8
SPEC
  6
CONTINUOUS
 62
     7
 10
-147.49999999999989
 20
417.0672957897317
 30
0.0
 11
295.0
 21
417.0672957897317
 31
0.0
  0
LINE
  5
57
  8
SPEC
  6
CONTINUOUS
 62
     7
 10
-147.49999999999989
 20
405.8172957897317
 30
0.0
 11
295.0
 21
405.8172957897317
 31
0.0
  0
LINE
  5
58
  8
SPEC
  6
CONTINUOUS
 62
     7
 10
-147.49999999999989
 20
394.5672957897317
 30
0.0
 11
295.0
 21
394.5672957897317
 31
0.0
  0
LINE
  5
59
  8
SPEC
  6
CONTINUOUS
 62
     7
 10
-147.49999999999989
 20
383.31729578973182
 30
0.0
 11
295.0
 21
383.31729578973182
 31
0.0
  0
LINE
  5
5A
  8
SPEC
  6
CONTINUOUS
 62
     7
 10
-147.49999999999989
 20
372.0672957897317
 30
0.0
 11
295.0
 21
372.0672957897317
 31
0.0
  0
LINE
  5
5B
  8
SPEC
  6
CONTINUOUS
 62
     7
 10
-147.49999999999989
 20
360.81729578973182
 30
0.0
 11
295.0
 21
360.81729578973182
 31
0.0
  0
TEXT
  5
5C
  8
SPEC
 62
     7
 10
-145.16069093544499
 20
341.39740097482519
 30
0.0
 40
5.7009440104166673
  1
寸法
 41
0.75
 11
-145.16069093544499
 21
347.09834498524191
 31
0.0
 73
     3
  0
TEXT
  5
5D
  8
SPEC
 62
     7
 10
-18.808633416069181
 20
341.09325931360843
 30
0.0
 40
5.7009440104166673
  1
213(W)\U+00D743(H)\U+00D7174(D)mm(突起部含まず）
 41
0.75
 11
-18.808633416069181
 21
346.79420332402498
 31
0.0
 73
     3
  0
TEXT
  5
5E
  8
SPEC
 62
     7
 10
-18.954197817085301
 20
330.23945860568131
 30
0.0
 40
5.7009440104166673
  1
約650g
 41
0.75
 11
-18.954197817085301
 21
335.94040261609803
 31
0.0
 73
     3
  0
TEXT
  5
5F
  8
SPEC
 62
     7
 10
-145.06038989099869
 20
330.41026122680603
 30
0.0
 40
5.7009440104166673
  1
重量
 41
0.75
 11
-145.06038989099869
 21
336.11120523722258
 31
0.0
 73
     3
  0
TEXT
  5
60
  8
SPEC
 62
     7
 10
-145.0939662476957
 20
363.65305330008732
 30
0.0
 40
5.7009440104166673
  1
電源
 41
0.75
 11
-145.0939662476957
 21
369.35399731050398
 31
0.0
 73
     3
  0
TEXT
  5
61
  8
SPEC
 62
     7
 10
-18.779708691970271
 20
363.49798951702019
 30
0.0
 40
5.7009440104166673
  1
5V DC
 41
0.75
 11
-18.779708691970271
 21
369.19893352743691
 31
0.0
 73
     3
  0
TEXT
  5
62
  8
SPEC
 62
     7
 10
-144.97546660481879
 20
352.52358488091693
 30
0.0
 40
5.7009440104166673
  1
消費電力
 41
0.75
 11
-144.97546660481879
 21
358.22452889133359
 31
0.0
 73
     3
  0
TEXT
  5
63
  8
SPEC
 62
     7
 10
-18.837062886375499
 20
352.23377424848883
 30
0.0
 40
5.7009440104166673
  1
20W(最大)
 41
0.75
 11
-18.837062886375499
 21
357.93471825890538
 31
0.0
 73
     3
  0
TEXT
  5
64
  8
SPEC
 62
     7
 10
-144.98836324573841
 20
498.383992163801
 30
0.0
 40
5.7009440104166673
  1
入力A/V帯域
 41
0.75
 11
-144.98836324573841
 21
504.08493617421777
 31
0.0
 73
     3
  0
TEXT
  5
65
  8
SPEC
 62
     7
 10
-18.86936723400304
 20
498.27850486873882
 30
0.0
 40
5.7009440104166673
  1
2\U+00D72.97 Gbps まで(3G-SDI BNC端子 2つ)
 41
0.75
 11
-18.86936723400304
 21
503.97944887915548
 31
0.0
 73
     3
  0
TEXT
  5
66
  8
SPEC
 62
     7
 10
-145.2959529634976
 20
487.19475113557689
 30
0.0
 40
5.7009440104166673
  1
出力A/V帯域
 41
0.75
 11
-145.2959529634976
 21
492.89569514599361
 31
0.0
 73
     3
  0
TEXT
  5
67
  8
SPEC
 62
     7
 10
-18.859744990480589
 20
486.90405725881988
 30
0.0
 40
5.7009440104166673
  1
225MHz(Single Link HDMI 1.3)
 41
0.75
 11
-18.859744990480589
 21
492.60500126923648
 31
0.0
 73
     3
  0
TEXT
  5
68
  8
SPEC
 62
     7
 10
-144.8222494895756
 20
476.05788220777998
 30
0.0
 40
5.7009440104166673
  1
最大対応解像度
 41
0.75
 11
-144.8222494895756
 21
481.7588262181967
 31
0.0
 73
     3
  0
TEXT
  5
69
  8
SPEC
 62
     7
 10
-18.869367234003011
 20
475.85405725881969
 30
0.0
 40
5.7009440104166673
  1
2048\U+00D71080p24
 41
0.75
 11
-18.869367234003011
 21
481.5550012692363
 31
0.0
 73
     3
  0
TEXT
  5
6A
  8
SPEC
 62
     7
 10
-144.6390580692011
 20
464.4818067062609
 30
0.0
 40
5.7009440104166673
  1
A/V入出力端子(3G-SDI)
 41
0.75
 11
-144.6390580692011
 21
470.1827507166775
 31
0.0
 73
     3
  0
TEXT
  5
6B
  8
SPEC
 62
     7
 10
-20.133551772645109
 20
464.79193757746049
 30
0.0
 40
5.7009440104166673
  1
(各2)BNC female
 41
0.75
 11
-20.133551772645109
 21
470.49288158787721
 31
0.0
 73
     3
  0
TEXT
  5
6C
  8
SPEC
 62
     7
 10
-144.5660410661674
 20
453.1409562766973
 30
0.0
 40
5.7009440104166673
  1
A/V出力端子(HDMI)
 41
0.75
 11
-144.5660410661674
 21
458.84190028711402
 31
0.0
 73
     3
  0
TEXT
  5
6D
  8
SPEC
 62
     7
 10
-20.267073410628729
 20
453.44228379223
 30
0.0
 40
5.7009440104166673
  1
(1)Type A 19pn female
 41
0.75
 11
-20.267073410628729
 21
459.14322780264661
 31
0.0
 73
     3
  0
TEXT
  5
6E
  8
SPEC
 62
     7
 10
-144.91939541169771
 20
442.4438965735215
 30
0.0
 40
5.7009440104166673
  1
オーディオ出力端子
 41
0.75
 11
-144.91939541169771
 21
448.14484058393811
 31
0.0
 73
     3
  0
TEXT
  5
6F
  8
SPEC
 62
     7
 10
-20.130444127275371
 20
442.2176320788887
 30
0.0
 40
5.7009440104166673
  1
(1)Coaxial digital S/PDIF(RCA female)
 41
0.75
 11
-20.130444127275371
 21
447.9185760893053
 31
0.0
 73
     3
  0
TEXT
  5
70
  8
SPEC
 62
     7
 10
-144.7567119352735
 20
430.91243126731428
 30
0.0
 40
5.7009440104166673
  1
USB入力端子
 41
0.75
 11
-144.7567119352735
 21
436.613375277731
 31
0.0
 73
     3
  0
TEXT
  5
71
  8
SPEC
 62
     7
 10
-20.089662916677089
 20
431.05564763071192
 30
0.0
 40
5.7009440104166673
  1
(1)Type"B"female
 41
0.75
 11
-20.089662916677089
 21
436.75659164112852
 31
0.0
 73
     3
  0
TEXT
  5
72
  8
SPEC
 62
     7
 10
-145.5278648915008
 20
419.66210923292448
 30
0.0
 40
5.7009440104166673
  1
シリアル入力端子
 41
0.75
 11
-145.5278648915008
 21
425.3630532433412
 31
0.0
 73
     3
  0
TEXT
  5
73
  8
SPEC
 62
     7
 10
-20.024131587084771
 20
419.63119336471448
 30
0.0
 40
5.7009440104166673
  1
(1)DB9 female
 41
0.75
 11
-20.024131587084771
 21
425.3321373751312
 31
0.0
 73
     3
  0
TEXT
  5
74
  8
SPEC
 62
     7
 10
-144.69687994988519
 20
408.54095627669727
 30
0.0
 40
5.7009440104166673
  1
SDI準拠
 41
0.75
 11
-144.69687994988519
 21
414.24190028711399
 31
0.0
 73
     3
  0
TEXT
  5
75
  8
SPEC
 62
     7
 10
-18.720964155456969
 20
408.40495232515042
 30
0.0
 40
5.7009440104166673
  1
SMPTE 259M、360Mb/sまで
 41
0.75
 11
-18.720964155456969
 21
414.10589633556702
 31
0.0
 73
     3
  0
LINE
  5
76
  8
SPEC
  6
CONTINUOUS
 62
     7
 10
-147.49999999999989
 20
349.56729578973182
 30
0.0
 11
295.0
 21
349.56729578973182
 31
0.0
  0
LINE
  5
77
  8
SPEC
  6
CONTINUOUS
 62
     7
 10
-147.49999999999989
 20
338.3172957897317
 30
0.0
 11
295.0
 21
338.3172957897317
 31
0.0
  0
LINE
  5
78
  8
SPEC
  6
CONTINUOUS
 62
     7
 10
-147.49999999999989
 20
327.06729578973182
 30
0.0
 11
295.0
 21
327.06729578973182
 31
0.0
  0
TEXT
  5
79
  8
SPEC
 62
     7
 10
-144.75097550342531
 20
397.27319510068497
 30
0.0
 40
5.7009440104166673
  1
HD-SDI準拠
 41
0.75
 11
-144.75097550342531
 21
402.97413911110158
 31
0.0
 73
     3
  0
TEXT
  5
7A
  8
SPEC
 62
     7
 10
-18.69025240441535
 20
397.24148221225158
 30
0.0
 40
5.7009440104166673
  1
SMPTE 259M、1.485Gbpsまで
 41
0.75
 11
-18.69025240441535
 21
402.94242622266819
 31
0.0
 73
     3
  0
TEXT
  5
7B
  8
SPEC
 62
     7
 10
-144.7740729195387
 20
386.02331330150309
 30
0.0
 40
5.7009440104166673
  1
3G-SDI準拠
 41
0.75
 11
-144.7740729195387
 21
391.7242573119197
 31
0.0
 73
     3
  0
TEXT
  5
7C
  8
SPEC
 62
     7
 10
-18.761479513717649
 20
385.9802378453453
 30
0.0
 40
5.7009440104166673
  1
SMPTE 424M/425M、3.0Gbpsまで
 41
0.75
 11
-18.761479513717649
 21
391.68118185576202
 31
0.0
 73
     3
  0
TEXT
  5
7D
  8
SPEC
 62
     7
 10
-144.83460925075451
 20
374.83300000000003
 30
0.0
 40
5.7009440104166673
  1
3G-SDI SMPTE 425-A・425-B準拠
 41
0.75
 11
-144.83460925075451
 21
380.53394401041669
 31
0.0
 73
     3
  0
TEXT
  5
7E
  8
SPEC
 62
     7
 10
-18.811289841735391
 20
375.06761927795139
 30
0.0
 40
5.7009440104166673
  1
formats 1080p @50/59.94/60Hz
 41
0.75
 11
-18.811289841735391
 21
380.76856328836811
 31
0.0
 73
     3
  0
LINE
  5
7F
  8
SPEC
  6
CONTINUOUS
 62
     7
 10
-21.499999999999961
 20
507.0672957897317
 30
0.0
 11
-21.499999999999961
 21
327.06729578973182
 31
0.0
  0
TEXT
  5
80
  8
DIMNSIONS
 62
     7
 10
40.0
 20
-206.12423421026821
 30
0.0
 40
7.3297851562499989
  1
(単位：mm)
 41
0.75
 11
40.0
 21
-198.79444905401809
 31
0.0
 73
     3
  0
LINE
  5
81
  8
DIMNSIONS
  6
CONTINUOUS
 62
     7
 10
-99.750000000000014
 20
-93.75
 30
0.0
 11
-124.75
 21
-93.75
 31
0.0
  0
LINE
  5
82
  8
DIMNSIONS
  6
CONTINUOUS
 62
     7
 10
-99.750000000000014
 20
-50.75
 30
0.0
 11
-124.75
 21
-50.75
 31
0.0
  0
LINE
  5
83
  8
DIMNSIONS
  6
CONTINUOUS
 62
     7
 10
-118.75
 20
-93.75
 30
0.0
 11
-118.75
 21
-50.75
 31
0.0
  0
LINE
  5
84
  8
DIMNSIONS
  6
CONTINUOUS
 62
     7
 10
-118.75
 20
-93.75
 30
0.0
 11
-120.76011938545069
 21
-86.24813232421873
 31
0.0
  0
LINE
  5
85
  8
DIMNSIONS
  6
CONTINUOUS
 62
     7
 10
-118.75
 20
-93.75
 30
0.0
 11
-116.73988061454919
 21
-86.24813232421873
 31
0.0
  0
LINE
  5
86
  8
DIMNSIONS
  6
CONTINUOUS
 62
     7
 10
-118.75
 20
-50.75
 30
0.0
 11
-116.73988061454919
 21
-58.251867675781263
 31
0.0
  0
LINE
  5
87
  8
DIMNSIONS
  6
CONTINUOUS
 62
     7
 10
-118.75
 20
-50.75
 30
0.0
 11
-120.76011938545069
 21
-58.251867675781263
 31
0.0
  0
TEXT
  5
88
  8
DIMNSIONS
 62
     7
 10
-121.7316666666666
 20
-77.541666666666657
 30
0.0
 40
8.1442057291666661
  1
43
 50
90.0
 41
0.75
 11
-129.87587239583331
 21
-77.541666666666657
 31
0.0
 73
     3
  0
LINE
  5
89
  8
DIMNSIONS
  6
CONTINUOUS
 62
     7
 10
-100.5
 20
-96.75
 30
0.0
 11
-124.75
 21
-96.75
 31
0.0
  0
LINE
  5
8A
  8
DIMNSIONS
  6
CONTINUOUS
 62
     7
 10
-105.6961524227066
 20
-93.75
 30
0.0
 11
-124.75
 21
-93.75
 31
0.0
  0
LINE
  5
8B
  8
DIMNSIONS
  6
CONTINUOUS
 62
     7
 10
-118.75
 20
-93.75
 30
0.0
 11
-118.75
 21
-96.75
 31
0.0
  0
LINE
  5
8C
  8
DIMNSIONS
  6
CONTINUOUS
 62
     7
 10
-118.75
 20
-96.75
 30
0.0
 11
-118.75
 21
-111.2916666666666
 31
0.0
  0
LINE
  5
8D
  8
DIMNSIONS
  6
CONTINUOUS
 62
     7
 10
-118.75
 20
-96.75
 30
0.0
 11
-116.73988061454919
 21
-104.2518676757812
 31
0.0
  0
LINE
  5
8E
  8
DIMNSIONS
  6
CONTINUOUS
 62
     7
 10
-118.75
 20
-96.75
 30
0.0
 11
-120.76011938545069
 21
-104.2518676757812
 31
0.0
  0
LINE
  5
8F
  8
DIMNSIONS
  6
CONTINUOUS
 62
     7
 10
-118.75
 20
-93.75
 30
0.0
 11
-118.75
 21
-78.75
 31
0.0
  0
LINE
  5
90
  8
DIMNSIONS
  6
CONTINUOUS
 62
     7
 10
-118.75
 20
-93.75
 30
0.0
 11
-120.76011938545069
 21
-86.24813232421873
 31
0.0
  0
LINE
  5
91
  8
DIMNSIONS
  6
CONTINUOUS
 62
     7
 10
-118.75
 20
-93.75
 30
0.0
 11
-116.73988061454919
 21
-86.24813232421873
 31
0.0
  0
TEXT
  5
92
  8
DIMNSIONS
 62
     7
 10
-121.7316666666667
 20
-111.2916666666666
 30
0.0
 40
8.1442057291666661
  1
3
 50
90.0
 41
0.75
 11
-129.8758723958334
 21
-111.2916666666666
 31
0.0
 73
     3
  0
LINE
  5
93
  8
DIMNSIONS
  6
CONTINUOUS
 62
     7
 10
-93.75
 20
-99.750000000000014
 30
0.0
 11
-93.75
 21
-124.75
 31
0.0
  0
LINE
  5
94
  8
DIMNSIONS
  6
CONTINUOUS
 62
     7
 10
119.25
 20
-99.750000000000014
 30
0.0
 11
119.25
 21
-124.75
 31
0.0
  0
LINE
  5
95
  8
DIMNSIONS
  6
CONTINUOUS
 62
     7
 10
-93.75
 20
-118.75
 30
0.0
 11
119.25
 21
-118.75
 31
0.0
  0
LINE
  5
96
  8
DIMNSIONS
  6
CONTINUOUS
 62
     7
 10
-93.75
 20
-118.75
 30
0.0
 11
-86.248132324218759
 21
-116.73988061454919
 31
0.0
  0
LINE
  5
97
  8
DIMNSIONS
  6
CONTINUOUS
 62
     7
 10
-93.75
 20
-118.75
 30
0.0
 11
-86.248132324218759
 21
-120.76011938545069
 31
0.0
  0
LINE
  5
98
  8
DIMNSIONS
  6
CONTINUOUS
 62
     7
 10
119.25
 20
-118.75
 30
0.0
 11
111.7481323242187
 21
-120.76011938545069
 31
0.0
  0
LINE
  5
99
  8
DIMNSIONS
  6
CONTINUOUS
 62
     7
 10
119.25
 20
-118.75
 30
0.0
 11
111.7481323242187
 21
-116.73988061454919
 31
0.0
  0
TEXT
  5
9A
  8
DIMNSIONS
 62
     7
 10
4.812499999999984
 20
-115.7683333333333
 30
0.0
 40
8.1442057291666661
  1
213
 41
0.75
 11
4.8124999999999849
 21
-107.6241276041666
 31
0.0
 73
     3
  0
LINE
  5
9B
  8
DIMNSIONS
  6
CONTINUOUS
 62
     7
 10
-99.750000000000014
 20
-18.649999999999999
 30
0.0
 11
-124.75
 21
-18.649999999999999
 31
0.0
  0
LINE
  5
9C
  8
DIMNSIONS
  6
CONTINUOUS
 62
     7
 10
-99.750000000000014
 20
155.34999999999999
 30
0.0
 11
-124.75
 21
155.34999999999999
 31
0.0
  0
LINE
  5
9D
  8
DIMNSIONS
  6
CONTINUOUS
 62
     7
 10
-118.75
 20
-18.649999999999999
 30
0.0
 11
-118.75
 21
155.34999999999999
 31
0.0
  0
LINE
  5
9E
  8
DIMNSIONS
  6
CONTINUOUS
 62
     7
 10
-118.75
 20
-18.649999999999999
 30
0.0
 11
-120.76011938545069
 21
-11.14813232421875
 31
0.0
  0
LINE
  5
9F
  8
DIMNSIONS
  6
CONTINUOUS
 62
     7
 10
-118.75
 20
-18.649999999999999
 30
0.0
 11
-116.73988061454919
 21
-11.14813232421875
 31
0.0
  0
LINE
  5
A0
  8
DIMNSIONS
  6
CONTINUOUS
 62
     7
 10
-118.75
 20
155.34999999999999
 30
0.0
 11
-116.73988061454919
 21
147.84813232421871
 31
0.0
  0
LINE
  5
A1
  8
DIMNSIONS
  6
CONTINUOUS
 62
     7
 10
-118.75
 20
155.34999999999999
 30
0.0
 11
-120.76011938545069
 21
147.84813232421871
 31
0.0
  0
TEXT
  5
A2
  8
DIMNSIONS
 62
     7
 10
-121.7316666666666
 20
60.412500000000001
 30
0.0
 40
8.1442057291666661
  1
174
 50
90.0
 41
0.75
 11
-129.87587239583331
 21
60.412500000000001
 31
0.0
 73
     3
  0
LINE
  5
A3
  8
DIMNSIONS
  6
CONTINUOUS
 62
     7
 10
-99.750000000000014
 20
155.34999999999999
 30
0.0
 11
-124.75
 21
155.34999999999999
 31
0.0
  0
LINE
  5
A4
  8
DIMNSIONS
  6
CONTINUOUS
 62
     7
 10
-42.500000000000007
 20
171.34999999999999
 30
0.0
 11
-124.75
 21
171.34999999999999
 31
0.0
  0
LINE
  5
A5
  8
DIMNSIONS
  6
CONTINUOUS
 62
     7
 10
-118.75
 20
171.34999999999999
 30
0.0
 11
-118.75
 21
155.34999999999999
 31
0.0
  0
LINE
  5
A6
  8
DIMNSIONS
  6
CONTINUOUS
 62
     7
 10
-118.75
 20
155.34999999999999
 30
0.0
 11
-118.75
 21
140.34999999999999
 31
0.0
  0
LINE
  5
A7
  8
DIMNSIONS
  6
CONTINUOUS
 62
     7
 10
-118.75
 20
155.34999999999999
 30
0.0
 11
-116.73988061454919
 21
147.84813232421871
 31
0.0
  0
LINE
  5
A8
  8
DIMNSIONS
  6
CONTINUOUS
 62
     7
 10
-118.75
 20
155.34999999999999
 30
0.0
 11
-120.76011938545069
 21
147.84813232421871
 31
0.0
  0
LINE
  5
A9
  8
DIMNSIONS
  6
CONTINUOUS
 62
     7
 10
-118.75
 20
171.34999999999999
 30
0.0
 11
-118.75
 21
191.83333333333329
 31
0.0
  0
LINE
  5
AA
  8
DIMNSIONS
  6
CONTINUOUS
 62
     7
 10
-118.75
 20
171.34999999999999
 30
0.0
 11
-120.76011938545069
 21
178.85186767578119
 31
0.0
  0
LINE
  5
AB
  8
DIMNSIONS
  6
CONTINUOUS
 62
     7
 10
-118.75
 20
171.34999999999999
 30
0.0
 11
-116.73988061454919
 21
178.85186767578119
 31
0.0
  0
TEXT
  5
AC
  8
DIMNSIONS
 62
     7
 10
-121.7316666666666
 20
181.25
 30
0.0
 40
8.1442057291666661
  1
16
 50
90.0
 41
0.75
 11
-129.87587239583331
 21
181.25
 31
0.0
 73
     3
  0
TEXT
  5
AD
  8
DATA
 62
     7
 10
250.0
 20
-210.288246439261
 30
0.0
 40
7.3297851562499989
  1
EXT-3GSDI-2-HDMI1.3S
 41
0.75
 11
250.0
 21
-202.95846128301099
 31
0.0
 73
     3
  0
TEXT
  5
AE
  8
DATA
 62
     7
 10
250.0
 20
-187.7900342102682
 30
0.0
 40
7.3297851562499989
  1
Gefen
 41
0.75
 11
250.0
 21
-180.46024905401811
 31
0.0
 73
     3
  0
TEXT
  5
AF
  8
DATA
 62
     7
 10
243.68394955381709
 20
-197.62233302707381
 30
0.0
 40
4.8865311328124994
  1
3GSDI to HDMI1.3変喚機
 41
0.75
 11
243.68394955381709
 21
-192.7358018942613
 31
0.0
 73
     3
  0
TEXT
  5
B0
  8
DATA
 62
     7
 10
-139.99999999999989
 20
-230.21870421026821
 30
0.0
 40
4.8865234374999993
  1
仕様および外観は予告なく変更されることがありますので、ご了承ください。
 41
0.75
 11
-139.99999999999989
 21
-225.3321807727682
 31
0.0
 73
     3
  0
LINE
  5
B1
  8
DATA
  6
CONTINUOUS
 62
     7
 10
-93.75
 20
-93.75
 30
0.0
 11
-93.75
 21
-50.75
 31
0.0
  0
LINE
  5
B2
  8
DATA
  6
CONTINUOUS
 62
     7
 10
119.25
 20
-93.75
 30
0.0
 11
-93.75
 21
-93.75
 31
0.0
  0
LINE
  5
B3
  8
DATA
  6
CONTINUOUS
 62
     7
 10
119.25
 20
-50.75
 30
0.0
 11
119.25
 21
-93.75
 31
0.0
  0
LINE
  5
B4
  8
DATA
  6
CONTINUOUS
 62
     7
 10
-93.75
 20
-50.75
 30
0.0
 11
119.25
 21
-50.75
 31
0.0
  0
LINE
  5
B5
  8
DATA
  6
CONTINUOUS
 62
     7
 10
-93.75
 20
-18.649999999999999
 30
0.0
 11
-93.75
 21
155.34999999999999
 31
0.0
  0
LINE
  5
B6
  8
DATA
  6
CONTINUOUS
 62
     7
 10
119.25
 20
-18.649999999999999
 30
0.0
 11
-93.75
 21
-18.649999999999999
 31
0.0
  0
LINE
  5
B7
  8
DATA
  6
CONTINUOUS
 62
     7
 10
119.25
 20
155.34999999999999
 30
0.0
 11
119.25
 21
-18.649999999999999
 31
0.0
  0
LINE
  5
B8
  8
DATA
  6
CONTINUOUS
 62
     7
 10
-93.75
 20
155.34999999999999
 30
0.0
 11
119.25
 21
155.34999999999999
 31
0.0
  0
LINE
  5
B9
  8
DATA
  6
CONTINUOUS
 62
     7
 10
-88.250000000000014
 20
-96.75
 30
0.0
 11
-78.250000000000014
 21
-96.75
 31
0.0
  0
LINE
  5
BA
  8
DATA
  6
CONTINUOUS
 62
     7
 10
-88.250000000000014
 20
-96.75
 30
0.0
 11
-89.750000000000014
 21
-93.75
 31
0.0
  0
LINE
  5
BB
  8
DATA
  6
CONTINUOUS
 62
     7
 10
-78.250000000000014
 20
-96.75
 30
0.0
 11
-76.750000000000014
 21
-93.75
 31
0.0
  0
LINE
  5
BC
  8
DATA
  6
CONTINUOUS
 62
     7
 10
113.75
 20
-96.75
 30
0.0
 11
103.75
 21
-96.75
 31
0.0
  0
LINE
  5
BD
  8
DATA
  6
CONTINUOUS
 62
     7
 10
113.75
 20
-96.75
 30
0.0
 11
115.25
 21
-93.75
 31
0.0
  0
LINE
  5
BE
  8
DATA
  6
CONTINUOUS
 62
     7
 10
103.75
 20
-96.75
 30
0.0
 11
102.25
 21
-93.75
 31
0.0
  0
CIRCLE
  5
BF
  8
DATA
  6
CONTINUOUS
 62
     7
 10
-68.750000000000014
 20
-79.75
 30
0.0
 40
4.9000000000000048
  0
TEXT
  5
C0
  8
DATA
 62
     7
 10
-70.093303123130923
 20
-90.611065024685814
 30
0.0
 40
2.2803776041666661
  1
IR
 41
0.75
 11
-70.093303123130923
 21
-88.330687420519155
 31
0.0
 73
     3
  0
CIRCLE
  5
C1
  8
DATA
  6
CONTINUOUS
 62
     7
 10
95.249999999999986
 20
-78.75
 30
0.0
 40
1.4499999999999991
  0
CIRCLE
  5
C2
  8
DATA
  6
CONTINUOUS
 62
     7
 10
75.45662224506259
 20
-78.75
 30
0.0
 40
1.4499999999999951
  0
TEXT
  5
C3
  8
DATA
 62
     7
 10
72.153014206484301
 20
-86.529640633641137
 30
0.0
 40
2.2803776041666661
  1
3GSDI
 41
0.75
 11
72.153014206484301
 21
-84.249263029474491
 31
0.0
 73
     3
  0
TEXT
  5
C4
  8
DATA
 62
     7
 10
91.926951563985327
 20
-86.529640633641137
 30
0.0
 40
2.2803776041666661
  1
Power
 41
0.75
 11
91.926951563985327
 21
-84.249263029474491
 31
0.0
 73
     3
  0
TEXT
  5
C5
  8
DATA
 62
     7
 10
55.784117047335393
 20
-62.99781729199951
 30
0.0
 40
7.3297851562499989
  1
3GSDItoHDMI
 41
0.75
 11
55.784117047335393
 21
-55.668032135749513
 31
0.0
 73
     3
  0
TEXT
  5
C6
  8
DATA
 62
     7
 10
79.158668434005619
 20
-73.091679445332019
 30
0.0
 40
7.3297851562499989
  1
Scaler
 41
0.75
 11
79.158668434005619
 21
-65.761894289082022
 31
0.0
 73
     3
  0
LINE
  5
C7
  8
DATA
  6
CONTINUOUS
 62
     7
 10
119.25
 20
-8.6500000000000057
 30
0.0
 11
-93.75
 21
-8.6500000000000057
 31
0.0
  0
LINE
  5
C8
  8
DATA
  6
CONTINUOUS
 62
     7
 10
-93.75
 20
249.25000000025449
 30
0.0
 11
-93.75
 21
206.25000000025449
 31
0.0
  0
LINE
  5
C9
  8
DATA
  6
CONTINUOUS
 62
     7
 10
119.25
 20
249.25000000025449
 30
0.0
 11
-93.75
 21
249.25000000025449
 31
0.0
  0
LINE
  5
CA
  8
DATA
  6
CONTINUOUS
 62
     7
 10
119.25
 20
206.25000000025449
 30
0.0
 11
119.25
 21
249.25000000025449
 31
0.0
  0
LINE
  5
CB
  8
DATA
  6
CONTINUOUS
 62
     7
 10
-93.75
 20
206.25000000025449
 30
0.0
 11
119.25
 21
206.25000000025449
 31
0.0
  0
LINE
  5
CC
  8
DATA
  6
CONTINUOUS
 62
     7
 10
-88.250000000000014
 20
252.25000000025449
 30
0.0
 11
-78.250000000000014
 21
252.25000000025449
 31
0.0
  0
LINE
  5
CD
  8
DATA
  6
CONTINUOUS
 62
     7
 10
-88.250000000000014
 20
252.25000000025449
 30
0.0
 11
-89.750000000000014
 21
249.25000000025449
 31
0.0
  0
LINE
  5
CE
  8
DATA
  6
CONTINUOUS
 62
     7
 10
-78.250000000000014
 20
252.25000000025449
 30
0.0
 11
-76.750000000000014
 21
249.25000000025449
 31
0.0
  0
LINE
  5
CF
  8
DATA
  6
CONTINUOUS
 62
     7
 10
113.75
 20
252.25000000025449
 30
0.0
 11
103.75
 21
252.25000000025449
 31
0.0
  0
LINE
  5
D0
  8
DATA
  6
CONTINUOUS
 62
     7
 10
113.75
 20
252.25000000025449
 30
0.0
 11
115.25
 21
249.25000000025449
 31
0.0
  0
LINE
  5
D1
  8
DATA
  6
CONTINUOUS
 62
     7
 10
103.75
 20
252.25000000025449
 30
0.0
 11
102.25
 21
249.25000000025449
 31
0.0
  0
CIRCLE
  5
D2
  8
DATA
  6
CONTINUOUS
 62
     7
 10
-31.750000000000011
 20
232.25000000025449
 30
0.0
 40
4.75
  0
POLYLINE
  5
D3
  8
DATA
  6
CONTINUOUS
 62
     7
 66
     1
 10
0.0
 20
0.0
 30
0.0
 70
     1
  0
VERTEX
  5
2F3
  8
DATA
  6
CONTINUOUS
 62
     7
 10
-35.791451884327401
 20
239.25000000025449
 30
0.0
  0
VERTEX
  5
2F4
  8
DATA
  6
CONTINUOUS
 62
     7
 10
-39.832903768654788
 20
232.25000000025449
 30
0.0
  0
VERTEX
  5
2F5
  8
DATA
  6
CONTINUOUS
 62
     7
 10
-35.791451884327401
 20
225.25000000025449
 30
0.0
  0
VERTEX
  5
2F6
  8
DATA
  6
CONTINUOUS
 62
     7
 10
-27.708548115672631
 20
225.25000000025449
 30
0.0
  0
VERTEX
  5
2F7
  8
DATA
  6
CONTINUOUS
 62
     7
 10
-23.667096231345241
 20
232.25000000025449
 30
0.0
  0
VERTEX
  5
2F8
  8
DATA
  6
CONTINUOUS
 62
     7
 10
-27.708548115672631
 20
239.25000000025449
 30
0.0
  0
SEQEND
  5
2F9
  8
DATA
  6
CONTINUOUS
 62
     7
  0
CIRCLE
  5
DC
  8
DATA
  6
CONTINUOUS
 62
     7
 10
-31.750000000000011
 20
232.25000000025449
 30
0.0
 40
1.5
  0
CIRCLE
  5
DD
  8
DATA
  6
CONTINUOUS
 62
     7
 10
-31.750000000000011
 20
232.25000000025449
 30
0.0
 40
0.5
  0
CIRCLE
  5
DE
  8
DATA
  6
CONTINUOUS
 62
     7
 10
-31.750000000000011
 20
232.25000000025449
 30
0.0
 40
8.0829037686547647
  0
CIRCLE
  5
DF
  8
DATA
  6
CONTINUOUS
 62
     7
 10
-13.750000000000011
 20
232.25000000025449
 30
0.0
 40
4.75
  0
POLYLINE
  5
E0
  8
DATA
  6
CONTINUOUS
 62
     7
 66
     1
 10
0.0
 20
0.0
 30
0.0
 70
     1
  0
VERTEX
  5
2FA
  8
DATA
  6
CONTINUOUS
 62
     7
 10
-17.791451884327401
 20
239.25000000025449
 30
0.0
  0
VERTEX
  5
2FB
  8
DATA
  6
CONTINUOUS
 62
     7
 10
-21.832903768654791
 20
232.25000000025449
 30
0.0
  0
VERTEX
  5
2FC
  8
DATA
  6
CONTINUOUS
 62
     7
 10
-17.791451884327401
 20
225.25000000025449
 30
0.0
  0
VERTEX
  5
2FD
  8
DATA
  6
CONTINUOUS
 62
     7
 10
-9.7085481156726274
 20
225.25000000025449
 30
0.0
  0
VERTEX
  5
2FE
  8
DATA
  6
CONTINUOUS
 62
     7
 10
-5.6670962313452398
 20
232.25000000025449
 30
0.0
  0
VERTEX
  5
2FF
  8
DATA
  6
CONTINUOUS
 62
     7
 10
-9.7085481156726274
 20
239.25000000025449
 30
0.0
  0
SEQEND
  5
300
  8
DATA
  6
CONTINUOUS
 62
     7
  0
CIRCLE
  5
E9
  8
DATA
  6
CONTINUOUS
 62
     7
 10
-13.750000000000011
 20
232.25000000025449
 30
0.0
 40
1.5
  0
CIRCLE
  5
EA
  8
DATA
  6
CONTINUOUS
 62
     7
 10
-13.750000000000011
 20
232.25000000025449
 30
0.0
 40
0.5
  0
CIRCLE
  5
EB
  8
DATA
  6
CONTINUOUS
 62
     7
 10
-13.750000000000011
 20
232.25000000025449
 30
0.0
 40
8.0829037686547647
  0
CIRCLE
  5
EC
  8
DATA
  6
CONTINUOUS
 62
     7
 10
4.2499999999999849
 20
232.25000000025449
 30
0.0
 40
4.75
  0
POLYLINE
  5
ED
  8
DATA
  6
CONTINUOUS
 62
     7
 66
     1
 10
0.0
 20
0.0
 30
0.0
 70
     1
  0
VERTEX
  5
301
  8
DATA
  6
CONTINUOUS
 62
     7
 10
0.208548115672599
 20
239.25000000025449
 30
0.0
  0
VERTEX
  5
302
  8
DATA
  6
CONTINUOUS
 62
     7
 10
-3.8329037686547882
 20
232.25000000025449
 30
0.0
  0
VERTEX
  5
303
  8
DATA
  6
CONTINUOUS
 62
     7
 10
0.208548115672599
 20
225.25000000025449
 30
0.0
  0
VERTEX
  5
304
  8
DATA
  6
CONTINUOUS
 62
     7
 10
8.2914518843273584
 20
225.25000000025449
 30
0.0
  0
VERTEX
  5
305
  8
DATA
  6
CONTINUOUS
 62
     7
 10
12.33290376865474
 20
232.25000000025449
 30
0.0
  0
VERTEX
  5
306
  8
DATA
  6
CONTINUOUS
 62
     7
 10
8.2914518843273584
 20
239.25000000025449
 30
0.0
  0
SEQEND
  5
307
  8
DATA
  6
CONTINUOUS
 62
     7
  0
CIRCLE
  5
F6
  8
DATA
  6
CONTINUOUS
 62
     7
 10
4.2499999999999849
 20
232.25000000025449
 30
0.0
 40
1.5
  0
CIRCLE
  5
F7
  8
DATA
  6
CONTINUOUS
 62
     7
 10
4.2499999999999849
 20
232.25000000025449
 30
0.0
 40
0.5
  0
CIRCLE
  5
F8
  8
DATA
  6
CONTINUOUS
 62
     7
 10
4.2499999999999849
 20
232.25000000025449
 30
0.0
 40
8.0829037686547647
  0
CIRCLE
  5
F9
  8
DATA
  6
CONTINUOUS
 62
     7
 10
22.249999999999989
 20
232.25000000025449
 30
0.0
 40
4.75
  0
POLYLINE
  5
FA
  8
DATA
  6
CONTINUOUS
 62
     7
 66
     1
 10
0.0
 20
0.0
 30
0.0
 70
     1
  0
VERTEX
  5
308
  8
DATA
  6
CONTINUOUS
 62
     7
 10
18.208548115672599
 20
239.25000000025449
 30
0.0
  0
VERTEX
  5
309
  8
DATA
  6
CONTINUOUS
 62
     7
 10
14.16709623134521
 20
232.25000000025449
 30
0.0
  0
VERTEX
  5
30A
  8
DATA
  6
CONTINUOUS
 62
     7
 10
18.208548115672599
 20
225.25000000025449
 30
0.0
  0
VERTEX
  5
30B
  8
DATA
  6
CONTINUOUS
 62
     7
 10
26.291451884327358
 20
225.25000000025449
 30
0.0
  0
VERTEX
  5
30C
  8
DATA
  6
CONTINUOUS
 62
     7
 10
30.332903768654749
 20
232.25000000025449
 30
0.0
  0
VERTEX
  5
30D
  8
DATA
  6
CONTINUOUS
 62
     7
 10
26.291451884327358
 20
239.25000000025449
 30
0.0
  0
SEQEND
  5
30E
  8
DATA
  6
CONTINUOUS
 62
     7
  0
CIRCLE
  5
103
  8
DATA
  6
CONTINUOUS
 62
     7
 10
22.249999999999989
 20
232.25000000025449
 30
0.0
 40
1.5
  0
CIRCLE
  5
104
  8
DATA
  6
CONTINUOUS
 62
     7
 10
22.249999999999989
 20
232.25000000025449
 30
0.0
 40
0.5
  0
CIRCLE
  5
105
  8
DATA
  6
CONTINUOUS
 62
     7
 10
22.249999999999989
 20
232.25000000025449
 30
0.0
 40
8.0829037686547647
  0
CIRCLE
  5
106
  8
DATA
  6
CONTINUOUS
 62
     7
 10
41.249999999999993
 20
232.25000000025449
 30
0.0
 40
4.1500000000000048
  0
CIRCLE
  5
107
  8
DATA
  6
CONTINUOUS
 62
     7
 10
41.249999999999993
 20
232.25000000025449
 30
0.0
 40
1.75
  0
CIRCLE
  5
108
  8
DATA
  6
CONTINUOUS
 62
     7
 10
96.25
 20
231.25000000025449
 30
0.0
 40
3.8999999999999981
  0
POLYLINE
  5
109
  8
DATA
  6
CONTINUOUS
 62
     7
 66
     1
 10
0.0
 20
0.0
 30
0.0
 70
     1
  0
VERTEX
  5
30F
  8
DATA
  6
CONTINUOUS
 62
     7
 10
93.536453734808731
 20
235.95000000025451
 30
0.0
  0
VERTEX
  5
310
  8
DATA
  6
CONTINUOUS
 62
     7
 10
90.822907469617505
 20
231.25000000025449
 30
0.0
  0
VERTEX
  5
311
  8
DATA
  6
CONTINUOUS
 62
     7
 10
93.536453734808731
 20
226.5500000002545
 30
0.0
  0
VERTEX
  5
312
  8
DATA
  6
CONTINUOUS
 62
     7
 10
98.963546265191212
 20
226.5500000002545
 30
0.0
  0
VERTEX
  5
313
  8
DATA
  6
CONTINUOUS
 62
     7
 10
101.6770925303825
 20
231.25000000025449
 30
0.0
  0
VERTEX
  5
314
  8
DATA
  6
CONTINUOUS
 62
     7
 10
98.963546265191212
 20
235.95000000025451
 30
0.0
  0
SEQEND
  5
315
  8
DATA
  6
CONTINUOUS
 62
     7
  0
CIRCLE
  5
112
  8
DATA
  6
CONTINUOUS
 62
     7
 10
96.25
 20
231.25000000025449
 30
0.0
 40
0.5
  0
POLYLINE
  5
113
  8
DATA
  6
CONTINUOUS
 62
     7
 66
     1
 10
0.0
 20
0.0
 30
0.0
 70
     1
  0
VERTEX
  5
316
  8
DATA
  6
CONTINUOUS
 62
     7
 10
73.499999999999986
 20
240.30039427231461
 30
0.0
  0
VERTEX
  5
317
  8
DATA
  6
CONTINUOUS
 62
     7
 10
84.999999999999986
 20
240.30039427231461
 30
0.0
  0
VERTEX
  5
318
  8
DATA
  6
CONTINUOUS
 62
     7
 10
84.999999999999986
 20
228.80039427231461
 30
0.0
  0
VERTEX
  5
319
  8
DATA
  6
CONTINUOUS
 62
     7
 10
73.499999999999986
 20
228.80039427231461
 30
0.0
  0
SEQEND
  5
31A
  8
DATA
  6
CONTINUOUS
 62
     7
  0
POLYLINE
  5
11A
  8
DATA
  6
CONTINUOUS
 62
     7
 66
     1
 10
0.0
 20
0.0
 30
0.0
  0
VERTEX
  5
31B
  8
DATA
  6
CONTINUOUS
 62
     7
 10
74.950000000000003
 20
231.4503942723145
 30
0.0
  0
VERTEX
  5
31C
  8
DATA
  6
CONTINUOUS
 62
     7
 10
74.950000000000003
 20
238.85039427231459
 30
0.0
  0
VERTEX
  5
31D
  8
DATA
  6
CONTINUOUS
 62
     7
 10
83.549999999999983
 20
238.85039427231459
 30
0.0
  0
VERTEX
  5
31E
  8
DATA
  6
CONTINUOUS
 62
     7
 10
83.549999999999983
 20
231.4503942723145
 30
0.0
  0
SEQEND
  5
31F
  8
DATA
  6
CONTINUOUS
 62
     7
  0
LINE
  5
121
  8
DATA
  6
CONTINUOUS
 62
     7
 10
82.349999999999966
 20
230.25039427231451
 30
0.0
 11
76.149999999999977
 21
230.25039427231451
 31
0.0
  0
POLYLINE
  5
122
  8
DATA
  6
CONTINUOUS
 62
     7
 66
     1
 10
0.0
 20
0.0
 30
0.0
 70
     1
  0
VERTEX
  5
320
  8
DATA
  6
CONTINUOUS
 62
     7
 10
76.249999999999986
 20
236.55039427231461
 30
0.0
  0
VERTEX
  5
321
  8
DATA
  6
CONTINUOUS
 62
     7
 10
82.249999999999986
 20
236.55039427231461
 30
0.0
  0
VERTEX
  5
322
  8
DATA
  6
CONTINUOUS
 62
     7
 10
82.249999999999986
 20
232.55039427231461
 30
0.0
  0
VERTEX
  5
323
  8
DATA
  6
CONTINUOUS
 62
     7
 10
76.249999999999986
 20
232.55039427231461
 30
0.0
  0
SEQEND
  5
324
  8
DATA
  6
CONTINUOUS
 62
     7
  0
LINE
  5
129
  8
DATA
  6
CONTINUOUS
 62
     7
 10
76.149999999999977
 20
230.25039427231451
 30
0.0
 11
74.950000000000003
 21
231.4503942723145
 31
0.0
  0
LINE
  5
12A
  8
DATA
  6
CONTINUOUS
 62
     7
 10
82.349999999999966
 20
230.25039427231451
 30
0.0
 11
83.549999999999983
 21
231.4503942723145
 31
0.0
  0
TEXT
  5
12B
  8
DATA
 62
     7
 10
100.4731843748732
 20
247.39957865534441
 30
0.0
 40
2.7703125000000002
  1
5V DC
 50
180.0
 41
0.75
 11
100.4731843748732
 21
244.62926615534451
 31
0.0
 73
     3
  0
TEXT
  5
12C
  8
DATA
 62
     7
 10
84.502308980567904
 20
247.39957865534441
 30
0.0
 40
2.7703125000000002
  1
USB In
 50
180.0
 41
0.75
 11
84.502308980567904
 21
244.62926615534451
 31
0.0
 73
     3
  0
CIRCLE
  5
12D
  8
DATA
  6
CONTINUOUS
 62
     7
 10
66.830151705025003
 20
215.27583410977371
 30
0.0
 40
1.1750000000000109
  0
POLYLINE
  5
12E
  8
DATA
  6
CONTINUOUS
 62
     7
 66
     1
 10
0.0
 20
0.0
 30
0.0
 70
     1
  0
VERTEX
  5
325
  8
DATA
  6
CONTINUOUS
 62
     7
 10
66.830151705025003
 20
212.57583410977389
 30
0.0
  0
VERTEX
  5
326
  8
DATA
  6
CONTINUOUS
 62
     7
 10
69.168420295242811
 20
213.9258341097738
 30
0.0
  0
VERTEX
  5
327
  8
DATA
  6
CONTINUOUS
 62
     7
 10
69.168420295242811
 20
216.62583410977351
 30
0.0
  0
VERTEX
  5
328
  8
DATA
  6
CONTINUOUS
 62
     7
 10
66.830151705025003
 20
217.9758341097735
 30
0.0
  0
VERTEX
  5
329
  8
DATA
  6
CONTINUOUS
 62
     7
 10
64.491883114807024
 20
216.62583410977351
 30
0.0
  0
VERTEX
  5
32A
  8
DATA
  6
CONTINUOUS
 62
     7
 10
64.491883114807024
 20
213.9258341097738
 30
0.0
  0
SEQEND
  5
32B
  8
DATA
  6
CONTINUOUS
 62
     7
  0
CIRCLE
  5
137
  8
DATA
  6
CONTINUOUS
 62
     7
 10
91.830151705025116
 20
215.27583410977371
 30
0.0
 40
1.1750000000000389
  0
POLYLINE
  5
138
  8
DATA
  6
CONTINUOUS
 62
     7
 66
     1
 10
0.0
 20
0.0
 30
0.0
 70
     1
  0
VERTEX
  5
32C
  8
DATA
  6
CONTINUOUS
 62
     7
 10
91.830151705025116
 20
212.57583410977389
 30
0.0
  0
VERTEX
  5
32D
  8
DATA
  6
CONTINUOUS
 62
     7
 10
94.168420295242996
 20
213.9258341097738
 30
0.0
  0
VERTEX
  5
32E
  8
DATA
  6
CONTINUOUS
 62
     7
 10
94.168420295242996
 20
216.62583410977351
 30
0.0
  0
VERTEX
  5
32F
  8
DATA
  6
CONTINUOUS
 62
     7
 10
91.830151705025116
 20
217.9758341097735
 30
0.0
  0
VERTEX
  5
330
  8
DATA
  6
CONTINUOUS
 62
     7
 10
89.491883114807067
 20
216.62583410977351
 30
0.0
  0
VERTEX
  5
331
  8
DATA
  6
CONTINUOUS
 62
     7
 10
89.491883114807067
 20
213.9258341097738
 30
0.0
  0
SEQEND
  5
332
  8
DATA
  6
CONTINUOUS
 62
     7
  0
LINE
  5
141
  8
DATA
  6
CONTINUOUS
 62
     7
 10
73.728388494836338
 20
219.2758341097736
 30
0.0
 11
84.931914915213554
 21
219.2758341097736
 31
0.0
  0
LINE
  5
142
  8
DATA
  6
CONTINUOUS
 62
     7
 10
85.74441491521344
 20
211.2758341097738
 30
0.0
 11
72.915888494836338
 21
211.2758341097738
 31
0.0
  0
LINE
  5
143
  8
DATA
  6
CONTINUOUS
 62
     7
 10
86.3151317624651
 20
218.0919617421566
 30
0.0
 11
87.127631762464986
 21
212.89196174215689
 31
0.0
  0
LINE
  5
144
  8
DATA
  6
CONTINUOUS
 62
     7
 10
71.532671647584777
 20
212.89196174215689
 30
0.0
 11
72.345171647584763
 21
218.0919617421566
 31
0.0
  0
CIRCLE
  5
145
  8
DATA
  6
CONTINUOUS
 62
     7
 10
79.356781475499872
 20
213.63952593862021
 30
0.0
 40
0.5
  0
ARC
  5
146
  8
DATA
  6
CONTINUOUS
 62
     7
 10
85.74441491521344
 20
212.6758341097738
 30
0.0
 40
1.399999999999977
 50
270.0
 51
8.8806591505205574
  0
ARC
  5
147
  8
DATA
  6
CONTINUOUS
 62
     7
 10
72.915888494836338
 20
212.6758341097738
 30
0.0
 40
1.400000000000019
 50
171.1193408494795
 51
270.0
  0
ARC
  5
148
  8
DATA
  6
CONTINUOUS
 62
     7
 10
84.931914915213554
 20
217.87583410977351
 30
0.0
 40
1.4000000000000281
 50
8.8806591505228312
 51
90.0
  0
ARC
  5
149
  8
DATA
  6
CONTINUOUS
 62
     7
 10
73.728388494836338
 20
217.87583410977351
 30
0.0
 40
1.4000000000001469
 50
90.0
 51
171.11934084947711
  0
CIRCLE
  5
14A
  8
DATA
  6
CONTINUOUS
 62
     7
 10
81.856781475499872
 20
213.63952593862021
 30
0.0
 40
0.5
  0
CIRCLE
  5
14B
  8
DATA
  6
CONTINUOUS
 62
     7
 10
84.356781475499872
 20
213.63952593862021
 30
0.0
 40
0.5
  0
CIRCLE
  5
14C
  8
DATA
  6
CONTINUOUS
 62
     7
 10
76.856781475499872
 20
213.63952593862021
 30
0.0
 40
0.5
  0
CIRCLE
  5
14D
  8
DATA
  6
CONTINUOUS
 62
     7
 10
74.356781475499872
 20
213.63952593862021
 30
0.0
 40
0.5
  0
CIRCLE
  5
14E
  8
DATA
  6
CONTINUOUS
 62
     7
 10
80.552292651571122
 20
217.25804635738251
 30
0.0
 40
0.5
  0
CIRCLE
  5
14F
  8
DATA
  6
CONTINUOUS
 62
     7
 10
83.052292651571122
 20
217.25804635738251
 30
0.0
 40
0.5
  0
CIRCLE
  5
150
  8
DATA
  6
CONTINUOUS
 62
     7
 10
78.052292651571122
 20
217.25804635738251
 30
0.0
 40
0.5
  0
CIRCLE
  5
151
  8
DATA
  6
CONTINUOUS
 62
     7
 10
75.552292651571122
 20
217.25804635738251
 30
0.0
 40
0.5
  0
TEXT
  5
152
  8
DATA
 62
     7
 10
88.237487784783568
 20
224.05427103902241
 30
0.0
 40
2.7703125000000002
  1
RS-232/422
 50
180.0
 41
0.75
 11
88.237487784783568
 21
221.28395853902239
 31
0.0
 73
     3
  0
TEXT
  5
153
  8
DATA
 62
     7
 10
45.140448383031938
 20
244.0565079189688
 30
0.0
 40
2.7703125000000002
  1
Coax
 50
180.0
 41
0.75
 11
45.140448383031938
 21
241.2861954189689
 31
0.0
 73
     3
  0
TEXT
  5
154
  8
DATA
 62
     7
 10
44.033451571866372
 20
247.48763030631019
 30
0.0
 40
2.7703125000000002
  1
Out
 50
180.0
 41
0.75
 11
44.033451571866372
 21
244.71731780631021
 31
0.0
 73
     3
  0
TEXT
  5
155
  8
DATA
 62
     7
 10
25.737692505203729
 20
247.48763030631019
 30
0.0
 40
2.7703125000000002
  1
In 1
 50
180.0
 41
0.75
 11
25.737692505203729
 21
244.71731780631021
 31
0.0
 73
     3
  0
TEXT
  5
156
  8
DATA
 62
     7
 10
8.1330405401444779
 20
244.0565079189688
 30
0.0
 40
2.7703125000000002
  1
Loop
 50
180.0
 41
0.75
 11
8.1330405401444779
 21
241.2861954189689
 31
0.0
 73
     3
  0
TEXT
  5
157
  8
DATA
 62
     7
 10
8.9544618674172778
 20
247.48763030631019
 30
0.0
 40
2.7703125000000002
  1
Out 1
 50
180.0
 41
0.75
 11
8.9544618674172778
 21
244.71731780631021
 31
0.0
 73
     3
  0
TEXT
  5
158
  8
DATA
 62
     7
 10
-9.3608998141094872
 20
247.48763030631019
 30
0.0
 40
2.7703125000000002
  1
In 2
 50
180.0
 41
0.75
 11
-9.3608998141094872
 21
244.71731780631021
 31
0.0
 73
     3
  0
TEXT
  5
159
  8
DATA
 62
     7
 10
-26.96555177916845
 20
244.0565079189688
 30
0.0
 40
2.7703125000000002
  1
Loop
 50
180.0
 41
0.75
 11
-26.96555177916845
 21
241.2861954189689
 31
0.0
 73
     3
  0
TEXT
  5
15A
  8
DATA
 62
     7
 10
-26.14413045189572
 20
247.48763030631019
 30
0.0
 40
2.7703125000000002
  1
Out 2
 50
180.0
 41
0.75
 11
-26.14413045189572
 21
244.71731780631021
 31
0.0
 73
     3
  0
TEXT
  5
15B
  8
DATA
 62
     7
 10
-61.232189166338522
 20
244.1400507005977
 30
0.0
 40
2.7703125000000002
  1
MDMI
 50
180.0
 41
0.75
 11
-61.232189166338522
 21
241.36973820059771
 31
0.0
 73
     3
  0
TEXT
  5
15C
  8
DATA
 62
     7
 10
-61.998080690015833
 20
247.48763030631019
 30
0.0
 40
2.7703125000000002
  1
Out
 50
180.0
 41
0.75
 11
-61.998080690015833
 21
244.71731780631021
 31
0.0
 73
     3
  0
POLYLINE
  5
15D
  8
DATA
  6
CONTINUOUS
 62
     7
 66
     1
 10
0.0
 20
0.0
 30
0.0
 70
     1
  0
VERTEX
  5
333
  8
DATA
  6
CONTINUOUS
 62
     7
 10
-67.255361877905173
 20
225.7805826094733
 30
0.0
  0
VERTEX
  5
334
  8
DATA
  6
CONTINUOUS
 62
     7
 10
-64.755361877905173
 20
224.33720693649931
 30
0.0
  0
VERTEX
  5
335
  8
DATA
  6
CONTINUOUS
 62
     7
 10
-62.255361877905173
 20
225.7805826094733
 30
0.0
  0
VERTEX
  5
336
  8
DATA
  6
CONTINUOUS
 62
     7
 10
-62.255361877905173
 20
228.66733395542141
 30
0.0
  0
VERTEX
  5
337
  8
DATA
  6
CONTINUOUS
 62
     7
 10
-64.755361877905173
 20
230.11070962839551
 30
0.0
  0
VERTEX
  5
338
  8
DATA
  6
CONTINUOUS
 62
     7
 10
-67.255361877905173
 20
228.66733395542141
 30
0.0
  0
SEQEND
  5
339
  8
DATA
  6
CONTINUOUS
 62
     7
  0
CIRCLE
  5
166
  8
DATA
  6
CONTINUOUS
 62
     7
 10
-64.755361877905173
 20
227.2239582824474
 30
0.0
 40
1.200000000000045
  0
LINE
  5
167
  8
DATA
  6
CONTINUOUS
 62
     7
 10
-72.605361877905153
 20
234.2239582824474
 30
0.0
 11
-56.90536187790515
 21
234.2239582824474
 31
0.0
  0
LINE
  5
168
  8
DATA
  6
CONTINUOUS
 62
     7
 10
-72.605361877905153
 20
234.2239582824474
 30
0.0
 11
-72.605361877905153
 21
238.52395828244741
 31
0.0
  0
LINE
  5
169
  8
DATA
  6
CONTINUOUS
 62
     7
 10
-56.90536187790515
 20
234.2239582824474
 30
0.0
 11
-56.90536187790515
 21
238.52395828244741
 31
0.0
  0
LINE
  5
16A
  8
DATA
  6
CONTINUOUS
 62
     7
 10
-72.605361877905153
 20
238.52395828244741
 30
0.0
 11
-70.005361877905173
 21
240.2239582824474
 31
0.0
  0
LINE
  5
16B
  8
DATA
  6
CONTINUOUS
 62
     7
 10
-56.90536187790515
 20
238.52395828244741
 30
0.0
 11
-59.505361877905159
 21
240.2239582824474
 31
0.0
  0
LINE
  5
16C
  8
DATA
  6
CONTINUOUS
 62
     7
 10
-70.005361877905173
 20
240.2239582824474
 30
0.0
 11
-59.505361877905159
 21
240.2239582824474
 31
0.0
  0
POLYLINE
  5
16D
  8
DATA
  6
CONTINUOUS
 62
     7
 66
     1
 10
0.0
 20
0.0
 30
0.0
 70
     1
  0
VERTEX
  5
33A
  8
DATA
  6
CONTINUOUS
 62
     7
 10
-69.755361877905173
 20
237.0101214569402
 30
0.0
  0
VERTEX
  5
33B
  8
DATA
  6
CONTINUOUS
 62
     7
 10
-59.755361877905173
 20
237.0101214569402
 30
0.0
  0
VERTEX
  5
33C
  8
DATA
  6
CONTINUOUS
 62
     7
 10
-59.755361877905173
 20
236.5101214569402
 30
0.0
  0
VERTEX
  5
33D
  8
DATA
  6
CONTINUOUS
 62
     7
 10
-69.755361877905173
 20
236.5101214569402
 30
0.0
  0
SEQEND
  5
33E
  8
DATA
  6
CONTINUOUS
 62
     7
  0
TEXT
  5
174
  8
DATA
 62
     7
 10
-0.1239766104314976
 20
220.37352895158779
 30
0.0
 40
2.7703125000000002
  1
3GSDI
 50
180.0
 41
0.75
 11
-0.1239766104314981
 21
217.6032164515878
 31
0.0
 73
     3
  0
LINE
  5
175
  8
DATA
  6
CONTINUOUS
 62
     7
 10
-10.80000000000002
 20
219.07752895158779
 30
0.0
 11
-31.999999999999989
 21
219.07752895158779
 31
0.0
  0
LINE
  5
176
  8
DATA
  6
CONTINUOUS
 62
     7
 10
1.3000000000000249
 20
219.07752895158779
 30
0.0
 11
22.499999999999989
 21
219.07752895158779
 31
0.0
  0
LINE
  5
177
  8
DATA
  6
CONTINUOUS
 62
     7
 10
-27.000000000000011
 20
171.34999999999999
 30
0.0
 11
-36.500000000000021
 21
171.34999999999999
 31
0.0
  0
LINE
  5
178
  8
DATA
  6
CONTINUOUS
 62
     7
 10
37.099999999999973
 20
162.34999999999999
 30
0.0
 11
37.099999999999973
 21
155.34999999999999
 31
0.0
  0
LINE
  5
179
  8
DATA
  6
CONTINUOUS
 62
     7
 10
45.399999999999991
 20
162.34999999999999
 30
0.0
 11
45.399999999999991
 21
155.34999999999999
 31
0.0
  0
LINE
  5
17A
  8
DATA
  6
CONTINUOUS
 62
     7
 10
37.099999999999973
 20
162.34999999999999
 30
0.0
 11
45.399999999999991
 21
162.34999999999999
 31
0.0
  0
LINE
  5
17B
  8
DATA
  6
CONTINUOUS
 62
     7
 10
64.491883114807024
 20
160.34999999999999
 30
0.0
 11
64.491883114807024
 21
155.34999999999999
 31
0.0
  0
LINE
  5
17C
  8
DATA
  6
CONTINUOUS
 62
     7
 10
69.168420295242811
 20
160.34999999999999
 30
0.0
 11
69.168420295242811
 21
155.34999999999999
 31
0.0
  0
LINE
  5
17D
  8
DATA
  6
CONTINUOUS
 62
     7
 10
89.491883114807067
 20
160.34999999999999
 30
0.0
 11
89.491883114807067
 21
155.34999999999999
 31
0.0
  0
LINE
  5
17E
  8
DATA
  6
CONTINUOUS
 62
     7
 10
94.168420295242996
 20
160.34999999999999
 30
0.0
 11
94.168420295242996
 21
155.34999999999999
 31
0.0
  0
LINE
  5
17F
  8
DATA
  6
CONTINUOUS
 62
     7
 10
71.517943865105025
 20
160.34999999999999
 30
0.0
 11
71.517943865105025
 21
155.34999999999999
 31
0.0
  0
LINE
  5
180
  8
DATA
  6
CONTINUOUS
 62
     7
 10
87.138748367733825
 20
160.34999999999999
 30
0.0
 11
87.138748367733825
 21
155.34999999999999
 31
0.0
  0
LINE
  5
181
  8
DATA
  6
CONTINUOUS
 62
     7
 10
64.491883114807024
 20
160.34999999999999
 30
0.0
 11
69.168420295242811
 21
160.34999999999999
 31
0.0
  0
LINE
  5
182
  8
DATA
  6
CONTINUOUS
 62
     7
 10
71.517943865105025
 20
160.34999999999999
 30
0.0
 11
87.138748367733825
 21
160.34999999999999
 31
0.0
  0
LINE
  5
183
  8
DATA
  6
CONTINUOUS
 62
     7
 10
89.491883114807067
 20
160.34999999999999
 30
0.0
 11
94.168420295242996
 21
160.34999999999999
 31
0.0
  0
LINE
  5
184
  8
DATA
  6
CONTINUOUS
 62
     7
 10
100.15000000000001
 20
161.34999999999999
 30
0.0
 11
92.349999999999994
 21
161.34999999999999
 31
0.0
  0
LINE
  5
185
  8
DATA
  6
CONTINUOUS
 62
     7
 10
101.6770925303825
 20
157.34999999999999
 30
0.0
 11
101.6770925303825
 21
155.34999999999999
 31
0.0
  0
LINE
  5
186
  8
DATA
  6
CONTINUOUS
 62
     7
 10
92.349999999999994
 20
161.34999999999999
 30
0.0
 11
92.349999999999994
 21
160.34999999999999
 31
0.0
  0
LINE
  5
187
  8
DATA
  6
CONTINUOUS
 62
     7
 10
100.15000000000001
 20
161.34999999999999
 30
0.0
 11
100.15000000000001
 21
157.34999999999999
 31
0.0
  0
LINE
  5
188
  8
DATA
  6
CONTINUOUS
 62
     7
 10
101.6770925303825
 20
157.34999999999999
 30
0.0
 11
94.168420295242996
 21
157.34999999999999
 31
0.0
  0
LINE
  5
189
  8
DATA
  6
CONTINUOUS
 62
     7
 10
-67.255361877905173
 20
159.84999999999999
 30
0.0
 11
-67.255361877905173
 21
155.34999999999999
 31
0.0
  0
LINE
  5
18A
  8
DATA
  6
CONTINUOUS
 62
     7
 10
-62.255361877905173
 20
159.84999999999999
 30
0.0
 11
-62.255361877905173
 21
155.34999999999999
 31
0.0
  0
LINE
  5
18B
  8
DATA
  6
CONTINUOUS
 62
     7
 10
-62.255361877905173
 20
159.84999999999999
 30
0.0
 11
-67.255361877905173
 21
159.84999999999999
 31
0.0
  0
LINE
  5
18C
  8
DATA
  6
CONTINUOUS
 62
     7
 10
-36.500000000000021
 20
171.34999999999999
 30
0.0
 11
-36.500000000000021
 21
159.84999999999999
 31
0.0
  0
LINE
  5
18D
  8
DATA
  6
CONTINUOUS
 62
     7
 10
-27.000000000000011
 20
171.34999999999999
 30
0.0
 11
-27.000000000000011
 21
159.84999999999999
 31
0.0
  0
LINE
  5
18E
  8
DATA
  6
CONTINUOUS
 62
     7
 10
-39.832903768654788
 20
159.84999999999999
 30
0.0
 11
-23.667096231345241
 21
159.84999999999999
 31
0.0
  0
LINE
  5
18F
  8
DATA
  6
CONTINUOUS
 62
     7
 10
-39.832903768654788
 20
159.84999999999999
 30
0.0
 11
-39.832903768654788
 21
155.34999999999999
 31
0.0
  0
LINE
  5
190
  8
DATA
  6
CONTINUOUS
 62
     7
 10
-23.667096231345241
 20
159.84999999999999
 30
0.0
 11
-23.667096231345241
 21
155.34999999999999
 31
0.0
  0
LINE
  5
191
  8
DATA
  6
CONTINUOUS
 62
     7
 10
-35.791451884327401
 20
159.84999999999999
 30
0.0
 11
-35.791451884327401
 21
155.34999999999999
 31
0.0
  0
LINE
  5
192
  8
DATA
  6
CONTINUOUS
 62
     7
 10
-27.708548115672631
 20
159.84999999999999
 30
0.0
 11
-27.708548115672631
 21
155.34999999999999
 31
0.0
  0
POLYLINE
  5
193
  8
DATA
  6
CONTINUOUS
 62
     7
 66
     1
 10
0.0
 20
0.0
 30
0.0
  0
VERTEX
  5
33F
  8
DATA
  6
CONTINUOUS
 62
     7
 10
-27.086042453023609
 20
233.15000000025449
 30
0.0
  0
VERTEX
  5
340
  8
DATA
  6
CONTINUOUS
 62
     7
 10
-26.250000000000011
 20
233.15000000025449
 30
0.0
  0
VERTEX
  5
341
  8
DATA
  6
CONTINUOUS
 62
     7
 10
-26.250000000000011
 20
231.35000000025451
 30
0.0
  0
VERTEX
  5
342
  8
DATA
  6
CONTINUOUS
 62
     7
 10
-27.086042453023609
 20
231.35000000025451
 30
0.0
  0
SEQEND
  5
343
  8
DATA
  6
CONTINUOUS
 62
     7
  0
POLYLINE
  5
19A
  8
DATA
  6
CONTINUOUS
 62
     7
 66
     1
 10
0.0
 20
0.0
 30
0.0
  0
VERTEX
  5
344
  8
DATA
  6
CONTINUOUS
 62
     7
 10
-36.413957546976427
 20
231.35000000025451
 30
0.0
  0
VERTEX
  5
345
  8
DATA
  6
CONTINUOUS
 62
     7
 10
-37.250000000000007
 20
231.35000000025451
 30
0.0
  0
VERTEX
  5
346
  8
DATA
  6
CONTINUOUS
 62
     7
 10
-37.250000000000007
 20
233.15000000025449
 30
0.0
  0
VERTEX
  5
347
  8
DATA
  6
CONTINUOUS
 62
     7
 10
-36.413957546976427
 20
233.15000000025449
 30
0.0
  0
SEQEND
  5
348
  8
DATA
  6
CONTINUOUS
 62
     7
  0
POLYLINE
  5
1A1
  8
DATA
  6
CONTINUOUS
 62
     7
 66
     1
 10
0.0
 20
0.0
 30
0.0
  0
VERTEX
  5
349
  8
DATA
  6
CONTINUOUS
 62
     7
 10
-9.0860424530236088
 20
233.15000000025449
 30
0.0
  0
VERTEX
  5
34A
  8
DATA
  6
CONTINUOUS
 62
     7
 10
-8.2500000000000142
 20
233.15000000025449
 30
0.0
  0
VERTEX
  5
34B
  8
DATA
  6
CONTINUOUS
 62
     7
 10
-8.2500000000000142
 20
231.35000000025451
 30
0.0
  0
VERTEX
  5
34C
  8
DATA
  6
CONTINUOUS
 62
     7
 10
-9.0860424530236088
 20
231.35000000025451
 30
0.0
  0
SEQEND
  5
34D
  8
DATA
  6
CONTINUOUS
 62
     7
  0
POLYLINE
  5
1A8
  8
DATA
  6
CONTINUOUS
 62
     7
 66
     1
 10
0.0
 20
0.0
 30
0.0
  0
VERTEX
  5
34E
  8
DATA
  6
CONTINUOUS
 62
     7
 10
-18.41395754697642
 20
231.35000000025451
 30
0.0
  0
VERTEX
  5
34F
  8
DATA
  6
CONTINUOUS
 62
     7
 10
-19.250000000000011
 20
231.35000000025451
 30
0.0
  0
VERTEX
  5
350
  8
DATA
  6
CONTINUOUS
 62
     7
 10
-19.250000000000011
 20
233.15000000025449
 30
0.0
  0
VERTEX
  5
351
  8
DATA
  6
CONTINUOUS
 62
     7
 10
-18.41395754697642
 20
233.15000000025449
 30
0.0
  0
SEQEND
  5
352
  8
DATA
  6
CONTINUOUS
 62
     7
  0
POLYLINE
  5
1AF
  8
DATA
  6
CONTINUOUS
 62
     7
 66
     1
 10
0.0
 20
0.0
 30
0.0
  0
VERTEX
  5
353
  8
DATA
  6
CONTINUOUS
 62
     7
 10
8.9139575469763912
 20
233.15000000025449
 30
0.0
  0
VERTEX
  5
354
  8
DATA
  6
CONTINUOUS
 62
     7
 10
9.749999999999984
 20
233.15000000025449
 30
0.0
  0
VERTEX
  5
355
  8
DATA
  6
CONTINUOUS
 62
     7
 10
9.749999999999984
 20
231.35000000025451
 30
0.0
  0
VERTEX
  5
356
  8
DATA
  6
CONTINUOUS
 62
     7
 10
8.9139575469763912
 20
231.35000000025451
 30
0.0
  0
SEQEND
  5
357
  8
DATA
  6
CONTINUOUS
 62
     7
  0
POLYLINE
  5
1B6
  8
DATA
  6
CONTINUOUS
 62
     7
 66
     1
 10
0.0
 20
0.0
 30
0.0
  0
VERTEX
  5
358
  8
DATA
  6
CONTINUOUS
 62
     7
 10
-0.4139575469764197
 20
231.35000000025451
 30
0.0
  0
VERTEX
  5
359
  8
DATA
  6
CONTINUOUS
 62
     7
 10
-1.250000000000014
 20
231.35000000025451
 30
0.0
  0
VERTEX
  5
35A
  8
DATA
  6
CONTINUOUS
 62
     7
 10
-1.250000000000014
 20
233.15000000025449
 30
0.0
  0
VERTEX
  5
35B
  8
DATA
  6
CONTINUOUS
 62
     7
 10
-0.4139575469764197
 20
233.15000000025449
 30
0.0
  0
SEQEND
  5
35C
  8
DATA
  6
CONTINUOUS
 62
     7
  0
POLYLINE
  5
1BD
  8
DATA
  6
CONTINUOUS
 62
     7
 66
     1
 10
0.0
 20
0.0
 30
0.0
  0
VERTEX
  5
35D
  8
DATA
  6
CONTINUOUS
 62
     7
 10
26.913957546976391
 20
233.15000000025449
 30
0.0
  0
VERTEX
  5
35E
  8
DATA
  6
CONTINUOUS
 62
     7
 10
27.749999999999989
 20
233.15000000025449
 30
0.0
  0
VERTEX
  5
35F
  8
DATA
  6
CONTINUOUS
 62
     7
 10
27.749999999999989
 20
231.35000000025451
 30
0.0
  0
VERTEX
  5
360
  8
DATA
  6
CONTINUOUS
 62
     7
 10
26.913957546976391
 20
231.35000000025451
 30
0.0
  0
SEQEND
  5
361
  8
DATA
  6
CONTINUOUS
 62
     7
  0
POLYLINE
  5
1C4
  8
DATA
  6
CONTINUOUS
 62
     7
 66
     1
 10
0.0
 20
0.0
 30
0.0
  0
VERTEX
  5
362
  8
DATA
  6
CONTINUOUS
 62
     7
 10
17.58604245302358
 20
231.35000000025451
 30
0.0
  0
VERTEX
  5
363
  8
DATA
  6
CONTINUOUS
 62
     7
 10
16.749999999999979
 20
231.35000000025451
 30
0.0
  0
VERTEX
  5
364
  8
DATA
  6
CONTINUOUS
 62
     7
 10
16.749999999999979
 20
233.15000000025449
 30
0.0
  0
VERTEX
  5
365
  8
DATA
  6
CONTINUOUS
 62
     7
 10
17.58604245302358
 20
233.15000000025449
 30
0.0
  0
SEQEND
  5
366
  8
DATA
  6
CONTINUOUS
 62
     7
  0
POLYLINE
  5
1CB
  8
DATA
  6
CONTINUOUS
 62
     7
 66
     1
 10
0.0
 20
0.0
 30
0.0
  0
VERTEX
  5
367
  8
DATA
  6
CONTINUOUS
 62
     7
 10
-27.000000000000011
 20
168.25
 30
0.0
  0
VERTEX
  5
368
  8
DATA
  6
CONTINUOUS
 62
     7
 10
-26.250000000000011
 20
168.25
 30
0.0
  0
VERTEX
  5
369
  8
DATA
  6
CONTINUOUS
 62
     7
 10
-26.250000000000011
 20
166.44999999999999
 30
0.0
  0
VERTEX
  5
36A
  8
DATA
  6
CONTINUOUS
 62
     7
 10
-27.000000000000011
 20
166.44999999999999
 30
0.0
  0
SEQEND
  5
36B
  8
DATA
  6
CONTINUOUS
 62
     7
  0
POLYLINE
  5
1D2
  8
DATA
  6
CONTINUOUS
 62
     7
 66
     1
 10
0.0
 20
0.0
 30
0.0
  0
VERTEX
  5
36C
  8
DATA
  6
CONTINUOUS
 62
     7
 10
-36.500000000000021
 20
166.44999999999999
 30
0.0
  0
VERTEX
  5
36D
  8
DATA
  6
CONTINUOUS
 62
     7
 10
-37.250000000000007
 20
166.44999999999999
 30
0.0
  0
VERTEX
  5
36E
  8
DATA
  6
CONTINUOUS
 62
     7
 10
-37.250000000000007
 20
168.25
 30
0.0
  0
VERTEX
  5
36F
  8
DATA
  6
CONTINUOUS
 62
     7
 10
-36.500000000000021
 20
168.25
 30
0.0
  0
SEQEND
  5
370
  8
DATA
  6
CONTINUOUS
 62
     7
  0
LINE
  5
1D9
  8
DATA
  6
CONTINUOUS
 62
     7
 10
-9.0000000000000142
 20
171.34999999999999
 30
0.0
 11
-18.500000000000011
 21
171.34999999999999
 31
0.0
  0
LINE
  5
1DA
  8
DATA
  6
CONTINUOUS
 62
     7
 10
-18.500000000000011
 20
171.34999999999999
 30
0.0
 11
-18.500000000000011
 21
159.84999999999999
 31
0.0
  0
LINE
  5
1DB
  8
DATA
  6
CONTINUOUS
 62
     7
 10
-9.0000000000000142
 20
171.34999999999999
 30
0.0
 11
-9.0000000000000142
 21
159.84999999999999
 31
0.0
  0
LINE
  5
1DC
  8
DATA
  6
CONTINUOUS
 62
     7
 10
-21.832903768654791
 20
159.84999999999999
 30
0.0
 11
-5.6670962313452398
 21
159.84999999999999
 31
0.0
  0
LINE
  5
1DD
  8
DATA
  6
CONTINUOUS
 62
     7
 10
-21.832903768654791
 20
159.84999999999999
 30
0.0
 11
-21.832903768654791
 21
155.34999999999999
 31
0.0
  0
LINE
  5
1DE
  8
DATA
  6
CONTINUOUS
 62
     7
 10
-5.6670962313452398
 20
159.84999999999999
 30
0.0
 11
-5.6670962313452398
 21
155.34999999999999
 31
0.0
  0
LINE
  5
1DF
  8
DATA
  6
CONTINUOUS
 62
     7
 10
-17.791451884327401
 20
159.84999999999999
 30
0.0
 11
-17.791451884327401
 21
155.34999999999999
 31
0.0
  0
LINE
  5
1E0
  8
DATA
  6
CONTINUOUS
 62
     7
 10
-9.7085481156726274
 20
159.84999999999999
 30
0.0
 11
-9.7085481156726274
 21
155.34999999999999
 31
0.0
  0
POLYLINE
  5
1E1
  8
DATA
  6
CONTINUOUS
 62
     7
 66
     1
 10
0.0
 20
0.0
 30
0.0
  0
VERTEX
  5
371
  8
DATA
  6
CONTINUOUS
 62
     7
 10
-9.0000000000000142
 20
168.25
 30
0.0
  0
VERTEX
  5
372
  8
DATA
  6
CONTINUOUS
 62
     7
 10
-8.2500000000000142
 20
168.25
 30
0.0
  0
VERTEX
  5
373
  8
DATA
  6
CONTINUOUS
 62
     7
 10
-8.2500000000000142
 20
166.44999999999999
 30
0.0
  0
VERTEX
  5
374
  8
DATA
  6
CONTINUOUS
 62
     7
 10
-9.0000000000000142
 20
166.44999999999999
 30
0.0
  0
SEQEND
  5
375
  8
DATA
  6
CONTINUOUS
 62
     7
  0
POLYLINE
  5
1E8
  8
DATA
  6
CONTINUOUS
 62
     7
 66
     1
 10
0.0
 20
0.0
 30
0.0
  0
VERTEX
  5
376
  8
DATA
  6
CONTINUOUS
 62
     7
 10
-18.500000000000011
 20
166.44999999999999
 30
0.0
  0
VERTEX
  5
377
  8
DATA
  6
CONTINUOUS
 62
     7
 10
-19.250000000000011
 20
166.44999999999999
 30
0.0
  0
VERTEX
  5
378
  8
DATA
  6
CONTINUOUS
 62
     7
 10
-19.250000000000011
 20
168.25
 30
0.0
  0
VERTEX
  5
379
  8
DATA
  6
CONTINUOUS
 62
     7
 10
-18.500000000000011
 20
168.25
 30
0.0
  0
SEQEND
  5
37A
  8
DATA
  6
CONTINUOUS
 62
     7
  0
LINE
  5
1EF
  8
DATA
  6
CONTINUOUS
 62
     7
 10
8.9999999999999876
 20
171.34999999999999
 30
0.0
 11
-0.5000000000000142
 21
171.34999999999999
 31
0.0
  0
LINE
  5
1F0
  8
DATA
  6
CONTINUOUS
 62
     7
 10
-0.5000000000000142
 20
171.34999999999999
 30
0.0
 11
-0.5000000000000142
 21
159.84999999999999
 31
0.0
  0
LINE
  5
1F1
  8
DATA
  6
CONTINUOUS
 62
     7
 10
8.9999999999999876
 20
171.34999999999999
 30
0.0
 11
8.9999999999999876
 21
159.84999999999999
 31
0.0
  0
LINE
  5
1F2
  8
DATA
  6
CONTINUOUS
 62
     7
 10
-3.8329037686547882
 20
159.84999999999999
 30
0.0
 11
12.33290376865474
 21
159.84999999999999
 31
0.0
  0
LINE
  5
1F3
  8
DATA
  6
CONTINUOUS
 62
     7
 10
-3.8329037686547882
 20
159.84999999999999
 30
0.0
 11
-3.8329037686547882
 21
155.34999999999999
 31
0.0
  0
LINE
  5
1F4
  8
DATA
  6
CONTINUOUS
 62
     7
 10
12.33290376865474
 20
159.84999999999999
 30
0.0
 11
12.33290376865474
 21
155.34999999999999
 31
0.0
  0
LINE
  5
1F5
  8
DATA
  6
CONTINUOUS
 62
     7
 10
0.208548115672599
 20
159.84999999999999
 30
0.0
 11
0.208548115672599
 21
155.34999999999999
 31
0.0
  0
LINE
  5
1F6
  8
DATA
  6
CONTINUOUS
 62
     7
 10
8.2914518843273584
 20
159.84999999999999
 30
0.0
 11
8.2914518843273584
 21
155.34999999999999
 31
0.0
  0
POLYLINE
  5
1F7
  8
DATA
  6
CONTINUOUS
 62
     7
 66
     1
 10
0.0
 20
0.0
 30
0.0
  0
VERTEX
  5
37B
  8
DATA
  6
CONTINUOUS
 62
     7
 10
8.9999999999999876
 20
168.25
 30
0.0
  0
VERTEX
  5
37C
  8
DATA
  6
CONTINUOUS
 62
     7
 10
9.749999999999984
 20
168.25
 30
0.0
  0
VERTEX
  5
37D
  8
DATA
  6
CONTINUOUS
 62
     7
 10
9.749999999999984
 20
166.44999999999999
 30
0.0
  0
VERTEX
  5
37E
  8
DATA
  6
CONTINUOUS
 62
     7
 10
8.9999999999999876
 20
166.44999999999999
 30
0.0
  0
SEQEND
  5
37F
  8
DATA
  6
CONTINUOUS
 62
     7
  0
POLYLINE
  5
1FE
  8
DATA
  6
CONTINUOUS
 62
     7
 66
     1
 10
0.0
 20
0.0
 30
0.0
  0
VERTEX
  5
380
  8
DATA
  6
CONTINUOUS
 62
     7
 10
-0.5000000000000142
 20
166.44999999999999
 30
0.0
  0
VERTEX
  5
381
  8
DATA
  6
CONTINUOUS
 62
     7
 10
-1.250000000000014
 20
166.44999999999999
 30
0.0
  0
VERTEX
  5
382
  8
DATA
  6
CONTINUOUS
 62
     7
 10
-1.250000000000014
 20
168.25
 30
0.0
  0
VERTEX
  5
383
  8
DATA
  6
CONTINUOUS
 62
     7
 10
-0.5000000000000142
 20
168.25
 30
0.0
  0
SEQEND
  5
384
  8
DATA
  6
CONTINUOUS
 62
     7
  0
LINE
  5
205
  8
DATA
  6
CONTINUOUS
 62
     7
 10
26.999999999999989
 20
171.34999999999999
 30
0.0
 11
17.499999999999979
 21
171.34999999999999
 31
0.0
  0
LINE
  5
206
  8
DATA
  6
CONTINUOUS
 62
     7
 10
17.499999999999979
 20
171.34999999999999
 30
0.0
 11
17.499999999999979
 21
159.84999999999999
 31
0.0
  0
LINE
  5
207
  8
DATA
  6
CONTINUOUS
 62
     7
 10
26.999999999999989
 20
171.34999999999999
 30
0.0
 11
26.999999999999989
 21
159.84999999999999
 31
0.0
  0
LINE
  5
208
  8
DATA
  6
CONTINUOUS
 62
     7
 10
14.16709623134521
 20
159.84999999999999
 30
0.0
 11
30.332903768654749
 21
159.84999999999999
 31
0.0
  0
LINE
  5
209
  8
DATA
  6
CONTINUOUS
 62
     7
 10
14.16709623134521
 20
159.84999999999999
 30
0.0
 11
14.16709623134521
 21
155.34999999999999
 31
0.0
  0
LINE
  5
20A
  8
DATA
  6
CONTINUOUS
 62
     7
 10
30.332903768654749
 20
159.84999999999999
 30
0.0
 11
30.332903768654749
 21
155.34999999999999
 31
0.0
  0
LINE
  5
20B
  8
DATA
  6
CONTINUOUS
 62
     7
 10
18.208548115672599
 20
159.84999999999999
 30
0.0
 11
18.208548115672599
 21
155.34999999999999
 31
0.0
  0
LINE
  5
20C
  8
DATA
  6
CONTINUOUS
 62
     7
 10
26.291451884327358
 20
159.84999999999999
 30
0.0
 11
26.291451884327358
 21
155.34999999999999
 31
0.0
  0
POLYLINE
  5
20D
  8
DATA
  6
CONTINUOUS
 62
     7
 66
     1
 10
0.0
 20
0.0
 30
0.0
  0
VERTEX
  5
385
  8
DATA
  6
CONTINUOUS
 62
     7
 10
26.999999999999989
 20
168.25
 30
0.0
  0
VERTEX
  5
386
  8
DATA
  6
CONTINUOUS
 62
     7
 10
27.749999999999989
 20
168.25
 30
0.0
  0
VERTEX
  5
387
  8
DATA
  6
CONTINUOUS
 62
     7
 10
27.749999999999989
 20
166.44999999999999
 30
0.0
  0
VERTEX
  5
388
  8
DATA
  6
CONTINUOUS
 62
     7
 10
26.999999999999989
 20
166.44999999999999
 30
0.0
  0
SEQEND
  5
389
  8
DATA
  6
CONTINUOUS
 62
     7
  0
POLYLINE
  5
214
  8
DATA
  6
CONTINUOUS
 62
     7
 66
     1
 10
0.0
 20
0.0
 30
0.0
  0
VERTEX
  5
38A
  8
DATA
  6
CONTINUOUS
 62
     7
 10
17.499999999999979
 20
166.44999999999999
 30
0.0
  0
VERTEX
  5
38B
  8
DATA
  6
CONTINUOUS
 62
     7
 10
16.749999999999979
 20
166.44999999999999
 30
0.0
  0
VERTEX
  5
38C
  8
DATA
  6
CONTINUOUS
 62
     7
 10
16.749999999999979
 20
168.25
 30
0.0
  0
VERTEX
  5
38D
  8
DATA
  6
CONTINUOUS
 62
     7
 10
17.499999999999979
 20
168.25
 30
0.0
  0
SEQEND
  5
38E
  8
DATA
  6
CONTINUOUS
 62
     7
  0
LINE
  5
21B
  8
DATA
  6
CONTINUOUS
 62
     7
 10
-64.755361877905173
 20
159.84999999999999
 30
0.0
 11
-64.755361877905173
 21
155.34999999999999
 31
0.0
  0
ARC
  5
21C
  8
DATA
  6
CONTINUOUS
 62
     7
 10
95.249999999999986
 20
-18.575261080151851
 30
0.0
 40
1.4500000000000011
 50
182.95456765995169
 51
357.04543234004831
  0
ARC
  5
21D
  8
DATA
  6
CONTINUOUS
 62
     7
 10
75.45662224506259
 20
-18.288711856600479
 30
0.0
 40
1.45
 50
194.4280615488623
 51
345.57193845113761
  0
LINE
  5
21E
  8
DATA
  6
CONTINUOUS
 62
     7
 10
144.94999999999999
 20
-93.75
 30
0.0
 11
316.55000000000001
 21
-93.75
 31
0.0
  0
LINE
  5
21F
  8
DATA
  6
CONTINUOUS
 62
     7
 10
144.94999999999999
 20
-50.75
 30
0.0
 11
317.75
 21
-50.75
 31
0.0
  0
LINE
  5
220
  8
DATA
  6
CONTINUOUS
 62
     7
 10
143.75
 20
-92.549999999999997
 30
0.0
 11
143.75
 21
-51.949999999999989
 31
0.0
  0
LINE
  5
221
  8
DATA
  6
CONTINUOUS
 62
     7
 10
317.75
 20
-92.549999999999997
 30
0.0
 11
317.75
 21
-50.75
 31
0.0
  0
LINE
  5
222
  8
DATA
  6
CONTINUOUS
 62
     7
 10
158.8593908522989
 20
-96.75
 30
0.0
 11
148.8593908522989
 21
-96.75
 31
0.0
  0
LINE
  5
223
  8
DATA
  6
CONTINUOUS
 62
     7
 10
158.8593908522989
 20
-96.75
 30
0.0
 11
160.3593908522989
 21
-93.75
 31
0.0
  0
LINE
  5
224
  8
DATA
  6
CONTINUOUS
 62
     7
 10
148.8593908522989
 20
-96.75
 30
0.0
 11
147.3593908522989
 21
-93.75
 31
0.0
  0
LINE
  5
225
  8
DATA
  6
CONTINUOUS
 62
     7
 10
302.36844702894251
 20
-96.75
 30
0.0
 11
292.36844702894251
 21
-96.75
 31
0.0
  0
LINE
  5
226
  8
DATA
  6
CONTINUOUS
 62
     7
 10
302.36844702894251
 20
-96.75
 30
0.0
 11
303.86844702894251
 21
-93.75
 31
0.0
  0
LINE
  5
227
  8
DATA
  6
CONTINUOUS
 62
     7
 10
292.36844702894251
 20
-96.75
 30
0.0
 11
290.86844702894251
 21
-93.75
 31
0.0
  0
LINE
  5
228
  8
DATA
  6
CONTINUOUS
 62
     7
 10
144.94999999999999
 20
-91.350000000000037
 30
0.0
 11
144.94999999999999
 21
-53.149999999999977
 31
0.0
  0
LINE
  5
229
  8
DATA
  6
CONTINUOUS
 62
     7
 10
146.15000000000001
 20
-51.949999999999989
 30
0.0
 11
152.75
 21
-51.949999999999989
 31
0.0
  0
LINE
  5
22A
  8
DATA
  6
CONTINUOUS
 62
     7
 10
146.15000000000001
 20
-92.549999999999997
 30
0.0
 11
150.75
 21
-92.549999999999997
 31
0.0
  0
LINE
  5
22B
  8
DATA
  6
CONTINUOUS
 62
     7
 10
152.75
 20
-51.949999999999989
 30
0.0
 11
152.75
 21
-50.75
 31
0.0
  0
LINE
  5
22C
  8
DATA
  6
CONTINUOUS
 62
     7
 10
150.75
 20
-93.75
 30
0.0
 11
150.75
 21
-92.549999999999997
 31
0.0
  0
ARC
  5
22D
  8
DATA
  6
CONTINUOUS
 62
     7
 10
144.94999999999999
 20
-51.949999999999989
 30
0.0
 40
1.199999999999988
 50
90.0
 51
180.0
  0
ARC
  5
22E
  8
DATA
  6
CONTINUOUS
 62
     7
 10
146.15000000000001
 20
-53.149999999999977
 30
0.0
 40
1.199999999999988
 50
90.0
 51
180.0
  0
ARC
  5
22F
  8
DATA
  6
CONTINUOUS
 62
     7
 10
146.15000000000001
 20
-91.350000000000037
 30
0.0
 40
1.200000000000002
 50
180.0
 51
270.0
  0
ARC
  5
230
  8
DATA
  6
CONTINUOUS
 62
     7
 10
144.94999999999999
 20
-92.549999999999997
 30
0.0
 40
1.200000000000002
 50
180.0
 51
270.0
  0
LINE
  5
231
  8
DATA
  6
CONTINUOUS
 62
     7
 10
305.94999999999999
 20
-93.75
 30
0.0
 11
305.94999999999999
 21
-92.549999999999997
 31
0.0
  0
LINE
  5
232
  8
DATA
  6
CONTINUOUS
 62
     7
 10
316.55000000000001
 20
-91.350000000000037
 30
0.0
 11
316.55000000000001
 21
-51.949999999999989
 31
0.0
  0
LINE
  5
233
  8
DATA
  6
CONTINUOUS
 62
     7
 10
305.94999999999999
 20
-92.549999999999997
 30
0.0
 11
315.35000000000002
 21
-92.549999999999997
 31
0.0
  0
ARC
  5
234
  8
DATA
  6
CONTINUOUS
 62
     7
 10
315.35000000000002
 20
-91.350000000000037
 30
0.0
 40
1.199999999999988
 50
270.0
 51
0.0
  0
ARC
  5
235
  8
DATA
  6
CONTINUOUS
 62
     7
 10
316.55000000000001
 20
-92.549999999999997
 30
0.0
 40
1.199999999999988
 50
270.0
 51
0.0
  0
CIRCLE
  5
236
  8
DATA
  6
CONTINUOUS
 62
     7
 10
157.25
 20
-87.75
 30
0.0
 40
2.450000000000002
  0
LINE
  5
237
  8
DATA
  6
CONTINUOUS
 62
     7
 10
156.0
 20
-87.75
 30
0.0
 11
158.5
 21
-87.75
 31
0.0
  0
LINE
  5
238
  8
DATA
  6
CONTINUOUS
 62
     7
 10
157.25
 20
-89.0
 30
0.0
 11
157.25
 21
-86.5
 31
0.0
  0
CIRCLE
  5
239
  8
DATA
  6
CONTINUOUS
 62
     7
 10
157.25
 20
-57.75
 30
0.0
 40
2.450000000000002
  0
LINE
  5
23A
  8
DATA
  6
CONTINUOUS
 62
     7
 10
156.0
 20
-57.75
 30
0.0
 11
158.5
 21
-57.75
 31
0.0
  0
LINE
  5
23B
  8
DATA
  6
CONTINUOUS
 62
     7
 10
157.25
 20
-59.0
 30
0.0
 11
157.25
 21
-56.5
 31
0.0
  0
CIRCLE
  5
23C
  8
DATA
  6
CONTINUOUS
 62
     7
 10
227.25
 20
-87.75
 30
0.0
 40
2.450000000000002
  0
LINE
  5
23D
  8
DATA
  6
CONTINUOUS
 62
     7
 10
226.0
 20
-87.75
 30
0.0
 11
228.5
 21
-87.75
 31
0.0
  0
LINE
  5
23E
  8
DATA
  6
CONTINUOUS
 62
     7
 10
227.25
 20
-89.0
 30
0.0
 11
227.25
 21
-86.5
 31
0.0
  0
CIRCLE
  5
23F
  8
DATA
  6
CONTINUOUS
 62
     7
 10
297.25
 20
-87.75
 30
0.0
 40
2.4500000000000162
  0
LINE
  5
240
  8
DATA
  6
CONTINUOUS
 62
     7
 10
296.0
 20
-87.75
 30
0.0
 11
298.5
 21
-87.75
 31
0.0
  0
LINE
  5
241
  8
DATA
  6
CONTINUOUS
 62
     7
 10
297.25
 20
-89.0
 30
0.0
 11
297.25
 21
-86.5
 31
0.0
  0
LINE
  5
242
  8
DATA
  6
CONTINUOUS
 62
     7
 10
333.74999999968259
 20
-81.423131637145403
 30
0.0
 11
333.74999999968259
 21
-71.923131637145417
 31
0.0
  0
LINE
  5
243
  8
DATA
  6
CONTINUOUS
 62
     7
 10
333.74999999968259
 20
-71.923131637145417
 30
0.0
 11
323.75354626519129
 21
-71.923131637145417
 31
0.0
  0
LINE
  5
244
  8
DATA
  6
CONTINUOUS
 62
     7
 10
333.74999999968259
 20
-81.423131637145403
 30
0.0
 11
322.2499999996827
 21
-81.423131637145403
 31
0.0
  0
LINE
  5
245
  8
DATA
  6
CONTINUOUS
 62
     7
 10
322.2499999996827
 20
-68.590227868490643
 30
0.0
 11
322.2499999996827
 21
-71.851693644086538
 31
0.0
  0
LINE
  5
246
  8
DATA
  6
CONTINUOUS
 62
     7
 10
322.2499999996827
 20
-79.651693644086535
 30
0.0
 11
322.2499999996827
 21
-84.756035405800191
 31
0.0
  0
LINE
  5
247
  8
DATA
  6
CONTINUOUS
 62
     7
 10
322.2499999996827
 20
-68.590227868490643
 30
0.0
 11
317.74999999968259
 21
-68.590227868490643
 31
0.0
  0
LINE
  5
248
  8
DATA
  6
CONTINUOUS
 62
     7
 10
322.2499999996827
 20
-84.756035405800191
 30
0.0
 11
317.74999999968259
 21
-84.756035405800191
 31
0.0
  0
LINE
  5
249
  8
DATA
  6
CONTINUOUS
 62
     7
 10
322.2499999996827
 20
-80.714583521472804
 30
0.0
 11
319.75354626519129
 21
-80.714583521472804
 31
0.0
  0
LINE
  5
24A
  8
DATA
  6
CONTINUOUS
 62
     7
 10
323.75354626519129
 20
-79.651693644086535
 30
0.0
 11
323.75354626519129
 21
-71.851693644086538
 31
0.0
  0
LINE
  5
24B
  8
DATA
  6
CONTINUOUS
 62
     7
 10
319.75354626519129
 20
-81.17878617446901
 30
0.0
 11
317.75
 21
-81.17878617446901
 31
0.0
  0
LINE
  5
24C
  8
DATA
  6
CONTINUOUS
 62
     7
 10
323.75354626519129
 20
-71.851693644086538
 30
0.0
 11
319.75354626519129
 21
-71.851693644086538
 31
0.0
  0
LINE
  5
24D
  8
DATA
  6
CONTINUOUS
 62
     7
 10
323.75354626519129
 20
-79.651693644086535
 30
0.0
 11
319.75354626519129
 21
-79.651693644086535
 31
0.0
  0
LINE
  5
24E
  8
DATA
  6
CONTINUOUS
 62
     7
 10
319.75354626519129
 20
-81.17878617446901
 30
0.0
 11
319.75354626519129
 21
-70.321693644086537
 31
0.0
  0
LINE
  5
24F
  8
DATA
  6
CONTINUOUS
 62
     7
 10
319.75354626519129
 20
-70.321693644086537
 30
0.0
 11
317.75
 21
-70.321693644086537
 31
0.0
  0
ARC
  5
250
  8
DATA
  6
CONTINUOUS
 62
     7
 10
144.03487690691051
 20
-78.749999999999972
 30
0.0
 40
1.4500000000000259
 50
101.3304246067468
 51
258.66957539325352
  0
LINE
  5
251
  8
DATA
  6
CONTINUOUS
 62
     7
 10
321.75000000018019
 20
-64.006725984425287
 30
0.0
 11
317.75000000018031
 21
-64.006725984425287
 31
0.0
  0
LINE
  5
252
  8
DATA
  6
CONTINUOUS
 62
     7
 10
317.75000000018031
 20
-58.806725984425242
 30
0.0
 11
321.75000000018019
 21
-58.806725984425242
 31
0.0
  0
LINE
  5
253
  8
DATA
  6
CONTINUOUS
 62
     7
 10
321.75000000018019
 20
-65.406725984425279
 30
0.0
 11
317.75000000018031
 21
-65.406725984425279
 31
0.0
  0
LINE
  5
254
  8
DATA
  6
CONTINUOUS
 62
     7
 10
317.75000000018031
 20
-57.406725984425279
 30
0.0
 11
321.75000000018019
 21
-57.406725984425279
 31
0.0
  0
LINE
  5
255
  8
DATA
  6
CONTINUOUS
 62
     7
 10
321.75000000018019
 20
-57.406725984425279
 30
0.0
 11
321.75000000018019
 21
-65.406725984425279
 31
0.0
  0
LINE
  5
256
  8
DATA
  6
CONTINUOUS
 62
     7
 10
317.75000000018031
 20
-61.746202481455242
 30
0.0
 11
321.75000000018019
 21
-61.746202481455242
 31
0.0
  0
CIRCLE
  5
257
  8
DATA
  6
CONTINUOUS
 62
     7
 10
329.74999999968259
 20
-76.673131637145403
 30
0.0
 40
0.9000000000000056
  0
ENDSEC
  0
EOF
