  0
SECTION
  2
HEADER
  9
$ACADVER
  1
AC1009
  9
$INSBASE
 10
0.0
 20
0.0
 30
0.0
  9
$EXTMIN
 10
-170.0164782349211
 20
-265.68665945661201
 30
-0.0015258207003583
  9
$EXTMAX
 10
370.0164807494923
 20
537.06099888531526
 30
0.0000000349246037
  9
$LIMMIN
 10
0.0
 20
0.0
  9
$LIMMAX
 10
0.0
 20
0.0
  9
$ORTHOMODE
 70
     0
  9
$REGENMODE
 70
     1
  9
$FILLMODE
 70
     1
  9
$QTEXTMODE
 70
     0
  9
$MIRRTEXT
 70
     1
  9
$DRAGMODE
 70
     2
  9
$LTSCALE
 40
15.24
  9
$OSMODE
 70
   231
  9
$ATTMODE
 70
     1
  9
$TEXTSIZE
 40
0.0
  9
$TRACEWID
 40
1.0
  9
$TEXTSTYLE
  7
STANDARD
  9
$CLAYER
  8
DATA
  9
$CELTYPE
  6
BYLAYER
  9
$CECOLOR
 62
   256
  9
$DIMSCALE
 40
1.0
  9
$DIMASZ
 40
0.18
  9
$DIMEXO
 40
0.0625
  9
$DIMDLI
 40
0.38
  9
$DIMRND
 40
0.0
  9
$DIMDLE
 40
0.0
  9
$DIMEXE
 40
0.18
  9
$DIMTP
 40
0.0
  9
$DIMTM
 40
0.0
  9
$DIMTXT
 40
0.18
  9
$DIMCEN
 40
0.09
  9
$DIMTSZ
 40
0.0
  9
$DIMTOL
 70
     0
  9
$DIMLIM
 70
     0
  9
$DIMTIH
 70
     1
  9
$DIMTOH
 70
     1
  9
$DIMSE1
 70
     0
  9
$DIMSE2
 70
     0
  9
$DIMTAD
 70
     0
  9
$DIMZIN
 70
     0
  9
$DIMBLK
  1

  9
$DIMASO
 70
     1
  9
$DIMSHO
 70
     1
  9
$DIMPOST
  1

  9
$DIMAPOST
  1

  9
$DIMALT
 70
     0
  9
$DIMALTD
 70
     2
  9
$DIMALTF
 40
25.399999999999999
  9
$DIMLFAC
 40
1.0
  9
$DIMTOFL
 70
     0
  9
$DIMTVP
 40
0.0
  9
$DIMTIX
 70
     0
  9
$DIMSOXD
 70
     0
  9
$DIMSAH
 70
     0
  9
$DIMBLK1
  1

  9
$DIMBLK2
  1

  9
$DIMSTYLE
  2
STANDARD
  9
$DIMCLRD
 70
     0
  9
$DIMCLRE
 70
     0
  9
$DIMCLRT
 70
     0
  9
$DIMTFAC
 40
1.0
  9
$DIMGAP
 40
0.09
  9
$LUNITS
 70
     2
  9
$LUPREC
 70
     4
  9
$SKETCHINC
 40
0.1
  9
$FILLETRAD
 40
0.0
  9
$AUNITS
 70
     0
  9
$AUPREC
 70
     0
  9
$MENU
  1
acad
  9
$ELEVATION
 40
0.0
  9
$PELEVATION
 40
0.0
  9
$THICKNESS
 40
0.0
  9
$LIMCHECK
 70
     0
  9
$BLIPMODE
 70
     0
  9
$CHAMFERA
 40
0.0
  9
$CHAMFERB
 40
0.0
  9
$SKPOLY
 70
     0
  9
$TDCREATE
 40
2455202.7024421301
  9
$TDUPDATE
 40
2455202.7038308452
  9
$TDINDWG
 40
0.0002370602
  9
$TDUSRTIMER
 40
0.0002370602
  9
$USRTIMER
 70
     1
  9
$ANGBASE
 50
0.0
  9
$ANGDIR
 70
     0
  9
$PDMODE
 70
     1
  9
$PDSIZE
 40
-2.0
  9
$PLINEWID
 40
0.0
  9
$COORDS
 70
     0
  9
$SPLFRAME
 70
     0
  9
$SPLINETYPE
 70
     6
  9
$SPLINESEGS
 70
     8
  9
$ATTDIA
 70
     0
  9
$ATTREQ
 70
     1
  9
$HANDLING
 70
     1
  9
$HANDSEED
  5
4E0
  9
$SURFTAB1
 70
     6
  9
$SURFTAB2
 70
     6
  9
$SURFTYPE
 70
     6
  9
$SURFU
 70
     6
  9
$SURFV
 70
     6
  9
$UCSNAME
  2

  9
$UCSORG
 10
0.0
 20
0.0
 30
0.0
  9
$UCSXDIR
 10
1.0
 20
0.0
 30
0.0
  9
$UCSYDIR
 10
0.0
 20
1.0
 30
0.0
  9
$PUCSNAME
  2

  9
$PUCSORG
 10
0.0
 20
0.0
 30
0.0
  9
$PUCSXDIR
 10
1.0
 20
0.0
 30
0.0
  9
$PUCSYDIR
 10
0.0
 20
1.0
 30
0.0
  9
$USERI1
 70
     0
  9
$USERI2
 70
     0
  9
$USERI3
 70
     0
  9
$USERI4
 70
     0
  9
$USERI5
 70
     0
  9
$USERR1
 40
0.0
  9
$USERR2
 40
0.0
  9
$USERR3
 40
0.0
  9
$USERR4
 40
0.0
  9
$USERR5
 40
0.0
  9
$WORLDVIEW
 70
     1
  9
$SHADEDGE
 70
     3
  9
$SHADEDIF
 70
    70
  9
$TILEMODE
 70
     1
  9
$MAXACTVP
 70
    64
  9
$PLIMCHECK
 70
     0
  9
$PEXTMIN
 10
1.0000000000000000E+020
 20
1.0000000000000000E+020
 30
1.0000000000000000E+020
  9
$PEXTMAX
 10
-1.0000000000000000E+020
 20
-1.0000000000000000E+020
 30
-1.0000000000000000E+020
  9
$PLIMMIN
 10
0.0
 20
0.0
  9
$PLIMMAX
 10
12.0
 20
9.0
  9
$UNITMODE
 70
     0
  9
$VISRETAIN
 70
     0
  9
$PLINEGEN
 70
     1
  9
$PSLTSCALE
 70
     0
  0
ENDSEC
  0
SECTION
  2
TABLES
  0
TABLE
  2
VPORT
 70
     1
  0
VPORT
  2
*ACTIVE
 70
     0
 10
0.0
 20
0.0
 11
1.0
 21
1.0
 12
100.0000012572856
 22
135.68716971435171
 13
0.0
 23
0.0
 14
1.0
 24
1.0
 15
0.0
 25
0.0
 16
0.0
 26
0.0
 36
1.0
 17
0.0
 27
0.0
 37
0.0
 40
808.66471724862458
 41
1.964329643296433
 42
50.0
 43
0.0
 44
0.0
 50
0.0
 51
0.0
 71
     0
 72
  2000
 73
     1
 74
     1
 75
     0
 76
     0
 77
     0
 78
     0
  0
ENDTAB
  0
TABLE
  2
LTYPE
 70
    11
  0
LTYPE
  2
CONTINUOUS
 70
     0
  3
Solid line
 72
    65
 73
     0
 40
0.0
  0
ENDTAB
  0
TABLE
  2
LAYER
 70
     5
  0
LAYER
  2
0
 70
     0
 62
     7
  6
CONTINUOUS
  0
LAYER
  2
DATA
 70
     0
 62
     7
  6
CONTINUOUS
  0
LAYER
  2
HIBINO-BASE
 70
     0
 62
     7
  6
CONTINUOUS
  0
LAYER
  2
SPEC
 70
     0
 62
     7
  6
CONTINUOUS
  0
LAYER
  2
DIMNSIONS
 70
     0
 62
     7
  6
CONTINUOUS
  0
ENDTAB
  0
TABLE
  2
STYLE
 70
     3
  0
STYLE
  2
STANDARD
 70
     0
 40
0.0
 41
1.0
 50
0.0
 71
     0
 42
0.0
  3
txt
  4
BIGFONT.SHX
  0
ENDTAB
  0
TABLE
  2
VIEW
 70
     0
  0
ENDTAB
  0
TABLE
  2
UCS
 70
     0
  0
ENDTAB
  0
TABLE
  2
APPID
 70
     3
  0
APPID
  2
ACAD
 70
     0
  0
APPID
  2
ACADANNOTATIVE
 70
     0
  0
APPID
  2
ACAD_MLEADERVER
 70
     0
  0
ENDTAB
  0
TABLE
  2
DIMSTYLE
 70
     2
  0
DIMSTYLE
  2
STANDARD
 70
     0
  3

  4

  5

  6

  7

 40
1.0
 41
0.18
 42
0.0625
 43
0.38
 44
0.18
 45
0.0
 46
0.0
 47
0.0
 48
0.0
140
0.18
141
0.09
142
0.0
143
25.399999999999999
144
1.0
145
0.0
146
1.0
147
0.09
 71
     0
 72
     0
 73
     1
 74
     1
 75
     0
 76
     0
 77
     0
 78
     0
170
     0
171
     2
172
     0
173
     0
174
     0
175
     0
176
     0
177
     0
178
     0
  0
ENDTAB
  0
ENDSEC
  0
SECTION
  2
BLOCKS
  0
BLOCK
  8
0
  2
$MODEL_SPACE
 70
     0
 10
0.0
 20
0.0
 30
0.0
  3
$MODEL_SPACE
  1

  0
ENDBLK
  5
37E
  8
0
  0
BLOCK
 67
     1
  8
0
  2
$PAPER_SPACE
 70
     0
 10
0.0
 20
0.0
 30
0.0
  3
$PAPER_SPACE
  1

  0
ENDBLK
  5
37A
 67
     1
  8
0
  0
ENDSEC
  0
SECTION
  2
ENTITIES
  0
LINE
  5
2C
  8
HIBINO-BASE
  6
CONTINUOUS
 62
     7
 10
-169.99999999999989
 20
537.03654909381032
 30
0.0
 11
370.0
 21
537.03654909381032
 31
0.0
  0
LINE
  5
2D
  8
HIBINO-BASE
  6
CONTINUOUS
 62
     7
 10
370.0
 20
-242.96345090618959
 30
0.0
 11
-169.99999999999989
 21
-242.96345090618959
 31
0.0
  0
LINE
  5
2E
  8
HIBINO-BASE
  6
CONTINUOUS
 62
     7
 10
-169.99999999999989
 20
-242.96345090618959
 30
0.0
 11
-169.99999999999989
 21
537.03654909381032
 31
0.0
  0
LINE
  5
2F
  8
HIBINO-BASE
  6
CONTINUOUS
 62
     7
 10
370.0
 20
537.03654909381032
 30
0.0
 11
370.0
 21
-242.96345090618959
 31
0.0
  0
LINE
  5
30
  8
HIBINO-BASE
  6
CONTINUOUS
 62
     7
 10
100.0
 20
-175.46345090618959
 30
0.0
 11
370.0
 21
-175.46345090618959
 31
0.0
  0
LINE
  5
31
  8
HIBINO-BASE
  6
CONTINUOUS
 62
     7
 10
100.0
 20
-242.96345090618959
 30
0.0
 11
100.0
 21
-175.46345090618959
 31
0.0
  0
TEXT
  5
32
  8
HIBINO-BASE
 62
     7
 10
102.7
 20
-182.98953090618949
 30
0.0
 40
4.8865234374999993
  1
NOTE
 41
0.7
 11
102.7
 21
-178.10300746868961
 31
0.0
 73
     3
  0
LINE
  5
33
  8
HIBINO-BASE
  6
CONTINUOUS
 62
     7
 10
205.0
 20
-242.96345090618959
 30
0.0
 11
205.0
 21
-175.46345090618959
 31
0.0
  0
TEXT
  5
34
  8
HIBINO-BASE
 62
     7
 10
207.69999999999999
 20
-182.98953090618949
 30
0.0
 40
4.8865234374999993
  1
TITLE
 41
0.7
 11
207.69999999999999
 21
-178.10300746868961
 31
0.0
 73
     3
  0
LINE
  5
35
  8
HIBINO-BASE
  6
CONTINUOUS
 62
     7
 10
100.0
 20
-212.96345090618951
 30
0.0
 11
370.0
 21
-212.96345090618951
 31
0.0
  0
TEXT
  5
36
  8
HIBINO-BASE
 62
     7
 10
245.19999999999999
 20
-220.3205709061896
 30
0.0
 40
4.8865234374999993
  1
DRAWN
 41
0.7
 11
245.19999999999999
 21
-215.43404746868961
 31
0.0
 73
     3
  0
TEXT
  5
37
  8
HIBINO-BASE
 62
     7
 10
170.19999999999999
 20
-220.3205709061896
 30
0.0
 40
4.8865234374999993
  1
DATE
 41
0.7
 11
170.19999999999999
 21
-215.43404746868961
 31
0.0
 73
     3
  0
TEXT
  5
38
  8
HIBINO-BASE
 62
     7
 10
140.19999999999999
 20
-220.3205709061896
 30
0.0
 40
4.8865234374999993
  1
SCALE
 41
0.7
 11
140.19999999999999
 21
-215.43404746868961
 31
0.0
 73
     3
  0
TEXT
  5
39
  8
HIBINO-BASE
 62
     7
 10
207.69999999999999
 20
-220.3205709061896
 30
0.0
 40
4.8865234374999993
  1
DESIGN
 41
0.7
 11
207.69999999999999
 21
-215.43404746868961
 31
0.0
 73
     3
  0
TEXT
  5
3A
  8
HIBINO-BASE
 62
     7
 10
320.19999999999999
 20
-220.3205709061896
 30
0.0
 40
4.8865234374999993
  1
DRAWING NO.
 41
0.7
 11
320.19999999999999
 21
-215.43404746868961
 31
0.0
 73
     3
  0
TEXT
  5
3B
  8
HIBINO-BASE
 62
     7
 10
282.69999999999999
 20
-220.3205709061896
 30
0.0
 40
4.8865234374999993
  1
CHECK
 41
0.7
 11
282.69999999999999
 21
-215.43404746868961
 31
0.0
 73
     3
  0
LINE
  5
3C
  8
HIBINO-BASE
  6
CONTINUOUS
 62
     7
 10
143.12499999999989
 20
-239.21345090618959
 30
0.0
 11
154.375
 21
-227.96345090618959
 31
0.0
  0
TEXT
  5
3D
  8
HIBINO-BASE
 62
     7
 10
141.24999999999989
 20
-231.29028090618951
 30
0.0
 40
4.8865234374999993
  1
1
 41
0.7
 11
141.24999999999989
 21
-226.40375746868961
 31
0.0
 73
     3
  0
LINE
  5
3E
  8
HIBINO-BASE
  6
CONTINUOUS
 62
     7
 10
137.5
 20
-242.96345090618959
 30
0.0
 11
137.5
 21
-212.96345090618951
 31
0.0
  0
LINE
  5
3F
  8
HIBINO-BASE
  6
CONTINUOUS
 62
     7
 10
167.5
 20
-242.96345090618959
 30
0.0
 11
167.5
 21
-212.96345090618951
 31
0.0
  0
LINE
  5
40
  8
HIBINO-BASE
  6
CONTINUOUS
 62
     7
 10
242.5
 20
-212.96345090618951
 30
0.0
 11
242.5
 21
-242.96345090618959
 31
0.0
  0
LINE
  5
41
  8
HIBINO-BASE
  6
CONTINUOUS
 62
     7
 10
317.5
 20
-212.96345090618951
 30
0.0
 11
317.5
 21
-242.96345090618959
 31
0.0
  0
LINE
  5
42
  8
HIBINO-BASE
  6
CONTINUOUS
 62
     7
 10
279.99999999999989
 20
-242.96345090618959
 30
0.0
 11
279.99999999999989
 21
-212.96345090618951
 31
0.0
  0
TEXT
  5
43
  8
HIBINO-BASE
 62
     7
 10
170.06961999999999
 20
-234.3725109061896
 30
0.0
 40
4.8865234374999993
  1
'09.06.
 41
0.7
 11
170.06961999999999
 21
-229.48598746868959
 31
0.0
 73
     3
  0
TEXT
  5
44
  8
HIBINO-BASE
 62
     7
 10
152.5
 20
-236.91528090618959
 30
0.0
 40
4.8865234374999993
  1
3
 41
0.7
 11
152.5
 21
-232.02875746868961
 31
0.0
 73
     3
  0
TEXT
  5
45
  8
HIBINO-BASE
 62
     7
 10
111.65000000000001
 20
-237.0354509061896
 30
0.0
 40
9.7730468749999986
  1
A4
 41
0.7
 11
111.65000000000001
 21
-227.26240403118959
 31
0.0
 73
     3
  0
TEXT
  5
46
  8
HIBINO-BASE
 62
     7
 10
102.875
 20
-220.82181590618961
 30
0.0
 40
4.8865234374999993
  1
PAPER SIZE
 41
0.7
 11
102.875
 21
-215.9352924686896
 31
0.0
 73
     3
  0
TEXT
  5
47
  8
HIBINO-BASE
 62
     7
 10
-161.25736775960559
 20
-262.14693152095401
 30
0.0
 40
10.58746744791666
  1
Hibino-Intersound Corporation
 41
0.7
 11
-161.25736775960559
 21
-251.5594640730373
 31
0.0
 73
     3
  0
TEXT
  5
48
  8
HIBINO-BASE
 62
     7
 10
161.9378998119634
 20
-261.21591451957607
 30
0.0
 40
10.58746744791666
  1
ヒビノインターサウンド株式会社
 41
0.7
 11
161.9378998119634
 21
-250.62844707165939
 31
0.0
 73
     3
  0
LINE
  5
49
  8
SPEC
  6
CONTINUOUS
 62
     7
 10
-147.49999999999989
 20
507.03654909381032
 30
0.0
 11
295.0
 21
507.03654909381032
 31
0.0
  0
LINE
  5
4A
  8
SPEC
  6
CONTINUOUS
 62
     7
 10
-147.49999999999989
 20
495.78654909381032
 30
0.0
 11
295.0
 21
495.78654909381032
 31
0.0
  0
LINE
  5
4B
  8
SPEC
  6
CONTINUOUS
 62
     7
 10
-147.49999999999989
 20
450.78654909381032
 30
0.0
 11
295.0
 21
450.78654909381032
 31
0.0
  0
LINE
  5
4C
  8
SPEC
  6
CONTINUOUS
 62
     7
 10
-147.49999999999989
 20
462.03654909381032
 30
0.0
 11
295.0
 21
462.03654909381032
 31
0.0
  0
LINE
  5
4D
  8
SPEC
  6
CONTINUOUS
 62
     7
 10
-147.49999999999989
 20
473.28654909381021
 30
0.0
 11
295.0
 21
473.28654909381021
 31
0.0
  0
LINE
  5
4E
  8
SPEC
  6
CONTINUOUS
 62
     7
 10
-147.49999999999989
 20
439.53654909381032
 30
0.0
 11
295.0
 21
439.53654909381032
 31
0.0
  0
LINE
  5
4F
  8
SPEC
  6
CONTINUOUS
 62
     7
 10
-147.49999999999989
 20
417.03654909381021
 30
0.0
 11
295.0
 21
417.03654909381021
 31
0.0
  0
LINE
  5
50
  8
SPEC
  6
CONTINUOUS
 62
     7
 10
-147.49999999999989
 20
428.28654909381032
 30
0.0
 11
295.0
 21
428.28654909381032
 31
0.0
  0
LINE
  5
51
  8
SPEC
  6
CONTINUOUS
 62
     7
 10
-147.49999999999989
 20
405.78654909381032
 30
0.0
 11
295.0
 21
405.78654909381032
 31
0.0
  0
LINE
  5
52
  8
SPEC
  6
CONTINUOUS
 62
     7
 10
-147.49999999999989
 20
394.53654909381032
 30
0.0
 11
295.0
 21
394.53654909381032
 31
0.0
  0
LINE
  5
53
  8
SPEC
  6
CONTINUOUS
 62
     7
 10
-147.49999999999989
 20
484.53654909381032
 30
0.0
 11
295.0
 21
484.53654909381032
 31
0.0
  0
LINE
  5
54
  8
SPEC
  6
CONTINUOUS
 62
     7
 10
-147.49999999999989
 20
372.03654909381032
 30
0.0
 11
295.0
 21
372.03654909381032
 31
0.0
  0
LINE
  5
55
  8
SPEC
  6
CONTINUOUS
 62
     7
 10
-147.49999999999989
 20
507.03654909381032
 30
0.0
 11
-147.49999999999989
 21
349.53654909381032
 31
0.0
  0
TEXT
  5
56
  8
SPEC
 62
     7
 10
-143.74999999999989
 20
511.2163590938103
 30
0.0
 40
7.3297851562499989
  1
仕様
 41
0.7
 11
-143.74999999999989
 21
518.54614425006025
 31
0.0
 73
     3
  0
LINE
  5
57
  8
SPEC
  6
CONTINUOUS
 62
     7
 10
-50.0
 20
507.03654909381032
 30
0.0
 11
-50.0
 21
349.53654909381032
 31
0.0
  0
LINE
  5
58
  8
SPEC
  6
CONTINUOUS
 62
     7
 10
295.0
 20
507.03654909381032
 30
0.0
 11
295.0
 21
349.53654909381032
 31
0.0
  0
TEXT
  5
59
  8
SPEC
 62
     7
 10
-144.80000000000001
 20
498.15031389381028
 30
0.0
 40
5.700933749999999
  1
形式
 41
0.7
 11
-144.80000000000001
 21
503.85124764381032
 31
0.0
 73
     3
  0
LINE
  5
5A
  8
SPEC
  6
CONTINUOUS
 62
     7
 10
-147.49999999999989
 20
383.28654909381038
 30
0.0
 11
295.0
 21
383.28654909381038
 31
0.0
  0
TEXT
  5
5B
  8
SPEC
 62
     7
 10
-47.29999999999999
 20
486.90031389381028
 30
0.0
 40
5.700933749999999
  1
1.485Gbps
 41
0.7
 11
-47.29999999999999
 21
492.60124764381032
 31
0.0
 73
     3
  0
TEXT
  5
5C
  8
SPEC
 62
     7
 10
-144.80000000000001
 20
486.90031389381028
 30
0.0
 40
5.700933749999999
  1
入力ビデオ帯域
 41
0.7
 11
-144.80000000000001
 21
492.60124764381032
 31
0.0
 73
     3
  0
TEXT
  5
5D
  8
SPEC
 62
     7
 10
-47.500193091177422
 20
476.01066145792981
 30
0.0
 40
5.700933749999999
  1
165MHz(シングルリンクDVI-D)
 41
0.7
 11
-47.500193091177422
 21
481.71159520792969
 31
0.0
 73
     3
  0
TEXT
  5
5E
  8
SPEC
 62
     7
 10
-145.00321181926941
 20
476.25994935161918
 30
0.0
 40
5.700933749999999
  1
出力ビデオ帯域
 41
0.7
 11
-145.00321181926941
 21
481.96088310161912
 31
0.0
 73
     3
  0
TEXT
  5
5F
  8
SPEC
 62
     7
 10
-47.29999999999999
 20
464.40031389381028
 30
0.0
 40
5.700933749999999
  1
2048\U+00D71080p24
 41
0.7
 11
-47.29999999999999
 21
470.10124764381032
 31
0.0
 73
     3
  0
TEXT
  5
60
  8
SPEC
 62
     7
 10
-144.63704591669449
 20
464.7805400881893
 30
0.0
 40
5.700933749999999
  1
最大入力解像度
 41
0.7
 11
-144.63704591669449
 21
470.4814738381894
 31
0.0
 73
     3
  0
TEXT
  5
61
  8
SPEC
 62
     7
 10
-47.29999999999999
 20
453.15031389381028
 30
0.0
 40
5.700933749999999
  1
1920\U+00D71200/60Hz
 41
0.7
 11
-47.29999999999999
 21
458.85124764381032
 31
0.0
 73
     3
  0
TEXT
  5
62
  8
SPEC
 62
     7
 10
-144.6365316635767
 20
453.66796362581778
 30
0.0
 40
5.700933749999999
  1
最大出力解像度
 41
0.7
 11
-144.6365316635767
 21
459.36889737581771
 31
0.0
 73
     3
  0
TEXT
  5
63
  8
SPEC
 62
     7
 10
-47.099333266058437
 20
442.30164736169343
 30
0.0
 40
5.700933749999999
  1
DVI-I 29pinメス(digital only)
 41
0.7
 11
-47.099333266058437
 21
448.00258111169342
 31
0.0
 73
     3
  0
TEXT
  5
64
  8
SPEC
 62
     7
 10
-144.63601578757061
 20
442.36493582902648
 30
0.0
 40
5.700933749999999
  1
DVIコネクタ ー
 41
0.7
 11
-144.63601578757061
 21
448.06586957902641
 31
0.0
 73
     3
  0
TEXT
  5
65
  8
SPEC
 62
     7
 10
-47.099016881820823
 20
431.29345987198371
 30
0.0
 40
5.700933749999999
  1
BNCメス
 41
0.7
 11
-47.099016881820823
 21
436.99439362198359
 31
0.0
 73
     3
  0
TEXT
  5
66
  8
SPEC
 62
     7
 10
-144.55363585907699
 20
431.03354700191318
 30
0.0
 40
5.700933749999999
  1
SDI/HD-SDI端子
 41
0.7
 11
-144.55363585907699
 21
436.73448075191322
 31
0.0
 73
     3
  0
TEXT
  5
67
  8
SPEC
 62
     7
 10
-46.998049998126518
 20
419.82304389643332
 30
0.0
 40
5.700933749999999
  1
DB-9,Sereal RS-232
 41
0.7
 11
-46.998049998126518
 21
425.5239776464332
 31
0.0
 73
     3
  0
TEXT
  5
68
  8
SPEC
 62
     7
 10
-144.9856484603097
 20
419.77161081443012
 30
0.0
 40
5.700933749999999
  1
データポート
 41
0.7
 11
-144.9856484603097
 21
425.47254456443011
 31
0.0
 73
     3
  0
TEXT
  5
69
  8
SPEC
 62
     7
 10
-144.92265341840491
 20
363.87519342884042
 30
0.0
 40
5.700933749999999
  1
寸法
 41
0.7
 11
-144.92265341840491
 21
369.5761271788403
 31
0.0
 73
     3
  0
TEXT
  5
6A
  8
SPEC
 62
     7
 10
-144.80792683368011
 20
352.47375063096831
 30
0.0
 40
5.700933749999999
  1
重量
 41
0.7
 11
-144.80792683368011
 21
358.17468438096819
 31
0.0
 73
     3
  0
TEXT
  5
6B
  8
SPEC
 62
     7
 10
-144.7770764574598
 20
386.23783328399441
 30
0.0
 40
5.700933749999999
  1
電源
 41
0.7
 11
-144.7770764574598
 21
391.9387670339944
 31
0.0
 73
     3
  0
TEXT
  5
6C
  8
SPEC
 62
     7
 10
-47.078538196841478
 20
385.90182633860672
 30
0.0
 40
5.700933749999999
  1
5V DC
 41
0.7
 11
-47.078538196841478
 21
391.60276008860671
 31
0.0
 73
     3
  0
TEXT
  5
6D
  8
SPEC
 62
     7
 10
-47.094888771794771
 20
363.74964956608068
 30
0.0
 40
5.7009440104166647
  1
214(W)\U+00D742(H)\U+00D7173(D)mm(突起部含まず)
 41
0.7
 11
-47.094888771794771
 21
369.45059357649728
 31
0.0
 73
     3
  0
TEXT
  5
6E
  8
SPEC
 62
     7
 10
-47.200095616703379
 20
352.86999992135839
 30
0.0
 40
5.7009440104166647
  1
約600g
 41
0.7
 11
-47.200095616703379
 21
358.5709439317751
 31
0.0
 73
     3
  0
TEXT
  5
6F
  8
SPEC
 62
     7
 10
-144.72806723274871
 20
374.93087245774512
 30
0.0
 40
5.700933749999999
  1
消費電力
 41
0.7
 11
-144.72806723274871
 21
380.63180620774511
 31
0.0
 73
     3
  0
TEXT
  5
70
  8
SPEC
 62
     7
 10
-47.113178369138929
 20
374.75708822923627
 30
0.0
 40
5.700933749999999
  1
20W(最大)
 41
0.7
 11
-47.113178369138929
 21
380.45802197923632
 31
0.0
 73
     3
  0
LINE
  5
71
  8
SPEC
  6
CONTINUOUS
 62
     7
 10
-147.49999999999989
 20
360.78654909381032
 30
0.0
 11
295.0
 21
360.78654909381032
 31
0.0
  0
LINE
  5
72
  8
SPEC
  6
CONTINUOUS
 62
     7
 10
-147.49999999999989
 20
349.53654909381032
 30
0.0
 11
295.0
 21
349.53654909381032
 31
0.0
  0
TEXT
  5
73
  8
SPEC
 62
     7
 10
-46.998049998126518
 20
408.57304389643321
 30
0.0
 40
5.700933749999999
  1
アナログL+R RCA
 41
0.7
 11
-46.998049998126518
 21
414.2739776464332
 31
0.0
 73
     3
  0
TEXT
  5
74
  8
SPEC
 62
     7
 10
-144.9856484603097
 20
408.52161081443012
 30
0.0
 40
5.700933749999999
  1
オーディオ出力
 41
0.7
 11
-144.9856484603097
 21
414.22254456443
 31
0.0
 73
     3
  0
TEXT
  5
75
  8
SPEC
 62
     7
 10
-46.998049998126518
 20
397.32304389643332
 30
0.0
 40
5.700933749999999
  1
1U(別売ラックマウントキット使用時)
 41
0.7
 11
-46.998049998126518
 21
403.0239776464332
 31
0.0
 73
     3
  0
TEXT
  5
76
  8
SPEC
 62
     7
 10
-144.9856484603097
 20
397.27161081443012
 30
0.0
 40
5.700933749999999
  1
ラックマウントサイズ
 41
0.7
 11
-144.9856484603097
 21
402.97254456443011
 31
0.0
 73
     3
  0
TEXT
  5
77
  8
SPEC
 62
     7
 10
-46.991852779326059
 20
498.36270887832683
 30
0.0
 40
5.7009440104166647
  1
HDSDI to DVIシングルリンクスケーラー
 41
0.7
 11
-46.991852779326059
 21
504.06365288874338
 31
0.0
 73
     3
  0
TEXT
  5
78
  8
SPEC
 62
     7
 10
248.76724887674331
 20
-234.33698202789179
 30
0.0
 40
4.8865234374999993
  1
T.Ootake
 41
0.7
 11
248.76724887674331
 21
-229.4504585903918
 31
0.0
 73
     3
  0
TEXT
  5
79
  8
DIMNSIONS
 62
     7
 10
40.0
 20
-206.15498090618959
 30
0.0
 40
7.3297851562499989
  1
(単位：mm)
 41
0.7
 11
40.0
 21
-198.82519574993961
 31
0.0
 73
     3
  0
LINE
  5
7A
  8
DIMNSIONS
  6
CONTINUOUS
 62
     7
 10
-100.0
 20
-131.0
 30
0.0
 11
-100.0
 21
-156.0
 31
0.0
  0
LINE
  5
7B
  8
DIMNSIONS
  6
CONTINUOUS
 62
     7
 10
114.0
 20
-131.0
 30
0.0
 11
114.0
 21
-156.0
 31
0.0
  0
LINE
  5
7C
  8
DIMNSIONS
  6
CONTINUOUS
 62
     7
 10
-100.0
 20
-150.0
 30
0.0
 11
114.0
 21
-150.0
 31
0.0
  0
LINE
  5
7D
  8
DIMNSIONS
  6
CONTINUOUS
 62
     7
 10
-100.0
 20
-150.0
 30
0.0
 11
-92.498132324218759
 21
-147.98988061454921
 31
0.0
  0
LINE
  5
7E
  8
DIMNSIONS
  6
CONTINUOUS
 62
     7
 10
-100.0
 20
-150.0
 30
0.0
 11
-92.498132324218759
 21
-152.01011938545071
 31
0.0
  0
LINE
  5
7F
  8
DIMNSIONS
  6
CONTINUOUS
 62
     7
 10
114.0
 20
-150.0
 30
0.0
 11
106.4981323242187
 21
-152.01011938545071
 31
0.0
  0
LINE
  5
80
  8
DIMNSIONS
  6
CONTINUOUS
 62
     7
 10
114.0
 20
-150.0
 30
0.0
 11
106.4981323242187
 21
-147.98988061454921
 31
0.0
  0
TEXT
  5
81
  8
DIMNSIONS
 62
     7
 10
-0.9375000000000145
 20
-147.01833333333329
 30
0.0
 40
8.1442057291666661
  1
214
 41
0.7
 11
-0.9375000000000142
 21
-138.87412760416669
 31
0.0
 73
     3
  0
LINE
  5
82
  8
DIMNSIONS
  6
CONTINUOUS
 62
     7
 10
-106.0
 20
-125.0
 30
0.0
 11
-131.0
 21
-125.0
 31
0.0
  0
LINE
  5
83
  8
DIMNSIONS
  6
CONTINUOUS
 62
     7
 10
-106.0
 20
-83.0
 30
0.0
 11
-131.0
 21
-83.0
 31
0.0
  0
LINE
  5
84
  8
DIMNSIONS
  6
CONTINUOUS
 62
     7
 10
-125.0
 20
-125.0
 30
0.0
 11
-125.0
 21
-83.0
 31
0.0
  0
LINE
  5
85
  8
DIMNSIONS
  6
CONTINUOUS
 62
     7
 10
-125.0
 20
-125.0
 30
0.0
 11
-127.01011938545069
 21
-117.4981323242187
 31
0.0
  0
LINE
  5
86
  8
DIMNSIONS
  6
CONTINUOUS
 62
     7
 10
-125.0
 20
-125.0
 30
0.0
 11
-122.98988061454919
 21
-117.4981323242187
 31
0.0
  0
LINE
  5
87
  8
DIMNSIONS
  6
CONTINUOUS
 62
     7
 10
-125.0
 20
-83.0
 30
0.0
 11
-122.98988061454919
 21
-90.501867675781227
 31
0.0
  0
LINE
  5
88
  8
DIMNSIONS
  6
CONTINUOUS
 62
     7
 10
-125.0
 20
-83.0
 30
0.0
 11
-127.01011938545069
 21
-90.501867675781227
 31
0.0
  0
TEXT
  5
89
  8
DIMNSIONS
 62
     7
 10
-127.9816666666666
 20
-109.2916666666666
 30
0.0
 40
8.1442057291666661
  1
42
 50
90.0
 41
0.7
 11
-136.12587239583331
 21
-109.2916666666666
 31
0.0
 73
     3
  0
LINE
  5
8A
  8
DIMNSIONS
  6
CONTINUOUS
 62
     7
 10
-95.900000000000006
 20
-128.99889641733631
 30
0.0
 11
-131.0
 21
-128.99889641733631
 31
0.0
  0
LINE
  5
8B
  8
DIMNSIONS
  6
CONTINUOUS
 62
     7
 10
-106.0
 20
-125.0
 30
0.0
 11
-131.0
 21
-125.0
 31
0.0
  0
LINE
  5
8C
  8
DIMNSIONS
  6
CONTINUOUS
 62
     7
 10
-125.0
 20
-125.0
 30
0.0
 11
-125.0
 21
-128.99889641733631
 31
0.0
  0
LINE
  5
8D
  8
DIMNSIONS
  6
CONTINUOUS
 62
     7
 10
-125.0
 20
-128.99889641733631
 30
0.0
 11
-125.0
 21
-142.79166666666671
 31
0.0
  0
LINE
  5
8E
  8
DIMNSIONS
  6
CONTINUOUS
 62
     7
 10
-125.0
 20
-128.99889641733631
 30
0.0
 11
-122.98988061454919
 21
-136.50076409311751
 31
0.0
  0
LINE
  5
8F
  8
DIMNSIONS
  6
CONTINUOUS
 62
     7
 10
-125.0
 20
-128.99889641733631
 30
0.0
 11
-127.01011938545069
 21
-136.50076409311751
 31
0.0
  0
LINE
  5
90
  8
DIMNSIONS
  6
CONTINUOUS
 62
     7
 10
-125.0
 20
-125.0
 30
0.0
 11
-125.0
 21
-110.0
 31
0.0
  0
LINE
  5
91
  8
DIMNSIONS
  6
CONTINUOUS
 62
     7
 10
-125.0
 20
-125.0
 30
0.0
 11
-127.01011938545069
 21
-117.4981323242187
 31
0.0
  0
LINE
  5
92
  8
DIMNSIONS
  6
CONTINUOUS
 62
     7
 10
-125.0
 20
-125.0
 30
0.0
 11
-122.98988061454919
 21
-117.4981323242187
 31
0.0
  0
TEXT
  5
93
  8
DIMNSIONS
 62
     7
 10
-127.9816666666667
 20
-142.79166666666671
 30
0.0
 40
8.1442057291666661
  1
4
 50
90.0
 41
0.7
 11
-136.1258723958334
 21
-142.79166666666671
 31
0.0
 73
     3
  0
LINE
  5
94
  8
DIMNSIONS
  6
CONTINUOUS
 62
     7
 10
-106.0
 20
-50.0
 30
0.0
 11
-131.0
 21
-50.0
 31
0.0
  0
LINE
  5
95
  8
DIMNSIONS
  6
CONTINUOUS
 62
     7
 10
-106.0
 20
123.0
 30
0.0
 11
-131.0
 21
123.0
 31
0.0
  0
LINE
  5
96
  8
DIMNSIONS
  6
CONTINUOUS
 62
     7
 10
-125.0
 20
-50.0
 30
0.0
 11
-125.0
 21
123.0
 31
0.0
  0
LINE
  5
97
  8
DIMNSIONS
  6
CONTINUOUS
 62
     7
 10
-125.0
 20
-50.0
 30
0.0
 11
-127.01011938545069
 21
-42.498132324218737
 31
0.0
  0
LINE
  5
98
  8
DIMNSIONS
  6
CONTINUOUS
 62
     7
 10
-125.0
 20
-50.0
 30
0.0
 11
-122.98988061454919
 21
-42.498132324218737
 31
0.0
  0
LINE
  5
99
  8
DIMNSIONS
  6
CONTINUOUS
 62
     7
 10
-125.0
 20
123.0
 30
0.0
 11
-122.98988061454919
 21
115.4981323242187
 31
0.0
  0
LINE
  5
9A
  8
DIMNSIONS
  6
CONTINUOUS
 62
     7
 10
-125.0
 20
123.0
 30
0.0
 11
-127.01011938545069
 21
115.4981323242187
 31
0.0
  0
TEXT
  5
9B
  8
DIMNSIONS
 62
     7
 10
-127.9816666666666
 20
28.5625
 30
0.0
 40
8.1442057291666661
  1
173
 50
90.0
 41
0.7
 11
-136.12587239583331
 21
28.5625
 31
0.0
 73
     3
  0
LINE
  5
9C
  8
DIMNSIONS
  6
CONTINUOUS
 62
     7
 10
-106.0
 20
123.0
 30
0.0
 11
-131.0
 21
123.0
 31
0.0
  0
LINE
  5
9D
  8
DIMNSIONS
  6
CONTINUOUS
 62
     7
 10
5.8388431056756493
 20
139.0
 30
0.0
 11
-131.0
 21
139.0
 31
0.0
  0
LINE
  5
9E
  8
DIMNSIONS
  6
CONTINUOUS
 62
     7
 10
-125.0
 20
139.0
 30
0.0
 11
-125.0
 21
123.0
 31
0.0
  0
LINE
  5
9F
  8
DIMNSIONS
  6
CONTINUOUS
 62
     7
 10
-125.0
 20
123.0
 30
0.0
 11
-125.0
 21
108.0
 31
0.0
  0
LINE
  5
A0
  8
DIMNSIONS
  6
CONTINUOUS
 62
     7
 10
-125.0
 20
123.0
 30
0.0
 11
-122.98988061454919
 21
115.4981323242187
 31
0.0
  0
LINE
  5
A1
  8
DIMNSIONS
  6
CONTINUOUS
 62
     7
 10
-125.0
 20
123.0
 30
0.0
 11
-127.01011938545069
 21
115.4981323242187
 31
0.0
  0
LINE
  5
A2
  8
DIMNSIONS
  6
CONTINUOUS
 62
     7
 10
-125.0
 20
139.0
 30
0.0
 11
-125.0
 21
154.0
 31
0.0
  0
LINE
  5
A3
  8
DIMNSIONS
  6
CONTINUOUS
 62
     7
 10
-125.0
 20
139.0
 30
0.0
 11
-127.01011938545069
 21
146.5018676757812
 31
0.0
  0
LINE
  5
A4
  8
DIMNSIONS
  6
CONTINUOUS
 62
     7
 10
-125.0
 20
139.0
 30
0.0
 11
-122.98988061454919
 21
146.5018676757812
 31
0.0
  0
TEXT
  5
A5
  8
DIMNSIONS
 62
     7
 10
-127.9816666666666
 20
125.7083333333333
 30
0.0
 40
8.1442057291666661
  1
16
 50
90.0
 41
0.7
 11
-136.12587239583331
 21
125.7083333333333
 31
0.0
 73
     3
  0
TEXT
  5
A6
  8
DATA
 62
     7
 10
-139.99999999999989
 20
-230.24945090618959
 30
0.0
 40
4.8865234374999993
  1
仕様および外観は予告なく変更されることがありますので、ご了承ください。
 41
0.7
 11
-139.99999999999989
 21
-225.36292746868961
 31
0.0
 73
     3
  0
CIRCLE
  5
A7
  8
DATA
  6
CONTINUOUS
 62
     7
 10
35.035544726564311
 20
224.0
 30
0.0
 40
4.75
  0
POLYLINE
  5
A8
  8
DATA
  6
CONTINUOUS
 62
     7
 66
     1
 10
0.0
 20
0.0
 30
0.0
 70
     1
  0
VERTEX
  5
3AA
  8
DATA
  6
CONTINUOUS
 62
     7
 10
28.035544726564311
 20
219.95854811567261
 30
0.0
  0
VERTEX
  5
3AB
  8
DATA
  6
CONTINUOUS
 62
     7
 10
35.035544726564311
 20
215.9170962313452
 30
0.0
  0
VERTEX
  5
3AC
  8
DATA
  6
CONTINUOUS
 62
     7
 10
42.035544726564297
 20
219.95854811567261
 30
0.0
  0
VERTEX
  5
3AD
  8
DATA
  6
CONTINUOUS
 62
     7
 10
42.035544726564297
 20
228.04145188432739
 30
0.0
  0
VERTEX
  5
3AE
  8
DATA
  6
CONTINUOUS
 62
     7
 10
35.035544726564311
 20
232.0829037686548
 30
0.0
  0
VERTEX
  5
3AF
  8
DATA
  6
CONTINUOUS
 62
     7
 10
28.035544726564311
 20
228.04145188432739
 30
0.0
  0
SEQEND
  5
3B0
  8
DATA
  6
CONTINUOUS
 62
     7
  0
CIRCLE
  5
B1
  8
DATA
  6
CONTINUOUS
 62
     7
 10
35.035544726564311
 20
224.0
 30
0.0
 40
0.5
  0
CIRCLE
  5
B2
  8
DATA
  6
CONTINUOUS
 62
     7
 10
35.035544726564311
 20
224.0
 30
0.0
 40
8.0829037686547576
  0
CIRCLE
  5
B3
  8
DATA
  6
CONTINUOUS
 62
     7
 10
81.003248668340049
 20
224.0
 30
0.0
 40
3.8000000000000109
  0
POLYLINE
  5
B4
  8
DATA
  6
CONTINUOUS
 62
     7
 66
     1
 10
0.0
 20
0.0
 30
0.0
 70
     1
  0
VERTEX
  5
3B1
  8
DATA
  6
CONTINUOUS
 62
     7
 10
76.303248668340075
 20
221.28645373480879
 30
0.0
  0
VERTEX
  5
3B2
  8
DATA
  6
CONTINUOUS
 62
     7
 10
81.003248668340049
 20
218.5729074696176
 30
0.0
  0
VERTEX
  5
3B3
  8
DATA
  6
CONTINUOUS
 62
     7
 10
85.703248668340066
 20
221.28645373480879
 30
0.0
  0
VERTEX
  5
3B4
  8
DATA
  6
CONTINUOUS
 62
     7
 10
85.703248668340066
 20
226.7135462651913
 30
0.0
  0
VERTEX
  5
3B5
  8
DATA
  6
CONTINUOUS
 62
     7
 10
81.003248668340049
 20
229.42709253038251
 30
0.0
  0
VERTEX
  5
3B6
  8
DATA
  6
CONTINUOUS
 62
     7
 10
76.303248668340075
 20
226.7135462651913
 30
0.0
  0
SEQEND
  5
3B7
  8
DATA
  6
CONTINUOUS
 62
     7
  0
CIRCLE
  5
BD
  8
DATA
  6
CONTINUOUS
 62
     7
 10
81.003248668340049
 20
224.0
 30
0.0
 40
0.4000000000000057
  0
LINE
  5
BE
  8
DATA
  6
CONTINUOUS
 62
     7
 10
-100.0
 20
-125.0
 30
0.0
 11
114.0
 21
-125.0
 31
0.0
  0
LINE
  5
BF
  8
DATA
  6
CONTINUOUS
 62
     7
 10
-100.0
 20
-83.0
 30
0.0
 11
114.0
 21
-83.0
 31
0.0
  0
LINE
  5
C0
  8
DATA
  6
CONTINUOUS
 62
     7
 10
-100.0
 20
-125.0
 30
0.0
 11
-100.0
 21
-83.0
 31
0.0
  0
LINE
  5
C1
  8
DATA
  6
CONTINUOUS
 62
     7
 10
-100.0
 20
-50.0
 30
0.0
 11
-100.0
 21
123.0
 31
0.0
  0
LINE
  5
C2
  8
DATA
  6
CONTINUOUS
 62
     7
 10
-100.0
 20
-50.0
 30
0.0
 11
114.0
 21
-50.0
 31
0.0
  0
LINE
  5
C3
  8
DATA
  6
CONTINUOUS
 62
     7
 10
-100.0
 20
123.0
 30
0.0
 11
114.0
 21
123.0
 31
0.0
  0
LINE
  5
C4
  8
DATA
  6
CONTINUOUS
 62
     7
 10
114.0
 20
-125.0
 30
0.0
 11
114.0
 21
-83.0
 31
0.0
  0
LINE
  5
C5
  8
DATA
  6
CONTINUOUS
 62
     7
 10
114.0
 20
-50.0
 30
0.0
 11
114.0
 21
123.0
 31
0.0
  0
LINE
  5
C6
  8
DATA
  6
CONTINUOUS
 62
     7
 10
150.0
 20
-125.0
 30
0.0
 11
150.0
 21
-83.0
 31
0.0
  0
LINE
  5
C7
  8
DATA
  6
CONTINUOUS
 62
     7
 10
150.0
 20
-83.0
 30
0.0
 11
323.0
 21
-83.0
 31
0.0
  0
LINE
  5
C8
  8
DATA
  6
CONTINUOUS
 62
     7
 10
150.0
 20
-125.0
 30
0.0
 11
323.0
 21
-125.0
 31
0.0
  0
LINE
  5
C9
  8
DATA
  6
CONTINUOUS
 62
     7
 10
323.0
 20
-125.0
 30
0.0
 11
323.0
 21
-83.0
 31
0.0
  0
ARC
  5
CA
  8
DATA
  6
CONTINUOUS
 62
     7
 10
-90.000000000000014
 20
-124.46875
 30
0.0
 40
4.53125
 50
186.73292132685961
 51
353.26707867314042
  0
ARC
  5
CB
  8
DATA
  6
CONTINUOUS
 62
     7
 10
104.0
 20
-124.46875
 30
0.0
 40
4.5312499999999707
 50
186.73292132685961
 51
353.26707867314047
  0
LINE
  5
CC
  8
DATA
  6
CONTINUOUS
 62
     7
 10
-100.0
 20
-42.800000000000011
 30
0.0
 11
114.0
 21
-42.800000000000011
 31
0.0
  0
LINE
  5
CD
  8
DATA
  6
CONTINUOUS
 62
     7
 10
-74.700000000000003
 20
-125.0
 30
0.0
 11
-47.29999999999999
 21
-125.0
 31
0.0
  0
CIRCLE
  5
CE
  8
DATA
  6
CONTINUOUS
 62
     7
 10
-63.016209578165459
 20
-110.0
 30
0.0
 40
2.5
  0
TEXT
  5
CF
  8
DATA
 62
     7
 10
-64.494877216530355
 20
-121.920045471799
 30
0.0
 40
2.4432617187500001
  1
IR
 41
0.7
 11
-64.494877216530355
 21
-119.47678375304901
 31
0.0
 73
     3
  0
CIRCLE
  5
D0
  8
DATA
  6
CONTINUOUS
 62
     7
 10
66.071686038574683
 20
-110.0
 30
0.0
 40
1.449999999999974
  0
TEXT
  5
D1
  8
DATA
 62
     7
 10
62.124126883483903
 20
-121.920045471799
 30
0.0
 40
2.4432617187500001
  1
Rower
 41
0.7
 11
62.124126883483903
 21
-119.47678375304901
 31
0.0
 73
     3
  0
ARC
  5
D2
  8
DATA
  6
CONTINUOUS
 62
     7
 10
150.38982054306669
 20
-110.0
 30
0.0
 40
1.449999999999994
 50
105.595356083852
 51
254.40464391614799
  0
TEXT
  5
D3
  8
DATA
 62
     7
 10
28.196526278240881
 20
-99.224988337061717
 30
0.0
 40
9.7730468749999986
  1
HDSDI
 41
0.7
 11
28.196526278240881
 21
-89.451941462061725
 31
0.0
 73
     3
  0
TEXT
  5
D4
  8
DATA
 62
     7
 10
60.23964342647313
 20
-99.253247811923345
 30
0.0
 40
6.5153645833333318
  1
to
 41
0.7
 11
60.23964342647313
 21
-92.737883228590007
 31
0.0
 73
     3
  0
TEXT
  5
D5
  8
DATA
 62
     7
 10
73.001645366893172
 20
-99.224988337061717
 30
0.0
 40
9.7730468749999986
  1
DVI
 41
0.7
 11
73.001645366893172
 21
-89.451941462061725
 31
0.0
 73
     3
  0
TEXT
  5
D6
  8
DATA
 62
     7
 10
27.214395043761559
 20
-109.0245184646179
 30
0.0
 40
6.5153645833333318
  1
Scaler
 41
0.7
 11
27.214395043761559
 21
-102.5091538812846
 31
0.0
 73
     3
  0
LINE
  5
D7
  8
DATA
  6
CONTINUOUS
 62
     7
 10
-100.0
 20
242.0
 30
0.0
 11
114.0
 21
242.0
 31
0.0
  0
LINE
  5
D8
  8
DATA
  6
CONTINUOUS
 62
     7
 10
-100.0
 20
200.0
 30
0.0
 11
114.0
 21
200.0
 31
0.0
  0
LINE
  5
D9
  8
DATA
  6
CONTINUOUS
 62
     7
 10
-100.0
 20
242.0
 30
0.0
 11
-100.0
 21
200.0
 31
0.0
  0
LINE
  5
DA
  8
DATA
  6
CONTINUOUS
 62
     7
 10
114.0
 20
242.0
 30
0.0
 11
114.0
 21
200.0
 31
0.0
  0
ARC
  5
DB
  8
DATA
  6
CONTINUOUS
 62
     7
 10
-90.000000000000014
 20
241.46875
 30
0.0
 40
4.5312499999999707
 50
6.7329213268596453
 51
173.26707867314039
  0
ARC
  5
DC
  8
DATA
  6
CONTINUOUS
 62
     7
 10
104.0
 20
241.46875
 30
0.0
 40
4.53125
 50
6.7329213268596009
 51
173.26707867314039
  0
TEXT
  5
DD
  8
DATA
 62
     7
 10
37.356623699556081
 20
238.05401535608999
 30
0.0
 40
2.8504720052083319
  1
IN
 50
180.0
 41
0.7
 11
37.356623699556081
 21
235.20354335088169
 31
0.0
 73
     3
  0
TEXT
  5
DE
  8
DATA
 62
     7
 10
86.800490949759407
 20
238.05401535608999
 30
0.0
 40
2.8504720052083319
  1
+5 Vdc
 50
180.0
 41
0.7
 11
86.800490949759407
 21
235.20354335088169
 31
0.0
 73
     3
  0
LINE
  5
DF
  8
DATA
  6
CONTINUOUS
 62
     7
 10
11.83884310567565
 20
139.0
 30
0.0
 11
21.337910977502581
 21
139.0
 31
0.0
  0
LINE
  5
E0
  8
DATA
  6
CONTINUOUS
 62
     7
 10
30.284254041827179
 20
139.0
 30
0.0
 11
39.782389785481229
 21
139.0
 31
0.0
  0
LINE
  5
E1
  8
DATA
  6
CONTINUOUS
 62
     7
 10
8.5055549481906354
 20
128.0
 30
0.0
 11
24.670267006814509
 21
128.0
 31
0.0
  0
LINE
  5
E2
  8
DATA
  6
CONTINUOUS
 62
     7
 10
26.950418144999279
 20
128.0
 30
0.0
 11
43.116225682309071
 21
128.0
 31
0.0
  0
LINE
  5
E3
  8
DATA
  6
CONTINUOUS
 62
     7
 10
8.5055549481906354
 20
128.0
 30
0.0
 11
8.5055549481906354
 21
123.0
 31
0.0
  0
LINE
  5
E4
  8
DATA
  6
CONTINUOUS
 62
     7
 10
24.670267006814509
 20
128.0
 30
0.0
 11
24.670267006814509
 21
123.0
 31
0.0
  0
LINE
  5
E5
  8
DATA
  6
CONTINUOUS
 62
     7
 10
26.950418144999279
 20
128.0
 30
0.0
 11
26.950418144999279
 21
123.0
 31
0.0
  0
LINE
  5
E6
  8
DATA
  6
CONTINUOUS
 62
     7
 10
43.116225682309071
 20
128.0
 30
0.0
 11
43.116225682309071
 21
123.0
 31
0.0
  0
LINE
  5
E7
  8
DATA
  6
CONTINUOUS
 62
     7
 10
11.83884310567565
 20
139.0
 30
0.0
 11
11.83884310567565
 21
128.0
 31
0.0
  0
LINE
  5
E8
  8
DATA
  6
CONTINUOUS
 62
     7
 10
21.337910977502581
 20
139.0
 30
0.0
 11
21.337910977502581
 21
128.0
 31
0.0
  0
LINE
  5
E9
  8
DATA
  6
CONTINUOUS
 62
     7
 10
30.284254041827179
 20
139.0
 30
0.0
 11
30.284254041827179
 21
128.0
 31
0.0
  0
LINE
  5
EA
  8
DATA
  6
CONTINUOUS
 62
     7
 10
39.782389785481229
 20
139.0
 30
0.0
 11
39.782389785481229
 21
128.0
 31
0.0
  0
POLYLINE
  5
EB
  8
DATA
  6
CONTINUOUS
 62
     7
 66
     1
 10
0.0
 20
0.0
 30
0.0
  0
VERTEX
  5
3B8
  8
DATA
  6
CONTINUOUS
 62
     7
 10
11.83884310567565
 20
133.90000000000001
 30
0.0
  0
VERTEX
  5
3B9
  8
DATA
  6
CONTINUOUS
 62
     7
 10
10.98791097750258
 20
133.90000000000001
 30
0.0
  0
VERTEX
  5
3BA
  8
DATA
  6
CONTINUOUS
 62
     7
 10
10.98791097750258
 20
135.09999999999999
 30
0.0
  0
VERTEX
  5
3BB
  8
DATA
  6
CONTINUOUS
 62
     7
 10
11.83884310567565
 20
135.09999999999999
 30
0.0
  0
SEQEND
  5
3BC
  8
DATA
  6
CONTINUOUS
 62
     7
  0
POLYLINE
  5
F2
  8
DATA
  6
CONTINUOUS
 62
     7
 66
     1
 10
0.0
 20
0.0
 30
0.0
  0
VERTEX
  5
3BD
  8
DATA
  6
CONTINUOUS
 62
     7
 10
21.337910977502581
 20
135.09999999999999
 30
0.0
  0
VERTEX
  5
3BE
  8
DATA
  6
CONTINUOUS
 62
     7
 10
22.187910977502568
 20
135.09999999999999
 30
0.0
  0
VERTEX
  5
3BF
  8
DATA
  6
CONTINUOUS
 62
     7
 10
22.187910977502568
 20
133.90000000000001
 30
0.0
  0
VERTEX
  5
3C0
  8
DATA
  6
CONTINUOUS
 62
     7
 10
21.337910977502581
 20
133.90000000000001
 30
0.0
  0
SEQEND
  5
3C1
  8
DATA
  6
CONTINUOUS
 62
     7
  0
POLYLINE
  5
F9
  8
DATA
  6
CONTINUOUS
 62
     7
 66
     1
 10
0.0
 20
0.0
 30
0.0
  0
VERTEX
  5
3C2
  8
DATA
  6
CONTINUOUS
 62
     7
 10
30.284254041827179
 20
133.90000000000001
 30
0.0
  0
VERTEX
  5
3C3
  8
DATA
  6
CONTINUOUS
 62
     7
 10
29.43332191365409
 20
133.90000000000001
 30
0.0
  0
VERTEX
  5
3C4
  8
DATA
  6
CONTINUOUS
 62
     7
 10
29.43332191365409
 20
135.09999999999999
 30
0.0
  0
VERTEX
  5
3C5
  8
DATA
  6
CONTINUOUS
 62
     7
 10
30.284254041827179
 20
135.09999999999999
 30
0.0
  0
SEQEND
  5
3C6
  8
DATA
  6
CONTINUOUS
 62
     7
  0
POLYLINE
  5
100
  8
DATA
  6
CONTINUOUS
 62
     7
 66
     1
 10
0.0
 20
0.0
 30
0.0
  0
VERTEX
  5
3C7
  8
DATA
  6
CONTINUOUS
 62
     7
 10
39.782389785481229
 20
135.09999999999999
 30
0.0
  0
VERTEX
  5
3C8
  8
DATA
  6
CONTINUOUS
 62
     7
 10
40.633321913654299
 20
135.09999999999999
 30
0.0
  0
VERTEX
  5
3C9
  8
DATA
  6
CONTINUOUS
 62
     7
 10
40.633321913654299
 20
133.90000000000001
 30
0.0
  0
VERTEX
  5
3CA
  8
DATA
  6
CONTINUOUS
 62
     7
 10
39.782389785481229
 20
133.90000000000001
 30
0.0
  0
SEQEND
  5
3CB
  8
DATA
  6
CONTINUOUS
 62
     7
  0
POLYLINE
  5
107
  8
DATA
  6
CONTINUOUS
 62
     7
 66
     1
 10
0.0
 20
0.0
 30
0.0
  0
VERTEX
  5
3CC
  8
DATA
  6
CONTINUOUS
 62
     7
 10
30.323591840552311
 20
223.40000000000001
 30
0.0
  0
VERTEX
  5
3CD
  8
DATA
  6
CONTINUOUS
 62
     7
 10
29.43554472656432
 20
223.40000000000001
 30
0.0
  0
VERTEX
  5
3CE
  8
DATA
  6
CONTINUOUS
 62
     7
 10
29.43554472656432
 20
224.59999999999999
 30
0.0
  0
VERTEX
  5
3CF
  8
DATA
  6
CONTINUOUS
 62
     7
 10
30.323591840552311
 20
224.59999999999999
 30
0.0
  0
SEQEND
  5
3D0
  8
DATA
  6
CONTINUOUS
 62
     7
  0
POLYLINE
  5
10E
  8
DATA
  6
CONTINUOUS
 62
     7
 66
     1
 10
0.0
 20
0.0
 30
0.0
  0
VERTEX
  5
3D1
  8
DATA
  6
CONTINUOUS
 62
     7
 10
39.747497612576311
 20
224.59999999999999
 30
0.0
  0
VERTEX
  5
3D2
  8
DATA
  6
CONTINUOUS
 62
     7
 10
40.635544726564312
 20
224.59999999999999
 30
0.0
  0
VERTEX
  5
3D3
  8
DATA
  6
CONTINUOUS
 62
     7
 10
40.635544726564312
 20
223.40000000000001
 30
0.0
  0
VERTEX
  5
3D4
  8
DATA
  6
CONTINUOUS
 62
     7
 10
39.747497612576311
 20
223.40000000000001
 30
0.0
  0
SEQEND
  5
3D5
  8
DATA
  6
CONTINUOUS
 62
     7
  0
LINE
  5
115
  8
DATA
  6
CONTINUOUS
 62
     7
 10
-37.278776939260709
 20
127.5000000003607
 30
0.0
 11
-41.955314119696773
 21
127.5000000003607
 31
0.0
  0
LINE
  5
116
  8
DATA
  6
CONTINUOUS
 62
     7
 10
-43.215149308160072
 20
127.5000000003607
 30
0.0
 11
-61.036022306259341
 21
127.5000000003607
 31
0.0
  0
LINE
  5
117
  8
DATA
  6
CONTINUOUS
 62
     7
 10
-37.278776939260709
 20
127.5000000003607
 30
0.0
 11
-37.278776939260709
 21
123.0
 31
0.0
  0
LINE
  5
118
  8
DATA
  6
CONTINUOUS
 62
     7
 10
-62.278776939260709
 20
127.5000000003607
 30
0.0
 11
-62.278776939260709
 21
123.0
 31
0.0
  0
LINE
  5
119
  8
DATA
  6
CONTINUOUS
 62
     7
 10
-41.955314119696773
 20
127.5000000003607
 30
0.0
 11
-41.955314119696773
 21
123.0
 31
0.0
  0
LINE
  5
11A
  8
DATA
  6
CONTINUOUS
 62
     7
 10
-61.036022306259341
 20
127.5000000003607
 30
0.0
 11
-61.036022306259341
 21
123.0
 31
0.0
  0
LINE
  5
11B
  8
DATA
  6
CONTINUOUS
 62
     7
 10
-43.215149308160072
 20
127.5000000003607
 30
0.0
 11
-43.215149308160072
 21
123.0
 31
0.0
  0
LINE
  5
11C
  8
DATA
  6
CONTINUOUS
 62
     7
 10
-66.955314119696553
 20
127.5000000003607
 30
0.0
 11
-66.955314119696553
 21
123.0
 31
0.0
  0
LINE
  5
11D
  8
DATA
  6
CONTINUOUS
 62
     7
 10
-66.955314119696553
 20
127.5000000003607
 30
0.0
 11
-62.278776939260709
 21
127.5000000003607
 31
0.0
  0
LINE
  5
11E
  8
DATA
  6
CONTINUOUS
 62
     7
 10
75.967412423988975
 20
124.8
 30
0.0
 11
75.967412423988975
 21
123.0
 31
0.0
  0
LINE
  5
11F
  8
DATA
  6
CONTINUOUS
 62
     7
 10
85.367412423988938
 20
124.8
 30
0.0
 11
85.367412423988938
 21
123.0
 31
0.0
  0
LINE
  5
120
  8
DATA
  6
CONTINUOUS
 62
     7
 10
76.867412423989023
 20
129.0
 30
0.0
 11
76.867412423989023
 21
124.8
 31
0.0
  0
LINE
  5
121
  8
DATA
  6
CONTINUOUS
 62
     7
 10
84.467412423988975
 20
129.0
 30
0.0
 11
84.467412423988975
 21
124.8
 31
0.0
  0
LINE
  5
122
  8
DATA
  6
CONTINUOUS
 62
     7
 10
75.967412423988975
 20
124.8
 30
0.0
 11
85.367412423989009
 21
124.8
 31
0.0
  0
LINE
  5
123
  8
DATA
  6
CONTINUOUS
 62
     7
 10
76.867412423989023
 20
129.0
 30
0.0
 11
84.467412423988975
 21
129.0
 31
0.0
  0
ARC
  5
124
  8
DATA
  6
CONTINUOUS
 62
     7
 10
168.58800696536011
 20
-124.46875
 30
0.0
 40
4.5312499999999707
 50
186.73292132685961
 51
353.26707867314047
  0
ARC
  5
125
  8
DATA
  6
CONTINUOUS
 62
     7
 10
304.41199303463981
 20
-124.46875
 30
0.0
 40
4.53125
 50
186.73292132685961
 51
353.26707867314042
  0
CIRCLE
  5
126
  8
DATA
  6
CONTINUOUS
 62
     7
 10
163.40000000000001
 20
-119.0
 30
0.0
 40
2.4000000000000048
  0
LINE
  5
127
  8
DATA
  6
CONTINUOUS
 62
     7
 10
162.28756443470181
 20
-119.0
 30
0.0
 11
164.71243556529819
 21
-119.0
 31
0.0
  0
LINE
  5
128
  8
DATA
  6
CONTINUOUS
 62
     7
 10
163.5
 20
-120.21243556529819
 30
0.0
 11
163.5
 21
-117.78756443470181
 31
0.0
  0
LINE
  5
129
  8
DATA
  6
CONTINUOUS
 62
     7
 10
162.28756443470181
 20
-119.0
 30
0.0
 11
164.71243556529819
 21
-119.0
 31
0.0
  0
CIRCLE
  5
12A
  8
DATA
  6
CONTINUOUS
 62
     7
 10
163.5
 20
-88.0
 30
0.0
 40
2.4000000000000048
  0
LINE
  5
12B
  8
DATA
  6
CONTINUOUS
 62
     7
 10
162.38756443470169
 20
-88.0
 30
0.0
 11
164.81243556529819
 21
-88.0
 31
0.0
  0
LINE
  5
12C
  8
DATA
  6
CONTINUOUS
 62
     7
 10
163.59999999999999
 20
-89.212435565298208
 30
0.0
 11
163.59999999999999
 21
-86.787564434701807
 31
0.0
  0
LINE
  5
12D
  8
DATA
  6
CONTINUOUS
 62
     7
 10
162.38756443470169
 20
-88.0
 30
0.0
 11
164.81243556529819
 21
-88.0
 31
0.0
  0
CIRCLE
  5
12E
  8
DATA
  6
CONTINUOUS
 62
     7
 10
233.90000000000001
 20
-119.0
 30
0.0
 40
2.3999999999999768
  0
LINE
  5
12F
  8
DATA
  6
CONTINUOUS
 62
     7
 10
232.78756443470181
 20
-119.0
 30
0.0
 11
235.21243556529819
 21
-119.0
 31
0.0
  0
LINE
  5
130
  8
DATA
  6
CONTINUOUS
 62
     7
 10
234.0
 20
-120.21243556529819
 30
0.0
 11
234.0
 21
-117.78756443470181
 31
0.0
  0
LINE
  5
131
  8
DATA
  6
CONTINUOUS
 62
     7
 10
232.78756443470181
 20
-119.0
 30
0.0
 11
235.21243556529819
 21
-119.0
 31
0.0
  0
CIRCLE
  5
132
  8
DATA
  6
CONTINUOUS
 62
     7
 10
303.90000000000009
 20
-119.0
 30
0.0
 40
2.3999999999999768
  0
LINE
  5
133
  8
DATA
  6
CONTINUOUS
 62
     7
 10
302.78756443470178
 20
-119.0
 30
0.0
 11
305.21243556529822
 21
-119.0
 31
0.0
  0
LINE
  5
134
  8
DATA
  6
CONTINUOUS
 62
     7
 10
304.0
 20
-120.21243556529819
 30
0.0
 11
304.0
 21
-117.78756443470181
 31
0.0
  0
LINE
  5
135
  8
DATA
  6
CONTINUOUS
 62
     7
 10
302.78756443470178
 20
-119.0
 30
0.0
 11
305.21243556529822
 21
-119.0
 31
0.0
  0
CIRCLE
  5
136
  8
DATA
  6
CONTINUOUS
 62
     7
 10
180.0
 20
-89.0
 30
0.0
 40
1.6749999999999969
  0
CIRCLE
  5
137
  8
DATA
  6
CONTINUOUS
 62
     7
 10
188.0
 20
-89.0
 30
0.0
 40
1.6749999999999969
  0
CIRCLE
  5
138
  8
DATA
  6
CONTINUOUS
 62
     7
 10
196.0
 20
-89.0
 30
0.0
 40
1.6749999999999969
  0
CIRCLE
  5
139
  8
DATA
  6
CONTINUOUS
 62
     7
 10
204.0
 20
-89.0
 30
0.0
 40
1.6749999999999969
  0
CIRCLE
  5
13A
  8
DATA
  6
CONTINUOUS
 62
     7
 10
212.0
 20
-89.0
 30
0.0
 40
1.6749999999999969
  0
CIRCLE
  5
13B
  8
DATA
  6
CONTINUOUS
 62
     7
 10
220.0
 20
-89.0
 30
0.0
 40
1.6749999999999969
  0
CIRCLE
  5
13C
  8
DATA
  6
CONTINUOUS
 62
     7
 10
228.0
 20
-89.0
 30
0.0
 40
1.6750000000000109
  0
CIRCLE
  5
13D
  8
DATA
  6
CONTINUOUS
 62
     7
 10
236.0
 20
-89.0
 30
0.0
 40
1.6750000000000109
  0
CIRCLE
  5
13E
  8
DATA
  6
CONTINUOUS
 62
     7
 10
244.0
 20
-89.0
 30
0.0
 40
1.6750000000000109
  0
CIRCLE
  5
13F
  8
DATA
  6
CONTINUOUS
 62
     7
 10
252.0
 20
-89.0
 30
0.0
 40
1.6750000000000109
  0
CIRCLE
  5
140
  8
DATA
  6
CONTINUOUS
 62
     7
 10
260.0
 20
-89.0
 30
0.0
 40
1.6750000000000109
  0
CIRCLE
  5
141
  8
DATA
  6
CONTINUOUS
 62
     7
 10
268.0
 20
-89.0
 30
0.0
 40
1.6750000000000109
  0
CIRCLE
  5
142
  8
DATA
  6
CONTINUOUS
 62
     7
 10
180.0
 20
-93.0
 30
0.0
 40
1.6749999999999969
  0
CIRCLE
  5
143
  8
DATA
  6
CONTINUOUS
 62
     7
 10
188.0
 20
-93.0
 30
0.0
 40
1.6749999999999969
  0
CIRCLE
  5
144
  8
DATA
  6
CONTINUOUS
 62
     7
 10
196.0
 20
-93.0
 30
0.0
 40
1.6749999999999969
  0
CIRCLE
  5
145
  8
DATA
  6
CONTINUOUS
 62
     7
 10
204.0
 20
-93.0
 30
0.0
 40
1.6749999999999969
  0
CIRCLE
  5
146
  8
DATA
  6
CONTINUOUS
 62
     7
 10
212.0
 20
-93.0
 30
0.0
 40
1.6749999999999969
  0
CIRCLE
  5
147
  8
DATA
  6
CONTINUOUS
 62
     7
 10
220.0
 20
-93.0
 30
0.0
 40
1.6749999999999969
  0
CIRCLE
  5
148
  8
DATA
  6
CONTINUOUS
 62
     7
 10
228.0
 20
-93.0
 30
0.0
 40
1.6750000000000109
  0
CIRCLE
  5
149
  8
DATA
  6
CONTINUOUS
 62
     7
 10
236.0
 20
-93.0
 30
0.0
 40
1.6750000000000109
  0
CIRCLE
  5
14A
  8
DATA
  6
CONTINUOUS
 62
     7
 10
244.0
 20
-93.0
 30
0.0
 40
1.6750000000000109
  0
CIRCLE
  5
14B
  8
DATA
  6
CONTINUOUS
 62
     7
 10
252.0
 20
-93.0
 30
0.0
 40
1.6750000000000109
  0
CIRCLE
  5
14C
  8
DATA
  6
CONTINUOUS
 62
     7
 10
260.0
 20
-93.0
 30
0.0
 40
1.6750000000000109
  0
CIRCLE
  5
14D
  8
DATA
  6
CONTINUOUS
 62
     7
 10
268.0
 20
-93.0
 30
0.0
 40
1.6750000000000109
  0
CIRCLE
  5
14E
  8
DATA
  6
CONTINUOUS
 62
     7
 10
180.0
 20
-97.0
 30
0.0
 40
1.6749999999999969
  0
CIRCLE
  5
14F
  8
DATA
  6
CONTINUOUS
 62
     7
 10
188.0
 20
-97.0
 30
0.0
 40
1.6749999999999969
  0
CIRCLE
  5
150
  8
DATA
  6
CONTINUOUS
 62
     7
 10
196.0
 20
-97.0
 30
0.0
 40
1.6749999999999969
  0
CIRCLE
  5
151
  8
DATA
  6
CONTINUOUS
 62
     7
 10
204.0
 20
-97.0
 30
0.0
 40
1.6749999999999969
  0
CIRCLE
  5
152
  8
DATA
  6
CONTINUOUS
 62
     7
 10
212.0
 20
-97.0
 30
0.0
 40
1.6749999999999969
  0
CIRCLE
  5
153
  8
DATA
  6
CONTINUOUS
 62
     7
 10
220.0
 20
-97.0
 30
0.0
 40
1.6749999999999969
  0
CIRCLE
  5
154
  8
DATA
  6
CONTINUOUS
 62
     7
 10
228.0
 20
-97.0
 30
0.0
 40
1.6750000000000109
  0
CIRCLE
  5
155
  8
DATA
  6
CONTINUOUS
 62
     7
 10
236.0
 20
-97.0
 30
0.0
 40
1.6750000000000109
  0
CIRCLE
  5
156
  8
DATA
  6
CONTINUOUS
 62
     7
 10
244.0
 20
-97.0
 30
0.0
 40
1.6750000000000109
  0
CIRCLE
  5
157
  8
DATA
  6
CONTINUOUS
 62
     7
 10
252.0
 20
-97.0
 30
0.0
 40
1.6750000000000109
  0
CIRCLE
  5
158
  8
DATA
  6
CONTINUOUS
 62
     7
 10
260.0
 20
-97.0
 30
0.0
 40
1.6750000000000109
  0
CIRCLE
  5
159
  8
DATA
  6
CONTINUOUS
 62
     7
 10
268.0
 20
-97.0
 30
0.0
 40
1.6750000000000109
  0
CIRCLE
  5
15A
  8
DATA
  6
CONTINUOUS
 62
     7
 10
180.0
 20
-101.0
 30
0.0
 40
1.6749999999999969
  0
CIRCLE
  5
15B
  8
DATA
  6
CONTINUOUS
 62
     7
 10
188.0
 20
-101.0
 30
0.0
 40
1.6749999999999969
  0
CIRCLE
  5
15C
  8
DATA
  6
CONTINUOUS
 62
     7
 10
196.0
 20
-101.0
 30
0.0
 40
1.6749999999999969
  0
CIRCLE
  5
15D
  8
DATA
  6
CONTINUOUS
 62
     7
 10
204.0
 20
-101.0
 30
0.0
 40
1.6749999999999969
  0
CIRCLE
  5
15E
  8
DATA
  6
CONTINUOUS
 62
     7
 10
212.0
 20
-101.0
 30
0.0
 40
1.6749999999999969
  0
CIRCLE
  5
15F
  8
DATA
  6
CONTINUOUS
 62
     7
 10
220.0
 20
-101.0
 30
0.0
 40
1.6749999999999969
  0
CIRCLE
  5
160
  8
DATA
  6
CONTINUOUS
 62
     7
 10
228.0
 20
-101.0
 30
0.0
 40
1.6750000000000109
  0
CIRCLE
  5
161
  8
DATA
  6
CONTINUOUS
 62
     7
 10
236.0
 20
-101.0
 30
0.0
 40
1.6750000000000109
  0
CIRCLE
  5
162
  8
DATA
  6
CONTINUOUS
 62
     7
 10
244.0
 20
-101.0
 30
0.0
 40
1.6750000000000109
  0
CIRCLE
  5
163
  8
DATA
  6
CONTINUOUS
 62
     7
 10
252.0
 20
-101.0
 30
0.0
 40
1.6750000000000109
  0
CIRCLE
  5
164
  8
DATA
  6
CONTINUOUS
 62
     7
 10
260.0
 20
-101.0
 30
0.0
 40
1.6750000000000109
  0
CIRCLE
  5
165
  8
DATA
  6
CONTINUOUS
 62
     7
 10
268.0
 20
-101.0
 30
0.0
 40
1.6750000000000109
  0
CIRCLE
  5
166
  8
DATA
  6
CONTINUOUS
 62
     7
 10
176.0
 20
-91.0
 30
0.0
 40
1.6749999999999969
  0
CIRCLE
  5
167
  8
DATA
  6
CONTINUOUS
 62
     7
 10
176.0
 20
-95.0
 30
0.0
 40
1.6749999999999969
  0
CIRCLE
  5
168
  8
DATA
  6
CONTINUOUS
 62
     7
 10
176.0
 20
-99.0
 30
0.0
 40
1.6749999999999969
  0
CIRCLE
  5
169
  8
DATA
  6
CONTINUOUS
 62
     7
 10
184.0
 20
-91.0
 30
0.0
 40
1.6749999999999969
  0
CIRCLE
  5
16A
  8
DATA
  6
CONTINUOUS
 62
     7
 10
184.0
 20
-95.0
 30
0.0
 40
1.6749999999999969
  0
CIRCLE
  5
16B
  8
DATA
  6
CONTINUOUS
 62
     7
 10
184.0
 20
-99.0
 30
0.0
 40
1.6749999999999969
  0
CIRCLE
  5
16C
  8
DATA
  6
CONTINUOUS
 62
     7
 10
192.0
 20
-91.0
 30
0.0
 40
1.6749999999999969
  0
CIRCLE
  5
16D
  8
DATA
  6
CONTINUOUS
 62
     7
 10
192.0
 20
-95.0
 30
0.0
 40
1.6749999999999969
  0
CIRCLE
  5
16E
  8
DATA
  6
CONTINUOUS
 62
     7
 10
192.0
 20
-99.0
 30
0.0
 40
1.6749999999999969
  0
CIRCLE
  5
16F
  8
DATA
  6
CONTINUOUS
 62
     7
 10
200.0
 20
-91.0
 30
0.0
 40
1.6749999999999969
  0
CIRCLE
  5
170
  8
DATA
  6
CONTINUOUS
 62
     7
 10
200.0
 20
-95.0
 30
0.0
 40
1.6749999999999969
  0
CIRCLE
  5
171
  8
DATA
  6
CONTINUOUS
 62
     7
 10
200.0
 20
-99.0
 30
0.0
 40
1.6749999999999969
  0
CIRCLE
  5
172
  8
DATA
  6
CONTINUOUS
 62
     7
 10
208.0
 20
-91.0
 30
0.0
 40
1.6749999999999969
  0
CIRCLE
  5
173
  8
DATA
  6
CONTINUOUS
 62
     7
 10
208.0
 20
-95.0
 30
0.0
 40
1.6749999999999969
  0
CIRCLE
  5
174
  8
DATA
  6
CONTINUOUS
 62
     7
 10
208.0
 20
-99.0
 30
0.0
 40
1.6749999999999969
  0
CIRCLE
  5
175
  8
DATA
  6
CONTINUOUS
 62
     7
 10
216.0
 20
-91.0
 30
0.0
 40
1.6749999999999969
  0
CIRCLE
  5
176
  8
DATA
  6
CONTINUOUS
 62
     7
 10
216.0
 20
-95.0
 30
0.0
 40
1.6749999999999969
  0
CIRCLE
  5
177
  8
DATA
  6
CONTINUOUS
 62
     7
 10
216.0
 20
-99.0
 30
0.0
 40
1.6749999999999969
  0
CIRCLE
  5
178
  8
DATA
  6
CONTINUOUS
 62
     7
 10
224.0
 20
-91.0
 30
0.0
 40
1.6750000000000109
  0
CIRCLE
  5
179
  8
DATA
  6
CONTINUOUS
 62
     7
 10
224.0
 20
-95.0
 30
0.0
 40
1.6750000000000109
  0
CIRCLE
  5
17A
  8
DATA
  6
CONTINUOUS
 62
     7
 10
224.0
 20
-99.0
 30
0.0
 40
1.6750000000000109
  0
CIRCLE
  5
17B
  8
DATA
  6
CONTINUOUS
 62
     7
 10
232.0
 20
-91.0
 30
0.0
 40
1.6750000000000109
  0
CIRCLE
  5
17C
  8
DATA
  6
CONTINUOUS
 62
     7
 10
232.0
 20
-95.0
 30
0.0
 40
1.6750000000000109
  0
CIRCLE
  5
17D
  8
DATA
  6
CONTINUOUS
 62
     7
 10
232.0
 20
-99.0
 30
0.0
 40
1.6750000000000109
  0
CIRCLE
  5
17E
  8
DATA
  6
CONTINUOUS
 62
     7
 10
240.0
 20
-91.0
 30
0.0
 40
1.6750000000000109
  0
CIRCLE
  5
17F
  8
DATA
  6
CONTINUOUS
 62
     7
 10
240.0
 20
-95.0
 30
0.0
 40
1.6750000000000109
  0
CIRCLE
  5
180
  8
DATA
  6
CONTINUOUS
 62
     7
 10
240.0
 20
-99.0
 30
0.0
 40
1.6750000000000109
  0
CIRCLE
  5
181
  8
DATA
  6
CONTINUOUS
 62
     7
 10
248.0
 20
-91.0
 30
0.0
 40
1.6750000000000109
  0
CIRCLE
  5
182
  8
DATA
  6
CONTINUOUS
 62
     7
 10
248.0
 20
-95.0
 30
0.0
 40
1.6750000000000109
  0
CIRCLE
  5
183
  8
DATA
  6
CONTINUOUS
 62
     7
 10
248.0
 20
-99.0
 30
0.0
 40
1.6750000000000109
  0
CIRCLE
  5
184
  8
DATA
  6
CONTINUOUS
 62
     7
 10
256.0
 20
-91.0
 30
0.0
 40
1.6750000000000109
  0
CIRCLE
  5
185
  8
DATA
  6
CONTINUOUS
 62
     7
 10
256.0
 20
-95.0
 30
0.0
 40
1.6750000000000109
  0
CIRCLE
  5
186
  8
DATA
  6
CONTINUOUS
 62
     7
 10
256.0
 20
-99.0
 30
0.0
 40
1.6750000000000109
  0
CIRCLE
  5
187
  8
DATA
  6
CONTINUOUS
 62
     7
 10
264.0
 20
-91.0
 30
0.0
 40
1.6750000000000109
  0
CIRCLE
  5
188
  8
DATA
  6
CONTINUOUS
 62
     7
 10
264.0
 20
-95.0
 30
0.0
 40
1.6750000000000109
  0
CIRCLE
  5
189
  8
DATA
  6
CONTINUOUS
 62
     7
 10
264.0
 20
-99.0
 30
0.0
 40
1.6750000000000109
  0
LINE
  5
18A
  8
DATA
  6
CONTINUOUS
 62
     7
 10
339.00000000000011
 20
-102.333288157485
 30
0.0
 11
339.00000000000011
 21
-111.8323560293119
 31
0.0
  0
LINE
  5
18B
  8
DATA
  6
CONTINUOUS
 62
     7
 10
328.00000000000011
 20
-99.000000000000057
 30
0.0
 11
328.00000000000011
 21
-103.09999999999999
 31
0.0
  0
LINE
  5
18C
  8
DATA
  6
CONTINUOUS
 62
     7
 10
328.00000000000011
 20
-110.7
 30
0.0
 11
328.00000000000011
 21
-115.16471205862391
 31
0.0
  0
LINE
  5
18D
  8
DATA
  6
CONTINUOUS
 62
     7
 10
328.00000000000011
 20
-99.000000000000057
 30
0.0
 11
323.0
 21
-99.000000000000057
 31
0.0
  0
LINE
  5
18E
  8
DATA
  6
CONTINUOUS
 62
     7
 10
328.00000000000011
 20
-115.16471205862391
 30
0.0
 11
323.0
 21
-115.16471205862391
 31
0.0
  0
LINE
  5
18F
  8
DATA
  6
CONTINUOUS
 62
     7
 10
339.00000000000011
 20
-102.333288157485
 30
0.0
 11
328.00000000000011
 21
-102.333288157485
 31
0.0
  0
LINE
  5
190
  8
DATA
  6
CONTINUOUS
 62
     7
 10
339.00000000000011
 20
-111.8323560293119
 30
0.0
 11
328.00000000000011
 21
-111.8323560293119
 31
0.0
  0
POLYLINE
  5
191
  8
DATA
  6
CONTINUOUS
 62
     7
 66
     1
 10
0.0
 20
0.0
 30
0.0
  0
VERTEX
  5
3D6
  8
DATA
  6
CONTINUOUS
 62
     7
 10
333.90000000000009
 20
-102.333288157485
 30
0.0
  0
VERTEX
  5
3D7
  8
DATA
  6
CONTINUOUS
 62
     7
 10
333.90000000000009
 20
-101.482356029312
 30
0.0
  0
VERTEX
  5
3D8
  8
DATA
  6
CONTINUOUS
 62
     7
 10
335.10000000000002
 20
-101.482356029312
 30
0.0
  0
VERTEX
  5
3D9
  8
DATA
  6
CONTINUOUS
 62
     7
 10
335.10000000000002
 20
-102.333288157485
 30
0.0
  0
SEQEND
  5
3DA
  8
DATA
  6
CONTINUOUS
 62
     7
  0
POLYLINE
  5
198
  8
DATA
  6
CONTINUOUS
 62
     7
 66
     1
 10
0.0
 20
0.0
 30
0.0
  0
VERTEX
  5
3DB
  8
DATA
  6
CONTINUOUS
 62
     7
 10
335.10000000000002
 20
-111.8323560293119
 30
0.0
  0
VERTEX
  5
3DC
  8
DATA
  6
CONTINUOUS
 62
     7
 10
335.10000000000002
 20
-112.6823560293119
 30
0.0
  0
VERTEX
  5
3DD
  8
DATA
  6
CONTINUOUS
 62
     7
 10
333.90000000000009
 20
-112.6823560293119
 30
0.0
  0
VERTEX
  5
3DE
  8
DATA
  6
CONTINUOUS
 62
     7
 10
333.90000000000009
 20
-111.8323560293119
 30
0.0
  0
SEQEND
  5
3DF
  8
DATA
  6
CONTINUOUS
 62
     7
  0
LINE
  5
19F
  8
DATA
  6
CONTINUOUS
 62
     7
 10
324.77551569993773
 20
-102.2
 30
0.0
 11
323.0
 21
-102.2
 31
0.0
  0
LINE
  5
1A0
  8
DATA
  6
CONTINUOUS
 62
     7
 10
324.77551569993773
 20
-111.59999999999999
 30
0.0
 11
323.0
 21
-111.59999999999999
 31
0.0
  0
LINE
  5
1A1
  8
DATA
  6
CONTINUOUS
 62
     7
 10
328.97551569993772
 20
-103.09999999999999
 30
0.0
 11
324.77551569993773
 21
-103.09999999999999
 31
0.0
  0
LINE
  5
1A2
  8
DATA
  6
CONTINUOUS
 62
     7
 10
328.97551569993772
 20
-110.7
 30
0.0
 11
324.77551569993773
 21
-110.7
 31
0.0
  0
LINE
  5
1A3
  8
DATA
  6
CONTINUOUS
 62
     7
 10
324.77551569993773
 20
-102.2
 30
0.0
 11
324.77551569993773
 21
-111.59999999999999
 31
0.0
  0
LINE
  5
1A4
  8
DATA
  6
CONTINUOUS
 62
     7
 10
328.97551569993772
 20
-103.09999999999999
 30
0.0
 11
328.97551569993772
 21
-110.7
 31
0.0
  0
LINE
  5
1A5
  8
DATA
  6
CONTINUOUS
 62
     7
 10
327.00000000007589
 20
-96.600000000000037
 30
0.0
 11
323.00000000016712
 21
-96.600000000000037
 31
0.0
  0
LINE
  5
1A6
  8
DATA
  6
CONTINUOUS
 62
     7
 10
323.00000000016712
 20
-91.399999999999963
 30
0.0
 11
327.00000000007589
 21
-91.399999999999963
 31
0.0
  0
LINE
  5
1A7
  8
DATA
  6
CONTINUOUS
 62
     7
 10
327.00000000007589
 20
-98.0
 30
0.0
 11
323.00000000016712
 21
-98.0
 31
0.0
  0
LINE
  5
1A8
  8
DATA
  6
CONTINUOUS
 62
     7
 10
323.00000000016712
 20
-90.0
 30
0.0
 11
327.00000000007589
 21
-90.0
 31
0.0
  0
LINE
  5
1A9
  8
DATA
  6
CONTINUOUS
 62
     7
 10
327.00000000007589
 20
-90.0
 30
0.0
 11
327.00000000007589
 21
-98.0
 31
0.0
  0
ARC
  5
1AA
  8
DATA
  6
CONTINUOUS
 62
     7
 10
66.190431578228683
 20
-49.610179456691533
 30
0.0
 40
1.44999999999996
 50
195.59535608385241
 51
344.40464391614762
  0
TEXT
  5
1AB
  8
DATA
 62
     7
 10
249.5500000000001
 20
-209.75018477607051
 30
0.0
 40
7.3297851562499989
  1
EXT-HDSDI-2-DVISSL
 41
0.7
 11
249.5500000000001
 21
-202.4203996198205
 31
0.0
 73
     3
  0
TEXT
  5
1AC
  8
DATA
 62
     7
 10
249.66413013082831
 20
-185.93043427305719
 30
0.0
 40
7.3297851562499989
  1
Gefen
 41
0.7
 11
249.66413013082831
 21
-178.60064911680709
 31
0.0
 73
     3
  0
TEXT
  5
1AD
  8
DATA
 62
     7
 10
243.7000000000001
 20
-196.99713447426251
 30
0.0
 40
4.8865234374999993
  1
HDSDI to DVIシングルリンクスケーラー
 41
0.7
 11
243.7000000000001
 21
-192.11061103676261
 31
0.0
 73
     3
  0
CIRCLE
  5
1AE
  8
DATA
  6
CONTINUOUS
 62
     7
 10
16.535544726564311
 20
224.0
 30
0.0
 40
4.75
  0
POLYLINE
  5
1AF
  8
DATA
  6
CONTINUOUS
 62
     7
 66
     1
 10
0.0
 20
0.0
 30
0.0
 70
     1
  0
VERTEX
  5
3E0
  8
DATA
  6
CONTINUOUS
 62
     7
 10
9.5355447265643107
 20
219.95854811567261
 30
0.0
  0
VERTEX
  5
3E1
  8
DATA
  6
CONTINUOUS
 62
     7
 10
16.535544726564311
 20
215.9170962313452
 30
0.0
  0
VERTEX
  5
3E2
  8
DATA
  6
CONTINUOUS
 62
     7
 10
23.535544726564311
 20
219.95854811567261
 30
0.0
  0
VERTEX
  5
3E3
  8
DATA
  6
CONTINUOUS
 62
     7
 10
23.535544726564311
 20
228.04145188432739
 30
0.0
  0
VERTEX
  5
3E4
  8
DATA
  6
CONTINUOUS
 62
     7
 10
16.535544726564311
 20
232.0829037686548
 30
0.0
  0
VERTEX
  5
3E5
  8
DATA
  6
CONTINUOUS
 62
     7
 10
9.5355447265643107
 20
228.04145188432739
 30
0.0
  0
SEQEND
  5
3E6
  8
DATA
  6
CONTINUOUS
 62
     7
  0
CIRCLE
  5
1B8
  8
DATA
  6
CONTINUOUS
 62
     7
 10
16.535544726564311
 20
224.0
 30
0.0
 40
0.5
  0
CIRCLE
  5
1B9
  8
DATA
  6
CONTINUOUS
 62
     7
 10
16.535544726564311
 20
224.0
 30
0.0
 40
8.0829037686547576
  0
TEXT
  5
1BA
  8
DATA
 62
     7
 10
23.75703486281677
 20
238.05401535608999
 30
0.0
 40
2.8504720052083319
  1
LOOP Out
 50
180.0
 41
0.7
 11
23.75703486281677
 21
235.20354335088169
 31
0.0
 73
     3
  0
POLYLINE
  5
1BB
  8
DATA
  6
CONTINUOUS
 62
     7
 66
     1
 10
0.0
 20
0.0
 30
0.0
  0
VERTEX
  5
3E7
  8
DATA
  6
CONTINUOUS
 62
     7
 10
11.823591840552311
 20
223.40000000000001
 30
0.0
  0
VERTEX
  5
3E8
  8
DATA
  6
CONTINUOUS
 62
     7
 10
10.935544726564309
 20
223.40000000000001
 30
0.0
  0
VERTEX
  5
3E9
  8
DATA
  6
CONTINUOUS
 62
     7
 10
10.935544726564309
 20
224.59999999999999
 30
0.0
  0
VERTEX
  5
3EA
  8
DATA
  6
CONTINUOUS
 62
     7
 10
11.823591840552311
 20
224.59999999999999
 30
0.0
  0
SEQEND
  5
3EB
  8
DATA
  6
CONTINUOUS
 62
     7
  0
POLYLINE
  5
1C2
  8
DATA
  6
CONTINUOUS
 62
     7
 66
     1
 10
0.0
 20
0.0
 30
0.0
  0
VERTEX
  5
3EC
  8
DATA
  6
CONTINUOUS
 62
     7
 10
21.247497612576321
 20
224.59999999999999
 30
0.0
  0
VERTEX
  5
3ED
  8
DATA
  6
CONTINUOUS
 62
     7
 10
22.135544726564301
 20
224.59999999999999
 30
0.0
  0
VERTEX
  5
3EE
  8
DATA
  6
CONTINUOUS
 62
     7
 10
22.135544726564301
 20
223.40000000000001
 30
0.0
  0
VERTEX
  5
3EF
  8
DATA
  6
CONTINUOUS
 62
     7
 10
21.247497612576321
 20
223.40000000000001
 30
0.0
  0
SEQEND
  5
3F0
  8
DATA
  6
CONTINUOUS
 62
     7
  0
CIRCLE
  5
1C9
  8
DATA
  6
CONTINUOUS
 62
     7
 10
63.999999999999993
 20
224.0
 30
0.0
 40
4.1499999999999986
  0
CIRCLE
  5
1CA
  8
DATA
  6
CONTINUOUS
 62
     7
 10
50.999999999999993
 20
224.0
 30
0.0
 40
4.1499999999999986
  0
CIRCLE
  5
1CB
  8
DATA
  6
CONTINUOUS
 62
     7
 10
50.999999999999993
 20
224.0
 30
0.0
 40
1.6499999999999979
  0
CIRCLE
  5
1CC
  8
DATA
  6
CONTINUOUS
 62
     7
 10
63.999999999999993
 20
224.0
 30
0.0
 40
1.6499999999999979
  0
TEXT
  5
1CD
  8
DATA
 62
     7
 10
65.306663286294594
 20
238.05401535608999
 30
0.0
 40
2.8504720052083319
  1
L
 50
180.0
 41
0.7
 11
65.306663286294594
 21
235.20354335088169
 31
0.0
 73
     3
  0
TEXT
  5
1CE
  8
DATA
 62
     7
 10
51.948187591429523
 20
238.05401535608999
 30
0.0
 40
2.8504720052083319
  1
R
 50
180.0
 41
0.7
 11
51.948187591429523
 21
235.20354335088169
 31
0.0
 73
     3
  0
TEXT
  5
1CF
  8
DATA
 62
     7
 10
62.025933599585969
 20
215.22241536568751
 30
0.0
 40
2.8504720052083319
  1
AUDIO
 50
180.0
 41
0.7
 11
62.025933599585969
 21
212.37194336047909
 31
0.0
 73
     3
  0
CIRCLE
  5
1D0
  8
DATA
  6
CONTINUOUS
 62
     7
 10
-64.613304739798195
 20
209.85080833675519
 30
0.0
 40
1.175000000000068
  0
POLYLINE
  5
1D1
  8
DATA
  6
CONTINUOUS
 62
     7
 66
     1
 10
0.0
 20
0.0
 30
0.0
 70
     1
  0
VERTEX
  5
3F1
  8
DATA
  6
CONTINUOUS
 62
     7
 10
-64.613304739798195
 20
207.1508083367552
 30
0.0
  0
VERTEX
  5
3F2
  8
DATA
  6
CONTINUOUS
 62
     7
 10
-62.275036149580281
 20
208.5008083367552
 30
0.0
  0
VERTEX
  5
3F3
  8
DATA
  6
CONTINUOUS
 62
     7
 10
-62.275036149580281
 20
211.2008083367551
 30
0.0
  0
VERTEX
  5
3F4
  8
DATA
  6
CONTINUOUS
 62
     7
 10
-64.613304739798195
 20
212.5508083367551
 30
0.0
  0
VERTEX
  5
3F5
  8
DATA
  6
CONTINUOUS
 62
     7
 10
-66.951573330016245
 20
211.2008083367551
 30
0.0
  0
VERTEX
  5
3F6
  8
DATA
  6
CONTINUOUS
 62
     7
 10
-66.951573330016245
 20
208.5008083367552
 30
0.0
  0
SEQEND
  5
3F7
  8
DATA
  6
CONTINUOUS
 62
     7
  0
CIRCLE
  5
1DA
  8
DATA
  6
CONTINUOUS
 62
     7
 10
-39.613304739798039
 20
209.85080833675519
 30
0.0
 40
1.175000000000068
  0
POLYLINE
  5
1DB
  8
DATA
  6
CONTINUOUS
 62
     7
 66
     1
 10
0.0
 20
0.0
 30
0.0
 70
     1
  0
VERTEX
  5
3F8
  8
DATA
  6
CONTINUOUS
 62
     7
 10
-39.613304739798039
 20
207.1508083367552
 30
0.0
  0
VERTEX
  5
3F9
  8
DATA
  6
CONTINUOUS
 62
     7
 10
-37.275036149580117
 20
208.5008083367552
 30
0.0
  0
VERTEX
  5
3FA
  8
DATA
  6
CONTINUOUS
 62
     7
 10
-37.275036149580117
 20
211.2008083367551
 30
0.0
  0
VERTEX
  5
3FB
  8
DATA
  6
CONTINUOUS
 62
     7
 10
-39.613304739798039
 20
212.5508083367551
 30
0.0
  0
VERTEX
  5
3FC
  8
DATA
  6
CONTINUOUS
 62
     7
 10
-41.951573330016082
 20
211.2008083367551
 30
0.0
  0
VERTEX
  5
3FD
  8
DATA
  6
CONTINUOUS
 62
     7
 10
-41.951573330016082
 20
208.5008083367552
 30
0.0
  0
SEQEND
  5
3FE
  8
DATA
  6
CONTINUOUS
 62
     7
  0
LINE
  5
1E4
  8
DATA
  6
CONTINUOUS
 62
     7
 10
-57.715067949986746
 20
213.85080833675499
 30
0.0
 11
-46.511541529609538
 21
213.85080833675499
 31
0.0
  0
LINE
  5
1E5
  8
DATA
  6
CONTINUOUS
 62
     7
 10
-45.699041529609637
 20
205.85080833675519
 30
0.0
 11
-58.527567949986761
 21
205.85080833675519
 31
0.0
  0
LINE
  5
1E6
  8
DATA
  6
CONTINUOUS
 62
     7
 10
-45.128324682357977
 20
212.66693596913811
 30
0.0
 11
-44.315824682358077
 21
207.46693596913821
 31
0.0
  0
LINE
  5
1E7
  8
DATA
  6
CONTINUOUS
 62
     7
 10
-59.910784797238321
 20
207.46693596913821
 30
0.0
 11
-59.098284797238321
 21
212.66693596913811
 31
0.0
  0
CIRCLE
  5
1E8
  8
DATA
  6
CONTINUOUS
 62
     7
 10
-52.086674969323283
 20
208.21450016560149
 30
0.0
 40
0.5
  0
ARC
  5
1E9
  8
DATA
  6
CONTINUOUS
 62
     7
 10
-45.699041529609637
 20
207.25080833675511
 30
0.0
 40
1.400000000000019
 50
270.0
 51
8.8806591505199872
  0
ARC
  5
1EA
  8
DATA
  6
CONTINUOUS
 62
     7
 10
-58.527567949986761
 20
207.25080833675511
 30
0.0
 40
1.400000000000021
 50
171.1193408494789
 51
270.0
  0
ARC
  5
1EB
  8
DATA
  6
CONTINUOUS
 62
     7
 10
-46.511541529609538
 20
212.45080833675499
 30
0.0
 40
1.400000000000015
 50
8.8806591505193833
 51
89.999999999999986
  0
ARC
  5
1EC
  8
DATA
  6
CONTINUOUS
 62
     7
 10
-57.715067949986746
 20
212.45080833675499
 30
0.0
 40
1.399999999999991
 50
90.0
 51
171.1193408494795
  0
LINE
  5
1ED
  8
DATA
  6
CONTINUOUS
 62
     7
 10
-59.272108670452347
 20
215.85080833675499
 30
0.0
 11
-44.954500809144079
 21
215.85080833675499
 31
0.0
  0
LINE
  5
1EE
  8
DATA
  6
CONTINUOUS
 62
     7
 10
-43.935659088547688
 20
203.85080833675511
 30
0.0
 11
-60.290950391048703
 21
203.85080833675511
 31
0.0
  0
LINE
  5
1EF
  8
DATA
  6
CONTINUOUS
 62
     7
 10
-41.96381386140429
 20
206.1852128824662
 30
0.0
 11
-43.377024627429428
 21
214.5183319733238
 31
0.0
  0
LINE
  5
1F0
  8
DATA
  6
CONTINUOUS
 62
     7
 10
-62.262795618191959
 20
206.1852128824662
 30
0.0
 11
-60.84958485216692
 21
214.5183319733238
 31
0.0
  0
ARC
  5
1F1
  8
DATA
  6
CONTINUOUS
 62
     7
 10
-43.935659088547688
 20
205.85080833675519
 30
0.0
 40
2.0000000000000422
 50
270.0
 51
9.6251929436212986
  0
ARC
  5
1F2
  8
DATA
  6
CONTINUOUS
 62
     7
 10
-60.290950391048703
 20
205.85080833675519
 30
0.0
 40
1.999999999999962
 50
170.37480705637799
 51
270.0
  0
ARC
  5
1F3
  8
DATA
  6
CONTINUOUS
 62
     7
 10
-44.954500809144193
 20
214.250808336755
 30
0.0
 40
1.600000000000114
 50
9.6251929436206716
 51
89.999999999995936
  0
ARC
  5
1F4
  8
DATA
  6
CONTINUOUS
 62
     7
 10
-59.272108670452347
 20
214.250808336755
 30
0.0
 40
1.5999999999999941
 50
90.0
 51
170.3748070563783
  0
CIRCLE
  5
1F5
  8
DATA
  6
CONTINUOUS
 62
     7
 10
-49.586674969323283
 20
208.21450016560149
 30
0.0
 40
0.5
  0
CIRCLE
  5
1F6
  8
DATA
  6
CONTINUOUS
 62
     7
 10
-47.086674969323283
 20
208.21450016560149
 30
0.0
 40
0.5
  0
CIRCLE
  5
1F7
  8
DATA
  6
CONTINUOUS
 62
     7
 10
-54.586674969323283
 20
208.21450016560149
 30
0.0
 40
0.5
  0
CIRCLE
  5
1F8
  8
DATA
  6
CONTINUOUS
 62
     7
 10
-57.086674969323283
 20
208.21450016560149
 30
0.0
 40
0.5
  0
CIRCLE
  5
1F9
  8
DATA
  6
CONTINUOUS
 62
     7
 10
-50.89116379325197
 20
211.83302058436411
 30
0.0
 40
0.5
  0
CIRCLE
  5
1FA
  8
DATA
  6
CONTINUOUS
 62
     7
 10
-48.39116379325197
 20
211.83302058436411
 30
0.0
 40
0.5
  0
CIRCLE
  5
1FB
  8
DATA
  6
CONTINUOUS
 62
     7
 10
-53.39116379325197
 20
211.83302058436411
 30
0.0
 40
0.5
  0
CIRCLE
  5
1FC
  8
DATA
  6
CONTINUOUS
 62
     7
 10
-55.89116379325197
 20
211.83302058436411
 30
0.0
 40
0.5
  0
TEXT
  5
1FD
  8
DATA
 62
     7
 10
-46.825034710164289
 20
220.05549999999999
 30
0.0
 40
2.4432617187500001
  1
RS-232
 50
180.0
 41
0.7
 11
-46.825034710164289
 21
217.61223828125
 31
0.0
 73
     3
  0
CIRCLE
  5
1FE
  8
DATA
  6
CONTINUOUS
 62
     7
 10
-35.89812231226125
 20
226.5050518229701
 30
0.0
 40
1.175000000000068
  0
POLYLINE
  5
1FF
  8
DATA
  6
CONTINUOUS
 62
     7
 66
     1
 10
0.0
 20
0.0
 30
0.0
 70
     1
  0
VERTEX
  5
3FF
  8
DATA
  6
CONTINUOUS
 62
     7
 10
-35.89812231226125
 20
223.80505182297011
 30
0.0
  0
VERTEX
  5
400
  8
DATA
  6
CONTINUOUS
 62
     7
 10
-33.559853722043322
 20
225.15505182297019
 30
0.0
  0
VERTEX
  5
401
  8
DATA
  6
CONTINUOUS
 62
     7
 10
-33.559853722043322
 20
227.8550518229701
 30
0.0
  0
VERTEX
  5
402
  8
DATA
  6
CONTINUOUS
 62
     7
 10
-35.89812231226125
 20
229.20505182297009
 30
0.0
  0
VERTEX
  5
403
  8
DATA
  6
CONTINUOUS
 62
     7
 10
-38.236390902479272
 20
227.8550518229701
 30
0.0
  0
VERTEX
  5
404
  8
DATA
  6
CONTINUOUS
 62
     7
 10
-38.236390902479272
 20
225.15505182297019
 30
0.0
  0
SEQEND
  5
405
  8
DATA
  6
CONTINUOUS
 62
     7
  0
CIRCLE
  5
208
  8
DATA
  6
CONTINUOUS
 62
     7
 10
-68.398122312261776
 20
226.5050518229701
 30
0.0
 40
1.175000000000068
  0
POLYLINE
  5
209
  8
DATA
  6
CONTINUOUS
 62
     7
 66
     1
 10
0.0
 20
0.0
 30
0.0
 70
     1
  0
VERTEX
  5
406
  8
DATA
  6
CONTINUOUS
 62
     7
 10
-68.398122312261776
 20
223.80505182297011
 30
0.0
  0
VERTEX
  5
407
  8
DATA
  6
CONTINUOUS
 62
     7
 10
-66.059853722043854
 20
225.15505182297019
 30
0.0
  0
VERTEX
  5
408
  8
DATA
  6
CONTINUOUS
 62
     7
 10
-66.059853722043854
 20
227.8550518229701
 30
0.0
  0
VERTEX
  5
409
  8
DATA
  6
CONTINUOUS
 62
     7
 10
-68.398122312261776
 20
229.20505182297009
 30
0.0
  0
VERTEX
  5
40A
  8
DATA
  6
CONTINUOUS
 62
     7
 10
-70.736390902479812
 20
227.8550518229701
 30
0.0
  0
VERTEX
  5
40B
  8
DATA
  6
CONTINUOUS
 62
     7
 10
-70.736390902479812
 20
225.15505182297019
 30
0.0
  0
SEQEND
  5
40C
  8
DATA
  6
CONTINUOUS
 62
     7
  0
LINE
  5
212
  8
DATA
  6
CONTINUOUS
 62
     7
 10
-41.198217425069558
 20
222.58005182297009
 30
0.0
 11
-63.098027199453739
 21
222.58005182297009
 31
0.0
  0
LINE
  5
213
  8
DATA
  6
CONTINUOUS
 62
     7
 10
-62.539110002001522
 20
230.43005182297011
 30
0.0
 11
-41.757134622521853
 21
230.43005182297011
 31
0.0
  0
POLYLINE
  5
214
  8
DATA
  6
CONTINUOUS
 62
     7
 66
     1
 10
0.0
 20
0.0
 30
0.0
 70
     1
  0
VERTEX
  5
40D
  8
DATA
  6
CONTINUOUS
 62
     7
 10
-42.678056141081932
 20
227.27005182297009
 30
0.0
  0
VERTEX
  5
40E
  8
DATA
  6
CONTINUOUS
 62
     7
 10
-41.148056141081938
 20
227.27005182297009
 30
0.0
  0
VERTEX
  5
40F
  8
DATA
  6
CONTINUOUS
 62
     7
 10
-41.148056141081938
 20
225.74005182297009
 30
0.0
  0
VERTEX
  5
410
  8
DATA
  6
CONTINUOUS
 62
     7
 10
-42.678056141081932
 20
225.74005182297009
 30
0.0
  0
SEQEND
  5
411
  8
DATA
  6
CONTINUOUS
 62
     7
  0
POLYLINE
  5
21B
  8
DATA
  6
CONTINUOUS
 62
     7
 66
     1
 10
0.0
 20
0.0
 30
0.0
 70
     1
  0
VERTEX
  5
412
  8
DATA
  6
CONTINUOUS
 62
     7
 10
-44.678056141082003
 20
227.27005182297009
 30
0.0
  0
VERTEX
  5
413
  8
DATA
  6
CONTINUOUS
 62
     7
 10
-43.148056141082023
 20
227.27005182297009
 30
0.0
  0
VERTEX
  5
414
  8
DATA
  6
CONTINUOUS
 62
     7
 10
-43.148056141082023
 20
225.74005182297009
 30
0.0
  0
VERTEX
  5
415
  8
DATA
  6
CONTINUOUS
 62
     7
 10
-44.678056141082003
 20
225.74005182297009
 30
0.0
  0
SEQEND
  5
416
  8
DATA
  6
CONTINUOUS
 62
     7
  0
POLYLINE
  5
222
  8
DATA
  6
CONTINUOUS
 62
     7
 66
     1
 10
0.0
 20
0.0
 30
0.0
 70
     1
  0
VERTEX
  5
417
  8
DATA
  6
CONTINUOUS
 62
     7
 10
-46.678056141082003
 20
227.27005182297009
 30
0.0
  0
VERTEX
  5
418
  8
DATA
  6
CONTINUOUS
 62
     7
 10
-45.148056141082023
 20
227.27005182297009
 30
0.0
  0
VERTEX
  5
419
  8
DATA
  6
CONTINUOUS
 62
     7
 10
-45.148056141082023
 20
225.74005182297009
 30
0.0
  0
VERTEX
  5
41A
  8
DATA
  6
CONTINUOUS
 62
     7
 10
-46.678056141082003
 20
225.74005182297009
 30
0.0
  0
SEQEND
  5
41B
  8
DATA
  6
CONTINUOUS
 62
     7
  0
POLYLINE
  5
229
  8
DATA
  6
CONTINUOUS
 62
     7
 66
     1
 10
0.0
 20
0.0
 30
0.0
 70
     1
  0
VERTEX
  5
41C
  8
DATA
  6
CONTINUOUS
 62
     7
 10
-48.678056141081967
 20
227.27005182297009
 30
0.0
  0
VERTEX
  5
41D
  8
DATA
  6
CONTINUOUS
 62
     7
 10
-47.148056141081987
 20
227.27005182297009
 30
0.0
  0
VERTEX
  5
41E
  8
DATA
  6
CONTINUOUS
 62
     7
 10
-47.148056141081987
 20
225.74005182297009
 30
0.0
  0
VERTEX
  5
41F
  8
DATA
  6
CONTINUOUS
 62
     7
 10
-48.678056141081967
 20
225.74005182297009
 30
0.0
  0
SEQEND
  5
420
  8
DATA
  6
CONTINUOUS
 62
     7
  0
POLYLINE
  5
230
  8
DATA
  6
CONTINUOUS
 62
     7
 66
     1
 10
0.0
 20
0.0
 30
0.0
 70
     1
  0
VERTEX
  5
421
  8
DATA
  6
CONTINUOUS
 62
     7
 10
-50.678056141082067
 20
227.27005182297009
 30
0.0
  0
VERTEX
  5
422
  8
DATA
  6
CONTINUOUS
 62
     7
 10
-49.148056141082002
 20
227.27005182297009
 30
0.0
  0
VERTEX
  5
423
  8
DATA
  6
CONTINUOUS
 62
     7
 10
-49.148056141082002
 20
225.74005182297009
 30
0.0
  0
VERTEX
  5
424
  8
DATA
  6
CONTINUOUS
 62
     7
 10
-50.678056141082067
 20
225.74005182297009
 30
0.0
  0
SEQEND
  5
425
  8
DATA
  6
CONTINUOUS
 62
     7
  0
POLYLINE
  5
237
  8
DATA
  6
CONTINUOUS
 62
     7
 66
     1
 10
0.0
 20
0.0
 30
0.0
 70
     1
  0
VERTEX
  5
426
  8
DATA
  6
CONTINUOUS
 62
     7
 10
-52.67805614108223
 20
227.27005182297009
 30
0.0
  0
VERTEX
  5
427
  8
DATA
  6
CONTINUOUS
 62
     7
 10
-51.148056141082137
 20
227.27005182297009
 30
0.0
  0
VERTEX
  5
428
  8
DATA
  6
CONTINUOUS
 62
     7
 10
-51.148056141082137
 20
225.74005182297009
 30
0.0
  0
VERTEX
  5
429
  8
DATA
  6
CONTINUOUS
 62
     7
 10
-52.67805614108223
 20
225.74005182297009
 30
0.0
  0
SEQEND
  5
42A
  8
DATA
  6
CONTINUOUS
 62
     7
  0
POLYLINE
  5
23E
  8
DATA
  6
CONTINUOUS
 62
     7
 66
     1
 10
0.0
 20
0.0
 30
0.0
 70
     1
  0
VERTEX
  5
42B
  8
DATA
  6
CONTINUOUS
 62
     7
 10
-54.678056141082358
 20
227.27005182297009
 30
0.0
  0
VERTEX
  5
42C
  8
DATA
  6
CONTINUOUS
 62
     7
 10
-53.148056141082279
 20
227.27005182297009
 30
0.0
  0
VERTEX
  5
42D
  8
DATA
  6
CONTINUOUS
 62
     7
 10
-53.148056141082279
 20
225.74005182297009
 30
0.0
  0
VERTEX
  5
42E
  8
DATA
  6
CONTINUOUS
 62
     7
 10
-54.678056141082358
 20
225.74005182297009
 30
0.0
  0
SEQEND
  5
42F
  8
DATA
  6
CONTINUOUS
 62
     7
  0
POLYLINE
  5
245
  8
DATA
  6
CONTINUOUS
 62
     7
 66
     1
 10
0.0
 20
0.0
 30
0.0
 70
     1
  0
VERTEX
  5
430
  8
DATA
  6
CONTINUOUS
 62
     7
 10
-56.6780561410825
 20
227.27005182297009
 30
0.0
  0
VERTEX
  5
431
  8
DATA
  6
CONTINUOUS
 62
     7
 10
-55.148056141082421
 20
227.27005182297009
 30
0.0
  0
VERTEX
  5
432
  8
DATA
  6
CONTINUOUS
 62
     7
 10
-55.148056141082421
 20
225.74005182297009
 30
0.0
  0
VERTEX
  5
433
  8
DATA
  6
CONTINUOUS
 62
     7
 10
-56.6780561410825
 20
225.74005182297009
 30
0.0
  0
SEQEND
  5
434
  8
DATA
  6
CONTINUOUS
 62
     7
  0
POLYLINE
  5
24C
  8
DATA
  6
CONTINUOUS
 62
     7
 66
     1
 10
0.0
 20
0.0
 30
0.0
 70
     1
  0
VERTEX
  5
435
  8
DATA
  6
CONTINUOUS
 62
     7
 10
-42.678056141081932
 20
225.27005182297009
 30
0.0
  0
VERTEX
  5
436
  8
DATA
  6
CONTINUOUS
 62
     7
 10
-41.148056141081938
 20
225.27005182297009
 30
0.0
  0
VERTEX
  5
437
  8
DATA
  6
CONTINUOUS
 62
     7
 10
-41.148056141081938
 20
223.74005182297009
 30
0.0
  0
VERTEX
  5
438
  8
DATA
  6
CONTINUOUS
 62
     7
 10
-42.678056141081932
 20
223.74005182297009
 30
0.0
  0
SEQEND
  5
439
  8
DATA
  6
CONTINUOUS
 62
     7
  0
POLYLINE
  5
253
  8
DATA
  6
CONTINUOUS
 62
     7
 66
     1
 10
0.0
 20
0.0
 30
0.0
 70
     1
  0
VERTEX
  5
43A
  8
DATA
  6
CONTINUOUS
 62
     7
 10
-44.678056141082003
 20
225.27005182297009
 30
0.0
  0
VERTEX
  5
43B
  8
DATA
  6
CONTINUOUS
 62
     7
 10
-43.148056141082023
 20
225.27005182297009
 30
0.0
  0
VERTEX
  5
43C
  8
DATA
  6
CONTINUOUS
 62
     7
 10
-43.148056141082023
 20
223.74005182297009
 30
0.0
  0
VERTEX
  5
43D
  8
DATA
  6
CONTINUOUS
 62
     7
 10
-44.678056141082003
 20
223.74005182297009
 30
0.0
  0
SEQEND
  5
43E
  8
DATA
  6
CONTINUOUS
 62
     7
  0
POLYLINE
  5
25A
  8
DATA
  6
CONTINUOUS
 62
     7
 66
     1
 10
0.0
 20
0.0
 30
0.0
 70
     1
  0
VERTEX
  5
43F
  8
DATA
  6
CONTINUOUS
 62
     7
 10
-46.678056141082003
 20
225.27005182297009
 30
0.0
  0
VERTEX
  5
440
  8
DATA
  6
CONTINUOUS
 62
     7
 10
-45.148056141082023
 20
225.27005182297009
 30
0.0
  0
VERTEX
  5
441
  8
DATA
  6
CONTINUOUS
 62
     7
 10
-45.148056141082023
 20
223.74005182297009
 30
0.0
  0
VERTEX
  5
442
  8
DATA
  6
CONTINUOUS
 62
     7
 10
-46.678056141082003
 20
223.74005182297009
 30
0.0
  0
SEQEND
  5
443
  8
DATA
  6
CONTINUOUS
 62
     7
  0
POLYLINE
  5
261
  8
DATA
  6
CONTINUOUS
 62
     7
 66
     1
 10
0.0
 20
0.0
 30
0.0
 70
     1
  0
VERTEX
  5
444
  8
DATA
  6
CONTINUOUS
 62
     7
 10
-48.678056141081967
 20
225.27005182297009
 30
0.0
  0
VERTEX
  5
445
  8
DATA
  6
CONTINUOUS
 62
     7
 10
-47.148056141081987
 20
225.27005182297009
 30
0.0
  0
VERTEX
  5
446
  8
DATA
  6
CONTINUOUS
 62
     7
 10
-47.148056141081987
 20
223.74005182297009
 30
0.0
  0
VERTEX
  5
447
  8
DATA
  6
CONTINUOUS
 62
     7
 10
-48.678056141081967
 20
223.74005182297009
 30
0.0
  0
SEQEND
  5
448
  8
DATA
  6
CONTINUOUS
 62
     7
  0
POLYLINE
  5
268
  8
DATA
  6
CONTINUOUS
 62
     7
 66
     1
 10
0.0
 20
0.0
 30
0.0
 70
     1
  0
VERTEX
  5
449
  8
DATA
  6
CONTINUOUS
 62
     7
 10
-50.678056141082067
 20
225.27005182297009
 30
0.0
  0
VERTEX
  5
44A
  8
DATA
  6
CONTINUOUS
 62
     7
 10
-49.148056141082002
 20
225.27005182297009
 30
0.0
  0
VERTEX
  5
44B
  8
DATA
  6
CONTINUOUS
 62
     7
 10
-49.148056141082002
 20
223.74005182297009
 30
0.0
  0
VERTEX
  5
44C
  8
DATA
  6
CONTINUOUS
 62
     7
 10
-50.678056141082067
 20
223.74005182297009
 30
0.0
  0
SEQEND
  5
44D
  8
DATA
  6
CONTINUOUS
 62
     7
  0
POLYLINE
  5
26F
  8
DATA
  6
CONTINUOUS
 62
     7
 66
     1
 10
0.0
 20
0.0
 30
0.0
 70
     1
  0
VERTEX
  5
44E
  8
DATA
  6
CONTINUOUS
 62
     7
 10
-52.67805614108223
 20
225.27005182297009
 30
0.0
  0
VERTEX
  5
44F
  8
DATA
  6
CONTINUOUS
 62
     7
 10
-51.148056141082137
 20
225.27005182297009
 30
0.0
  0
VERTEX
  5
450
  8
DATA
  6
CONTINUOUS
 62
     7
 10
-51.148056141082137
 20
223.74005182297009
 30
0.0
  0
VERTEX
  5
451
  8
DATA
  6
CONTINUOUS
 62
     7
 10
-52.67805614108223
 20
223.74005182297009
 30
0.0
  0
SEQEND
  5
452
  8
DATA
  6
CONTINUOUS
 62
     7
  0
POLYLINE
  5
276
  8
DATA
  6
CONTINUOUS
 62
     7
 66
     1
 10
0.0
 20
0.0
 30
0.0
 70
     1
  0
VERTEX
  5
453
  8
DATA
  6
CONTINUOUS
 62
     7
 10
-54.678056141082358
 20
225.27005182297009
 30
0.0
  0
VERTEX
  5
454
  8
DATA
  6
CONTINUOUS
 62
     7
 10
-53.148056141082279
 20
225.27005182297009
 30
0.0
  0
VERTEX
  5
455
  8
DATA
  6
CONTINUOUS
 62
     7
 10
-53.148056141082279
 20
223.74005182297009
 30
0.0
  0
VERTEX
  5
456
  8
DATA
  6
CONTINUOUS
 62
     7
 10
-54.678056141082358
 20
223.74005182297009
 30
0.0
  0
SEQEND
  5
457
  8
DATA
  6
CONTINUOUS
 62
     7
  0
POLYLINE
  5
27D
  8
DATA
  6
CONTINUOUS
 62
     7
 66
     1
 10
0.0
 20
0.0
 30
0.0
 70
     1
  0
VERTEX
  5
458
  8
DATA
  6
CONTINUOUS
 62
     7
 10
-56.6780561410825
 20
225.27005182297009
 30
0.0
  0
VERTEX
  5
459
  8
DATA
  6
CONTINUOUS
 62
     7
 10
-55.148056141082421
 20
225.27005182297009
 30
0.0
  0
VERTEX
  5
45A
  8
DATA
  6
CONTINUOUS
 62
     7
 10
-55.148056141082421
 20
223.74005182297009
 30
0.0
  0
VERTEX
  5
45B
  8
DATA
  6
CONTINUOUS
 62
     7
 10
-56.6780561410825
 20
223.74005182297009
 30
0.0
  0
SEQEND
  5
45C
  8
DATA
  6
CONTINUOUS
 62
     7
  0
POLYLINE
  5
284
  8
DATA
  6
CONTINUOUS
 62
     7
 66
     1
 10
0.0
 20
0.0
 30
0.0
 70
     1
  0
VERTEX
  5
45D
  8
DATA
  6
CONTINUOUS
 62
     7
 10
-42.678056141081932
 20
229.27005182297009
 30
0.0
  0
VERTEX
  5
45E
  8
DATA
  6
CONTINUOUS
 62
     7
 10
-41.148056141081938
 20
229.27005182297009
 30
0.0
  0
VERTEX
  5
45F
  8
DATA
  6
CONTINUOUS
 62
     7
 10
-41.148056141081938
 20
227.74005182297009
 30
0.0
  0
VERTEX
  5
460
  8
DATA
  6
CONTINUOUS
 62
     7
 10
-42.678056141081932
 20
227.74005182297009
 30
0.0
  0
SEQEND
  5
461
  8
DATA
  6
CONTINUOUS
 62
     7
  0
POLYLINE
  5
28B
  8
DATA
  6
CONTINUOUS
 62
     7
 66
     1
 10
0.0
 20
0.0
 30
0.0
 70
     1
  0
VERTEX
  5
462
  8
DATA
  6
CONTINUOUS
 62
     7
 10
-44.678056141082003
 20
229.27005182297009
 30
0.0
  0
VERTEX
  5
463
  8
DATA
  6
CONTINUOUS
 62
     7
 10
-43.148056141082023
 20
229.27005182297009
 30
0.0
  0
VERTEX
  5
464
  8
DATA
  6
CONTINUOUS
 62
     7
 10
-43.148056141082023
 20
227.74005182297009
 30
0.0
  0
VERTEX
  5
465
  8
DATA
  6
CONTINUOUS
 62
     7
 10
-44.678056141082003
 20
227.74005182297009
 30
0.0
  0
SEQEND
  5
466
  8
DATA
  6
CONTINUOUS
 62
     7
  0
POLYLINE
  5
292
  8
DATA
  6
CONTINUOUS
 62
     7
 66
     1
 10
0.0
 20
0.0
 30
0.0
 70
     1
  0
VERTEX
  5
467
  8
DATA
  6
CONTINUOUS
 62
     7
 10
-46.678056141082003
 20
229.27005182297009
 30
0.0
  0
VERTEX
  5
468
  8
DATA
  6
CONTINUOUS
 62
     7
 10
-45.148056141082023
 20
229.27005182297009
 30
0.0
  0
VERTEX
  5
469
  8
DATA
  6
CONTINUOUS
 62
     7
 10
-45.148056141082023
 20
227.74005182297009
 30
0.0
  0
VERTEX
  5
46A
  8
DATA
  6
CONTINUOUS
 62
     7
 10
-46.678056141082003
 20
227.74005182297009
 30
0.0
  0
SEQEND
  5
46B
  8
DATA
  6
CONTINUOUS
 62
     7
  0
POLYLINE
  5
299
  8
DATA
  6
CONTINUOUS
 62
     7
 66
     1
 10
0.0
 20
0.0
 30
0.0
 70
     1
  0
VERTEX
  5
46C
  8
DATA
  6
CONTINUOUS
 62
     7
 10
-48.678056141081967
 20
229.27005182297009
 30
0.0
  0
VERTEX
  5
46D
  8
DATA
  6
CONTINUOUS
 62
     7
 10
-47.148056141081987
 20
229.27005182297009
 30
0.0
  0
VERTEX
  5
46E
  8
DATA
  6
CONTINUOUS
 62
     7
 10
-47.148056141081987
 20
227.74005182297009
 30
0.0
  0
VERTEX
  5
46F
  8
DATA
  6
CONTINUOUS
 62
     7
 10
-48.678056141081967
 20
227.74005182297009
 30
0.0
  0
SEQEND
  5
470
  8
DATA
  6
CONTINUOUS
 62
     7
  0
POLYLINE
  5
2A0
  8
DATA
  6
CONTINUOUS
 62
     7
 66
     1
 10
0.0
 20
0.0
 30
0.0
 70
     1
  0
VERTEX
  5
471
  8
DATA
  6
CONTINUOUS
 62
     7
 10
-50.678056141082067
 20
229.27005182297009
 30
0.0
  0
VERTEX
  5
472
  8
DATA
  6
CONTINUOUS
 62
     7
 10
-49.148056141082002
 20
229.27005182297009
 30
0.0
  0
VERTEX
  5
473
  8
DATA
  6
CONTINUOUS
 62
     7
 10
-49.148056141082002
 20
227.74005182297009
 30
0.0
  0
VERTEX
  5
474
  8
DATA
  6
CONTINUOUS
 62
     7
 10
-50.678056141082067
 20
227.74005182297009
 30
0.0
  0
SEQEND
  5
475
  8
DATA
  6
CONTINUOUS
 62
     7
  0
POLYLINE
  5
2A7
  8
DATA
  6
CONTINUOUS
 62
     7
 66
     1
 10
0.0
 20
0.0
 30
0.0
 70
     1
  0
VERTEX
  5
476
  8
DATA
  6
CONTINUOUS
 62
     7
 10
-52.67805614108223
 20
229.27005182297009
 30
0.0
  0
VERTEX
  5
477
  8
DATA
  6
CONTINUOUS
 62
     7
 10
-51.148056141082137
 20
229.27005182297009
 30
0.0
  0
VERTEX
  5
478
  8
DATA
  6
CONTINUOUS
 62
     7
 10
-51.148056141082137
 20
227.74005182297009
 30
0.0
  0
VERTEX
  5
479
  8
DATA
  6
CONTINUOUS
 62
     7
 10
-52.67805614108223
 20
227.74005182297009
 30
0.0
  0
SEQEND
  5
47A
  8
DATA
  6
CONTINUOUS
 62
     7
  0
POLYLINE
  5
2AE
  8
DATA
  6
CONTINUOUS
 62
     7
 66
     1
 10
0.0
 20
0.0
 30
0.0
 70
     1
  0
VERTEX
  5
47B
  8
DATA
  6
CONTINUOUS
 62
     7
 10
-54.678056141082358
 20
229.27005182297009
 30
0.0
  0
VERTEX
  5
47C
  8
DATA
  6
CONTINUOUS
 62
     7
 10
-53.148056141082279
 20
229.27005182297009
 30
0.0
  0
VERTEX
  5
47D
  8
DATA
  6
CONTINUOUS
 62
     7
 10
-53.148056141082279
 20
227.74005182297009
 30
0.0
  0
VERTEX
  5
47E
  8
DATA
  6
CONTINUOUS
 62
     7
 10
-54.678056141082358
 20
227.74005182297009
 30
0.0
  0
SEQEND
  5
47F
  8
DATA
  6
CONTINUOUS
 62
     7
  0
POLYLINE
  5
2B5
  8
DATA
  6
CONTINUOUS
 62
     7
 66
     1
 10
0.0
 20
0.0
 30
0.0
 70
     1
  0
VERTEX
  5
480
  8
DATA
  6
CONTINUOUS
 62
     7
 10
-56.6780561410825
 20
229.27005182297009
 30
0.0
  0
VERTEX
  5
481
  8
DATA
  6
CONTINUOUS
 62
     7
 10
-55.148056141082421
 20
229.27005182297009
 30
0.0
  0
VERTEX
  5
482
  8
DATA
  6
CONTINUOUS
 62
     7
 10
-55.148056141082421
 20
227.74005182297009
 30
0.0
  0
VERTEX
  5
483
  8
DATA
  6
CONTINUOUS
 62
     7
 10
-56.6780561410825
 20
227.74005182297009
 30
0.0
  0
SEQEND
  5
484
  8
DATA
  6
CONTINUOUS
 62
     7
  0
POLYLINE
  5
2BC
  8
DATA
  6
CONTINUOUS
 62
     7
 66
     1
 10
0.0
 20
0.0
 30
0.0
  0
VERTEX
  5
485
  8
DATA
  6
CONTINUOUS
 62
     7
 10
-60.698122312262129
 20
226.1050518229701
 30
0.0
  0
VERTEX
  5
486
  8
DATA
  6
CONTINUOUS
 62
     7
 10
-62.798122312262038
 20
226.1050518229701
 30
0.0
  0
VERTEX
  5
487
  8
DATA
  6
CONTINUOUS
 62
     7
 10
-62.798122312262038
 20
226.90505182297019
 30
0.0
  0
VERTEX
  5
488
  8
DATA
  6
CONTINUOUS
 62
     7
 10
-60.698122312262129
 20
226.90505182297019
 30
0.0
  0
SEQEND
  5
489
  8
DATA
  6
CONTINUOUS
 62
     7
  0
POLYLINE
  5
2C3
  8
DATA
  6
CONTINUOUS
 62
     7
 66
     1
 10
0.0
 20
0.0
 30
0.0
  0
VERTEX
  5
48A
  8
DATA
  6
CONTINUOUS
 62
     7
 10
-59.898122312262181
 20
226.90505182297019
 30
0.0
  0
VERTEX
  5
48B
  8
DATA
  6
CONTINUOUS
 62
     7
 10
-57.798122312262059
 20
226.90505182297019
 30
0.0
  0
VERTEX
  5
48C
  8
DATA
  6
CONTINUOUS
 62
     7
 10
-57.798122312262059
 20
226.1050518229701
 30
0.0
  0
VERTEX
  5
48D
  8
DATA
  6
CONTINUOUS
 62
     7
 10
-59.898122312262181
 20
226.1050518229701
 30
0.0
  0
SEQEND
  5
48E
  8
DATA
  6
CONTINUOUS
 62
     7
  0
POLYLINE
  5
2CA
  8
DATA
  6
CONTINUOUS
 62
     7
 66
     1
 10
0.0
 20
0.0
 30
0.0
  0
VERTEX
  5
48F
  8
DATA
  6
CONTINUOUS
 62
     7
 10
-60.698122312262129
 20
226.90505182297019
 30
0.0
  0
VERTEX
  5
490
  8
DATA
  6
CONTINUOUS
 62
     7
 10
-60.698122312262129
 20
229.0050518229701
 30
0.0
  0
VERTEX
  5
491
  8
DATA
  6
CONTINUOUS
 62
     7
 10
-59.898122312262181
 20
229.0050518229701
 30
0.0
  0
VERTEX
  5
492
  8
DATA
  6
CONTINUOUS
 62
     7
 10
-59.898122312262181
 20
226.90505182297019
 30
0.0
  0
SEQEND
  5
493
  8
DATA
  6
CONTINUOUS
 62
     7
  0
POLYLINE
  5
2D1
  8
DATA
  6
CONTINUOUS
 62
     7
 66
     1
 10
0.0
 20
0.0
 30
0.0
  0
VERTEX
  5
494
  8
DATA
  6
CONTINUOUS
 62
     7
 10
-59.898122312262181
 20
226.1050518229701
 30
0.0
  0
VERTEX
  5
495
  8
DATA
  6
CONTINUOUS
 62
     7
 10
-59.898122312262181
 20
224.0050518229701
 30
0.0
  0
VERTEX
  5
496
  8
DATA
  6
CONTINUOUS
 62
     7
 10
-60.698122312262129
 20
224.0050518229701
 30
0.0
  0
VERTEX
  5
497
  8
DATA
  6
CONTINUOUS
 62
     7
 10
-60.698122312262129
 20
226.1050518229701
 30
0.0
  0
SEQEND
  5
498
  8
DATA
  6
CONTINUOUS
 62
     7
  0
POLYLINE
  5
2D8
  8
DATA
  6
CONTINUOUS
 62
     7
 66
     1
 10
0.0
 20
0.0
 30
0.0
 70
     1
  0
VERTEX
  5
499
  8
DATA
  6
CONTINUOUS
 62
     7
 10
-59.437837881790458
 20
225.74562401232021
 30
0.0
  0
VERTEX
  5
49A
  8
DATA
  6
CONTINUOUS
 62
     7
 10
-58.437837881790401
 20
225.74562401232021
 30
0.0
  0
VERTEX
  5
49B
  8
DATA
  6
CONTINUOUS
 62
     7
 10
-58.437837881790401
 20
224.74562401232021
 30
0.0
  0
VERTEX
  5
49C
  8
DATA
  6
CONTINUOUS
 62
     7
 10
-59.437837881790458
 20
224.74562401232021
 30
0.0
  0
SEQEND
  5
49D
  8
DATA
  6
CONTINUOUS
 62
     7
  0
POLYLINE
  5
2DF
  8
DATA
  6
CONTINUOUS
 62
     7
 66
     1
 10
0.0
 20
0.0
 30
0.0
 70
     1
  0
VERTEX
  5
49E
  8
DATA
  6
CONTINUOUS
 62
     7
 10
-62.158406742733817
 20
225.74562401232021
 30
0.0
  0
VERTEX
  5
49F
  8
DATA
  6
CONTINUOUS
 62
     7
 10
-61.15840674273386
 20
225.74562401232021
 30
0.0
  0
VERTEX
  5
4A0
  8
DATA
  6
CONTINUOUS
 62
     7
 10
-61.15840674273386
 20
224.74562401232021
 30
0.0
  0
VERTEX
  5
4A1
  8
DATA
  6
CONTINUOUS
 62
     7
 10
-62.158406742733817
 20
224.74562401232021
 30
0.0
  0
SEQEND
  5
4A2
  8
DATA
  6
CONTINUOUS
 62
     7
  0
POLYLINE
  5
2E6
  8
DATA
  6
CONTINUOUS
 62
     7
 66
     1
 10
0.0
 20
0.0
 30
0.0
 70
     1
  0
VERTEX
  5
4A3
  8
DATA
  6
CONTINUOUS
 62
     7
 10
-59.437837881790458
 20
228.26447963362011
 30
0.0
  0
VERTEX
  5
4A4
  8
DATA
  6
CONTINUOUS
 62
     7
 10
-58.437837881790401
 20
228.26447963362011
 30
0.0
  0
VERTEX
  5
4A5
  8
DATA
  6
CONTINUOUS
 62
     7
 10
-58.437837881790401
 20
227.26447963362011
 30
0.0
  0
VERTEX
  5
4A6
  8
DATA
  6
CONTINUOUS
 62
     7
 10
-59.437837881790458
 20
227.26447963362011
 30
0.0
  0
SEQEND
  5
4A7
  8
DATA
  6
CONTINUOUS
 62
     7
  0
POLYLINE
  5
2ED
  8
DATA
  6
CONTINUOUS
 62
     7
 66
     1
 10
0.0
 20
0.0
 30
0.0
 70
     1
  0
VERTEX
  5
4A8
  8
DATA
  6
CONTINUOUS
 62
     7
 10
-62.158406742733817
 20
228.26447963362011
 30
0.0
  0
VERTEX
  5
4A9
  8
DATA
  6
CONTINUOUS
 62
     7
 10
-61.15840674273386
 20
228.26447963362011
 30
0.0
  0
VERTEX
  5
4AA
  8
DATA
  6
CONTINUOUS
 62
     7
 10
-61.15840674273386
 20
227.26447963362011
 30
0.0
  0
VERTEX
  5
4AB
  8
DATA
  6
CONTINUOUS
 62
     7
 10
-62.158406742733817
 20
227.26447963362011
 30
0.0
  0
SEQEND
  5
4AC
  8
DATA
  6
CONTINUOUS
 62
     7
  0
LINE
  5
2F4
  8
DATA
  6
CONTINUOUS
 62
     7
 10
-40.202750494314166
 20
223.67516012845641
 30
0.0
 11
-40.761667691766448
 21
229.52516012845641
 31
0.0
  0
LINE
  5
2F5
  8
DATA
  6
CONTINUOUS
 62
     7
 10
-64.09349413020901
 20
223.67516012845641
 30
0.0
 11
-63.534576932756778
 21
229.52516012845629
 31
0.0
  0
ARC
  5
2F6
  8
DATA
  6
CONTINUOUS
 62
     7
 10
-41.198217425069558
 20
223.58005182297009
 30
0.0
 40
1.0
 50
270.0
 51
5.4575534851075531
  0
ARC
  5
2F7
  8
DATA
  6
CONTINUOUS
 62
     7
 10
-63.098027199453739
 20
223.58005182297009
 30
0.0
 40
0.9999999999998908
 50
174.54244651489179
 51
270.0
  0
ARC
  5
2F8
  8
DATA
  6
CONTINUOUS
 62
     7
 10
-41.757134622521853
 20
229.43005182297011
 30
0.0
 40
1.000000000000032
 50
5.4575534851074012
 51
90.0
  0
ARC
  5
2F9
  8
DATA
  6
CONTINUOUS
 62
     7
 10
-62.539110002001522
 20
229.43005182297011
 30
0.0
 40
1.0
 50
90.0
 51
174.542446514895
  0
TEXT
  5
2FA
  8
DATA
 62
     7
 10
-45.34082113086528
 20
235.26876000666391
 30
0.0
 40
2.8097509765624999
  1
DVI Out
 50
180.0
 41
0.7
 11
-45.34082113086528
 21
232.4590090301013
 31
0.0
 73
     3
  0
LINE
  5
2FB
  8
DATA
  6
CONTINUOUS
 62
     7
 10
-70.511352093921502
 20
127.5000000003607
 30
0.0
 11
-70.511352093921502
 21
123.0
 31
0.0
  0
LINE
  5
2FC
  8
DATA
  6
CONTINUOUS
 62
     7
 10
-70.511352093921502
 20
127.5000000003607
 30
0.0
 11
-66.955314119696553
 21
127.5000000003607
 31
0.0
  0
LINE
  5
2FD
  8
DATA
  6
CONTINUOUS
 62
     7
 10
-33.556365441224152
 20
127.5000000003607
 30
0.0
 11
-33.556365441224152
 21
123.0
 31
0.0
  0
LINE
  5
2FE
  8
DATA
  6
CONTINUOUS
 62
     7
 10
-33.556365441224152
 20
127.5000000003607
 30
0.0
 11
-37.278776939260709
 21
127.5000000003607
 31
0.0
  0
LINE
  5
2FF
  8
DATA
  6
CONTINUOUS
 62
     7
 10
46.84999999999998
 20
129.5
 30
0.0
 11
46.84999999999998
 21
123.0
 31
0.0
  0
LINE
  5
300
  8
DATA
  6
CONTINUOUS
 62
     7
 10
55.149999999999977
 20
129.5
 30
0.0
 11
55.149999999999977
 21
123.0
 31
0.0
  0
LINE
  5
301
  8
DATA
  6
CONTINUOUS
 62
     7
 10
59.849999999999987
 20
129.5
 30
0.0
 11
59.849999999999987
 21
123.0
 31
0.0
  0
LINE
  5
302
  8
DATA
  6
CONTINUOUS
 62
     7
 10
68.149999999999963
 20
129.5
 30
0.0
 11
68.149999999999963
 21
123.0
 31
0.0
  0
LINE
  5
303
  8
DATA
  6
CONTINUOUS
 62
     7
 10
46.84999999999998
 20
129.5
 30
0.0
 11
55.149999999999977
 21
129.5
 31
0.0
  0
LINE
  5
304
  8
DATA
  6
CONTINUOUS
 62
     7
 10
59.849999999999987
 20
129.5
 30
0.0
 11
68.149999999999963
 21
129.5
 31
0.0
  0
ENDSEC
  0
EOF
