  0
SECTION
  2
HEADER
  9
$ACADVER
  1
AC1009
  9
$INSBASE
 10
0.0
 20
0.0
 30
0.0
  9
$EXTMIN
 10
-170.01648601424901
 20
-265.53377067987071
 30
-0.0015258207003583
  9
$EXTMAX
 10
370.02411191186252
 20
537.08807595957842
 30
0.0000000349246037
  9
$LIMMIN
 10
0.0
 20
0.0
  9
$LIMMAX
 10
0.0
 20
0.0
  9
$ORTHOMODE
 70
     0
  9
$REGENMODE
 70
     1
  9
$FILLMODE
 70
     1
  9
$QTEXTMODE
 70
     0
  9
$MIRRTEXT
 70
     1
  9
$DRAGMODE
 70
     2
  9
$LTSCALE
 40
15.24
  9
$OSMODE
 70
   231
  9
$ATTMODE
 70
     1
  9
$TEXTSIZE
 40
0.0
  9
$TRACEWID
 40
1.0
  9
$TEXTSTYLE
  7
STANDARD
  9
$CLAYER
  8
DATA
  9
$CELTYPE
  6
BYLAYER
  9
$CECOLOR
 62
   256
  9
$DIMSCALE
 40
1.0
  9
$DIMASZ
 40
0.18
  9
$DIMEXO
 40
0.0625
  9
$DIMDLI
 40
0.38
  9
$DIMRND
 40
0.0
  9
$DIMDLE
 40
0.0
  9
$DIMEXE
 40
0.18
  9
$DIMTP
 40
0.0
  9
$DIMTM
 40
0.0
  9
$DIMTXT
 40
0.18
  9
$DIMCEN
 40
0.09
  9
$DIMTSZ
 40
0.0
  9
$DIMTOL
 70
     0
  9
$DIMLIM
 70
     0
  9
$DIMTIH
 70
     1
  9
$DIMTOH
 70
     1
  9
$DIMSE1
 70
     0
  9
$DIMSE2
 70
     0
  9
$DIMTAD
 70
     0
  9
$DIMZIN
 70
     0
  9
$DIMBLK
  1

  9
$DIMASO
 70
     1
  9
$DIMSHO
 70
     1
  9
$DIMPOST
  1

  9
$DIMAPOST
  1

  9
$DIMALT
 70
     0
  9
$DIMALTD
 70
     2
  9
$DIMALTF
 40
25.399999999999999
  9
$DIMLFAC
 40
1.0
  9
$DIMTOFL
 70
     0
  9
$DIMTVP
 40
0.0
  9
$DIMTIX
 70
     0
  9
$DIMSOXD
 70
     0
  9
$DIMSAH
 70
     0
  9
$DIMBLK1
  1

  9
$DIMBLK2
  1

  9
$DIMSTYLE
  2
STANDARD
  9
$DIMCLRD
 70
     0
  9
$DIMCLRE
 70
     0
  9
$DIMCLRT
 70
     0
  9
$DIMTFAC
 40
1.0
  9
$DIMGAP
 40
0.09
  9
$LUNITS
 70
     2
  9
$LUPREC
 70
     4
  9
$SKETCHINC
 40
0.1
  9
$FILLETRAD
 40
0.0
  9
$AUNITS
 70
     0
  9
$AUPREC
 70
     0
  9
$MENU
  1
acad
  9
$ELEVATION
 40
0.0
  9
$PELEVATION
 40
0.0
  9
$THICKNESS
 40
0.0
  9
$LIMCHECK
 70
     0
  9
$BLIPMODE
 70
     0
  9
$CHAMFERA
 40
0.0
  9
$CHAMFERB
 40
0.0
  9
$SKPOLY
 70
     0
  9
$TDCREATE
 40
2455202.7053935188
  9
$TDUPDATE
 40
2455202.7064976511
  9
$TDINDWG
 40
0.0002428472
  9
$TDUSRTIMER
 40
0.0002428472
  9
$USRTIMER
 70
     1
  9
$ANGBASE
 50
0.0
  9
$ANGDIR
 70
     0
  9
$PDMODE
 70
     1
  9
$PDSIZE
 40
-2.0
  9
$PLINEWID
 40
0.0
  9
$COORDS
 70
     0
  9
$SPLFRAME
 70
     0
  9
$SPLINETYPE
 70
     6
  9
$SPLINESEGS
 70
     8
  9
$ATTDIA
 70
     0
  9
$ATTREQ
 70
     1
  9
$HANDLING
 70
     1
  9
$HANDSEED
  5
46C
  9
$SURFTAB1
 70
     6
  9
$SURFTAB2
 70
     6
  9
$SURFTYPE
 70
     6
  9
$SURFU
 70
     6
  9
$SURFV
 70
     6
  9
$UCSNAME
  2

  9
$UCSORG
 10
0.0
 20
0.0
 30
0.0
  9
$UCSXDIR
 10
1.0
 20
0.0
 30
0.0
  9
$UCSYDIR
 10
0.0
 20
1.0
 30
0.0
  9
$PUCSNAME
  2

  9
$PUCSORG
 10
0.0
 20
0.0
 30
0.0
  9
$PUCSXDIR
 10
1.0
 20
0.0
 30
0.0
  9
$PUCSYDIR
 10
0.0
 20
1.0
 30
0.0
  9
$USERI1
 70
     0
  9
$USERI2
 70
     0
  9
$USERI3
 70
     0
  9
$USERI4
 70
     0
  9
$USERI5
 70
     0
  9
$USERR1
 40
0.0
  9
$USERR2
 40
0.0
  9
$USERR3
 40
0.0
  9
$USERR4
 40
0.0
  9
$USERR5
 40
0.0
  9
$WORLDVIEW
 70
     1
  9
$SHADEDGE
 70
     3
  9
$SHADEDIF
 70
    70
  9
$TILEMODE
 70
     1
  9
$MAXACTVP
 70
    64
  9
$PLIMCHECK
 70
     0
  9
$PEXTMIN
 10
1.0000000000000000E+020
 20
1.0000000000000000E+020
 30
1.0000000000000000E+020
  9
$PEXTMAX
 10
-1.0000000000000000E+020
 20
-1.0000000000000000E+020
 30
-1.0000000000000000E+020
  9
$PLIMMIN
 10
0.0
 20
0.0
  9
$PLIMMAX
 10
12.0
 20
9.0
  9
$UNITMODE
 70
     0
  9
$VISRETAIN
 70
     0
  9
$PLINEGEN
 70
     1
  9
$PSLTSCALE
 70
     0
  0
ENDSEC
  0
SECTION
  2
TABLES
  0
TABLE
  2
VPORT
 70
     1
  0
VPORT
  2
*ACTIVE
 70
     0
 10
0.0
 20
0.0
 11
1.0
 21
1.0
 12
100.0038129488068
 22
135.7771526398538
 13
0.0
 23
0.0
 14
1.0
 24
1.0
 15
0.0
 25
0.0
 16
0.0
 26
0.0
 36
1.0
 17
0.0
 27
0.0
 37
0.0
 40
808.53797818715998
 41
1.964329643296433
 42
50.0
 43
0.0
 44
0.0
 50
0.0
 51
0.0
 71
     0
 72
  2000
 73
     1
 74
     1
 75
     0
 76
     0
 77
     0
 78
     0
  0
ENDTAB
  0
TABLE
  2
LTYPE
 70
    11
  0
LTYPE
  2
CONTINUOUS
 70
     0
  3
Solid line
 72
    65
 73
     0
 40
0.0
  0
ENDTAB
  0
TABLE
  2
LAYER
 70
     5
  0
LAYER
  2
0
 70
     0
 62
     7
  6
CONTINUOUS
  0
LAYER
  2
DATA
 70
     0
 62
     7
  6
CONTINUOUS
  0
LAYER
  2
HIBINO-BASE
 70
     0
 62
     7
  6
CONTINUOUS
  0
LAYER
  2
SPEC
 70
     0
 62
     7
  6
CONTINUOUS
  0
LAYER
  2
DIMNSIONS
 70
     0
 62
     7
  6
CONTINUOUS
  0
ENDTAB
  0
TABLE
  2
STYLE
 70
     3
  0
STYLE
  2
STANDARD
 70
     0
 40
0.0
 41
1.0
 50
0.0
 71
     0
 42
0.0
  3
txt
  4
BIGFONT.SHX
  0
ENDTAB
  0
TABLE
  2
VIEW
 70
     0
  0
ENDTAB
  0
TABLE
  2
UCS
 70
     0
  0
ENDTAB
  0
TABLE
  2
APPID
 70
     3
  0
APPID
  2
ACAD
 70
     0
  0
APPID
  2
ACADANNOTATIVE
 70
     0
  0
APPID
  2
ACAD_MLEADERVER
 70
     0
  0
ENDTAB
  0
TABLE
  2
DIMSTYLE
 70
     2
  0
DIMSTYLE
  2
STANDARD
 70
     0
  3

  4

  5

  6

  7

 40
1.0
 41
0.18
 42
0.0625
 43
0.38
 44
0.18
 45
0.0
 46
0.0
 47
0.0
 48
0.0
140
0.18
141
0.09
142
0.0
143
25.399999999999999
144
1.0
145
0.0
146
1.0
147
0.09
 71
     0
 72
     0
 73
     1
 74
     1
 75
     0
 76
     0
 77
     0
 78
     0
170
     0
171
     2
172
     0
173
     0
174
     0
175
     0
176
     0
177
     0
178
     0
  0
ENDTAB
  0
ENDSEC
  0
SECTION
  2
BLOCKS
  0
BLOCK
  8
0
  2
$MODEL_SPACE
 70
     0
 10
0.0
 20
0.0
 30
0.0
  3
$MODEL_SPACE
  1

  0
ENDBLK
  5
351
  8
0
  0
BLOCK
 67
     1
  8
0
  2
$PAPER_SPACE
 70
     0
 10
0.0
 20
0.0
 30
0.0
  3
$PAPER_SPACE
  1

  0
ENDBLK
  5
34D
 67
     1
  8
0
  0
ENDSEC
  0
SECTION
  2
ENTITIES
  0
LINE
  5
2C
  8
HIBINO-BASE
  6
CONTINUOUS
 62
     7
 10
-169.99999999999989
 20
537.06362999999999
 30
0.0
 11
370.0
 21
537.06362999999999
 31
0.0
  0
LINE
  5
2D
  8
HIBINO-BASE
  6
CONTINUOUS
 62
     7
 10
370.0
 20
-242.93637000000001
 30
0.0
 11
-169.99999999999989
 21
-242.93637000000001
 31
0.0
  0
LINE
  5
2E
  8
HIBINO-BASE
  6
CONTINUOUS
 62
     7
 10
-169.99999999999989
 20
-242.93637000000001
 30
0.0
 11
-169.99999999999989
 21
537.06362999999999
 31
0.0
  0
LINE
  5
2F
  8
HIBINO-BASE
  6
CONTINUOUS
 62
     7
 10
370.0
 20
537.06362999999999
 30
0.0
 11
370.0
 21
-242.93637000000001
 31
0.0
  0
LINE
  5
30
  8
HIBINO-BASE
  6
CONTINUOUS
 62
     7
 10
100.0
 20
-175.4363699999999
 30
0.0
 11
370.0
 21
-175.4363699999999
 31
0.0
  0
LINE
  5
31
  8
HIBINO-BASE
  6
CONTINUOUS
 62
     7
 10
100.0
 20
-242.93637000000001
 30
0.0
 11
100.0
 21
-175.4363699999999
 31
0.0
  0
TEXT
  5
32
  8
HIBINO-BASE
 62
     7
 10
102.7
 20
-182.96244999999999
 30
0.0
 40
4.8865234374999993
  1
NOTE
 41
0.7
 11
102.7
 21
-178.0759265625
 31
0.0
 73
     3
  0
LINE
  5
33
  8
HIBINO-BASE
  6
CONTINUOUS
 62
     7
 10
205.0
 20
-242.93637000000001
 30
0.0
 11
205.0
 21
-175.4363699999999
 31
0.0
  0
TEXT
  5
34
  8
HIBINO-BASE
 62
     7
 10
207.69999999999999
 20
-182.96244999999999
 30
0.0
 40
4.8865234374999993
  1
TITLE
 41
0.7
 11
207.69999999999999
 21
-178.0759265625
 31
0.0
 73
     3
  0
LINE
  5
35
  8
HIBINO-BASE
  6
CONTINUOUS
 62
     7
 10
100.0
 20
-212.9363699999999
 30
0.0
 11
370.0
 21
-212.9363699999999
 31
0.0
  0
TEXT
  5
36
  8
HIBINO-BASE
 62
     7
 10
245.19999999999999
 20
-220.29348999999999
 30
0.0
 40
4.8865234374999993
  1
DRAWN
 41
0.7
 11
245.19999999999999
 21
-215.4069665625
 31
0.0
 73
     3
  0
TEXT
  5
37
  8
HIBINO-BASE
 62
     7
 10
170.19999999999999
 20
-220.29348999999999
 30
0.0
 40
4.8865234374999993
  1
DATE
 41
0.7
 11
170.19999999999999
 21
-215.4069665625
 31
0.0
 73
     3
  0
TEXT
  5
38
  8
HIBINO-BASE
 62
     7
 10
140.19999999999999
 20
-220.29348999999999
 30
0.0
 40
4.8865234374999993
  1
SCALE
 41
0.7
 11
140.19999999999999
 21
-215.4069665625
 31
0.0
 73
     3
  0
TEXT
  5
39
  8
HIBINO-BASE
 62
     7
 10
207.69999999999999
 20
-220.29348999999999
 30
0.0
 40
4.8865234374999993
  1
DESIGN
 41
0.7
 11
207.69999999999999
 21
-215.4069665625
 31
0.0
 73
     3
  0
TEXT
  5
3A
  8
HIBINO-BASE
 62
     7
 10
320.19999999999999
 20
-220.29348999999999
 30
0.0
 40
4.8865234374999993
  1
DRAWING NO.
 41
0.7
 11
320.19999999999999
 21
-215.4069665625
 31
0.0
 73
     3
  0
TEXT
  5
3B
  8
HIBINO-BASE
 62
     7
 10
282.69999999999999
 20
-220.29348999999999
 30
0.0
 40
4.8865234374999993
  1
CHECK
 41
0.7
 11
282.69999999999999
 21
-215.4069665625
 31
0.0
 73
     3
  0
LINE
  5
3C
  8
HIBINO-BASE
  6
CONTINUOUS
 62
     7
 10
143.12499999999989
 20
-239.18637000000001
 30
0.0
 11
154.375
 21
-227.93637000000001
 31
0.0
  0
TEXT
  5
3D
  8
HIBINO-BASE
 62
     7
 10
141.24999999999989
 20
-231.26320000000001
 30
0.0
 40
4.8865234374999993
  1
1
 41
0.7
 11
141.24999999999989
 21
-226.37667656249999
 31
0.0
 73
     3
  0
LINE
  5
3E
  8
HIBINO-BASE
  6
CONTINUOUS
 62
     7
 10
137.5
 20
-242.93637000000001
 30
0.0
 11
137.5
 21
-212.9363699999999
 31
0.0
  0
LINE
  5
3F
  8
HIBINO-BASE
  6
CONTINUOUS
 62
     7
 10
167.5
 20
-242.93637000000001
 30
0.0
 11
167.5
 21
-212.9363699999999
 31
0.0
  0
LINE
  5
40
  8
HIBINO-BASE
  6
CONTINUOUS
 62
     7
 10
242.5
 20
-212.9363699999999
 30
0.0
 11
242.5
 21
-242.93637000000001
 31
0.0
  0
LINE
  5
41
  8
HIBINO-BASE
  6
CONTINUOUS
 62
     7
 10
317.5
 20
-212.9363699999999
 30
0.0
 11
317.5
 21
-242.93637000000001
 31
0.0
  0
LINE
  5
42
  8
HIBINO-BASE
  6
CONTINUOUS
 62
     7
 10
279.99999999999989
 20
-242.93637000000001
 30
0.0
 11
279.99999999999989
 21
-212.9363699999999
 31
0.0
  0
TEXT
  5
43
  8
HIBINO-BASE
 62
     7
 10
170.06961999999999
 20
-234.34542999999999
 30
0.0
 40
4.8865234374999993
  1
'09.12.
 41
0.7
 11
170.06961999999999
 21
-229.4589065625
 31
0.0
 73
     3
  0
TEXT
  5
44
  8
HIBINO-BASE
 62
     7
 10
152.5
 20
-236.88820000000001
 30
0.0
 40
4.8865234374999993
  1
3
 41
0.7
 11
152.5
 21
-232.00167656249999
 31
0.0
 73
     3
  0
TEXT
  5
45
  8
HIBINO-BASE
 62
     7
 10
111.65000000000001
 20
-237.00837000000001
 30
0.0
 40
9.7730468749999986
  1
A4
 41
0.7
 11
111.65000000000001
 21
-227.23532312500001
 31
0.0
 73
     3
  0
TEXT
  5
46
  8
HIBINO-BASE
 62
     7
 10
102.875
 20
-220.794735
 30
0.0
 40
4.8865234374999993
  1
PAPER SIZE
 41
0.7
 11
102.875
 21
-215.90821156249999
 31
0.0
 73
     3
  0
TEXT
  5
47
  8
HIBINO-BASE
 62
     7
 10
246.18587540893409
 20
-234.31947136494759
 30
0.0
 40
5.7009440104166647
  1
T.Ootake
 41
0.7
 11
246.18587540893409
 21
-228.61852735453101
 31
0.0
 73
     3
  0
TEXT
  5
48
  8
HIBINO-BASE
 62
     7
 10
-162.23728212203059
 20
-261.99429563176449
 30
0.0
 40
10.58746744791666
  1
Hibino-Intersound Corporation
 41
0.7
 11
-162.23728212203059
 21
-251.40682818384781
 31
0.0
 73
     3
  0
TEXT
  5
49
  8
HIBINO-BASE
 62
     7
 10
163.87993246377661
 20
-261.288920192511
 30
0.0
 40
10.58746744791666
  1
ヒビノインターサウンド株式会社
 41
0.7
 11
163.87993246377661
 21
-250.70145274459441
 31
0.0
 73
     3
  0
LINE
  5
4A
  8
SPEC
  6
CONTINUOUS
 62
     7
 10
-147.49999999999989
 20
507.06362999999988
 30
0.0
 11
295.0
 21
507.06362999999988
 31
0.0
  0
LINE
  5
4B
  8
SPEC
  6
CONTINUOUS
 62
     7
 10
-147.49999999999989
 20
495.81362999999988
 30
0.0
 11
295.0
 21
495.81362999999988
 31
0.0
  0
LINE
  5
4C
  8
SPEC
  6
CONTINUOUS
 62
     7
 10
-147.49999999999989
 20
450.81362999999988
 30
0.0
 11
295.0
 21
450.81362999999988
 31
0.0
  0
LINE
  5
4D
  8
SPEC
  6
CONTINUOUS
 62
     7
 10
-147.49999999999989
 20
462.06362999999988
 30
0.0
 11
295.0
 21
462.06362999999988
 31
0.0
  0
LINE
  5
4E
  8
SPEC
  6
CONTINUOUS
 62
     7
 10
-147.49999999999989
 20
439.56362999999988
 30
0.0
 11
295.0
 21
439.56362999999988
 31
0.0
  0
LINE
  5
4F
  8
SPEC
  6
CONTINUOUS
 62
     7
 10
-147.49999999999989
 20
417.06362999999988
 30
0.0
 11
295.0
 21
417.06362999999988
 31
0.0
  0
LINE
  5
50
  8
SPEC
  6
CONTINUOUS
 62
     7
 10
-147.49999999999989
 20
428.31362999999988
 30
0.0
 11
295.0
 21
428.31362999999988
 31
0.0
  0
LINE
  5
51
  8
SPEC
  6
CONTINUOUS
 62
     7
 10
-147.49999999999989
 20
484.56362999999988
 30
0.0
 11
295.0
 21
484.56362999999988
 31
0.0
  0
LINE
  5
52
  8
SPEC
  6
CONTINUOUS
 62
     7
 10
-147.49999999999989
 20
507.06362999999988
 30
0.0
 11
-147.49999999999989
 21
327.06362999999999
 31
0.0
  0
TEXT
  5
53
  8
SPEC
 62
     7
 10
-143.74999999999989
 20
511.24343999999979
 30
0.0
 40
7.3297851562499989
  1
仕様
 41
0.7
 11
-143.74999999999989
 21
518.57322515624992
 31
0.0
 73
     3
  0
LINE
  5
54
  8
SPEC
  6
CONTINUOUS
 62
     7
 10
-50.0
 20
507.06362999999988
 30
0.0
 11
-50.0
 21
327.06362999999999
 31
0.0
  0
LINE
  5
55
  8
SPEC
  6
CONTINUOUS
 62
     7
 10
295.0
 20
507.06362999999988
 30
0.0
 11
295.0
 21
327.06362999999999
 31
0.0
  0
TEXT
  5
56
  8
SPEC
 62
     7
 10
-144.93536988662319
 20
498.67247931518858
 30
0.0
 40
5.7009440104166647
  1
形式
 41
0.7
 11
-144.93536988662319
 21
504.37342332560519
 31
0.0
 73
     3
  0
LINE
  5
57
  8
SPEC
  6
CONTINUOUS
 62
     7
 10
-147.49999999999989
 20
405.81362999999988
 30
0.0
 11
295.0
 21
405.81362999999988
 31
0.0
  0
LINE
  5
58
  8
SPEC
  6
CONTINUOUS
 62
     7
 10
-147.49999999999989
 20
394.56362999999988
 30
0.0
 11
295.0
 21
394.56362999999988
 31
0.0
  0
TEXT
  5
59
  8
SPEC
 62
     7
 10
-144.802290693114
 20
487.55845232990538
 30
0.0
 40
5.7009440104166647
  1
最大対応解像度
 41
0.7
 11
-144.802290693114
 21
493.25939634032198
 31
0.0
 73
     3
  0
TEXT
  5
5A
  8
SPEC
 62
     7
 10
-144.89952757748151
 20
476.2217644077993
 30
0.0
 40
5.7009440104166647
  1
入力端子
 41
0.7
 11
-144.89952757748151
 21
481.9227084182159
 31
0.0
 73
     3
  0
TEXT
  5
5B
  8
SPEC
 62
     7
 10
-144.89774011553141
 20
464.9956523718061
 30
0.0
 40
5.7009440104166647
  1
入力端子
 41
0.7
 11
-144.89774011553141
 21
470.69659638222282
 31
0.0
 73
     3
  0
TEXT
  5
5C
  8
SPEC
 62
     7
 10
-144.79716028232511
 20
453.59676874363959
 30
0.0
 40
5.7009440104166647
  1
USB入力端子
 41
0.7
 11
-144.79716028232511
 21
459.29771275405631
 31
0.0
 73
     3
  0
TEXT
  5
5D
  8
SPEC
 62
     7
 10
-145.0113057842407
 20
442.6430171185479
 30
0.0
 40
5.7009440104166647
  1
オーディオ出力端子
 41
0.7
 11
-145.0113057842407
 21
448.34396112896462
 31
0.0
 73
     3
  0
TEXT
  5
5E
  8
SPEC
 62
     7
 10
-144.92239899389679
 20
374.74517939197972
 30
0.0
 40
5.7009440104166647
  1
電源
 41
0.7
 11
-144.92239899389679
 21
380.44612340239632
 31
0.0
 73
     3
  0
TEXT
  5
5F
  8
SPEC
 62
     7
 10
-47.662555978199421
 20
487.62213257604338
 30
0.0
 40
5.7009440104166647
  1
1080p@60Hz
 41
0.7
 11
-47.662555978199421
 21
493.3230765864601
 31
0.0
 73
     3
  0
TEXT
  5
60
  8
SPEC
 62
     7
 10
-48.661271570124732
 20
476.1858841293872
 30
0.0
 40
5.7009440104166647
  1
(1)HDMI TypeA、19pinメス
 41
0.7
 11
-48.661271570124732
 21
481.88682813980381
 31
0.0
 73
     3
  0
TEXT
  5
61
  8
SPEC
 62
     7
 10
-48.652196982716639
 20
465.22986481255288
 30
0.0
 40
5.7009440104166647
  1
(1)電源端子、メス、5VDC(ロック式)
 41
0.7
 11
-48.652196982716639
 21
470.9308088229696
 31
0.0
 73
     3
  0
TEXT
  5
62
  8
SPEC
 62
     7
 10
-48.639496167517969
 20
453.6764866527609
 30
0.0
 40
5.7009440104166647
  1
(1)USBメス、TypeB(ファームウェアアップデート用)
 41
0.7
 11
-48.639496167517969
 21
459.37743066317762
 31
0.0
 73
     3
  0
TEXT
  5
63
  8
SPEC
 62
     7
 10
-47.243381100100471
 20
374.67591166881101
 30
0.0
 40
5.7009440104166647
  1
5V DC
 41
0.7
 11
-47.243381100100471
 21
380.37685567922767
 31
0.0
 73
     3
  0
TEXT
  5
64
  8
SPEC
 62
     7
 10
-145.14756117963961
 20
341.1600374779897
 30
0.0
 40
5.7009440104166647
  1
寸法
 41
0.7
 11
-145.14756117963961
 21
346.86098148840642
 31
0.0
 73
     3
  0
TEXT
  5
65
  8
SPEC
 62
     7
 10
-145.06415923783331
 20
329.9699302470745
 30
0.0
 40
5.7009440104166647
  1
重量
 41
0.7
 11
-145.06415923783331
 21
335.67087425749122
 31
0.0
 73
     3
  0
TEXT
  5
66
  8
SPEC
 62
     7
 10
-47.432274194174127
 20
330.41780518371343
 30
0.0
 40
5.7009440104166647
  1
約300g
 41
0.7
 11
-47.432274194174127
 21
336.11874919412998
 31
0.0
 73
     3
  0
TEXT
  5
67
  8
SPEC
 62
     7
 10
-144.9366436708307
 20
363.67653524027372
 30
0.0
 40
5.7009440104166647
  1
消費電力
 41
0.7
 11
-144.9366436708307
 21
369.37747925069033
 31
0.0
 73
     3
  0
TEXT
  5
68
  8
SPEC
 62
     7
 10
-47.309393457053787
 20
363.5586699232386
 30
0.0
 40
5.7009440104166647
  1
2.5W(最大)
 41
0.7
 11
-47.309393457053787
 21
369.2596139336552
 31
0.0
 73
     3
  0
TEXT
  5
69
  8
SPEC
 62
     7
 10
-47.685743327909918
 20
341.11105000800632
 30
0.0
 40
5.7009440104166647
  1
192(W)\U+00D731(H)\U+00D788(D)mm(突起部含まず)
 41
0.7
 11
-47.685743327909918
 21
346.81199401842292
 31
0.0
 73
     3
  0
LINE
  5
6A
  8
SPEC
  6
CONTINUOUS
 62
     7
 10
-147.49999999999989
 20
473.31362999999988
 30
0.0
 11
295.0
 21
473.31362999999988
 31
0.0
  0
TEXT
  5
6B
  8
SPEC
 62
     7
 10
-144.73646941503
 20
419.82252552621702
 30
0.0
 40
5.7009440104166647
  1
SDI準拠
 41
0.7
 11
-144.73646941503
 21
425.52346953663363
 31
0.0
 73
     3
  0
TEXT
  5
6C
  8
SPEC
 62
     7
 10
-48.649850763937152
 20
419.80895398806661
 30
0.0
 40
5.7009440104166647
  1
(SMPTE259M、360Mb/sまで)
 41
0.7
 11
-48.649850763937152
 21
425.50989799848332
 31
0.0
 73
     3
  0
TEXT
  5
6D
  8
SPEC
 62
     7
 10
-144.78212463815029
 20
408.66383597245749
 30
0.0
 40
5.7009440104166647
  1
HD-SDI準拠
 41
0.7
 11
-144.78212463815029
 21
414.36477998287421
 31
0.0
 73
     3
  0
TEXT
  5
6E
  8
SPEC
 62
     7
 10
-144.7521301785722
 20
397.3238525937233
 30
0.0
 40
5.7009440104166647
  1
3G-SDI準拠
 41
0.7
 11
-144.7521301785722
 21
403.02479660413991
 31
0.0
 73
     3
  0
TEXT
  5
6F
  8
SPEC
 62
     7
 10
-144.78212463815029
 20
386.23089761405981
 30
0.0
 40
5.7009440104166647
  1
3G-SDIレベルA、B
 41
0.7
 11
-144.78212463815029
 21
391.93184162447642
 31
0.0
 73
     3
  0
TEXT
  5
70
  8
SPEC
 62
     7
 10
-47.273197296194851
 20
386.57059615158011
 30
0.0
 40
5.7009440104166647
  1
解像度1080pのみ準拠
 41
0.7
 11
-47.273197296194851
 21
392.27154016199682
 31
0.0
 73
     3
  0
TEXT
  5
71
  8
SPEC
 62
     7
 10
-48.565106855460122
 20
442.38837229449751
 30
0.0
 40
5.7009440104166647
  1
(2)RCA-Type L+Rアナログオーディオジャック
 41
0.7
 11
-48.565106855460122
 21
448.08931630491418
 31
0.0
 73
     3
  0
TEXT
  5
72
  8
SPEC
 62
     7
 10
-48.644414394575179
 20
408.63048450417858
 30
0.0
 40
5.7009440104166647
  1
(SMPTE292M、1.485Gbpsまで)
 41
0.7
 11
-48.644414394575179
 21
414.3314285145953
 31
0.0
 73
     3
  0
TEXT
  5
73
  8
SPEC
 62
     7
 10
-48.679274155323093
 20
397.42820928340052
 30
0.0
 40
5.7009440104166647
  1
(SMPTE494M/495M、3.0Gbpsまで)
 41
0.7
 11
-48.679274155323093
 21
403.12915329381713
 31
0.0
 73
     3
  0
LINE
  5
74
  8
SPEC
  6
CONTINUOUS
 62
     7
 10
-147.49999999999989
 20
383.31362999999988
 30
0.0
 11
295.0
 21
383.31362999999988
 31
0.0
  0
LINE
  5
75
  8
SPEC
  6
CONTINUOUS
 62
     7
 10
-147.49999999999989
 20
372.06362999999988
 30
0.0
 11
295.0
 21
372.06362999999988
 31
0.0
  0
LINE
  5
76
  8
SPEC
  6
CONTINUOUS
 62
     7
 10
-147.49999999999989
 20
360.81362999999988
 30
0.0
 11
295.0
 21
360.81362999999988
 31
0.0
  0
LINE
  5
77
  8
SPEC
  6
CONTINUOUS
 62
     7
 10
-147.49999999999989
 20
349.56362999999988
 30
0.0
 11
295.0
 21
349.56362999999988
 31
0.0
  0
LINE
  5
78
  8
SPEC
  6
CONTINUOUS
 62
     7
 10
-147.49999999999989
 20
338.31362999999988
 30
0.0
 11
295.0
 21
338.31362999999988
 31
0.0
  0
TEXT
  5
79
  8
SPEC
 62
     7
 10
-145.4626271484436
 20
352.55920526978861
 30
0.0
 40
5.7009440104166647
  1
ラックサイズ
 41
0.7
 11
-145.4626271484436
 21
358.26014928020521
 31
0.0
 73
     3
  0
TEXT
  5
7A
  8
SPEC
 62
     7
 10
-47.613722265340769
 20
352.2178396911433
 30
0.0
 40
5.7009440104166647
  1
1U(半幅)
 41
0.7
 11
-47.613722265340769
 21
357.91878370156002
 31
0.0
 73
     3
  0
LINE
  5
7B
  8
SPEC
  6
CONTINUOUS
 62
     7
 10
-147.49999999999989
 20
327.06362999999999
 30
0.0
 11
295.0
 21
327.06362999999999
 31
0.0
  0
TEXT
  5
7C
  8
SPEC
 62
     7
 10
-47.255684478278248
 20
498.39363070933479
 30
0.0
 40
5.7009440104166647
  1
HDMI-3GSDIコンバーター
 41
0.7
 11
-47.255684478278248
 21
504.09457471975162
 31
0.0
 73
     3
  0
TEXT
  5
7D
  8
SPEC
 62
     7
 10
-48.565106855460122
 20
442.38837229449751
 30
0.0
 40
5.7009440104166647
  1
(2)RCA-Type L+Rアナログオーディオジャック
 41
0.7
 11
-48.565106855460122
 21
448.08931630491418
 31
0.0
 73
     3
  0
TEXT
  5
7E
  8
SPEC
 62
     7
 10
-145.0113057842407
 20
442.6430171185479
 30
0.0
 40
5.7009440104166647
  1
オーディオ出力端子
 41
0.7
 11
-145.0113057842407
 21
448.34396112896462
 31
0.0
 73
     3
  0
TEXT
  5
7F
  8
SPEC
 62
     7
 10
-47.565106855460122
 20
431.13837229449751
 30
0.0
 40
5.7009440104166647
  1
(2)SDI/HD-SDI/3G-SDI、オスBNC
 41
0.7
 11
-47.565106855460122
 21
436.83931630491412
 31
0.0
 73
     3
  0
TEXT
  5
80
  8
SPEC
 62
     7
 10
-146.08570030681551
 20
431.10911599541947
 30
0.0
 40
5.7009440104166647
  1
ビデオ出力端子
 41
0.7
 11
-146.08570030681551
 21
436.81006000583619
 31
0.0
 73
     3
  0
TEXT
  5
81
  8
DIMNSIONS
 62
     7
 10
40.0
 20
-206.12790000000001
 30
0.0
 40
7.3297851562499989
  1
(単位：mm)
 41
0.7
 11
40.0
 21
-198.79811484375
 31
0.0
 73
     3
  0
LINE
  5
82
  8
DIMNSIONS
  6
CONTINUOUS
 62
     7
 10
-81.000000000000014
 20
-93.75
 30
0.0
 11
-106.0
 21
-93.75
 31
0.0
  0
LINE
  5
83
  8
DIMNSIONS
  6
CONTINUOUS
 62
     7
 10
-81.000000000000014
 20
-62.75
 30
0.0
 11
-106.0
 21
-62.75
 31
0.0
  0
LINE
  5
84
  8
DIMNSIONS
  6
CONTINUOUS
 62
     7
 10
-100.0
 20
-93.75
 30
0.0
 11
-100.0
 21
-62.75
 31
0.0
  0
LINE
  5
85
  8
DIMNSIONS
  6
CONTINUOUS
 62
     7
 10
-100.0
 20
-93.75
 30
0.0
 11
-102.01011938545069
 21
-86.24813232421873
 31
0.0
  0
LINE
  5
86
  8
DIMNSIONS
  6
CONTINUOUS
 62
     7
 10
-100.0
 20
-93.75
 30
0.0
 11
-97.989880614549264
 21
-86.24813232421873
 31
0.0
  0
LINE
  5
87
  8
DIMNSIONS
  6
CONTINUOUS
 62
     7
 10
-100.0
 20
-62.75
 30
0.0
 11
-97.989880614549264
 21
-70.251867675781256
 31
0.0
  0
LINE
  5
88
  8
DIMNSIONS
  6
CONTINUOUS
 62
     7
 10
-100.0
 20
-62.75
 30
0.0
 11
-102.01011938545069
 21
-70.251867675781256
 31
0.0
  0
TEXT
  5
89
  8
DIMNSIONS
 62
     7
 10
-102.9816666666666
 20
-83.541666666666657
 30
0.0
 40
8.1442057291666661
  1
31
 50
90.0
 41
0.7
 11
-111.1258723958333
 21
-83.541666666666657
 31
0.0
 73
     3
  0
LINE
  5
8A
  8
DIMNSIONS
  6
CONTINUOUS
 62
     7
 10
-75.000000000000014
 20
-99.750000000000014
 30
0.0
 11
-75.000000000000014
 21
-124.75
 31
0.0
  0
LINE
  5
8B
  8
DIMNSIONS
  6
CONTINUOUS
 62
     7
 10
117.0
 20
-99.750000000000014
 30
0.0
 11
117.0
 21
-124.75
 31
0.0
  0
LINE
  5
8C
  8
DIMNSIONS
  6
CONTINUOUS
 62
     7
 10
-75.000000000000014
 20
-118.75
 30
0.0
 11
117.0
 21
-118.75
 31
0.0
  0
LINE
  5
8D
  8
DIMNSIONS
  6
CONTINUOUS
 62
     7
 10
-75.000000000000014
 20
-118.75
 30
0.0
 11
-67.498132324218759
 21
-116.73988061454919
 31
0.0
  0
LINE
  5
8E
  8
DIMNSIONS
  6
CONTINUOUS
 62
     7
 10
-75.000000000000014
 20
-118.75
 30
0.0
 11
-67.498132324218759
 21
-120.76011938545069
 31
0.0
  0
LINE
  5
8F
  8
DIMNSIONS
  6
CONTINUOUS
 62
     7
 10
117.0
 20
-118.75
 30
0.0
 11
109.4981323242187
 21
-120.76011938545069
 31
0.0
  0
LINE
  5
90
  8
DIMNSIONS
  6
CONTINUOUS
 62
     7
 10
117.0
 20
-118.75
 30
0.0
 11
109.4981323242187
 21
-116.73988061454919
 31
0.0
  0
TEXT
  5
91
  8
DIMNSIONS
 62
     7
 10
13.06249999999998
 20
-115.7683333333333
 30
0.0
 40
8.1442057291666661
  1
192
 41
0.7
 11
13.06249999999998
 21
-107.6241276041666
 31
0.0
 73
     3
  0
LINE
  5
92
  8
DIMNSIONS
  6
CONTINUOUS
 62
     7
 10
-75.360167167859714
 20
-96.75
 30
0.0
 11
-106.0
 21
-96.75
 31
0.0
  0
LINE
  5
93
  8
DIMNSIONS
  6
CONTINUOUS
 62
     7
 10
-81.000000000000014
 20
-93.75
 30
0.0
 11
-106.0
 21
-93.75
 31
0.0
  0
LINE
  5
94
  8
DIMNSIONS
  6
CONTINUOUS
 62
     7
 10
-100.0
 20
-93.75
 30
0.0
 11
-100.0
 21
-96.75
 31
0.0
  0
LINE
  5
95
  8
DIMNSIONS
  6
CONTINUOUS
 62
     7
 10
-100.0
 20
-96.75
 30
0.0
 11
-100.0
 21
-111.5416666666666
 31
0.0
  0
LINE
  5
96
  8
DIMNSIONS
  6
CONTINUOUS
 62
     7
 10
-100.0
 20
-96.75
 30
0.0
 11
-97.989880614549264
 21
-104.2518676757812
 31
0.0
  0
LINE
  5
97
  8
DIMNSIONS
  6
CONTINUOUS
 62
     7
 10
-100.0
 20
-96.75
 30
0.0
 11
-102.01011938545069
 21
-104.2518676757812
 31
0.0
  0
LINE
  5
98
  8
DIMNSIONS
  6
CONTINUOUS
 62
     7
 10
-100.0
 20
-93.75
 30
0.0
 11
-100.0
 21
-78.75
 31
0.0
  0
LINE
  5
99
  8
DIMNSIONS
  6
CONTINUOUS
 62
     7
 10
-100.0
 20
-93.75
 30
0.0
 11
-102.01011938545069
 21
-86.24813232421873
 31
0.0
  0
LINE
  5
9A
  8
DIMNSIONS
  6
CONTINUOUS
 62
     7
 10
-100.0
 20
-93.75
 30
0.0
 11
-97.989880614549264
 21
-86.24813232421873
 31
0.0
  0
TEXT
  5
9B
  8
DIMNSIONS
 62
     7
 10
-102.9816666666667
 20
-111.5416666666666
 30
0.0
 40
8.1442057291666661
  1
3
 50
90.0
 41
0.7
 11
-111.1258723958333
 21
-111.5416666666666
 31
0.0
 73
     3
  0
LINE
  5
9C
  8
DIMNSIONS
  6
CONTINUOUS
 62
     7
 10
-81.000000000000014
 20
-31.25
 30
0.0
 11
-106.0
 21
-31.25
 31
0.0
  0
LINE
  5
9D
  8
DIMNSIONS
  6
CONTINUOUS
 62
     7
 10
-81.000000000000014
 20
56.75
 30
0.0
 11
-106.0
 21
56.75
 31
0.0
  0
LINE
  5
9E
  8
DIMNSIONS
  6
CONTINUOUS
 62
     7
 10
-100.0
 20
-31.25
 30
0.0
 11
-100.0
 21
56.75
 31
0.0
  0
LINE
  5
9F
  8
DIMNSIONS
  6
CONTINUOUS
 62
     7
 10
-100.0
 20
-31.25
 30
0.0
 11
-102.01011938545069
 21
-23.748132324218751
 31
0.0
  0
LINE
  5
A0
  8
DIMNSIONS
  6
CONTINUOUS
 62
     7
 10
-100.0
 20
-31.25
 30
0.0
 11
-97.989880614549264
 21
-23.748132324218751
 31
0.0
  0
LINE
  5
A1
  8
DIMNSIONS
  6
CONTINUOUS
 62
     7
 10
-100.0
 20
56.75
 30
0.0
 11
-97.989880614549264
 21
49.248132324218737
 31
0.0
  0
LINE
  5
A2
  8
DIMNSIONS
  6
CONTINUOUS
 62
     7
 10
-100.0
 20
56.75
 30
0.0
 11
-102.01011938545069
 21
49.248132324218737
 31
0.0
  0
TEXT
  5
A3
  8
DIMNSIONS
 62
     7
 10
-102.9816666666666
 20
7.4583333333333419
 30
0.0
 40
8.1442057291666661
  1
88
 50
90.0
 41
0.7
 11
-111.1258723958333
 21
7.4583333333333428
 31
0.0
 73
     3
  0
LINE
  5
A4
  8
DIMNSIONS
  6
CONTINUOUS
 62
     7
 10
-81.000000000000014
 20
56.75
 30
0.0
 11
-106.0
 21
56.75
 31
0.0
  0
LINE
  5
A5
  8
DIMNSIONS
  6
CONTINUOUS
 62
     7
 10
-66.749067871826938
 20
73.75
 30
0.0
 11
-106.0
 21
73.75
 31
0.0
  0
LINE
  5
A6
  8
DIMNSIONS
  6
CONTINUOUS
 62
     7
 10
-100.0
 20
56.75
 30
0.0
 11
-100.0
 21
73.75
 31
0.0
  0
LINE
  5
A7
  8
DIMNSIONS
  6
CONTINUOUS
 62
     7
 10
-100.0
 20
56.75
 30
0.0
 11
-102.01011938545069
 21
64.251867675781256
 31
0.0
  0
LINE
  5
A8
  8
DIMNSIONS
  6
CONTINUOUS
 62
     7
 10
-100.0
 20
56.75
 30
0.0
 11
-97.989880614549264
 21
64.251867675781256
 31
0.0
  0
LINE
  5
A9
  8
DIMNSIONS
  6
CONTINUOUS
 62
     7
 10
-100.0
 20
73.75
 30
0.0
 11
-97.989880614549264
 21
66.248132324218744
 31
0.0
  0
LINE
  5
AA
  8
DIMNSIONS
  6
CONTINUOUS
 62
     7
 10
-100.0
 20
73.75
 30
0.0
 11
-102.01011938545069
 21
66.248132324218744
 31
0.0
  0
TEXT
  5
AB
  8
DIMNSIONS
 62
     7
 10
-102.9816666666666
 20
59.958333333333329
 30
0.0
 40
8.1442057291666661
  1
17
 50
90.0
 41
0.7
 11
-111.1258723958333
 21
59.958333333333329
 31
0.0
 73
     3
  0
TEXT
  5
AC
  8
DATA
 62
     7
 10
-139.99999999999989
 20
-230.22237000000001
 30
0.0
 40
4.8865234374999993
  1
仕様および外観は予告なく変更されることがありますので、ご了承ください。
 41
0.7
 11
-139.99999999999989
 21
-225.3358465625
 31
0.0
 73
     3
  0
LINE
  5
AD
  8
DATA
  6
CONTINUOUS
 62
     7
 10
-75.000000000000014
 20
-93.75
 30
0.0
 11
-75.000000000000014
 21
-62.75
 31
0.0
  0
LINE
  5
AE
  8
DATA
  6
CONTINUOUS
 62
     7
 10
117.0
 20
-93.75
 30
0.0
 11
-75.000000000000014
 21
-93.75
 31
0.0
  0
TEXT
  5
AF
  8
DATA
 62
     7
 10
249.76339404981169
 20
-208.7686688784905
 30
0.0
 40
7.3297851562499989
  1
EXT-HDMI1.3-2-3GSDI
 41
0.7
 11
249.76339404981169
 21
-201.43888372224049
 31
0.0
 73
     3
  0
LINE
  5
B0
  8
DATA
  6
CONTINUOUS
 62
     7
 10
117.0
 20
-62.75
 30
0.0
 11
-75.000000000000014
 21
-62.75
 31
0.0
  0
LINE
  5
B1
  8
DATA
  6
CONTINUOUS
 62
     7
 10
117.0
 20
-93.75
 30
0.0
 11
117.0
 21
-62.75
 31
0.0
  0
LINE
  5
B2
  8
DATA
  6
CONTINUOUS
 62
     7
 10
-69.360167167859757
 20
-96.75
 30
0.0
 11
-70.000000000000014
 21
-93.75
 31
0.0
  0
LINE
  5
B3
  8
DATA
  6
CONTINUOUS
 62
     7
 10
-58.639832832140272
 20
-96.75
 30
0.0
 11
-58.000000000000021
 21
-93.75
 31
0.0
  0
LINE
  5
B4
  8
DATA
  6
CONTINUOUS
 62
     7
 10
-69.360167167859757
 20
-96.75
 30
0.0
 11
-58.639832832140272
 21
-96.75
 31
0.0
  0
LINE
  5
B5
  8
DATA
  6
CONTINUOUS
 62
     7
 10
111.3601671678597
 20
-96.75
 30
0.0
 11
112.0
 21
-93.75
 31
0.0
  0
LINE
  5
B6
  8
DATA
  6
CONTINUOUS
 62
     7
 10
100.6398328321402
 20
-96.75
 30
0.0
 11
100.0
 21
-93.75
 31
0.0
  0
LINE
  5
B7
  8
DATA
  6
CONTINUOUS
 62
     7
 10
111.3601671678597
 20
-96.75
 30
0.0
 11
100.6398328321402
 21
-96.75
 31
0.0
  0
CIRCLE
  5
B8
  8
DATA
  6
CONTINUOUS
 62
     7
 10
101.5
 20
-79.75
 30
0.0
 40
1.5
  0
TEXT
  5
B9
  8
DATA
 62
     7
 10
97.955476945826575
 20
-85.732756347164312
 30
0.0
 40
2.2396565755208329
  1
Power
 41
0.7
 11
97.955476945826575
 21
-83.493099771643472
 31
0.0
 73
     3
  0
CIRCLE
  5
BA
  8
DATA
  6
CONTINUOUS
 62
     7
 10
-55.000000000000021
 20
-79.75
 30
0.0
 40
1.5
  0
CIRCLE
  5
BB
  8
DATA
  6
CONTINUOUS
 62
     7
 10
-10.000000000000011
 20
-79.75
 30
0.0
 40
1.5
  0
TEXT
  5
BC
  8
DATA
 62
     7
 10
-11.463717846668271
 20
-85.732756347164312
 30
0.0
 40
2.2396565755208329
  1
3G
 41
0.7
 11
-11.463717846668271
 21
-83.493099771643472
 31
0.0
 73
     3
  0
TEXT
  5
BD
  8
DATA
 62
     7
 10
-56.472126596511252
 20
-85.732756347164312
 30
0.0
 40
2.2396565755208329
  1
VL
 41
0.7
 11
-56.472126596511252
 21
-83.493099771643472
 31
0.0
 73
     3
  0
TEXT
  5
BE
  8
DATA
 62
     7
 10
59.399727888259008
 20
-74.255772828897193
 30
0.0
 40
5.7009440104166647
  1
HDMI
 41
0.7
 11
59.399727888259008
 21
-68.55482881848053
 31
0.0
 73
     3
  0
TEXT
  5
BF
  8
DATA
 62
     7
 10
82.997437425229904
 20
-74.182968289708896
 30
0.0
 40
5.7009440104166647
  1
3GSDI
 41
0.7
 11
82.997437425229904
 21
-68.482024279292233
 31
0.0
 73
     3
  0
TEXT
  5
C0
  8
DATA
 62
     7
 10
75.570159544426346
 20
-74.20342519785126
 30
0.0
 40
3.9906608072916652
  1
to
 41
0.7
 11
75.570159544426346
 21
-70.212764390559585
 31
0.0
 73
     3
  0
LINE
  5
C1
  8
DATA
  6
CONTINUOUS
 62
     7
 10
-75.000000000000014
 20
-31.25
 30
0.0
 11
-75.000000000000014
 21
56.75
 31
0.0
  0
LINE
  5
C2
  8
DATA
  6
CONTINUOUS
 62
     7
 10
117.0
 20
-31.25
 30
0.0
 11
-75.000000000000014
 21
-31.25
 31
0.0
  0
LINE
  5
C3
  8
DATA
  6
CONTINUOUS
 62
     7
 10
117.0
 20
-31.25
 30
0.0
 11
117.0
 21
56.75
 31
0.0
  0
LINE
  5
C4
  8
DATA
  6
CONTINUOUS
 62
     7
 10
-75.000000000000014
 20
56.75
 30
0.0
 11
117.0
 21
56.75
 31
0.0
  0
LINE
  5
C5
  8
DATA
  6
CONTINUOUS
 62
     7
 10
117.0
 20
-22.25
 30
0.0
 11
-75.000000000000014
 21
-22.25
 31
0.0
  0
ARC
  5
C6
  8
DATA
  6
CONTINUOUS
 62
     7
 10
-55.000000000000021
 20
-31.25
 30
0.0
 40
1.5
 50
180.0
 51
0.0
  0
ARC
  5
C7
  8
DATA
  6
CONTINUOUS
 62
     7
 10
-10.000000000000011
 20
-31.25
 30
0.0
 40
1.5
 50
180.0
 51
0.0
  0
ARC
  5
C8
  8
DATA
  6
CONTINUOUS
 62
     7
 10
101.5
 20
-31.25
 30
0.0
 40
1.5
 50
180.0
 51
0.0
  0
LINE
  5
C9
  8
DATA
  6
CONTINUOUS
 62
     7
 10
102.0
 20
56.75
 30
0.0
 11
102.0
 21
58.75
 31
0.0
  0
LINE
  5
CA
  8
DATA
  6
CONTINUOUS
 62
     7
 10
-75.000000000000014
 20
137.24999999980329
 30
0.0
 11
-75.000000000000014
 21
106.24999999980329
 31
0.0
  0
LINE
  5
CB
  8
DATA
  6
CONTINUOUS
 62
     7
 10
117.0
 20
137.24999999980329
 30
0.0
 11
-75.000000000000014
 21
137.24999999980329
 31
0.0
  0
LINE
  5
CC
  8
DATA
  6
CONTINUOUS
 62
     7
 10
117.0
 20
106.24999999980329
 30
0.0
 11
-75.000000000000014
 21
106.24999999980329
 31
0.0
  0
LINE
  5
CD
  8
DATA
  6
CONTINUOUS
 62
     7
 10
117.0
 20
137.24999999980329
 30
0.0
 11
117.0
 21
106.24999999980329
 31
0.0
  0
LINE
  5
CE
  8
DATA
  6
CONTINUOUS
 62
     7
 10
-69.360167167859757
 20
140.24999999980329
 30
0.0
 11
-70.000000000000014
 21
137.24999999980329
 31
0.0
  0
LINE
  5
CF
  8
DATA
  6
CONTINUOUS
 62
     7
 10
-58.639832832140272
 20
140.24999999980329
 30
0.0
 11
-58.000000000000021
 21
137.24999999980329
 31
0.0
  0
LINE
  5
D0
  8
DATA
  6
CONTINUOUS
 62
     7
 10
-69.360167167859757
 20
140.24999999980329
 30
0.0
 11
-58.639832832140272
 21
140.24999999980329
 31
0.0
  0
LINE
  5
D1
  8
DATA
  6
CONTINUOUS
 62
     7
 10
111.3601671678597
 20
140.24999999980329
 30
0.0
 11
112.0
 21
137.24999999980329
 31
0.0
  0
LINE
  5
D2
  8
DATA
  6
CONTINUOUS
 62
     7
 10
100.6398328321402
 20
140.24999999980329
 30
0.0
 11
100.0
 21
137.24999999980329
 31
0.0
  0
LINE
  5
D3
  8
DATA
  6
CONTINUOUS
 62
     7
 10
111.3601671678597
 20
140.24999999980329
 30
0.0
 11
100.6398328321402
 21
140.24999999980329
 31
0.0
  0
POLYLINE
  5
D4
  8
DATA
  6
CONTINUOUS
 62
     7
 66
     1
 10
0.0
 20
0.0
 30
0.0
  0
VERTEX
  5
37D
  8
DATA
  6
CONTINUOUS
 62
     7
 10
-3.0000000000000422
 20
125.23500664274189
 30
0.0
  0
VERTEX
  5
37E
  8
DATA
  6
CONTINUOUS
 62
     7
 10
-3.0000000000000422
 20
121.23500664274189
 30
0.0
  0
VERTEX
  5
37F
  8
DATA
  6
CONTINUOUS
 62
     7
 10
13.000000000000011
 20
121.23500664274189
 30
0.0
  0
VERTEX
  5
380
  8
DATA
  6
CONTINUOUS
 62
     7
 10
13.000000000000011
 20
125.23500664274189
 30
0.0
  0
SEQEND
  5
381
  8
DATA
  6
CONTINUOUS
 62
     7
  0
LINE
  5
DB
  8
DATA
  6
CONTINUOUS
 62
     7
 10
10.49999999999962
 20
127.23500664274189
 30
0.0
 11
-0.4999999999997017
 21
127.23500664274189
 31
0.0
  0
ARC
  5
DC
  8
DATA
  6
CONTINUOUS
 62
     7
 10
-4.2691836734693283
 20
129.3839862345786
 30
0.0
 40
4.3387623639095692
 50
287.00900813209631
 51
330.31060837608288
  0
ARC
  5
DD
  8
DATA
  6
CONTINUOUS
 62
     7
 10
14.26918367346938
 20
129.3839862345786
 30
0.0
 40
4.3387623639096686
 50
209.68939162391609
 51
252.99099186790269
  0
POLYLINE
  5
DE
  8
DATA
  6
CONTINUOUS
 62
     7
 66
     1
 10
0.0
 20
0.0
 30
0.0
 70
     1
  0
VERTEX
  5
382
  8
DATA
  6
CONTINUOUS
 62
     7
 10
2.4999999999999849
 20
112.8066243270259
 30
0.0
  0
VERTEX
  5
383
  8
DATA
  6
CONTINUOUS
 62
     7
 10
4.9999999999999849
 20
111.3632486540518
 30
0.0
  0
VERTEX
  5
384
  8
DATA
  6
CONTINUOUS
 62
     7
 10
7.4999999999999867
 20
112.8066243270259
 30
0.0
  0
VERTEX
  5
385
  8
DATA
  6
CONTINUOUS
 62
     7
 10
7.4999999999999867
 20
115.693375672974
 30
0.0
  0
VERTEX
  5
386
  8
DATA
  6
CONTINUOUS
 62
     7
 10
4.9999999999999849
 20
117.1367513459481
 30
0.0
  0
VERTEX
  5
387
  8
DATA
  6
CONTINUOUS
 62
     7
 10
2.4999999999999849
 20
115.693375672974
 30
0.0
  0
SEQEND
  5
388
  8
DATA
  6
CONTINUOUS
 62
     7
  0
CIRCLE
  5
E7
  8
DATA
  6
CONTINUOUS
 62
     7
 10
4.9999999999999849
 20
114.25
 30
0.0
 40
1.25
  0
CIRCLE
  5
E8
  8
DATA
  6
CONTINUOUS
 62
     7
 10
-56.000000000000021
 20
120.24999999980329
 30
0.0
 40
4.75
  0
POLYLINE
  5
E9
  8
DATA
  6
CONTINUOUS
 62
     7
 66
     1
 10
0.0
 20
0.0
 30
0.0
 70
     1
  0
VERTEX
  5
389
  8
DATA
  6
CONTINUOUS
 62
     7
 10
-63.000000000000021
 20
116.20854811547591
 30
0.0
  0
VERTEX
  5
38A
  8
DATA
  6
CONTINUOUS
 62
     7
 10
-56.000000000000021
 20
112.16709623114861
 30
0.0
  0
VERTEX
  5
38B
  8
DATA
  6
CONTINUOUS
 62
     7
 10
-49.000000000000021
 20
116.20854811547591
 30
0.0
  0
VERTEX
  5
38C
  8
DATA
  6
CONTINUOUS
 62
     7
 10
-49.000000000000021
 20
124.29145188413069
 30
0.0
  0
VERTEX
  5
38D
  8
DATA
  6
CONTINUOUS
 62
     7
 10
-56.000000000000021
 20
128.3329037684581
 30
0.0
  0
VERTEX
  5
38E
  8
DATA
  6
CONTINUOUS
 62
     7
 10
-63.000000000000021
 20
124.29145188413069
 30
0.0
  0
SEQEND
  5
38F
  8
DATA
  6
CONTINUOUS
 62
     7
  0
CIRCLE
  5
F2
  8
DATA
  6
CONTINUOUS
 62
     7
 10
-56.000000000000021
 20
120.24999999980329
 30
0.0
 40
0.5
  0
CIRCLE
  5
F3
  8
DATA
  6
CONTINUOUS
 62
     7
 10
-56.000000000000021
 20
120.24999999980329
 30
0.0
 40
8.0829037686547576
  0
POLYLINE
  5
F4
  8
DATA
  6
CONTINUOUS
 62
     7
 66
     1
 10
0.0
 20
0.0
 30
0.0
  0
VERTEX
  5
390
  8
DATA
  6
CONTINUOUS
 62
     7
 10
-60.711952886012021
 20
119.6499999998033
 30
0.0
  0
VERTEX
  5
391
  8
DATA
  6
CONTINUOUS
 62
     7
 10
-61.600000000000009
 20
119.6499999998033
 30
0.0
  0
VERTEX
  5
392
  8
DATA
  6
CONTINUOUS
 62
     7
 10
-61.600000000000009
 20
120.8499999998033
 30
0.0
  0
VERTEX
  5
393
  8
DATA
  6
CONTINUOUS
 62
     7
 10
-60.711952886012021
 20
120.8499999998033
 30
0.0
  0
SEQEND
  5
394
  8
DATA
  6
CONTINUOUS
 62
     7
  0
POLYLINE
  5
FB
  8
DATA
  6
CONTINUOUS
 62
     7
 66
     1
 10
0.0
 20
0.0
 30
0.0
  0
VERTEX
  5
395
  8
DATA
  6
CONTINUOUS
 62
     7
 10
-51.288047113988029
 20
120.8499999998033
 30
0.0
  0
VERTEX
  5
396
  8
DATA
  6
CONTINUOUS
 62
     7
 10
-50.40000000000002
 20
120.8499999998033
 30
0.0
  0
VERTEX
  5
397
  8
DATA
  6
CONTINUOUS
 62
     7
 10
-50.40000000000002
 20
119.6499999998033
 30
0.0
  0
VERTEX
  5
398
  8
DATA
  6
CONTINUOUS
 62
     7
 10
-51.288047113988029
 20
119.6499999998033
 30
0.0
  0
SEQEND
  5
399
  8
DATA
  6
CONTINUOUS
 62
     7
  0
CIRCLE
  5
102
  8
DATA
  6
CONTINUOUS
 62
     7
 10
-31.000000000000011
 20
120.24999999980329
 30
0.0
 40
4.75
  0
POLYLINE
  5
103
  8
DATA
  6
CONTINUOUS
 62
     7
 66
     1
 10
0.0
 20
0.0
 30
0.0
 70
     1
  0
VERTEX
  5
39A
  8
DATA
  6
CONTINUOUS
 62
     7
 10
-38.000000000000021
 20
116.20854811547591
 30
0.0
  0
VERTEX
  5
39B
  8
DATA
  6
CONTINUOUS
 62
     7
 10
-31.000000000000011
 20
112.16709623114861
 30
0.0
  0
VERTEX
  5
39C
  8
DATA
  6
CONTINUOUS
 62
     7
 10
-24.000000000000011
 20
116.20854811547591
 30
0.0
  0
VERTEX
  5
39D
  8
DATA
  6
CONTINUOUS
 62
     7
 10
-24.000000000000011
 20
124.29145188413069
 30
0.0
  0
VERTEX
  5
39E
  8
DATA
  6
CONTINUOUS
 62
     7
 10
-31.000000000000011
 20
128.3329037684581
 30
0.0
  0
VERTEX
  5
39F
  8
DATA
  6
CONTINUOUS
 62
     7
 10
-38.000000000000021
 20
124.29145188413069
 30
0.0
  0
SEQEND
  5
3A0
  8
DATA
  6
CONTINUOUS
 62
     7
  0
CIRCLE
  5
10C
  8
DATA
  6
CONTINUOUS
 62
     7
 10
-31.000000000000011
 20
120.24999999980329
 30
0.0
 40
0.5
  0
CIRCLE
  5
10D
  8
DATA
  6
CONTINUOUS
 62
     7
 10
-31.000000000000011
 20
120.24999999980329
 30
0.0
 40
8.0829037686547576
  0
POLYLINE
  5
10E
  8
DATA
  6
CONTINUOUS
 62
     7
 66
     1
 10
0.0
 20
0.0
 30
0.0
  0
VERTEX
  5
3A1
  8
DATA
  6
CONTINUOUS
 62
     7
 10
-35.711952886012007
 20
119.6499999998033
 30
0.0
  0
VERTEX
  5
3A2
  8
DATA
  6
CONTINUOUS
 62
     7
 10
-36.600000000000009
 20
119.6499999998033
 30
0.0
  0
VERTEX
  5
3A3
  8
DATA
  6
CONTINUOUS
 62
     7
 10
-36.600000000000009
 20
120.8499999998033
 30
0.0
  0
VERTEX
  5
3A4
  8
DATA
  6
CONTINUOUS
 62
     7
 10
-35.711952886012007
 20
120.8499999998033
 30
0.0
  0
SEQEND
  5
3A5
  8
DATA
  6
CONTINUOUS
 62
     7
  0
POLYLINE
  5
115
  8
DATA
  6
CONTINUOUS
 62
     7
 66
     1
 10
0.0
 20
0.0
 30
0.0
  0
VERTEX
  5
3A6
  8
DATA
  6
CONTINUOUS
 62
     7
 10
-26.288047113988021
 20
120.8499999998033
 30
0.0
  0
VERTEX
  5
3A7
  8
DATA
  6
CONTINUOUS
 62
     7
 10
-25.40000000000002
 20
120.8499999998033
 30
0.0
  0
VERTEX
  5
3A8
  8
DATA
  6
CONTINUOUS
 62
     7
 10
-25.40000000000002
 20
119.6499999998033
 30
0.0
  0
VERTEX
  5
3A9
  8
DATA
  6
CONTINUOUS
 62
     7
 10
-26.288047113988021
 20
119.6499999998033
 30
0.0
  0
SEQEND
  5
3AA
  8
DATA
  6
CONTINUOUS
 62
     7
  0
CIRCLE
  5
11C
  8
DATA
  6
CONTINUOUS
 62
     7
 10
50.999999999999993
 20
120.24999999980329
 30
0.0
 40
4.1500000000000048
  0
CIRCLE
  5
11D
  8
DATA
  6
CONTINUOUS
 62
     7
 10
50.999999999999993
 20
120.24999999980329
 30
0.0
 40
1.650000000000005
  0
CIRCLE
  5
11E
  8
DATA
  6
CONTINUOUS
 62
     7
 10
36.999999999999993
 20
120.24999999980329
 30
0.0
 40
4.1500000000000048
  0
CIRCLE
  5
11F
  8
DATA
  6
CONTINUOUS
 62
     7
 10
36.999999999999993
 20
120.24999999980329
 30
0.0
 40
1.650000000000005
  0
LINE
  5
120
  8
DATA
  6
CONTINUOUS
 62
     7
 10
-64.082356029311953
 20
61.750672788297429
 30
0.0
 11
-47.917643970688069
 21
61.750672788297429
 31
0.0
  0
LINE
  5
121
  8
DATA
  6
CONTINUOUS
 62
     7
 10
-64.082356029311953
 20
61.750672788297429
 30
0.0
 11
-64.082356029311953
 21
56.750672788297429
 31
0.0
  0
LINE
  5
122
  8
DATA
  6
CONTINUOUS
 62
     7
 10
-47.917643970688069
 20
61.750672788297429
 30
0.0
 11
-47.917643970688069
 21
56.750672788297429
 31
0.0
  0
LINE
  5
123
  8
DATA
  6
CONTINUOUS
 62
     7
 10
-60.749067871826938
 20
73.75
 30
0.0
 11
-60.749067871826938
 21
61.750672788297429
 31
0.0
  0
LINE
  5
124
  8
DATA
  6
CONTINUOUS
 62
     7
 10
-51.250000000000021
 20
73.75
 30
0.0
 11
-51.250000000000021
 21
61.750672788297429
 31
0.0
  0
POLYLINE
  5
125
  8
DATA
  6
CONTINUOUS
 62
     7
 66
     1
 10
0.0
 20
0.0
 30
0.0
  0
VERTEX
  5
3AB
  8
DATA
  6
CONTINUOUS
 62
     7
 10
-60.749067871826938
 20
69.113961309221338
 30
0.0
  0
VERTEX
  5
3AC
  8
DATA
  6
CONTINUOUS
 62
     7
 10
-61.600000000000009
 20
69.113961309221338
 30
0.0
  0
VERTEX
  5
3AD
  8
DATA
  6
CONTINUOUS
 62
     7
 10
-61.600000000000009
 20
70.313961309221327
 30
0.0
  0
VERTEX
  5
3AE
  8
DATA
  6
CONTINUOUS
 62
     7
 10
-60.749067871826938
 20
70.313961309221327
 30
0.0
  0
SEQEND
  5
3AF
  8
DATA
  6
CONTINUOUS
 62
     7
  0
POLYLINE
  5
12C
  8
DATA
  6
CONTINUOUS
 62
     7
 66
     1
 10
0.0
 20
0.0
 30
0.0
  0
VERTEX
  5
3B0
  8
DATA
  6
CONTINUOUS
 62
     7
 10
-51.250000000000021
 20
70.313961309221327
 30
0.0
  0
VERTEX
  5
3B1
  8
DATA
  6
CONTINUOUS
 62
     7
 10
-50.40000000000002
 20
70.313961309221327
 30
0.0
  0
VERTEX
  5
3B2
  8
DATA
  6
CONTINUOUS
 62
     7
 10
-50.40000000000002
 20
69.113961309221338
 30
0.0
  0
VERTEX
  5
3B3
  8
DATA
  6
CONTINUOUS
 62
     7
 10
-51.250000000000021
 20
69.113961309221338
 30
0.0
  0
SEQEND
  5
3B4
  8
DATA
  6
CONTINUOUS
 62
     7
  0
LINE
  5
133
  8
DATA
  6
CONTINUOUS
 62
     7
 10
-51.250000000000021
 20
73.75
 30
0.0
 11
-60.749067871826938
 21
73.75
 31
0.0
  0
LINE
  5
134
  8
DATA
  6
CONTINUOUS
 62
     7
 10
-39.082356029311953
 20
61.750672788297429
 30
0.0
 11
-22.917643970688079
 21
61.750672788297429
 31
0.0
  0
LINE
  5
135
  8
DATA
  6
CONTINUOUS
 62
     7
 10
-39.082356029311953
 20
61.750672788297429
 30
0.0
 11
-39.082356029311953
 21
56.750672788297429
 31
0.0
  0
LINE
  5
136
  8
DATA
  6
CONTINUOUS
 62
     7
 10
-22.917643970688079
 20
61.750672788297429
 30
0.0
 11
-22.917643970688079
 21
56.750672788297429
 31
0.0
  0
LINE
  5
137
  8
DATA
  6
CONTINUOUS
 62
     7
 10
-35.749067871826938
 20
73.75
 30
0.0
 11
-35.749067871826938
 21
61.750672788297429
 31
0.0
  0
LINE
  5
138
  8
DATA
  6
CONTINUOUS
 62
     7
 10
-26.250000000000011
 20
73.75
 30
0.0
 11
-26.250000000000011
 21
61.750672788297429
 31
0.0
  0
POLYLINE
  5
139
  8
DATA
  6
CONTINUOUS
 62
     7
 66
     1
 10
0.0
 20
0.0
 30
0.0
  0
VERTEX
  5
3B5
  8
DATA
  6
CONTINUOUS
 62
     7
 10
-35.749067871826938
 20
69.113961309221338
 30
0.0
  0
VERTEX
  5
3B6
  8
DATA
  6
CONTINUOUS
 62
     7
 10
-36.600000000000009
 20
69.113961309221338
 30
0.0
  0
VERTEX
  5
3B7
  8
DATA
  6
CONTINUOUS
 62
     7
 10
-36.600000000000009
 20
70.313961309221327
 30
0.0
  0
VERTEX
  5
3B8
  8
DATA
  6
CONTINUOUS
 62
     7
 10
-35.749067871826938
 20
70.313961309221327
 30
0.0
  0
SEQEND
  5
3B9
  8
DATA
  6
CONTINUOUS
 62
     7
  0
POLYLINE
  5
140
  8
DATA
  6
CONTINUOUS
 62
     7
 66
     1
 10
0.0
 20
0.0
 30
0.0
  0
VERTEX
  5
3BA
  8
DATA
  6
CONTINUOUS
 62
     7
 10
-26.250000000000011
 20
70.313961309221327
 30
0.0
  0
VERTEX
  5
3BB
  8
DATA
  6
CONTINUOUS
 62
     7
 10
-25.40000000000002
 20
70.313961309221327
 30
0.0
  0
VERTEX
  5
3BC
  8
DATA
  6
CONTINUOUS
 62
     7
 10
-25.40000000000002
 20
69.113961309221338
 30
0.0
  0
VERTEX
  5
3BD
  8
DATA
  6
CONTINUOUS
 62
     7
 10
-26.250000000000011
 20
69.113961309221338
 30
0.0
  0
SEQEND
  5
3BE
  8
DATA
  6
CONTINUOUS
 62
     7
  0
LINE
  5
147
  8
DATA
  6
CONTINUOUS
 62
     7
 10
-26.250000000000011
 20
73.75
 30
0.0
 11
-35.749067871826938
 21
73.75
 31
0.0
  0
LINE
  5
148
  8
DATA
  6
CONTINUOUS
 62
     7
 10
2.4999999999999849
 20
61.75
 30
0.0
 11
2.4999999999999849
 21
56.75
 31
0.0
  0
LINE
  5
149
  8
DATA
  6
CONTINUOUS
 62
     7
 10
7.4999999999999867
 20
61.75
 30
0.0
 11
7.4999999999999867
 21
56.75
 31
0.0
  0
LINE
  5
14A
  8
DATA
  6
CONTINUOUS
 62
     7
 10
2.4999999999999849
 20
61.75
 30
0.0
 11
7.4999999999999867
 21
61.75
 31
0.0
  0
LINE
  5
14B
  8
DATA
  6
CONTINUOUS
 62
     7
 10
4.9999999999999849
 20
61.75
 30
0.0
 11
4.9999999999999849
 21
56.75
 31
0.0
  0
LINE
  5
14C
  8
DATA
  6
CONTINUOUS
 62
     7
 10
32.84999999999998
 20
62.75
 30
0.0
 11
41.149999999999991
 21
62.75
 31
0.0
  0
LINE
  5
14D
  8
DATA
  6
CONTINUOUS
 62
     7
 10
46.849999999999973
 20
62.75
 30
0.0
 11
55.149999999999991
 21
62.75
 31
0.0
  0
LINE
  5
14E
  8
DATA
  6
CONTINUOUS
 62
     7
 10
32.84999999999998
 20
62.75
 30
0.0
 11
32.84999999999998
 21
56.75
 31
0.0
  0
LINE
  5
14F
  8
DATA
  6
CONTINUOUS
 62
     7
 10
41.149999999999991
 20
62.75
 30
0.0
 11
41.149999999999991
 21
56.75
 31
0.0
  0
LINE
  5
150
  8
DATA
  6
CONTINUOUS
 62
     7
 10
46.849999999999973
 20
62.75
 30
0.0
 11
46.849999999999973
 21
56.75
 31
0.0
  0
LINE
  5
151
  8
DATA
  6
CONTINUOUS
 62
     7
 10
55.149999999999991
 20
62.75
 30
0.0
 11
55.149999999999991
 21
56.75
 31
0.0
  0
LINE
  5
152
  8
DATA
  6
CONTINUOUS
 62
     7
 10
70.499999999999986
 20
116.74999999980329
 30
0.0
 11
70.499999999999986
 21
127.74999999980329
 31
0.0
  0
LINE
  5
153
  8
DATA
  6
CONTINUOUS
 62
     7
 10
83.499999999999986
 20
116.74999999980329
 30
0.0
 11
70.499999999999986
 21
116.74999999980329
 31
0.0
  0
LINE
  5
154
  8
DATA
  6
CONTINUOUS
 62
     7
 10
83.499999999999986
 20
127.74999999980329
 30
0.0
 11
83.499999999999986
 21
116.74999999980329
 31
0.0
  0
LINE
  5
155
  8
DATA
  6
CONTINUOUS
 62
     7
 10
70.499999999999986
 20
127.74999999980329
 30
0.0
 11
83.499999999999986
 21
127.74999999980329
 31
0.0
  0
CIRCLE
  5
156
  8
DATA
  6
CONTINUOUS
 62
     7
 10
102.0
 20
120.24999999980329
 30
0.0
 40
3.9499999999999988
  0
CIRCLE
  5
157
  8
DATA
  6
CONTINUOUS
 62
     7
 10
102.0
 20
120.24999999980329
 30
0.0
 40
1.0
  0
CIRCLE
  5
158
  8
DATA
  6
CONTINUOUS
 62
     7
 10
102.0
 20
120.24999999980329
 30
0.0
 40
2.8999999999999981
  0
CIRCLE
  5
159
  8
DATA
  6
CONTINUOUS
 62
     7
 10
102.0
 20
120.24999999980329
 30
0.0
 40
5.1499999999999986
  0
POLYLINE
  5
15A
  8
DATA
  6
CONTINUOUS
 62
     7
 66
     1
 10
0.0
 20
0.0
 30
0.0
 70
     1
  0
VERTEX
  5
3BF
  8
DATA
  6
CONTINUOUS
 62
     7
 10
102.0
 20
125.3999999998033
 30
0.0
  0
VERTEX
  5
3C0
  8
DATA
  6
CONTINUOUS
 62
     7
 10
97.539969170510105
 20
122.8249999998033
 30
0.0
  0
VERTEX
  5
3C1
  8
DATA
  6
CONTINUOUS
 62
     7
 10
97.539969170510105
 20
117.6749999998033
 30
0.0
  0
VERTEX
  5
3C2
  8
DATA
  6
CONTINUOUS
 62
     7
 10
102.0
 20
115.0999999998033
 30
0.0
  0
VERTEX
  5
3C3
  8
DATA
  6
CONTINUOUS
 62
     7
 10
106.4600308294898
 20
117.6749999998033
 30
0.0
  0
VERTEX
  5
3C4
  8
DATA
  6
CONTINUOUS
 62
     7
 10
106.4600308294898
 20
122.8249999998033
 30
0.0
  0
SEQEND
  5
3C5
  8
DATA
  6
CONTINUOUS
 62
     7
  0
LINE
  5
163
  8
DATA
  6
CONTINUOUS
 62
     7
 10
105.95
 20
63.75
 30
0.0
 11
98.049999999999983
 21
63.75
 31
0.0
  0
LINE
  5
164
  8
DATA
  6
CONTINUOUS
 62
     7
 10
98.049999999999983
 20
63.75
 30
0.0
 11
98.049999999999983
 21
58.75
 31
0.0
  0
LINE
  5
165
  8
DATA
  6
CONTINUOUS
 62
     7
 10
105.95
 20
63.75
 30
0.0
 11
105.95
 21
58.75
 31
0.0
  0
LINE
  5
166
  8
DATA
  6
CONTINUOUS
 62
     7
 10
107.5
 20
58.75
 30
0.0
 11
107.5
 21
56.75
 31
0.0
  0
LINE
  5
167
  8
DATA
  6
CONTINUOUS
 62
     7
 10
96.499999999999986
 20
56.75
 30
0.0
 11
96.499999999999986
 21
58.75
 31
0.0
  0
LINE
  5
168
  8
DATA
  6
CONTINUOUS
 62
     7
 10
96.499999999999986
 20
58.75
 30
0.0
 11
107.5
 21
58.75
 31
0.0
  0
LINE
  5
169
  8
DATA
  6
CONTINUOUS
 62
     7
 10
98.049999999999983
 20
58.75
 30
0.0
 11
105.95
 21
59.630290837053501
 31
0.0
  0
LINE
  5
16A
  8
DATA
  6
CONTINUOUS
 62
     7
 10
98.049999999999983
 20
60.25
 30
0.0
 11
105.95
 21
61.130290837053508
 31
0.0
  0
LINE
  5
16B
  8
DATA
  6
CONTINUOUS
 62
     7
 10
98.049999999999983
 20
61.75
 30
0.0
 11
105.95
 21
62.630290837053508
 31
0.0
  0
LINE
  5
16C
  8
DATA
  6
CONTINUOUS
 62
     7
 10
98.049999999999983
 20
63.25
 30
0.0
 11
102.53715337447029
 21
63.75
 31
0.0
  0
POLYLINE
  5
16D
  8
DATA
  6
CONTINUOUS
 62
     7
 66
     1
 10
0.0
 20
0.0
 30
0.0
 70
     1
  0
VERTEX
  5
3C6
  8
DATA
  6
CONTINUOUS
 62
     7
 10
74.035728336184945
 20
123.74999999980329
 30
0.0
  0
VERTEX
  5
3C7
  8
DATA
  6
CONTINUOUS
 62
     7
 10
79.535728336184945
 20
123.74999999980329
 30
0.0
  0
VERTEX
  5
3C8
  8
DATA
  6
CONTINUOUS
 62
     7
 10
79.535728336184945
 20
120.74999999980329
 30
0.0
  0
VERTEX
  5
3C9
  8
DATA
  6
CONTINUOUS
 62
     7
 10
74.035728336184945
 20
120.74999999980329
 30
0.0
  0
SEQEND
  5
3CA
  8
DATA
  6
CONTINUOUS
 62
     7
  0
LINE
  5
174
  8
DATA
  6
CONTINUOUS
 62
     7
 10
72.200000000000003
 20
126.0499999998033
 30
0.0
 11
81.799999999999969
 21
126.0499999998033
 31
0.0
  0
LINE
  5
175
  8
DATA
  6
CONTINUOUS
 62
     7
 10
72.200000000000003
 20
119.74999999980329
 30
0.0
 11
72.200000000000003
 21
126.0499999998033
 31
0.0
  0
LINE
  5
176
  8
DATA
  6
CONTINUOUS
 62
     7
 10
81.799999999999969
 20
126.0499999998033
 30
0.0
 11
81.799999999999969
 21
119.74999999980329
 31
0.0
  0
LINE
  5
177
  8
DATA
  6
CONTINUOUS
 62
     7
 10
80.299999999999983
 20
118.24999999980329
 30
0.0
 11
73.699999999999974
 21
118.24999999980329
 31
0.0
  0
LINE
  5
178
  8
DATA
  6
CONTINUOUS
 62
     7
 10
73.699999999999974
 20
118.24999999980329
 30
0.0
 11
72.199999999999974
 21
119.74999999980329
 31
0.0
  0
LINE
  5
179
  8
DATA
  6
CONTINUOUS
 62
     7
 10
80.299999999999983
 20
118.24999999980329
 30
0.0
 11
81.799999999999969
 21
119.74999999980329
 31
0.0
  0
TEXT
  5
17A
  8
DATA
 62
     7
 10
106.1911219721314
 20
133.92379138058669
 30
0.0
 40
2.7147352430555549
  1
5V DC
 50
180.0
 41
0.7
 11
106.1911219721314
 21
131.20905613753109
 31
0.0
 73
     3
  0
TEXT
  5
17B
  8
DATA
 62
     7
 10
11.4874923565618
 20
133.99588275876849
 30
0.0
 40
2.7147352430555549
  1
HDMI In
 50
180.0
 41
0.7
 11
11.4874923565618
 21
131.281147515713
 31
0.0
 73
     3
  0
TEXT
  5
17C
  8
DATA
 62
     7
 10
79.670651206329737
 20
133.92379138058669
 30
0.0
 40
2.7147352430555549
  1
USB
 50
180.0
 41
0.7
 11
79.670651206329737
 21
131.20905613753109
 31
0.0
 73
     3
  0
TEXT
  5
17D
  8
DATA
 62
     7
 10
52.306676615310543
 20
133.92379138058669
 30
0.0
 40
2.7147352430555549
  1
L
 50
180.0
 41
0.7
 11
52.306676615310543
 21
131.20905613753109
 31
0.0
 73
     3
  0
TEXT
  5
17E
  8
DATA
 62
     7
 10
38.371307836938271
 20
133.92379138058669
 30
0.0
 40
2.7147352430555549
  1
R
 50
180.0
 41
0.7
 11
38.371307836938271
 21
131.20905613753109
 31
0.0
 73
     3
  0
TEXT
  5
17F
  8
DATA
 62
     7
 10
-26.350051826640328
 20
133.99588275876849
 30
0.0
 40
2.7147352430555549
  1
Out A
 50
180.0
 41
0.7
 11
-26.350051826640328
 21
131.281147515713
 31
0.0
 73
     3
  0
TEXT
  5
180
  8
DATA
 62
     7
 10
-51.002948963116069
 20
133.99588275876849
 30
0.0
 40
2.7147352430555549
  1
Out B
 50
180.0
 41
0.7
 11
-51.002948963116069
 21
131.281147515713
 31
0.0
 73
     3
  0
TEXT
  5
181
  8
DATA
 62
     7
 10
-39.249715695162919
 20
111.46154539749379
 30
0.0
 40
2.7147352430555549
  1
3GSDI
 50
180.0
 41
0.7
 11
-39.249715695162919
 21
108.74681015443829
 31
0.0
 73
     3
  0
LINE
  5
182
  8
DATA
  6
CONTINUOUS
 62
     7
 10
-75.000000000000014
 20
275.50000000015439
 30
0.0
 11
-75.000000000000014
 21
187.50000000015439
 31
0.0
  0
LINE
  5
183
  8
DATA
  6
CONTINUOUS
 62
     7
 10
117.0
 20
275.50000000015439
 30
0.0
 11
-75.000000000000014
 21
275.50000000015439
 31
0.0
  0
LINE
  5
184
  8
DATA
  6
CONTINUOUS
 62
     7
 10
117.0
 20
275.50000000015439
 30
0.0
 11
117.0
 21
187.50000000015439
 31
0.0
  0
LINE
  5
185
  8
DATA
  6
CONTINUOUS
 62
     7
 10
-75.000000000000014
 20
187.50000000015439
 30
0.0
 11
117.0
 21
187.50000000015439
 31
0.0
  0
ARC
  5
186
  8
DATA
  6
CONTINUOUS
 62
     7
 10
-55.000000000000021
 20
275.50000000015439
 30
0.0
 40
1.5
 50
0.0
 51
180.0
  0
ARC
  5
187
  8
DATA
  6
CONTINUOUS
 62
     7
 10
-10.000000000000011
 20
275.50000000015439
 30
0.0
 40
1.5
 50
0.0
 51
180.0
  0
ARC
  5
188
  8
DATA
  6
CONTINUOUS
 62
     7
 10
101.5
 20
275.50000000015439
 30
0.0
 40
1.5
 50
0.0
 51
180.0
  0
LINE
  5
189
  8
DATA
  6
CONTINUOUS
 62
     7
 10
102.0
 20
187.50000000015439
 30
0.0
 11
102.0
 21
185.50000000015439
 31
0.0
  0
LINE
  5
18A
  8
DATA
  6
CONTINUOUS
 62
     7
 10
-64.082356029311953
 20
182.49932721185689
 30
0.0
 11
-47.917643970688069
 21
182.49932721185689
 31
0.0
  0
LINE
  5
18B
  8
DATA
  6
CONTINUOUS
 62
     7
 10
-64.082356029311953
 20
182.49932721185689
 30
0.0
 11
-64.082356029311953
 21
187.49932721185689
 31
0.0
  0
LINE
  5
18C
  8
DATA
  6
CONTINUOUS
 62
     7
 10
-47.917643970688069
 20
182.49932721185689
 30
0.0
 11
-47.917643970688069
 21
187.49932721185689
 31
0.0
  0
LINE
  5
18D
  8
DATA
  6
CONTINUOUS
 62
     7
 10
-60.749067871826938
 20
170.50000000015439
 30
0.0
 11
-60.749067871826938
 21
182.49932721185689
 31
0.0
  0
LINE
  5
18E
  8
DATA
  6
CONTINUOUS
 62
     7
 10
-51.250000000000021
 20
170.50000000015439
 30
0.0
 11
-51.250000000000021
 21
182.49932721185689
 31
0.0
  0
POLYLINE
  5
18F
  8
DATA
  6
CONTINUOUS
 62
     7
 66
     1
 10
0.0
 20
0.0
 30
0.0
  0
VERTEX
  5
3CB
  8
DATA
  6
CONTINUOUS
 62
     7
 10
-60.749067871826938
 20
175.13603869093311
 30
0.0
  0
VERTEX
  5
3CC
  8
DATA
  6
CONTINUOUS
 62
     7
 10
-61.600000000000009
 20
175.13603869093311
 30
0.0
  0
VERTEX
  5
3CD
  8
DATA
  6
CONTINUOUS
 62
     7
 10
-61.600000000000009
 20
173.936038690933
 30
0.0
  0
VERTEX
  5
3CE
  8
DATA
  6
CONTINUOUS
 62
     7
 10
-60.749067871826938
 20
173.936038690933
 30
0.0
  0
SEQEND
  5
3CF
  8
DATA
  6
CONTINUOUS
 62
     7
  0
POLYLINE
  5
196
  8
DATA
  6
CONTINUOUS
 62
     7
 66
     1
 10
0.0
 20
0.0
 30
0.0
  0
VERTEX
  5
3D0
  8
DATA
  6
CONTINUOUS
 62
     7
 10
-51.250000000000021
 20
173.936038690933
 30
0.0
  0
VERTEX
  5
3D1
  8
DATA
  6
CONTINUOUS
 62
     7
 10
-50.40000000000002
 20
173.936038690933
 30
0.0
  0
VERTEX
  5
3D2
  8
DATA
  6
CONTINUOUS
 62
     7
 10
-50.40000000000002
 20
175.13603869093311
 30
0.0
  0
VERTEX
  5
3D3
  8
DATA
  6
CONTINUOUS
 62
     7
 10
-51.250000000000021
 20
175.13603869093311
 30
0.0
  0
SEQEND
  5
3D4
  8
DATA
  6
CONTINUOUS
 62
     7
  0
LINE
  5
19D
  8
DATA
  6
CONTINUOUS
 62
     7
 10
-51.250000000000021
 20
170.50000000015439
 30
0.0
 11
-60.749067871826938
 21
170.50000000015439
 31
0.0
  0
LINE
  5
19E
  8
DATA
  6
CONTINUOUS
 62
     7
 10
-39.082356029311953
 20
182.49932721185689
 30
0.0
 11
-22.917643970688079
 21
182.49932721185689
 31
0.0
  0
LINE
  5
19F
  8
DATA
  6
CONTINUOUS
 62
     7
 10
-39.082356029311953
 20
182.49932721185689
 30
0.0
 11
-39.082356029311953
 21
187.49932721185689
 31
0.0
  0
LINE
  5
1A0
  8
DATA
  6
CONTINUOUS
 62
     7
 10
-22.917643970688079
 20
182.49932721185689
 30
0.0
 11
-22.917643970688079
 21
187.49932721185689
 31
0.0
  0
LINE
  5
1A1
  8
DATA
  6
CONTINUOUS
 62
     7
 10
-35.749067871826938
 20
170.50000000015439
 30
0.0
 11
-35.749067871826938
 21
182.49932721185689
 31
0.0
  0
LINE
  5
1A2
  8
DATA
  6
CONTINUOUS
 62
     7
 10
-26.250000000000011
 20
170.50000000015439
 30
0.0
 11
-26.250000000000011
 21
182.49932721185689
 31
0.0
  0
POLYLINE
  5
1A3
  8
DATA
  6
CONTINUOUS
 62
     7
 66
     1
 10
0.0
 20
0.0
 30
0.0
  0
VERTEX
  5
3D5
  8
DATA
  6
CONTINUOUS
 62
     7
 10
-35.749067871826938
 20
175.13603869093311
 30
0.0
  0
VERTEX
  5
3D6
  8
DATA
  6
CONTINUOUS
 62
     7
 10
-36.600000000000009
 20
175.13603869093311
 30
0.0
  0
VERTEX
  5
3D7
  8
DATA
  6
CONTINUOUS
 62
     7
 10
-36.600000000000009
 20
173.936038690933
 30
0.0
  0
VERTEX
  5
3D8
  8
DATA
  6
CONTINUOUS
 62
     7
 10
-35.749067871826938
 20
173.936038690933
 30
0.0
  0
SEQEND
  5
3D9
  8
DATA
  6
CONTINUOUS
 62
     7
  0
POLYLINE
  5
1AA
  8
DATA
  6
CONTINUOUS
 62
     7
 66
     1
 10
0.0
 20
0.0
 30
0.0
  0
VERTEX
  5
3DA
  8
DATA
  6
CONTINUOUS
 62
     7
 10
-26.250000000000011
 20
173.936038690933
 30
0.0
  0
VERTEX
  5
3DB
  8
DATA
  6
CONTINUOUS
 62
     7
 10
-25.40000000000002
 20
173.936038690933
 30
0.0
  0
VERTEX
  5
3DC
  8
DATA
  6
CONTINUOUS
 62
     7
 10
-25.40000000000002
 20
175.13603869093311
 30
0.0
  0
VERTEX
  5
3DD
  8
DATA
  6
CONTINUOUS
 62
     7
 10
-26.250000000000011
 20
175.13603869093311
 30
0.0
  0
SEQEND
  5
3DE
  8
DATA
  6
CONTINUOUS
 62
     7
  0
LINE
  5
1B1
  8
DATA
  6
CONTINUOUS
 62
     7
 10
-26.250000000000011
 20
170.50000000015439
 30
0.0
 11
-35.749067871826938
 21
170.50000000015439
 31
0.0
  0
LINE
  5
1B2
  8
DATA
  6
CONTINUOUS
 62
     7
 10
2.4999999999999849
 20
182.50000000015439
 30
0.0
 11
2.4999999999999849
 21
187.50000000015439
 31
0.0
  0
LINE
  5
1B3
  8
DATA
  6
CONTINUOUS
 62
     7
 10
7.4999999999999867
 20
182.50000000015439
 30
0.0
 11
7.4999999999999867
 21
187.50000000015439
 31
0.0
  0
LINE
  5
1B4
  8
DATA
  6
CONTINUOUS
 62
     7
 10
2.4999999999999849
 20
182.50000000015439
 30
0.0
 11
7.4999999999999867
 21
182.50000000015439
 31
0.0
  0
LINE
  5
1B5
  8
DATA
  6
CONTINUOUS
 62
     7
 10
4.9999999999999849
 20
182.50000000015439
 30
0.0
 11
4.9999999999999849
 21
187.50000000015439
 31
0.0
  0
LINE
  5
1B6
  8
DATA
  6
CONTINUOUS
 62
     7
 10
32.84999999999998
 20
181.50000000015439
 30
0.0
 11
41.149999999999991
 21
181.50000000015439
 31
0.0
  0
LINE
  5
1B7
  8
DATA
  6
CONTINUOUS
 62
     7
 10
46.849999999999973
 20
181.50000000015439
 30
0.0
 11
55.149999999999991
 21
181.50000000015439
 31
0.0
  0
LINE
  5
1B8
  8
DATA
  6
CONTINUOUS
 62
     7
 10
32.84999999999998
 20
181.50000000015439
 30
0.0
 11
32.84999999999998
 21
187.50000000015439
 31
0.0
  0
LINE
  5
1B9
  8
DATA
  6
CONTINUOUS
 62
     7
 10
41.149999999999991
 20
181.50000000015439
 30
0.0
 11
41.149999999999991
 21
187.50000000015439
 31
0.0
  0
LINE
  5
1BA
  8
DATA
  6
CONTINUOUS
 62
     7
 10
46.849999999999973
 20
181.50000000015439
 30
0.0
 11
46.849999999999973
 21
187.50000000015439
 31
0.0
  0
LINE
  5
1BB
  8
DATA
  6
CONTINUOUS
 62
     7
 10
55.149999999999991
 20
181.50000000015439
 30
0.0
 11
55.149999999999991
 21
187.50000000015439
 31
0.0
  0
LINE
  5
1BC
  8
DATA
  6
CONTINUOUS
 62
     7
 10
105.95
 20
180.50000000015439
 30
0.0
 11
98.049999999999983
 21
180.50000000015439
 31
0.0
  0
LINE
  5
1BD
  8
DATA
  6
CONTINUOUS
 62
     7
 10
98.049999999999983
 20
180.50000000015439
 30
0.0
 11
98.049999999999983
 21
185.50000000015439
 31
0.0
  0
LINE
  5
1BE
  8
DATA
  6
CONTINUOUS
 62
     7
 10
105.95
 20
180.50000000015439
 30
0.0
 11
105.95
 21
185.50000000015439
 31
0.0
  0
LINE
  5
1BF
  8
DATA
  6
CONTINUOUS
 62
     7
 10
107.5
 20
185.50000000015439
 30
0.0
 11
107.5
 21
187.50000000015439
 31
0.0
  0
LINE
  5
1C0
  8
DATA
  6
CONTINUOUS
 62
     7
 10
96.499999999999986
 20
187.50000000015439
 30
0.0
 11
96.499999999999986
 21
185.50000000015439
 31
0.0
  0
LINE
  5
1C1
  8
DATA
  6
CONTINUOUS
 62
     7
 10
96.499999999999986
 20
185.50000000015439
 30
0.0
 11
107.5
 21
185.50000000015439
 31
0.0
  0
LINE
  5
1C2
  8
DATA
  6
CONTINUOUS
 62
     7
 10
98.049999999999983
 20
185.50000000015439
 30
0.0
 11
105.95
 21
184.61970916310091
 31
0.0
  0
LINE
  5
1C3
  8
DATA
  6
CONTINUOUS
 62
     7
 10
98.049999999999983
 20
184.00000000015439
 30
0.0
 11
105.95
 21
183.11970916310079
 31
0.0
  0
LINE
  5
1C4
  8
DATA
  6
CONTINUOUS
 62
     7
 10
98.049999999999983
 20
182.50000000015439
 30
0.0
 11
105.95
 21
181.61970916310091
 31
0.0
  0
LINE
  5
1C5
  8
DATA
  6
CONTINUOUS
 62
     7
 10
98.049999999999983
 20
181.00000000015439
 30
0.0
 11
102.53715337447029
 21
180.50000000015439
 31
0.0
  0
LINE
  5
1C6
  8
DATA
  6
CONTINUOUS
 62
     7
 10
-75.000000000000014
 20
199.50000000015439
 30
0.0
 11
117.0
 21
199.50000000015439
 31
0.0
  0
CIRCLE
  5
1C7
  8
DATA
  6
CONTINUOUS
 62
     7
 10
-64.000000000000014
 20
207.50000000015439
 30
0.0
 40
6.0
  0
CIRCLE
  5
1C8
  8
DATA
  6
CONTINUOUS
 62
     7
 10
-64.000000000000014
 20
207.50000000015439
 30
0.0
 40
5.5
  0
CIRCLE
  5
1C9
  8
DATA
  6
CONTINUOUS
 62
     7
 10
106.0
 20
207.50000000015439
 30
0.0
 40
6.0
  0
CIRCLE
  5
1CA
  8
DATA
  6
CONTINUOUS
 62
     7
 10
106.0
 20
207.50000000015439
 30
0.0
 40
5.5
  0
CIRCLE
  5
1CB
  8
DATA
  6
CONTINUOUS
 62
     7
 10
106.0
 20
264.5000000001545
 30
0.0
 40
6.0
  0
CIRCLE
  5
1CC
  8
DATA
  6
CONTINUOUS
 62
     7
 10
106.0
 20
264.5000000001545
 30
0.0
 40
5.5
  0
CIRCLE
  5
1CD
  8
DATA
  6
CONTINUOUS
 62
     7
 10
-64.000000000000014
 20
264.5000000001545
 30
0.0
 40
6.0
  0
CIRCLE
  5
1CE
  8
DATA
  6
CONTINUOUS
 62
     7
 10
-64.000000000000014
 20
264.5000000001545
 30
0.0
 40
5.5
  0
CIRCLE
  5
1CF
  8
DATA
  6
CONTINUOUS
 62
     7
 10
-55.000000000000021
 20
194.50000000015439
 30
0.0
 40
2.5
  0
LINE
  5
1D0
  8
DATA
  6
CONTINUOUS
 62
     7
 10
-55.000000000000021
 20
193.25000000015439
 30
0.0
 11
-55.000000000000021
 21
195.75000000015439
 31
0.0
  0
LINE
  5
1D1
  8
DATA
  6
CONTINUOUS
 62
     7
 10
-53.750000000000021
 20
194.50000000015439
 30
0.0
 11
-56.250000000000021
 21
194.50000000015439
 31
0.0
  0
CIRCLE
  5
1D2
  8
DATA
  6
CONTINUOUS
 62
     7
 10
96.999999999999986
 20
194.50000000015439
 30
0.0
 40
2.5
  0
LINE
  5
1D3
  8
DATA
  6
CONTINUOUS
 62
     7
 10
96.999999999999986
 20
193.25000000015439
 30
0.0
 11
96.999999999999986
 21
195.75000000015439
 31
0.0
  0
LINE
  5
1D4
  8
DATA
  6
CONTINUOUS
 62
     7
 10
98.249999999999986
 20
194.50000000015439
 30
0.0
 11
95.749999999999986
 21
194.50000000015439
 31
0.0
  0
CIRCLE
  5
1D5
  8
DATA
  6
CONTINUOUS
 62
     7
 10
20.999999999999979
 20
194.50000000015439
 30
0.0
 40
2.5
  0
LINE
  5
1D6
  8
DATA
  6
CONTINUOUS
 62
     7
 10
20.999999999999979
 20
193.25000000015439
 30
0.0
 11
20.999999999999979
 21
195.75000000015439
 31
0.0
  0
LINE
  5
1D7
  8
DATA
  6
CONTINUOUS
 62
     7
 10
22.249999999999989
 20
194.50000000015439
 30
0.0
 11
19.749999999999979
 21
194.50000000015439
 31
0.0
  0
LINE
  5
1D8
  8
DATA
  6
CONTINUOUS
 62
     7
 10
-73.40000000000002
 20
199.50000000015439
 30
0.0
 11
-73.40000000000002
 21
268.0000000001545
 31
0.0
  0
LINE
  5
1D9
  8
DATA
  6
CONTINUOUS
 62
     7
 10
115.40000000000001
 20
199.50000000015439
 30
0.0
 11
115.40000000000001
 21
268.0000000001545
 31
0.0
  0
LINE
  5
1DA
  8
DATA
  6
CONTINUOUS
 62
     7
 10
-73.40000000000002
 20
268.0000000001545
 30
0.0
 11
-75.000000000000014
 21
268.0000000001545
 31
0.0
  0
LINE
  5
1DB
  8
DATA
  6
CONTINUOUS
 62
     7
 10
115.40000000000001
 20
268.0000000001545
 30
0.0
 11
117.0
 21
268.0000000001545
 31
0.0
  0
LINE
  5
1DC
  8
DATA
  6
CONTINUOUS
 62
     7
 10
34.999999999999993
 20
256.50000000015439
 30
0.0
 11
34.999999999999993
 21
215.50000000015439
 31
0.0
  0
LINE
  5
1DD
  8
DATA
  6
CONTINUOUS
 62
     7
 10
41.549999999999983
 20
256.50000000015439
 30
0.0
 11
41.549999999999983
 21
215.50000000015439
 31
0.0
  0
LINE
  5
1DE
  8
DATA
  6
CONTINUOUS
 62
     7
 10
34.999999999999993
 20
256.50000000015439
 30
0.0
 11
41.549999999999983
 21
256.50000000015439
 31
0.0
  0
LINE
  5
1DF
  8
DATA
  6
CONTINUOUS
 62
     7
 10
34.999999999999993
 20
215.50000000015439
 30
0.0
 11
41.549999999999983
 21
215.50000000015439
 31
0.0
  0
TEXT
  5
1E0
  8
DATA
 62
     7
 10
29.54476225441471
 20
257.94916666666671
 30
0.0
 40
4.072102864583333
  1
ON
 41
0.7
 11
29.54476225441471
 21
262.02126953125003
 31
0.0
 73
     3
  0
TEXT
  5
1E1
  8
DATA
 62
     7
 10
41.28197303886764
 20
257.94916666666671
 30
0.0
 40
4.072102864583333
  1
OFF
 41
0.7
 11
41.28197303886764
 21
262.02126953125003
 31
0.0
 73
     3
  0
TEXT
  5
1E2
  8
DATA
 62
     7
 10
43.75
 20
244.1113895143597
 30
0.0
 40
2.4432617187500001
  1
RGB
 41
0.7
 11
43.75
 21
246.55465123310969
 31
0.0
 73
     3
  0
TEXT
  5
1E3
  8
DATA
 62
     7
 10
43.75
 20
234.8151350710319
 30
0.0
 40
2.4432617187500001
  1
444
 41
0.7
 11
43.75
 21
237.25839678978201
 31
0.0
 73
     3
  0
TEXT
  5
1E4
  8
DATA
 62
     7
 10
26.021851553453871
 20
252.70475681083411
 30
0.0
 40
2.4432617187500001
  1
HDCP
 41
0.7
 11
26.021851553453871
 21
255.14801852958411
 31
0.0
 73
     3
  0
TEXT
  5
1E5
  8
DATA
 62
     7
 10
26.021851553453871
 20
243.58537333558519
 30
0.0
 40
2.4432617187500001
  1
YCbCr
 41
0.7
 11
26.021851553453871
 21
246.02863505433521
 31
0.0
 73
     3
  0
TEXT
  5
1E6
  8
DATA
 62
     7
 10
26.021851553453871
 20
234.95169264843221
 30
0.0
 40
2.4432617187500001
  1
422
 41
0.7
 11
26.021851553453871
 21
237.39495436718221
 31
0.0
 73
     3
  0
TEXT
  5
1E7
  8
DATA
 62
     7
 10
26.021851553453871
 20
219.6782029493225
 30
0.0
 40
2.4432617187500001
  1
DEEP
 41
0.7
 11
26.021851553453871
 21
222.1214646680726
 31
0.0
 73
     3
  0
TEXT
  5
1E8
  8
DATA
 62
     7
 10
26.021851553453871
 20
216.23748895134921
 30
0.0
 40
2.4432617187500001
  1
COLOR
 41
0.7
 11
26.021851553453871
 21
218.6807506700992
 31
0.0
 73
     3
  0
TEXT
  5
1E9
  8
DATA
 62
     7
 10
20.978614928968049
 20
232.397569312847
 30
0.0
 40
2.4432617187500001
  1
INPUT
 50
90.0
 41
0.7
 11
18.535353210218041
 21
232.397569312847
 31
0.0
 73
     3
  0
LINE
  5
1EA
  8
DATA
  6
CONTINUOUS
 62
     7
 10
19.72172630327395
 20
252.2000000001544
 30
0.0
 11
19.72172630327395
 21
241.5134503262214
 31
0.0
  0
LINE
  5
1EB
  8
DATA
  6
CONTINUOUS
 62
     7
 10
19.72172630327395
 20
219.8000000001544
 30
0.0
 11
19.72172630327395
 21
230.48654967408751
 31
0.0
  0
LINE
  5
1EC
  8
DATA
  6
CONTINUOUS
 62
     7
 10
21.521726303273951
 20
254.00000000015439
 30
0.0
 11
22.232019253398331
 21
254.00000000015439
 31
0.0
  0
LINE
  5
1ED
  8
DATA
  6
CONTINUOUS
 62
     7
 10
21.521726303273951
 20
218.00000000015439
 30
0.0
 11
22.232019253398331
 21
218.00000000015439
 31
0.0
  0
ARC
  5
1EE
  8
DATA
  6
CONTINUOUS
 62
     7
 10
21.521726303273951
 20
252.2000000001544
 30
0.0
 40
1.8000000000000109
 50
90.0
 51
179.9999999999996
  0
ARC
  5
1EF
  8
DATA
  6
CONTINUOUS
 62
     7
 10
21.52172630327394
 20
219.8000000001544
 30
0.0
 40
1.7999999999999821
 50
180.0
 51
270.0000000000004
  0
LINE
  5
1F0
  8
DATA
  6
CONTINUOUS
 62
     7
 10
88.999999999999986
 20
247.50000000015439
 30
0.0
 11
88.999999999999986
 21
225.50000000015439
 31
0.0
  0
LINE
  5
1F1
  8
DATA
  6
CONTINUOUS
 62
     7
 10
82.099999999999994
 20
247.50000000015439
 30
0.0
 11
82.099999999999994
 21
225.50000000015439
 31
0.0
  0
LINE
  5
1F2
  8
DATA
  6
CONTINUOUS
 62
     7
 10
88.999999999999986
 20
247.50000000015439
 30
0.0
 11
82.099999999999994
 21
247.50000000015439
 31
0.0
  0
LINE
  5
1F3
  8
DATA
  6
CONTINUOUS
 62
     7
 10
88.999999999999986
 20
225.50000000015439
 30
0.0
 11
82.099999999999994
 21
225.50000000015439
 31
0.0
  0
POLYLINE
  5
1F4
  8
DATA
  6
CONTINUOUS
 62
     7
 66
     1
 10
0.0
 20
0.0
 30
0.0
 70
     1
  0
VERTEX
  5
3DF
  8
DATA
  6
CONTINUOUS
 62
     7
 10
84.399999999999963
 20
245.74366533355581
 30
0.0
  0
VERTEX
  5
3E0
  8
DATA
  6
CONTINUOUS
 62
     7
 10
86.699999999999989
 20
245.74366533355581
 30
0.0
  0
VERTEX
  5
3E1
  8
DATA
  6
CONTINUOUS
 62
     7
 10
86.699999999999989
 20
244.54366533355579
 30
0.0
  0
VERTEX
  5
3E2
  8
DATA
  6
CONTINUOUS
 62
     7
 10
84.399999999999963
 20
244.54366533355579
 30
0.0
  0
SEQEND
  5
3E3
  8
DATA
  6
CONTINUOUS
 62
     7
  0
POLYLINE
  5
1FB
  8
DATA
  6
CONTINUOUS
 62
     7
 66
     1
 10
0.0
 20
0.0
 30
0.0
 70
     1
  0
VERTEX
  5
3E4
  8
DATA
  6
CONTINUOUS
 62
     7
 10
84.399999999999963
 20
243.24366533355581
 30
0.0
  0
VERTEX
  5
3E5
  8
DATA
  6
CONTINUOUS
 62
     7
 10
86.699999999999989
 20
243.24366533355581
 30
0.0
  0
VERTEX
  5
3E6
  8
DATA
  6
CONTINUOUS
 62
     7
 10
86.699999999999989
 20
242.04366533355579
 30
0.0
  0
VERTEX
  5
3E7
  8
DATA
  6
CONTINUOUS
 62
     7
 10
84.399999999999963
 20
242.04366533355579
 30
0.0
  0
SEQEND
  5
3E8
  8
DATA
  6
CONTINUOUS
 62
     7
  0
POLYLINE
  5
202
  8
DATA
  6
CONTINUOUS
 62
     7
 66
     1
 10
0.0
 20
0.0
 30
0.0
 70
     1
  0
VERTEX
  5
3E9
  8
DATA
  6
CONTINUOUS
 62
     7
 10
84.399999999999963
 20
240.74366533355581
 30
0.0
  0
VERTEX
  5
3EA
  8
DATA
  6
CONTINUOUS
 62
     7
 10
86.699999999999989
 20
240.74366533355581
 30
0.0
  0
VERTEX
  5
3EB
  8
DATA
  6
CONTINUOUS
 62
     7
 10
86.699999999999989
 20
239.54366533355579
 30
0.0
  0
VERTEX
  5
3EC
  8
DATA
  6
CONTINUOUS
 62
     7
 10
84.399999999999963
 20
239.54366533355579
 30
0.0
  0
SEQEND
  5
3ED
  8
DATA
  6
CONTINUOUS
 62
     7
  0
POLYLINE
  5
209
  8
DATA
  6
CONTINUOUS
 62
     7
 66
     1
 10
0.0
 20
0.0
 30
0.0
 70
     1
  0
VERTEX
  5
3EE
  8
DATA
  6
CONTINUOUS
 62
     7
 10
84.399999999999963
 20
238.24366533355581
 30
0.0
  0
VERTEX
  5
3EF
  8
DATA
  6
CONTINUOUS
 62
     7
 10
86.699999999999989
 20
238.24366533355581
 30
0.0
  0
VERTEX
  5
3F0
  8
DATA
  6
CONTINUOUS
 62
     7
 10
86.699999999999989
 20
237.04366533355579
 30
0.0
  0
VERTEX
  5
3F1
  8
DATA
  6
CONTINUOUS
 62
     7
 10
84.399999999999963
 20
237.04366533355579
 30
0.0
  0
SEQEND
  5
3F2
  8
DATA
  6
CONTINUOUS
 62
     7
  0
POLYLINE
  5
210
  8
DATA
  6
CONTINUOUS
 62
     7
 66
     1
 10
0.0
 20
0.0
 30
0.0
 70
     1
  0
VERTEX
  5
3F3
  8
DATA
  6
CONTINUOUS
 62
     7
 10
84.399999999999963
 20
235.74366533355581
 30
0.0
  0
VERTEX
  5
3F4
  8
DATA
  6
CONTINUOUS
 62
     7
 10
86.699999999999989
 20
235.74366533355581
 30
0.0
  0
VERTEX
  5
3F5
  8
DATA
  6
CONTINUOUS
 62
     7
 10
86.699999999999989
 20
234.54366533355579
 30
0.0
  0
VERTEX
  5
3F6
  8
DATA
  6
CONTINUOUS
 62
     7
 10
84.399999999999963
 20
234.54366533355579
 30
0.0
  0
SEQEND
  5
3F7
  8
DATA
  6
CONTINUOUS
 62
     7
  0
POLYLINE
  5
217
  8
DATA
  6
CONTINUOUS
 62
     7
 66
     1
 10
0.0
 20
0.0
 30
0.0
 70
     1
  0
VERTEX
  5
3F8
  8
DATA
  6
CONTINUOUS
 62
     7
 10
84.399999999999963
 20
233.24366533355581
 30
0.0
  0
VERTEX
  5
3F9
  8
DATA
  6
CONTINUOUS
 62
     7
 10
86.699999999999989
 20
233.24366533355581
 30
0.0
  0
VERTEX
  5
3FA
  8
DATA
  6
CONTINUOUS
 62
     7
 10
86.699999999999989
 20
232.04366533355579
 30
0.0
  0
VERTEX
  5
3FB
  8
DATA
  6
CONTINUOUS
 62
     7
 10
84.399999999999963
 20
232.04366533355579
 30
0.0
  0
SEQEND
  5
3FC
  8
DATA
  6
CONTINUOUS
 62
     7
  0
POLYLINE
  5
21E
  8
DATA
  6
CONTINUOUS
 62
     7
 66
     1
 10
0.0
 20
0.0
 30
0.0
 70
     1
  0
VERTEX
  5
3FD
  8
DATA
  6
CONTINUOUS
 62
     7
 10
84.399999999999963
 20
230.74366533355581
 30
0.0
  0
VERTEX
  5
3FE
  8
DATA
  6
CONTINUOUS
 62
     7
 10
86.699999999999989
 20
230.74366533355581
 30
0.0
  0
VERTEX
  5
3FF
  8
DATA
  6
CONTINUOUS
 62
     7
 10
86.699999999999989
 20
229.54366533355579
 30
0.0
  0
VERTEX
  5
400
  8
DATA
  6
CONTINUOUS
 62
     7
 10
84.399999999999963
 20
229.54366533355579
 30
0.0
  0
SEQEND
  5
401
  8
DATA
  6
CONTINUOUS
 62
     7
  0
POLYLINE
  5
225
  8
DATA
  6
CONTINUOUS
 62
     7
 66
     1
 10
0.0
 20
0.0
 30
0.0
 70
     1
  0
VERTEX
  5
402
  8
DATA
  6
CONTINUOUS
 62
     7
 10
84.399999999999963
 20
228.24366533355581
 30
0.0
  0
VERTEX
  5
403
  8
DATA
  6
CONTINUOUS
 62
     7
 10
86.699999999999989
 20
228.24366533355581
 30
0.0
  0
VERTEX
  5
404
  8
DATA
  6
CONTINUOUS
 62
     7
 10
86.699999999999989
 20
227.04366533355579
 30
0.0
  0
VERTEX
  5
405
  8
DATA
  6
CONTINUOUS
 62
     7
 10
84.399999999999963
 20
227.04366533355579
 30
0.0
  0
SEQEND
  5
406
  8
DATA
  6
CONTINUOUS
 62
     7
  0
TEXT
  5
22C
  8
DATA
 62
     7
 10
87.092885249839483
 20
246.07585264188771
 30
0.0
 40
0.8144205729166666
  1
ON
 50
270.0
 41
0.7
 11
87.907305822756143
 21
246.07585264188771
 31
0.0
 73
     3
  0
TEXT
  5
22D
  8
DATA
 62
     7
 10
82.986244117244865
 20
245.44238712649189
 30
0.0
 40
0.8144205729166666
  1
1
 50
270.0
 41
0.7
 11
83.800664690161554
 21
245.44238712649189
 31
0.0
 73
     3
  0
TEXT
  5
22E
  8
DATA
 62
     7
 10
82.986244117244865
 20
242.94238712649189
 30
0.0
 40
0.8144205729166666
  1
2
 50
270.0
 41
0.7
 11
83.800664690161554
 21
242.94238712649189
 31
0.0
 73
     3
  0
TEXT
  5
22F
  8
DATA
 62
     7
 10
82.986244117244865
 20
240.44238712649189
 30
0.0
 40
0.8144205729166666
  1
3
 50
270.0
 41
0.7
 11
83.800664690161554
 21
240.44238712649189
 31
0.0
 73
     3
  0
TEXT
  5
230
  8
DATA
 62
     7
 10
82.986244117244865
 20
237.94238712649181
 30
0.0
 40
0.8144205729166666
  1
4
 50
270.0
 41
0.7
 11
83.800664690161554
 21
237.94238712649181
 31
0.0
 73
     3
  0
TEXT
  5
231
  8
DATA
 62
     7
 10
82.986244117244865
 20
235.44238712649189
 30
0.0
 40
0.8144205729166666
  1
5
 50
270.0
 41
0.7
 11
83.800664690161554
 21
235.44238712649189
 31
0.0
 73
     3
  0
TEXT
  5
232
  8
DATA
 62
     7
 10
82.986244117244865
 20
232.94238712649189
 30
0.0
 40
0.8144205729166666
  1
6
 50
270.0
 41
0.7
 11
83.800664690161554
 21
232.94238712649189
 31
0.0
 73
     3
  0
TEXT
  5
233
  8
DATA
 62
     7
 10
82.986244117244865
 20
230.44238712649189
 30
0.0
 40
0.8144205729166666
  1
7
 50
270.0
 41
0.7
 11
83.800664690161554
 21
230.44238712649189
 31
0.0
 73
     3
  0
TEXT
  5
234
  8
DATA
 62
     7
 10
82.986244117244865
 20
227.94238712649189
 30
0.0
 40
0.8144205729166666
  1
8
 50
270.0
 41
0.7
 11
83.800664690161554
 21
227.94238712649189
 31
0.0
 73
     3
  0
LINE
  5
235
  8
DATA
  6
CONTINUOUS
 62
     7
 10
201.21801225173249
 20
-96.75
 30
0.0
 11
201.85784508387269
 21
-93.75
 31
0.0
  0
LINE
  5
236
  8
DATA
  6
CONTINUOUS
 62
     7
 10
190.49767791601289
 20
-96.75
 30
0.0
 11
189.85784508387269
 21
-93.75
 31
0.0
  0
LINE
  5
237
  8
DATA
  6
CONTINUOUS
 62
     7
 10
201.21801225173249
 20
-96.75
 30
0.0
 11
190.49767791601289
 21
-96.75
 31
0.0
  0
LINE
  5
238
  8
DATA
  6
CONTINUOUS
 62
     7
 10
261.55686878741648
 20
-96.75
 30
0.0
 11
262.19670161955679
 21
-93.75
 31
0.0
  0
LINE
  5
239
  8
DATA
  6
CONTINUOUS
 62
     7
 10
250.83653445169679
 20
-96.75
 30
0.0
 11
250.19670161955651
 21
-93.75
 31
0.0
  0
LINE
  5
23A
  8
DATA
  6
CONTINUOUS
 62
     7
 10
261.55686878741648
 20
-96.75
 30
0.0
 11
250.83653445169679
 21
-96.75
 31
0.0
  0
LINE
  5
23B
  8
DATA
  6
CONTINUOUS
 62
     7
 10
189.30000000000001
 20
-93.75
 30
0.0
 11
273.69999999999999
 21
-93.75
 31
0.0
  0
LINE
  5
23C
  8
DATA
  6
CONTINUOUS
 62
     7
 10
189.30000000000001
 20
-62.75
 30
0.0
 11
273.69999999999999
 21
-62.75
 31
0.0
  0
LINE
  5
23D
  8
DATA
  6
CONTINUOUS
 62
     7
 10
187.5
 20
-91.950000000000003
 30
0.0
 11
187.5
 21
-64.550000000000011
 31
0.0
  0
LINE
  5
23E
  8
DATA
  6
CONTINUOUS
 62
     7
 10
275.5
 20
-91.950000000000003
 30
0.0
 11
275.5
 21
-64.550000000000011
 31
0.0
  0
LINE
  5
23F
  8
DATA
  6
CONTINUOUS
 62
     7
 10
189.0
 20
-90.649999999999949
 30
0.0
 11
189.0
 21
-65.850000000000023
 31
0.0
  0
LINE
  5
240
  8
DATA
  6
CONTINUOUS
 62
     7
 10
190.80000000000001
 20
-64.050000000000011
 30
0.0
 11
196.30000000000001
 21
-64.050000000000011
 31
0.0
  0
LINE
  5
241
  8
DATA
  6
CONTINUOUS
 62
     7
 10
190.80000000000001
 20
-92.450000000000003
 30
0.0
 11
194.5
 21
-92.450000000000003
 31
0.0
  0
LINE
  5
242
  8
DATA
  6
CONTINUOUS
 62
     7
 10
196.30000000000001
 20
-62.75
 30
0.0
 11
196.30000000000001
 21
-64.050000000000011
 31
0.0
  0
LINE
  5
243
  8
DATA
  6
CONTINUOUS
 62
     7
 10
194.5
 20
-92.450000000000003
 30
0.0
 11
194.5
 21
-93.75
 31
0.0
  0
ARC
  5
244
  8
DATA
  6
CONTINUOUS
 62
     7
 10
190.80000000000001
 20
-65.850000000000023
 30
0.0
 40
1.8000000000000109
 50
90.0
 51
180.0
  0
ARC
  5
245
  8
DATA
  6
CONTINUOUS
 62
     7
 10
189.30000000000001
 20
-64.550000000000011
 30
0.0
 40
1.8000000000000109
 50
90.0
 51
180.0
  0
ARC
  5
246
  8
DATA
  6
CONTINUOUS
 62
     7
 10
190.80000000000001
 20
-90.649999999999949
 30
0.0
 40
1.7999999999999821
 50
180.0
 51
270.0000000000004
  0
ARC
  5
247
  8
DATA
  6
CONTINUOUS
 62
     7
 10
189.30000000000001
 20
-91.950000000000003
 30
0.0
 40
1.7999999999999969
 50
180.0
 51
270.0
  0
LINE
  5
248
  8
DATA
  6
CONTINUOUS
 62
     7
 10
274.19999999999999
 20
-90.649999999999949
 30
0.0
 11
274.19999999999999
 21
-64.383293455896961
 31
0.0
  0
LINE
  5
249
  8
DATA
  6
CONTINUOUS
 62
     7
 10
272.39999999999998
 20
-92.450000000000003
 30
0.0
 11
263.5
 21
-92.450000000000003
 31
0.0
  0
LINE
  5
24A
  8
DATA
  6
CONTINUOUS
 62
     7
 10
263.5
 20
-92.450000000000003
 30
0.0
 11
263.5
 21
-93.75
 31
0.0
  0
ARC
  5
24B
  8
DATA
  6
CONTINUOUS
 62
     7
 10
272.39999999999998
 20
-90.649999999999949
 30
0.0
 40
1.8000000000000109
 50
270.0
 51
0.0
  0
ARC
  5
24C
  8
DATA
  6
CONTINUOUS
 62
     7
 10
273.69999999999999
 20
-91.950000000000003
 30
0.0
 40
1.8000000000000109
 50
270.0
 51
0.0
  0
CIRCLE
  5
24D
  8
DATA
  6
CONTINUOUS
 62
     7
 10
201.5
 20
-69.75
 30
0.0
 40
2.5
  0
LINE
  5
24E
  8
DATA
  6
CONTINUOUS
 62
     7
 10
201.5
 20
-71.0
 30
0.0
 11
201.5
 21
-68.5
 31
0.0
  0
LINE
  5
24F
  8
DATA
  6
CONTINUOUS
 62
     7
 10
202.75
 20
-69.75
 30
0.0
 11
200.25
 21
-69.75
 31
0.0
  0
CIRCLE
  5
250
  8
DATA
  6
CONTINUOUS
 62
     7
 10
201.5
 20
-87.75
 30
0.0
 40
2.5
  0
LINE
  5
251
  8
DATA
  6
CONTINUOUS
 62
     7
 10
201.5
 20
-89.0
 30
0.0
 11
201.5
 21
-86.5
 31
0.0
  0
LINE
  5
252
  8
DATA
  6
CONTINUOUS
 62
     7
 10
202.75
 20
-87.75
 30
0.0
 11
200.25
 21
-87.75
 31
0.0
  0
CIRCLE
  5
253
  8
DATA
  6
CONTINUOUS
 62
     7
 10
256.5
 20
-87.75
 30
0.0
 40
2.5
  0
LINE
  5
254
  8
DATA
  6
CONTINUOUS
 62
     7
 10
256.5
 20
-89.0
 30
0.0
 11
256.5
 21
-86.5
 31
0.0
  0
LINE
  5
255
  8
DATA
  6
CONTINUOUS
 62
     7
 10
257.75
 20
-87.75
 30
0.0
 11
255.25
 21
-87.75
 31
0.0
  0
ARC
  5
256
  8
DATA
  6
CONTINUOUS
 62
     7
 10
273.69999999999999
 20
-64.550000000000011
 30
0.0
 40
1.8000000000000109
 50
0.0
 51
90.0
  0
LINE
  5
257
  8
DATA
  6
CONTINUOUS
 62
     7
 10
280.49999999984868
 20
-68.667643970688061
 30
0.0
 11
280.49999999984868
 21
-72.800000000000026
 31
0.0
  0
LINE
  5
258
  8
DATA
  6
CONTINUOUS
 62
     7
 10
280.49999999984868
 20
-80.700000000000003
 30
0.0
 11
280.49999999984868
 21
-84.832356029311953
 31
0.0
  0
LINE
  5
259
  8
DATA
  6
CONTINUOUS
 62
     7
 10
280.49999999984868
 20
-84.832356029311953
 30
0.0
 11
275.49999999984868
 21
-84.832356029311953
 31
0.0
  0
LINE
  5
25A
  8
DATA
  6
CONTINUOUS
 62
     7
 10
292.49932721155119
 20
-72.000932128173076
 30
0.0
 11
280.49999999984868
 21
-72.000932128173076
 31
0.0
  0
LINE
  5
25B
  8
DATA
  6
CONTINUOUS
 62
     7
 10
292.49932721155119
 20
-81.5
 30
0.0
 11
280.49999999984868
 21
-81.5
 31
0.0
  0
POLYLINE
  5
25C
  8
DATA
  6
CONTINUOUS
 62
     7
 66
     1
 10
0.0
 20
0.0
 30
0.0
  0
VERTEX
  5
407
  8
DATA
  6
CONTINUOUS
 62
     7
 10
287.86328852077253
 20
-72.000932128173076
 30
0.0
  0
VERTEX
  5
408
  8
DATA
  6
CONTINUOUS
 62
     7
 10
287.86328852077253
 20
-71.150000000000006
 30
0.0
  0
VERTEX
  5
409
  8
DATA
  6
CONTINUOUS
 62
     7
 10
289.06328852077257
 20
-71.150000000000006
 30
0.0
  0
VERTEX
  5
40A
  8
DATA
  6
CONTINUOUS
 62
     7
 10
289.06328852077257
 20
-72.000932128173076
 30
0.0
  0
SEQEND
  5
40B
  8
DATA
  6
CONTINUOUS
 62
     7
  0
POLYLINE
  5
263
  8
DATA
  6
CONTINUOUS
 62
     7
 66
     1
 10
0.0
 20
0.0
 30
0.0
  0
VERTEX
  5
40C
  8
DATA
  6
CONTINUOUS
 62
     7
 10
289.06328852077257
 20
-81.5
 30
0.0
  0
VERTEX
  5
40D
  8
DATA
  6
CONTINUOUS
 62
     7
 10
289.06328852077257
 20
-82.349999999999966
 30
0.0
  0
VERTEX
  5
40E
  8
DATA
  6
CONTINUOUS
 62
     7
 10
287.86328852077253
 20
-82.349999999999966
 30
0.0
  0
VERTEX
  5
40F
  8
DATA
  6
CONTINUOUS
 62
     7
 10
287.86328852077253
 20
-81.5
 30
0.0
  0
SEQEND
  5
410
  8
DATA
  6
CONTINUOUS
 62
     7
  0
LINE
  5
26A
  8
DATA
  6
CONTINUOUS
 62
     7
 10
292.49932721155119
 20
-81.5
 30
0.0
 11
292.49932721155119
 21
-72.000932128173076
 31
0.0
  0
LINE
  5
26B
  8
DATA
  6
CONTINUOUS
 62
     7
 10
275.5
 20
-76.75
 30
0.0
 11
277.5
 21
-76.75
 31
0.0
  0
LINE
  5
26C
  8
DATA
  6
CONTINUOUS
 62
     7
 10
282.5
 20
-80.700000000000003
 30
0.0
 11
282.5
 21
-72.800000000000026
 31
0.0
  0
LINE
  5
26D
  8
DATA
  6
CONTINUOUS
 62
     7
 10
282.5
 20
-72.800000000000026
 30
0.0
 11
277.5
 21
-72.800000000000026
 31
0.0
  0
LINE
  5
26E
  8
DATA
  6
CONTINUOUS
 62
     7
 10
282.5
 20
-80.700000000000003
 30
0.0
 11
277.5
 21
-80.700000000000003
 31
0.0
  0
LINE
  5
26F
  8
DATA
  6
CONTINUOUS
 62
     7
 10
277.5
 20
-82.249999999999986
 30
0.0
 11
275.5
 21
-82.249999999999986
 31
0.0
  0
LINE
  5
270
  8
DATA
  6
CONTINUOUS
 62
     7
 10
275.5
 20
-71.25
 30
0.0
 11
277.5
 21
-71.25
 31
0.0
  0
LINE
  5
271
  8
DATA
  6
CONTINUOUS
 62
     7
 10
277.5
 20
-71.25
 30
0.0
 11
277.5
 21
-82.249999999999986
 31
0.0
  0
LINE
  5
272
  8
DATA
  6
CONTINUOUS
 62
     7
 10
277.5
 20
-72.800000000000026
 30
0.0
 11
278.38029083705351
 21
-80.700000000000003
 31
0.0
  0
LINE
  5
273
  8
DATA
  6
CONTINUOUS
 62
     7
 10
279.0
 20
-72.800000000000026
 30
0.0
 11
279.88029083705351
 21
-80.700000000000003
 31
0.0
  0
LINE
  5
274
  8
DATA
  6
CONTINUOUS
 62
     7
 10
280.5
 20
-72.800000000000026
 30
0.0
 11
281.38029083705351
 21
-80.700000000000003
 31
0.0
  0
LINE
  5
275
  8
DATA
  6
CONTINUOUS
 62
     7
 10
282.0
 20
-72.800000000000026
 30
0.0
 11
282.5
 21
-77.287153374470378
 31
0.0
  0
LINE
  5
276
  8
DATA
  6
CONTINUOUS
 62
     7
 10
280.49999999986932
 20
-68.25
 30
0.0
 11
275.4999999998692
 21
-68.25
 31
0.0
  0
LINE
  5
277
  8
DATA
  6
CONTINUOUS
 62
     7
 10
277.55014314894612
 20
-73.25
 30
0.0
 11
277.5
 21
-73.25
 31
0.0
  0
LINE
  5
278
  8
DATA
  6
CONTINUOUS
 62
     7
 10
280.49999999986932
 20
-68.25
 30
0.0
 11
280.49999999986932
 21
-73.25
 31
0.0
  0
LINE
  5
279
  8
DATA
  6
CONTINUOUS
 62
     7
 10
280.49999999986932
 20
-70.75
 30
0.0
 11
275.4999999998692
 21
-70.75
 31
0.0
  0
ARC
  5
27A
  8
DATA
  6
CONTINUOUS
 62
     7
 10
187.5
 20
-79.75
 30
0.0
 40
1.5
 50
90.0
 51
270.0
  0
LINE
  5
27B
  8
DATA
  6
CONTINUOUS
 62
     7
 10
198.79061036720259
 20
198.78983839380729
 30
0.0
 11
198.79061036720259
 21
104.4898383938073
 31
0.0
  0
LINE
  5
27C
  8
DATA
  6
CONTINUOUS
 62
     7
 10
213.8556103672027
 20
198.78983839380729
 30
0.0
 11
213.8556103672027
 21
104.4898383938073
 31
0.0
  0
LINE
  5
27D
  8
DATA
  6
CONTINUOUS
 62
     7
 10
198.79061036720259
 20
198.78983839380729
 30
0.0
 11
213.8556103672027
 21
198.78983839380729
 31
0.0
  0
LINE
  5
27E
  8
DATA
  6
CONTINUOUS
 62
     7
 10
198.79061036720259
 20
104.4898383938073
 30
0.0
 11
213.8556103672027
 21
104.4898383938073
 31
0.0
  0
TEXT
  5
27F
  8
DATA
 62
     7
 10
186.24356355235651
 20
202.12292172678539
 30
0.0
 40
9.3658365885416632
  1
ON
 41
0.7
 11
186.24356355235651
 21
211.48875831532709
 31
0.0
 73
     3
  0
TEXT
  5
280
  8
DATA
 62
     7
 10
213.23914835659829
 20
202.12292172678539
 30
0.0
 40
9.3658365885416632
  1
OFF
 41
0.7
 11
213.23914835659829
 21
211.48875831532709
 31
0.0
 73
     3
  0
TEXT
  5
281
  8
DATA
 62
     7
 10
218.91561036720279
 20
170.29603427647939
 30
0.0
 40
5.619501953124999
  1
RGB
 41
0.7
 11
218.91561036720279
 21
175.91553622960441
 31
0.0
 73
     3
  0
TEXT
  5
282
  8
DATA
 62
     7
 10
218.91561036720279
 20
148.9146490568256
 30
0.0
 40
5.619501953124999
  1
444
 41
0.7
 11
218.91561036720279
 21
154.53415100995059
 31
0.0
 73
     3
  0
TEXT
  5
283
  8
DATA
 62
     7
 10
178.14086894014659
 20
190.06077905837051
 30
0.0
 40
5.619501953124999
  1
HDCP
 41
0.7
 11
178.14086894014659
 21
195.68028101149551
 31
0.0
 73
     3
  0
TEXT
  5
284
  8
DATA
 62
     7
 10
178.14086894014659
 20
169.08619706529791
 30
0.0
 40
5.619501953124999
  1
YCbCr
 41
0.7
 11
178.14086894014659
 21
174.70569901842291
 31
0.0
 73
     3
  0
TEXT
  5
285
  8
DATA
 62
     7
 10
178.14086894014659
 20
149.22873148484609
 30
0.0
 40
5.619501953124999
  1
422
 41
0.7
 11
178.14086894014659
 21
154.84823343797109
 31
0.0
 73
     3
  0
TEXT
  5
286
  8
DATA
 62
     7
 10
178.14086894014659
 20
114.09970517689401
 30
0.0
 40
5.619501953124999
  1
DEEP
 41
0.7
 11
178.14086894014659
 21
119.719207130019
 31
0.0
 73
     3
  0
TEXT
  5
287
  8
DATA
 62
     7
 10
178.14086894014659
 20
106.1860629815553
 30
0.0
 40
5.619501953124999
  1
COLOR
 41
0.7
 11
178.14086894014659
 21
111.80556493468031
 31
0.0
 73
     3
  0
TEXT
  5
288
  8
DATA
 62
     7
 10
166.54142470382919
 20
143.35424781300031
 30
0.0
 40
5.619501953124999
  1
INPUT
 50
90.0
 41
0.7
 11
160.9219227507042
 21
143.35424781300031
 31
0.0
 73
     3
  0
LINE
  5
289
  8
DATA
  6
CONTINUOUS
 62
     7
 10
163.6505808647328
 20
188.8998383938073
 30
0.0
 11
163.6505808647328
 21
164.3207741437613
 31
0.0
  0
LINE
  5
28A
  8
DATA
  6
CONTINUOUS
 62
     7
 10
163.6505808647328
 20
114.3798383938073
 30
0.0
 11
163.6505808647328
 21
138.95890264385329
 31
0.0
  0
LINE
  5
28B
  8
DATA
  6
CONTINUOUS
 62
     7
 10
167.79058086473279
 20
193.03983839380729
 30
0.0
 11
169.4242546500189
 21
193.03983839380729
 31
0.0
  0
LINE
  5
28C
  8
DATA
  6
CONTINUOUS
 62
     7
 10
167.79058086473279
 20
110.2398383938073
 30
0.0
 11
169.4242546500189
 21
110.2398383938073
 31
0.0
  0
ARC
  5
28D
  8
DATA
  6
CONTINUOUS
 62
     7
 10
167.79058086473279
 20
188.8998383938073
 30
0.0
 40
4.1400000000000432
 50
90.0
 51
179.9999999999994
  0
ARC
  5
28E
  8
DATA
  6
CONTINUOUS
 62
     7
 10
167.79058086473279
 20
114.3798383938073
 30
0.0
 40
4.1399999999999721
 50
180.0
 51
270.0000000000004
  0
LINE
  5
28F
  8
DATA
  6
CONTINUOUS
 62
     7
 10
338.8606103672027
 20
228.68983839380729
 30
0.0
 11
338.8606103672027
 21
76.889838393807366
 31
0.0
  0
LINE
  5
290
  8
DATA
  6
CONTINUOUS
 62
     7
 10
291.25061036720268
 20
228.68983839380729
 30
0.0
 11
291.25061036720268
 21
76.889838393807366
 31
0.0
  0
LINE
  5
291
  8
DATA
  6
CONTINUOUS
 62
     7
 10
338.8606103672027
 20
228.68983839380729
 30
0.0
 11
291.25061036720268
 21
228.68983839380729
 31
0.0
  0
LINE
  5
292
  8
DATA
  6
CONTINUOUS
 62
     7
 10
338.8606103672027
 20
76.889838393807366
 30
0.0
 11
291.25061036720268
 21
76.889838393807366
 31
0.0
  0
POLYLINE
  5
293
  8
DATA
  6
CONTINUOUS
 62
     7
 66
     1
 10
0.0
 20
0.0
 30
0.0
 70
     1
  0
VERTEX
  5
411
  8
DATA
  6
CONTINUOUS
 62
     7
 10
307.12061036720269
 20
216.57112919427681
 30
0.0
  0
VERTEX
  5
412
  8
DATA
  6
CONTINUOUS
 62
     7
 10
322.99061036720292
 20
216.57112919427681
 30
0.0
  0
VERTEX
  5
413
  8
DATA
  6
CONTINUOUS
 62
     7
 10
322.99061036720292
 20
208.29112919427689
 30
0.0
  0
VERTEX
  5
414
  8
DATA
  6
CONTINUOUS
 62
     7
 10
307.12061036720269
 20
208.29112919427689
 30
0.0
  0
SEQEND
  5
415
  8
DATA
  6
CONTINUOUS
 62
     7
  0
POLYLINE
  5
29A
  8
DATA
  6
CONTINUOUS
 62
     7
 66
     1
 10
0.0
 20
0.0
 30
0.0
 70
     1
  0
VERTEX
  5
416
  8
DATA
  6
CONTINUOUS
 62
     7
 10
307.12061036720269
 20
199.32112919427681
 30
0.0
  0
VERTEX
  5
417
  8
DATA
  6
CONTINUOUS
 62
     7
 10
322.99061036720292
 20
199.32112919427681
 30
0.0
  0
VERTEX
  5
418
  8
DATA
  6
CONTINUOUS
 62
     7
 10
322.99061036720292
 20
191.04112919427681
 30
0.0
  0
VERTEX
  5
419
  8
DATA
  6
CONTINUOUS
 62
     7
 10
307.12061036720269
 20
191.04112919427681
 30
0.0
  0
SEQEND
  5
41A
  8
DATA
  6
CONTINUOUS
 62
     7
  0
POLYLINE
  5
2A1
  8
DATA
  6
CONTINUOUS
 62
     7
 66
     1
 10
0.0
 20
0.0
 30
0.0
 70
     1
  0
VERTEX
  5
41B
  8
DATA
  6
CONTINUOUS
 62
     7
 10
307.12061036720269
 20
182.07112919427681
 30
0.0
  0
VERTEX
  5
41C
  8
DATA
  6
CONTINUOUS
 62
     7
 10
322.99061036720292
 20
182.07112919427681
 30
0.0
  0
VERTEX
  5
41D
  8
DATA
  6
CONTINUOUS
 62
     7
 10
322.99061036720292
 20
173.79112919427681
 30
0.0
  0
VERTEX
  5
41E
  8
DATA
  6
CONTINUOUS
 62
     7
 10
307.12061036720269
 20
173.79112919427681
 30
0.0
  0
SEQEND
  5
41F
  8
DATA
  6
CONTINUOUS
 62
     7
  0
POLYLINE
  5
2A8
  8
DATA
  6
CONTINUOUS
 62
     7
 66
     1
 10
0.0
 20
0.0
 30
0.0
 70
     1
  0
VERTEX
  5
420
  8
DATA
  6
CONTINUOUS
 62
     7
 10
307.12061036720269
 20
164.82112919427681
 30
0.0
  0
VERTEX
  5
421
  8
DATA
  6
CONTINUOUS
 62
     7
 10
322.99061036720292
 20
164.82112919427681
 30
0.0
  0
VERTEX
  5
422
  8
DATA
  6
CONTINUOUS
 62
     7
 10
322.99061036720292
 20
156.54112919427681
 30
0.0
  0
VERTEX
  5
423
  8
DATA
  6
CONTINUOUS
 62
     7
 10
307.12061036720269
 20
156.54112919427681
 30
0.0
  0
SEQEND
  5
424
  8
DATA
  6
CONTINUOUS
 62
     7
  0
POLYLINE
  5
2AF
  8
DATA
  6
CONTINUOUS
 62
     7
 66
     1
 10
0.0
 20
0.0
 30
0.0
 70
     1
  0
VERTEX
  5
425
  8
DATA
  6
CONTINUOUS
 62
     7
 10
307.12061036720269
 20
147.57112919427669
 30
0.0
  0
VERTEX
  5
426
  8
DATA
  6
CONTINUOUS
 62
     7
 10
322.99061036720292
 20
147.57112919427669
 30
0.0
  0
VERTEX
  5
427
  8
DATA
  6
CONTINUOUS
 62
     7
 10
322.99061036720292
 20
139.29112919427681
 30
0.0
  0
VERTEX
  5
428
  8
DATA
  6
CONTINUOUS
 62
     7
 10
307.12061036720269
 20
139.29112919427681
 30
0.0
  0
SEQEND
  5
429
  8
DATA
  6
CONTINUOUS
 62
     7
  0
POLYLINE
  5
2B6
  8
DATA
  6
CONTINUOUS
 62
     7
 66
     1
 10
0.0
 20
0.0
 30
0.0
 70
     1
  0
VERTEX
  5
42A
  8
DATA
  6
CONTINUOUS
 62
     7
 10
307.12061036720269
 20
130.32112919427681
 30
0.0
  0
VERTEX
  5
42B
  8
DATA
  6
CONTINUOUS
 62
     7
 10
322.99061036720292
 20
130.32112919427681
 30
0.0
  0
VERTEX
  5
42C
  8
DATA
  6
CONTINUOUS
 62
     7
 10
322.99061036720292
 20
122.04112919427681
 30
0.0
  0
VERTEX
  5
42D
  8
DATA
  6
CONTINUOUS
 62
     7
 10
307.12061036720269
 20
122.04112919427681
 30
0.0
  0
SEQEND
  5
42E
  8
DATA
  6
CONTINUOUS
 62
     7
  0
POLYLINE
  5
2BD
  8
DATA
  6
CONTINUOUS
 62
     7
 66
     1
 10
0.0
 20
0.0
 30
0.0
 70
     1
  0
VERTEX
  5
42F
  8
DATA
  6
CONTINUOUS
 62
     7
 10
307.12061036720269
 20
113.07112919427681
 30
0.0
  0
VERTEX
  5
430
  8
DATA
  6
CONTINUOUS
 62
     7
 10
322.99061036720292
 20
113.07112919427681
 30
0.0
  0
VERTEX
  5
431
  8
DATA
  6
CONTINUOUS
 62
     7
 10
322.99061036720292
 20
104.79112919427681
 30
0.0
  0
VERTEX
  5
432
  8
DATA
  6
CONTINUOUS
 62
     7
 10
307.12061036720269
 20
104.79112919427681
 30
0.0
  0
SEQEND
  5
433
  8
DATA
  6
CONTINUOUS
 62
     7
  0
POLYLINE
  5
2C4
  8
DATA
  6
CONTINUOUS
 62
     7
 66
     1
 10
0.0
 20
0.0
 30
0.0
 70
     1
  0
VERTEX
  5
434
  8
DATA
  6
CONTINUOUS
 62
     7
 10
307.12061036720269
 20
95.821129194276793
 30
0.0
  0
VERTEX
  5
435
  8
DATA
  6
CONTINUOUS
 62
     7
 10
322.99061036720292
 20
95.821129194276793
 30
0.0
  0
VERTEX
  5
436
  8
DATA
  6
CONTINUOUS
 62
     7
 10
322.99061036720292
 20
87.541129194276863
 30
0.0
  0
VERTEX
  5
437
  8
DATA
  6
CONTINUOUS
 62
     7
 10
307.12061036720269
 20
87.541129194276863
 30
0.0
  0
SEQEND
  5
438
  8
DATA
  6
CONTINUOUS
 62
     7
  0
TEXT
  5
2CB
  8
DATA
 62
     7
 10
325.70151859109512
 20
218.86322162176691
 30
0.0
 40
5.619501953124999
  1
ON
 50
270.0
 41
0.7
 11
331.32102054422012
 21
218.86322162176691
 31
0.0
 73
     3
  0
TEXT
  5
2CC
  8
DATA
 62
     7
 10
297.36569477619253
 20
214.49230956553529
 30
0.0
 40
5.619501953124999
  1
1
 50
270.0
 41
0.7
 11
302.98519672931752
 21
214.49230956553529
 31
0.0
 73
     3
  0
TEXT
  5
2CD
  8
DATA
 62
     7
 10
297.36569477619253
 20
197.24230956553529
 30
0.0
 40
5.619501953124999
  1
2
 50
270.0
 41
0.7
 11
302.98519672931752
 21
197.24230956553529
 31
0.0
 73
     3
  0
TEXT
  5
2CE
  8
DATA
 62
     7
 10
297.36569477619253
 20
179.99230956553521
 30
0.0
 40
5.619501953124999
  1
3
 50
270.0
 41
0.7
 11
302.98519672931752
 21
179.99230956553521
 31
0.0
 73
     3
  0
TEXT
  5
2CF
  8
DATA
 62
     7
 10
297.36569477619253
 20
162.74230956553521
 30
0.0
 40
5.619501953124999
  1
4
 50
270.0
 41
0.7
 11
302.98519672931752
 21
162.74230956553521
 31
0.0
 73
     3
  0
TEXT
  5
2D0
  8
DATA
 62
     7
 10
297.36569477619253
 20
145.49230956553521
 30
0.0
 40
5.619501953124999
  1
5
 50
270.0
 41
0.7
 11
302.98519672931752
 21
145.49230956553521
 31
0.0
 73
     3
  0
TEXT
  5
2D1
  8
DATA
 62
     7
 10
297.36569477619253
 20
128.24230956553521
 30
0.0
 40
5.619501953124999
  1
6
 50
270.0
 41
0.7
 11
302.98519672931752
 21
128.24230956553521
 31
0.0
 73
     3
  0
TEXT
  5
2D2
  8
DATA
 62
     7
 10
297.36569477619253
 20
110.99230956553519
 30
0.0
 40
5.619501953124999
  1
7
 50
270.0
 41
0.7
 11
302.98519672931752
 21
110.99230956553519
 31
0.0
 73
     3
  0
TEXT
  5
2D3
  8
DATA
 62
     7
 10
297.36569477619253
 20
93.74230956553528
 30
0.0
 40
5.619501953124999
  1
8
 50
270.0
 41
0.7
 11
302.98519672931752
 21
93.74230956553528
 31
0.0
 73
     3
  0
TEXT
  5
2D4
  8
DATA
 62
     7
 10
216.7787205607039
 20
66.031304096047634
 30
0.0
 40
8.1442057291666661
  1
設定拡大図
 41
0.7
 11
216.7787205607039
 21
74.175509825214306
 31
0.0
 73
     3
  0
LINE
  5
2D5
  8
DATA
  6
CONTINUOUS
 62
     7
 10
212.5
 20
62.5
 30
0.0
 11
275.0
 21
62.5
 31
0.0
  0
TEXT
  5
2D6
  8
DATA
 62
     7
 10
244.55685814324951
 20
-196.18796366046939
 30
0.0
 40
4.8865234374999993
  1
HDMI-3GSDIコンバーター
 41
0.7
 11
244.55685814324951
 21
-191.3014402229694
 31
0.0
 73
     3
  0
TEXT
  5
2D7
  8
DATA
 62
     7
 10
249.8760181932069
 20
-185.8165000000001
 30
0.0
 40
7.3297851562499989
  1
Gefen
 41
0.7
 11
249.8760181932069
 21
-178.48671484375001
 31
0.0
 73
     3
  0
ENDSEC
  0
EOF
