  0
SECTION
  2
HEADER
  9
$ACADVER
  1
AC1009
  9
$INSBASE
 10
0.0
 20
0.0
 30
0.0
  9
$EXTMIN
 10
-170.0164782349211
 20
-265.8021109186671
 30
-0.0015258207003583
  9
$EXTMAX
 10
370.0164807494923
 20
537.08808227102475
 30
0.0000000349246037
  9
$LIMMIN
 10
0.0
 20
0.0
  9
$LIMMAX
 10
0.0
 20
0.0
  9
$ORTHOMODE
 70
     0
  9
$REGENMODE
 70
     1
  9
$FILLMODE
 70
     1
  9
$QTEXTMODE
 70
     0
  9
$MIRRTEXT
 70
     1
  9
$DRAGMODE
 70
     2
  9
$LTSCALE
 40
15.24
  9
$OSMODE
 70
   231
  9
$ATTMODE
 70
     1
  9
$TEXTSIZE
 40
0.0
  9
$TRACEWID
 40
1.0
  9
$TEXTSTYLE
  7
STANDARD
  9
$CLAYER
  8
DATA
  9
$CELTYPE
  6
BYLAYER
  9
$CECOLOR
 62
   256
  9
$DIMSCALE
 40
1.0
  9
$DIMASZ
 40
0.18
  9
$DIMEXO
 40
0.0625
  9
$DIMDLI
 40
0.38
  9
$DIMRND
 40
0.0
  9
$DIMDLE
 40
0.0
  9
$DIMEXE
 40
0.18
  9
$DIMTP
 40
0.0
  9
$DIMTM
 40
0.0
  9
$DIMTXT
 40
0.18
  9
$DIMCEN
 40
0.09
  9
$DIMTSZ
 40
0.0
  9
$DIMTOL
 70
     0
  9
$DIMLIM
 70
     0
  9
$DIMTIH
 70
     1
  9
$DIMTOH
 70
     1
  9
$DIMSE1
 70
     0
  9
$DIMSE2
 70
     0
  9
$DIMTAD
 70
     0
  9
$DIMZIN
 70
     0
  9
$DIMBLK
  1

  9
$DIMASO
 70
     1
  9
$DIMSHO
 70
     1
  9
$DIMPOST
  1

  9
$DIMAPOST
  1

  9
$DIMALT
 70
     0
  9
$DIMALTD
 70
     2
  9
$DIMALTF
 40
25.399999999999999
  9
$DIMLFAC
 40
1.0
  9
$DIMTOFL
 70
     0
  9
$DIMTVP
 40
0.0
  9
$DIMTIX
 70
     0
  9
$DIMSOXD
 70
     0
  9
$DIMSAH
 70
     0
  9
$DIMBLK1
  1

  9
$DIMBLK2
  1

  9
$DIMSTYLE
  2
STANDARD
  9
$DIMCLRD
 70
     0
  9
$DIMCLRE
 70
     0
  9
$DIMCLRT
 70
     0
  9
$DIMTFAC
 40
1.0
  9
$DIMGAP
 40
0.09
  9
$LUNITS
 70
     2
  9
$LUPREC
 70
     4
  9
$SKETCHINC
 40
0.1
  9
$FILLETRAD
 40
0.0
  9
$AUNITS
 70
     0
  9
$AUPREC
 70
     0
  9
$MENU
  1
acad
  9
$ELEVATION
 40
0.0
  9
$PELEVATION
 40
0.0
  9
$THICKNESS
 40
0.0
  9
$LIMCHECK
 70
     0
  9
$BLIPMODE
 70
     0
  9
$CHAMFERA
 40
0.0
  9
$CHAMFERB
 40
0.0
  9
$SKPOLY
 70
     0
  9
$TDCREATE
 40
2455049.7797453701
  9
$TDUPDATE
 40
2455049.7801598501
  9
$TDINDWG
 40
0.0003103009
  9
$TDUSRTIMER
 40
0.0003101157
  9
$USRTIMER
 70
     1
  9
$ANGBASE
 50
0.0
  9
$ANGDIR
 70
     0
  9
$PDMODE
 70
     1
  9
$PDSIZE
 40
-2.0
  9
$PLINEWID
 40
0.0
  9
$COORDS
 70
     0
  9
$SPLFRAME
 70
     0
  9
$SPLINETYPE
 70
     6
  9
$SPLINESEGS
 70
     8
  9
$ATTDIA
 70
     0
  9
$ATTREQ
 70
     1
  9
$HANDLING
 70
     1
  9
$HANDSEED
  5
2A7
  9
$SURFTAB1
 70
     6
  9
$SURFTAB2
 70
     6
  9
$SURFTYPE
 70
     6
  9
$SURFU
 70
     6
  9
$SURFV
 70
     6
  9
$UCSNAME
  2

  9
$UCSORG
 10
0.0
 20
0.0
 30
0.0
  9
$UCSXDIR
 10
1.0
 20
0.0
 30
0.0
  9
$UCSYDIR
 10
0.0
 20
1.0
 30
0.0
  9
$PUCSNAME
  2

  9
$PUCSORG
 10
0.0
 20
0.0
 30
0.0
  9
$PUCSXDIR
 10
1.0
 20
0.0
 30
0.0
  9
$PUCSYDIR
 10
0.0
 20
1.0
 30
0.0
  9
$USERI1
 70
     0
  9
$USERI2
 70
     0
  9
$USERI3
 70
     0
  9
$USERI4
 70
     0
  9
$USERI5
 70
     0
  9
$USERR1
 40
0.0
  9
$USERR2
 40
0.0
  9
$USERR3
 40
0.0
  9
$USERR4
 40
0.0
  9
$USERR5
 40
0.0
  9
$WORLDVIEW
 70
     1
  9
$SHADEDGE
 70
     3
  9
$SHADEDIF
 70
    70
  9
$TILEMODE
 70
     1
  9
$MAXACTVP
 70
    64
  9
$PLIMCHECK
 70
     0
  9
$PEXTMIN
 10
1.0000000000000000E+020
 20
1.0000000000000000E+020
 30
1.0000000000000000E+020
  9
$PEXTMAX
 10
-1.0000000000000000E+020
 20
-1.0000000000000000E+020
 30
-1.0000000000000000E+020
  9
$PLIMMIN
 10
0.0
 20
0.0
  9
$PLIMMAX
 10
12.0
 20
9.0
  9
$UNITMODE
 70
     0
  9
$VISRETAIN
 70
     0
  9
$PLINEGEN
 70
     1
  9
$PSLTSCALE
 70
     0
  0
ENDSEC
  0
SECTION
  2
TABLES
  0
TABLE
  2
VPORT
 70
     1
  0
VPORT
  2
*ACTIVE
 70
     0
 10
0.0
 20
0.0
 11
1.0
 21
1.0
 12
100.0000012572857
 22
135.64298567617891
 13
0.0
 23
0.0
 14
1.0
 24
1.0
 15
0.0
 25
0.0
 16
0.0
 26
0.0
 36
1.0
 17
0.0
 27
0.0
 37
0.0
 40
808.80830272180265
 41
1.964329643296433
 42
50.0
 43
0.0
 44
0.0
 50
0.0
 51
0.0
 71
     0
 72
  2000
 73
     1
 74
     1
 75
     0
 76
     0
 77
     0
 78
     0
  0
ENDTAB
  0
TABLE
  2
LTYPE
 70
    11
  0
LTYPE
  2
CONTINUOUS
 70
     0
  3
Solid line
 72
    65
 73
     0
 40
0.0
  0
ENDTAB
  0
TABLE
  2
LAYER
 70
     5
  0
LAYER
  2
0
 70
     0
 62
     7
  6
CONTINUOUS
  0
LAYER
  2
DATA
 70
     0
 62
     7
  6
CONTINUOUS
  0
LAYER
  2
HIBINO-BASE
 70
     0
 62
     7
  6
CONTINUOUS
  0
LAYER
  2
SPEC
 70
     0
 62
     7
  6
CONTINUOUS
  0
LAYER
  2
DIMNSIONS
 70
     0
 62
     7
  6
CONTINUOUS
  0
ENDTAB
  0
TABLE
  2
STYLE
 70
     3
  0
STYLE
  2
STANDARD
 70
     0
 40
0.0
 41
1.0
 50
0.0
 71
     0
 42
0.0
  3
txt
  4
BIGFONT.SHX
  0
ENDTAB
  0
TABLE
  2
VIEW
 70
     0
  0
ENDTAB
  0
TABLE
  2
UCS
 70
     0
  0
ENDTAB
  0
TABLE
  2
APPID
 70
     3
  0
APPID
  2
ACAD
 70
     0
  0
APPID
  2
ACADANNOTATIVE
 70
     0
  0
APPID
  2
ACAD_MLEADERVER
 70
     0
  0
ENDTAB
  0
TABLE
  2
DIMSTYLE
 70
     2
  0
DIMSTYLE
  2
STANDARD
 70
     0
  3

  4

  5

  6

  7

 40
1.0
 41
0.18
 42
0.0625
 43
0.38
 44
0.18
 45
0.0
 46
0.0
 47
0.0
 48
0.0
140
0.18
141
0.09
142
0.0
143
25.399999999999999
144
1.0
145
0.0
146
1.0
147
0.09
 71
     0
 72
     0
 73
     1
 74
     1
 75
     0
 76
     0
 77
     0
 78
     0
170
     0
171
     2
172
     0
173
     0
174
     0
175
     0
176
     0
177
     0
178
     0
  0
ENDTAB
  0
ENDSEC
  0
SECTION
  2
BLOCKS
  0
BLOCK
  8
0
  2
$MODEL_SPACE
 70
     0
 10
0.0
 20
0.0
 30
0.0
  3
$MODEL_SPACE
  1

  0
ENDBLK
  5
20C
  8
0
  0
BLOCK
 67
     1
  8
0
  2
$PAPER_SPACE
 70
     0
 10
0.0
 20
0.0
 30
0.0
  3
$PAPER_SPACE
  1

  0
ENDBLK
  5
208
 67
     1
  8
0
  0
ENDSEC
  0
SECTION
  2
ENTITIES
  0
LINE
  5
2C
  8
HIBINO-BASE
  6
CONTINUOUS
 62
     7
 10
-169.99999999999989
 20
537.06362999999999
 30
0.0
 11
370.0
 21
537.06362999999999
 31
0.0
  0
LINE
  5
2D
  8
HIBINO-BASE
  6
CONTINUOUS
 62
     7
 10
370.0
 20
-242.93637000000001
 30
0.0
 11
-169.99999999999989
 21
-242.93637000000001
 31
0.0
  0
LINE
  5
2E
  8
HIBINO-BASE
  6
CONTINUOUS
 62
     7
 10
-169.99999999999989
 20
-242.93637000000001
 30
0.0
 11
-169.99999999999989
 21
537.06362999999999
 31
0.0
  0
TEXT
  5
2F
  8
HIBINO-BASE
 62
     7
 10
-148.44799999999989
 20
-262.16240340000007
 30
0.0
 40
10.800132539062499
  1
Hibino Corporation
 41
0.7
 11
-148.44799999999989
 21
-251.3622708609376
 31
0.0
 73
     3
  0
LINE
  5
30
  8
HIBINO-BASE
  6
CONTINUOUS
 62
     7
 10
370.0
 20
537.06362999999999
 30
0.0
 11
370.0
 21
-242.93637000000001
 31
0.0
  0
LINE
  5
31
  8
HIBINO-BASE
  6
CONTINUOUS
 62
     7
 10
100.0
 20
-175.43637000000001
 30
0.0
 11
370.0
 21
-175.43637000000001
 31
0.0
  0
LINE
  5
32
  8
HIBINO-BASE
  6
CONTINUOUS
 62
     7
 10
100.0
 20
-242.93637000000001
 30
0.0
 11
100.0
 21
-175.43637000000001
 31
0.0
  0
TEXT
  5
33
  8
HIBINO-BASE
 62
     7
 10
102.7
 20
-182.96244999999999
 30
0.0
 40
4.8865234374999993
  1
NOTE
 41
0.7
 11
102.7
 21
-178.0759265625
 31
0.0
 73
     3
  0
LINE
  5
34
  8
HIBINO-BASE
  6
CONTINUOUS
 62
     7
 10
205.0
 20
-242.93637000000001
 30
0.0
 11
205.0
 21
-175.43637000000001
 31
0.0
  0
TEXT
  5
35
  8
HIBINO-BASE
 62
     7
 10
207.69999999999999
 20
-182.96244999999999
 30
0.0
 40
4.8865234374999993
  1
TITLE
 41
0.7
 11
207.69999999999999
 21
-178.0759265625
 31
0.0
 73
     3
  0
TEXT
  5
36
  8
HIBINO-BASE
 62
     7
 10
250.2051699999999
 20
-262.16240340000007
 30
0.0
 40
10.800132539062499
  1
ヒビノ株式会社
 41
0.7
 11
250.2051699999999
 21
-251.3622708609376
 31
0.0
 73
     3
  0
LINE
  5
37
  8
HIBINO-BASE
  6
CONTINUOUS
 62
     7
 10
100.0
 20
-212.93637000000001
 30
0.0
 11
370.0
 21
-212.93637000000001
 31
0.0
  0
TEXT
  5
38
  8
HIBINO-BASE
 62
     7
 10
245.19999999999999
 20
-220.29348999999999
 30
0.0
 40
4.8865234374999993
  1
DRAWN
 41
0.7
 11
245.19999999999999
 21
-215.4069665625
 31
0.0
 73
     3
  0
TEXT
  5
39
  8
HIBINO-BASE
 62
     7
 10
170.19999999999999
 20
-220.29348999999999
 30
0.0
 40
4.8865234374999993
  1
DATE
 41
0.7
 11
170.19999999999999
 21
-215.4069665625
 31
0.0
 73
     3
  0
TEXT
  5
3A
  8
HIBINO-BASE
 62
     7
 10
140.19999999999999
 20
-220.29348999999999
 30
0.0
 40
4.8865234374999993
  1
SCALE
 41
0.7
 11
140.19999999999999
 21
-215.4069665625
 31
0.0
 73
     3
  0
TEXT
  5
3B
  8
HIBINO-BASE
 62
     7
 10
207.69999999999999
 20
-220.29348999999999
 30
0.0
 40
4.8865234374999993
  1
DESIGN
 41
0.7
 11
207.69999999999999
 21
-215.4069665625
 31
0.0
 73
     3
  0
TEXT
  5
3C
  8
HIBINO-BASE
 62
     7
 10
320.19999999999999
 20
-220.29348999999999
 30
0.0
 40
4.8865234374999993
  1
DRAWING NO.
 41
0.7
 11
320.19999999999999
 21
-215.4069665625
 31
0.0
 73
     3
  0
TEXT
  5
3D
  8
HIBINO-BASE
 62
     7
 10
282.69999999999999
 20
-220.29348999999999
 30
0.0
 40
4.8865234374999993
  1
CHECK
 41
0.7
 11
282.69999999999999
 21
-215.4069665625
 31
0.0
 73
     3
  0
LINE
  5
3E
  8
HIBINO-BASE
  6
CONTINUOUS
 62
     7
 10
143.12499999999989
 20
-239.18637000000001
 30
0.0
 11
154.375
 21
-227.93637000000001
 31
0.0
  0
TEXT
  5
3F
  8
HIBINO-BASE
 62
     7
 10
141.24999999999989
 20
-231.26320000000001
 30
0.0
 40
4.8865234374999993
  1
1
 41
0.7
 11
141.24999999999989
 21
-226.37667656249999
 31
0.0
 73
     3
  0
LINE
  5
40
  8
HIBINO-BASE
  6
CONTINUOUS
 62
     7
 10
137.5
 20
-242.93637000000001
 30
0.0
 11
137.5
 21
-212.93637000000001
 31
0.0
  0
LINE
  5
41
  8
HIBINO-BASE
  6
CONTINUOUS
 62
     7
 10
167.5
 20
-242.93637000000001
 30
0.0
 11
167.5
 21
-212.93637000000001
 31
0.0
  0
LINE
  5
42
  8
HIBINO-BASE
  6
CONTINUOUS
 62
     7
 10
242.5
 20
-212.93637000000001
 30
0.0
 11
242.5
 21
-242.93637000000001
 31
0.0
  0
LINE
  5
43
  8
HIBINO-BASE
  6
CONTINUOUS
 62
     7
 10
317.5
 20
-212.93637000000001
 30
0.0
 11
317.5
 21
-242.93637000000001
 31
0.0
  0
LINE
  5
44
  8
HIBINO-BASE
  6
CONTINUOUS
 62
     7
 10
279.99999999999989
 20
-242.93637000000001
 30
0.0
 11
279.99999999999989
 21
-212.93637000000001
 31
0.0
  0
TEXT
  5
45
  8
HIBINO-BASE
 62
     7
 10
170.06961999999999
 20
-234.34542999999999
 30
0.0
 40
4.8865234374999993
  1
'09.08.
 41
0.7
 11
170.06961999999999
 21
-229.4589065625
 31
0.0
 73
     3
  0
TEXT
  5
46
  8
HIBINO-BASE
 62
     7
 10
152.5
 20
-236.88820000000001
 30
0.0
 40
4.8865234374999993
  1
3
 41
0.7
 11
152.5
 21
-232.00167656249999
 31
0.0
 73
     3
  0
TEXT
  5
47
  8
HIBINO-BASE
 62
     7
 10
247.01743003310389
 20
-234.34542999999999
 30
0.0
 40
4.8865234374999993
  1
N.Sasaki
 41
0.7
 11
247.01743003310389
 21
-229.4589065625
 31
0.0
 73
     3
  0
TEXT
  5
48
  8
HIBINO-BASE
 62
     7
 10
111.65000000000001
 20
-237.00837000000001
 30
0.0
 40
9.7730468749999986
  1
A4
 41
0.7
 11
111.65000000000001
 21
-227.23532312500001
 31
0.0
 73
     3
  0
TEXT
  5
49
  8
HIBINO-BASE
 62
     7
 10
102.875
 20
-220.794735
 30
0.0
 40
4.8865234374999993
  1
PAPER SIZE
 41
0.7
 11
102.875
 21
-215.90821156249999
 31
0.0
 73
     3
  0
LINE
  5
4A
  8
SPEC
  6
CONTINUOUS
 62
     7
 10
-147.49999999999989
 20
507.06362999999999
 30
0.0
 11
295.0
 21
507.06362999999999
 31
0.0
  0
LINE
  5
4B
  8
SPEC
  6
CONTINUOUS
 62
     7
 10
-147.49999999999989
 20
495.81362999999988
 30
0.0
 11
295.0
 21
495.81362999999988
 31
0.0
  0
LINE
  5
4C
  8
SPEC
  6
CONTINUOUS
 62
     7
 10
-147.49999999999989
 20
450.81362999999999
 30
0.0
 11
295.0
 21
450.81362999999999
 31
0.0
  0
LINE
  5
4D
  8
SPEC
  6
CONTINUOUS
 62
     7
 10
-147.49999999999989
 20
462.06362999999999
 30
0.0
 11
295.0
 21
462.06362999999999
 31
0.0
  0
LINE
  5
4E
  8
SPEC
  6
CONTINUOUS
 62
     7
 10
-147.49999999999989
 20
473.31362999999988
 30
0.0
 11
295.0
 21
473.31362999999988
 31
0.0
  0
LINE
  5
4F
  8
SPEC
  6
CONTINUOUS
 62
     7
 10
-147.49999999999989
 20
439.56362999999988
 30
0.0
 11
295.0
 21
439.56362999999988
 31
0.0
  0
LINE
  5
50
  8
SPEC
  6
CONTINUOUS
 62
     7
 10
-147.49999999999989
 20
417.06362999999988
 30
0.0
 11
295.0
 21
417.06362999999988
 31
0.0
  0
LINE
  5
51
  8
SPEC
  6
CONTINUOUS
 62
     7
 10
-147.49999999999989
 20
428.31362999999988
 30
0.0
 11
295.0
 21
428.31362999999988
 31
0.0
  0
LINE
  5
52
  8
SPEC
  6
CONTINUOUS
 62
     7
 10
-147.49999999999989
 20
484.56362999999988
 30
0.0
 11
295.0
 21
484.56362999999988
 31
0.0
  0
LINE
  5
53
  8
SPEC
  6
CONTINUOUS
 62
     7
 10
-147.49999999999989
 20
507.06362999999999
 30
0.0
 11
-147.49999999999989
 21
383.31362999999988
 31
0.0
  0
TEXT
  5
54
  8
SPEC
 62
     7
 10
-143.74999999999989
 20
511.24343999999979
 30
0.0
 40
7.3297851562499989
  1
仕様
 41
0.7
 11
-143.74999999999989
 21
518.57322515624992
 31
0.0
 73
     3
  0
LINE
  5
55
  8
SPEC
  6
CONTINUOUS
 62
     7
 10
-50.0
 20
507.06362999999999
 30
0.0
 11
-50.0
 21
383.31362999999988
 31
0.0
  0
LINE
  5
56
  8
SPEC
  6
CONTINUOUS
 62
     7
 10
295.0
 20
507.06362999999999
 30
0.0
 11
295.0
 21
383.31362999999988
 31
0.0
  0
TEXT
  5
57
  8
SPEC
 62
     7
 10
-47.29999999999999
 20
396.92738333333341
 30
0.0
 40
5.7009440104166673
  1
241(W)\U+00D725(H)\U+00D7103(D)mm(突起部含まず)
 41
0.7
 11
-47.29999999999999
 21
402.62832734375002
 31
0.0
 73
     3
  0
TEXT
  5
58
  8
SPEC
 62
     7
 10
-144.7999999999999
 20
385.7746346497413
 30
0.0
 40
5.7009440104166673
  1
重量
 41
0.7
 11
-144.7999999999999
 21
391.47557866015791
 31
0.0
 73
     3
  0
TEXT
  5
59
  8
SPEC
 62
     7
 10
-144.80000000000001
 20
498.1773833333333
 30
0.0
 40
5.7009440104166673
  1
形式
 41
0.7
 11
-144.80000000000001
 21
503.87832734375002
 31
0.0
 73
     3
  0
TEXT
  5
5A
  8
SPEC
 62
     7
 10
-47.299999999999962
 20
385.7746346497413
 30
0.0
 40
5.7009440104166673
  1
約700g
 41
0.7
 11
-47.299999999999962
 21
391.47557866015791
 31
0.0
 73
     3
  0
LINE
  5
5B
  8
SPEC
  6
CONTINUOUS
 62
     7
 10
-147.49999999999989
 20
394.56362999999999
 30
0.0
 11
295.00000000000011
 21
394.56362999999999
 31
0.0
  0
TEXT
  5
5C
  8
SPEC
 62
     7
 10
-144.80000000000001
 20
397.02464131640778
 30
0.0
 40
5.7009440104166673
  1
寸法
 41
0.7
 11
-144.80000000000001
 21
402.72558532682439
 31
0.0
 73
     3
  0
TEXT
  5
5D
  8
SPEC
 62
     7
 10
-47.29999999999999
 20
498.17739
 30
0.0
 40
5.7009440104166647
  1
HDMI分配機
 41
0.7
 11
-47.29999999999999
 21
503.87833401041661
 31
0.0
 73
     3
  0
TEXT
  5
5E
  8
SPEC
 62
     7
 10
-47.29999999999999
 20
486.92739
 30
0.0
 40
5.7009440104166647
  1
225MHz
 41
0.7
 11
-47.29999999999999
 21
492.62833401041672
 31
0.0
 73
     3
  0
TEXT
  5
5F
  8
SPEC
 62
     7
 10
-144.80000000000001
 20
486.92739
 30
0.0
 40
5.7009440104166647
  1
ビデオアンプ帯域
 41
0.7
 11
-144.80000000000001
 21
492.62833401041661
 31
0.0
 73
     3
  0
TEXT
  5
60
  8
SPEC
 62
     7
 10
-144.80000000000001
 20
475.6773833333333
 30
0.0
 40
5.7009440104166647
  1
入力ビデオ信号
 41
0.7
 11
-144.80000000000001
 21
481.37832734375002
 31
0.0
 73
     3
  0
TEXT
  5
61
  8
SPEC
 62
     7
 10
-47.29999999999999
 20
475.6773833333333
 30
0.0
 40
5.7009440104166647
  1
1.2volts p-p
 41
0.7
 11
-47.29999999999999
 21
481.37832734375002
 31
0.0
 73
     3
  0
TEXT
  5
62
  8
SPEC
 62
     7
 10
-144.80000000000001
 20
464.4273833333333
 30
0.0
 40
5.7009440104166647
  1
入力DDC信号
 41
0.7
 11
-144.80000000000001
 21
470.12832734375002
 31
0.0
 73
     3
  0
TEXT
  5
63
  8
SPEC
 62
     7
 10
-47.299999999999962
 20
464.4273833333333
 30
0.0
 40
5.7009440104166647
  1
5volts p-p
 41
0.7
 11
-47.299999999999962
 21
470.12832734375002
 31
0.0
 73
     3
  0
TEXT
  5
64
  8
SPEC
 62
     7
 10
-144.80000000000001
 20
453.1773833333333
 30
0.0
 40
5.7009440104166647
  1
最大対応解像度
 41
0.7
 11
-144.80000000000001
 21
458.87832734375002
 31
0.0
 73
     3
  0
TEXT
  5
65
  8
SPEC
 62
     7
 10
-47.299999999999962
 20
453.1773833333333
 30
0.0
 40
5.7009440104166647
  1
1080p,1920 x 1200
 41
0.7
 11
-47.299999999999962
 21
458.87832734375002
 31
0.0
 73
     3
  0
TEXT
  5
66
  8
SPEC
 62
     7
 10
-144.80000000000001
 20
441.9273833333333
 30
0.0
 40
5.7009440104166647
  1
HDMI入出力端子
 41
0.7
 11
-144.80000000000001
 21
447.62832734375002
 31
0.0
 73
     3
  0
TEXT
  5
67
  8
SPEC
 62
     7
 10
-47.299999999999962
 20
441.9273833333333
 30
0.0
 40
5.7009440104166647
  1
Type A,19pin メス
 41
0.7
 11
-47.299999999999962
 21
447.62832734375002
 31
0.0
 73
     3
  0
TEXT
  5
68
  8
SPEC
 62
     7
 10
-144.80000000000001
 20
430.6773833333333
 30
0.0
 40
5.7009440104166647
  1
Audio出力端子
 41
0.7
 11
-144.80000000000001
 21
436.3783273437499
 31
0.0
 73
     3
  0
TEXT
  5
69
  8
SPEC
 62
     7
 10
-47.299999999999962
 20
430.6773833333333
 30
0.0
 40
5.7009440104166647
  1
TOSLINK(Optical)デジタルタイプ
 41
0.7
 11
-47.299999999999962
 21
436.3783273437499
 31
0.0
 73
     3
  0
TEXT
  5
6A
  8
SPEC
 62
     7
 10
-144.80000000000001
 20
419.4273833333333
 30
0.0
 40
5.7009440104166647
  1
電源
 41
0.7
 11
-144.80000000000001
 21
425.12832734375002
 31
0.0
 73
     3
  0
TEXT
  5
6B
  8
SPEC
 62
     7
 10
-47.299999999999962
 20
419.4273833333333
 30
0.0
 40
5.7009440104166647
  1
5V DC
 41
0.7
 11
-47.299999999999962
 21
425.12832734375002
 31
0.0
 73
     3
  0
TEXT
  5
6C
  8
SPEC
 62
     7
 10
-144.80000000000001
 20
408.1773833333333
 30
0.0
 40
5.7009440104166647
  1
消費電力
 41
0.7
 11
-144.80000000000001
 21
413.87832734375002
 31
0.0
 73
     3
  0
TEXT
  5
6D
  8
SPEC
 62
     7
 10
-47.299999999999962
 20
408.1773833333333
 30
0.0
 40
5.7009440104166647
  1
13W(最大)
 41
0.7
 11
-47.299999999999962
 21
413.87832734375002
 31
0.0
 73
     3
  0
LINE
  5
6E
  8
SPEC
  6
CONTINUOUS
 62
     7
 10
-147.49999999999989
 20
405.81362999999999
 30
0.0
 11
295.0
 21
405.81362999999999
 31
0.0
  0
LINE
  5
6F
  8
SPEC
  6
CONTINUOUS
 62
     7
 10
-147.49999999999989
 20
394.56362999999999
 30
0.0
 11
295.00000000000011
 21
394.56362999999999
 31
0.0
  0
LINE
  5
70
  8
SPEC
  6
CONTINUOUS
 62
     7
 10
-147.4999999999998
 20
383.31362999999988
 30
0.0
 11
295.00000000000011
 21
383.31362999999988
 31
0.0
  0
TEXT
  5
71
  8
DIMNSIONS
 62
     7
 10
40.0
 20
-206.12790000000001
 30
0.0
 40
7.3297851562499989
  1
(単位：mm)
 41
0.7
 11
40.0
 21
-198.79811484375
 31
0.0
 73
     3
  0
LINE
  5
72
  8
DIMNSIONS
  6
CONTINUOUS
 62
     7
 10
-96.0
 20
-60.0
 30
0.0
 11
-126.0
 21
-60.0
 31
0.0
  0
LINE
  5
73
  8
DIMNSIONS
  6
CONTINUOUS
 62
     7
 10
-96.0
 20
-35.0
 30
0.0
 11
-126.0
 21
-35.0
 31
0.0
  0
LINE
  5
74
  8
DIMNSIONS
  6
CONTINUOUS
 62
     7
 10
-120.0
 20
-60.0
 30
0.0
 11
-120.0
 21
-35.0
 31
0.0
  0
LINE
  5
75
  8
DIMNSIONS
  6
CONTINUOUS
 62
     7
 10
-120.0
 20
-60.0
 30
0.0
 11
-122.01011938545069
 21
-52.498132324218737
 31
0.0
  0
LINE
  5
76
  8
DIMNSIONS
  6
CONTINUOUS
 62
     7
 10
-120.0
 20
-60.0
 30
0.0
 11
-117.98988061454931
 21
-52.498132324218737
 31
0.0
  0
LINE
  5
77
  8
DIMNSIONS
  6
CONTINUOUS
 62
     7
 10
-120.0
 20
-35.0
 30
0.0
 11
-117.98988061454931
 21
-42.501867675781263
 31
0.0
  0
LINE
  5
78
  8
DIMNSIONS
  6
CONTINUOUS
 62
     7
 10
-120.0
 20
-35.0
 30
0.0
 11
-122.01011938545069
 21
-42.501867675781263
 31
0.0
  0
TEXT
  5
79
  8
DIMNSIONS
 62
     7
 10
-122.9816666666666
 20
-52.79166666666665
 30
0.0
 40
8.1442057291666661
  1
25
 50
90.0
 41
0.7
 11
-131.12587239583331
 21
-52.79166666666665
 31
0.0
 73
     3
  0
LINE
  5
7A
  8
DIMNSIONS
  6
CONTINUOUS
 62
     7
 10
-96.0
 20
-60.0
 30
0.0
 11
-126.0
 21
-60.0
 31
0.0
  0
LINE
  5
7B
  8
DIMNSIONS
  6
CONTINUOUS
 62
     7
 10
-79.500000000000014
 20
-65.0
 30
0.0
 11
-126.0
 21
-65.0
 31
0.0
  0
LINE
  5
7C
  8
DIMNSIONS
  6
CONTINUOUS
 62
     7
 10
-120.0
 20
-65.0
 30
0.0
 11
-120.0
 21
-60.0
 31
0.0
  0
LINE
  5
7D
  8
DIMNSIONS
  6
CONTINUOUS
 62
     7
 10
-120.0
 20
-60.0
 30
0.0
 11
-120.0
 21
-45.0
 31
0.0
  0
LINE
  5
7E
  8
DIMNSIONS
  6
CONTINUOUS
 62
     7
 10
-120.0
 20
-60.0
 30
0.0
 11
-122.01011938545069
 21
-52.498132324218737
 31
0.0
  0
LINE
  5
7F
  8
DIMNSIONS
  6
CONTINUOUS
 62
     7
 10
-120.0
 20
-60.0
 30
0.0
 11
-117.98988061454931
 21
-52.498132324218737
 31
0.0
  0
LINE
  5
80
  8
DIMNSIONS
  6
CONTINUOUS
 62
     7
 10
-120.0
 20
-65.0
 30
0.0
 11
-120.0
 21
-80.291666666666657
 31
0.0
  0
LINE
  5
81
  8
DIMNSIONS
  6
CONTINUOUS
 62
     7
 10
-120.0
 20
-65.0
 30
0.0
 11
-117.98988061454931
 21
-72.501867675781256
 31
0.0
  0
LINE
  5
82
  8
DIMNSIONS
  6
CONTINUOUS
 62
     7
 10
-120.0
 20
-65.0
 30
0.0
 11
-122.01011938545069
 21
-72.501867675781256
 31
0.0
  0
TEXT
  5
83
  8
DIMNSIONS
 62
     7
 10
-122.9816666666667
 20
-80.291666666666657
 30
0.0
 40
8.1442057291666661
  1
5
 50
90.0
 41
0.7
 11
-131.12587239583331
 21
-80.291666666666657
 31
0.0
 73
     3
  0
LINE
  5
84
  8
DIMNSIONS
  6
CONTINUOUS
 62
     7
 10
-90.000000000000014
 20
-66.0
 30
0.0
 11
-90.000000000000014
 21
-111.0
 31
0.0
  0
LINE
  5
85
  8
DIMNSIONS
  6
CONTINUOUS
 62
     7
 10
151.0
 20
-66.0
 30
0.0
 11
151.0
 21
-111.0
 31
0.0
  0
LINE
  5
86
  8
DIMNSIONS
  6
CONTINUOUS
 62
     7
 10
-90.000000000000014
 20
-105.0
 30
0.0
 11
151.0
 21
-105.0
 31
0.0
  0
LINE
  5
87
  8
DIMNSIONS
  6
CONTINUOUS
 62
     7
 10
-90.000000000000014
 20
-105.0
 30
0.0
 11
-82.498132324218759
 21
-102.98988061454931
 31
0.0
  0
LINE
  5
88
  8
DIMNSIONS
  6
CONTINUOUS
 62
     7
 10
-90.000000000000014
 20
-105.0
 30
0.0
 11
-82.498132324218759
 21
-107.01011938545069
 31
0.0
  0
LINE
  5
89
  8
DIMNSIONS
  6
CONTINUOUS
 62
     7
 10
151.0
 20
-105.0
 30
0.0
 11
143.49813232421869
 21
-107.01011938545069
 31
0.0
  0
LINE
  5
8A
  8
DIMNSIONS
  6
CONTINUOUS
 62
     7
 10
151.0
 20
-105.0
 30
0.0
 11
143.49813232421869
 21
-102.98988061454931
 31
0.0
  0
TEXT
  5
8B
  8
DIMNSIONS
 62
     7
 10
22.562499999999989
 20
-102.0183333333333
 30
0.0
 40
8.1442057291666661
  1
241
 41
0.7
 11
22.562499999999989
 21
-93.874127604166645
 31
0.0
 73
     3
  0
LINE
  5
8C
  8
DIMNSIONS
  6
CONTINUOUS
 62
     7
 10
-90.000000000000014
 20
103.2
 30
0.0
 11
-126.0
 21
103.2
 31
0.0
  0
LINE
  5
8D
  8
DIMNSIONS
  6
CONTINUOUS
 62
     7
 10
-90.000000000000014
 20
0.0
 30
0.0
 11
-126.0
 21
0.0
 31
0.0
  0
LINE
  5
8E
  8
DIMNSIONS
  6
CONTINUOUS
 62
     7
 10
-120.0
 20
103.2
 30
0.0
 11
-120.0
 21
0.0
 31
0.0
  0
LINE
  5
8F
  8
DIMNSIONS
  6
CONTINUOUS
 62
     7
 10
-120.0
 20
103.2
 30
0.0
 11
-117.98988061454931
 21
95.698132324218776
 31
0.0
  0
LINE
  5
90
  8
DIMNSIONS
  6
CONTINUOUS
 62
     7
 10
-120.0
 20
103.2
 30
0.0
 11
-122.01011938545069
 21
95.698132324218776
 31
0.0
  0
LINE
  5
91
  8
DIMNSIONS
  6
CONTINUOUS
 62
     7
 10
-120.0
 20
0.0
 30
0.0
 11
-122.01011938545069
 21
7.5018676757812539
 31
0.0
  0
LINE
  5
92
  8
DIMNSIONS
  6
CONTINUOUS
 62
     7
 10
-120.0
 20
0.0
 30
0.0
 11
-117.98988061454931
 21
7.5018676757812539
 31
0.0
  0
TEXT
  5
93
  8
DIMNSIONS
 62
     7
 10
-122.9816666666666
 20
43.662499999999987
 30
0.0
 40
8.1442057291666661
  1
103
 50
90.0
 41
0.7
 11
-131.12587239583331
 21
43.662499999999987
 31
0.0
 73
     3
  0
LINE
  5
94
  8
DIMNSIONS
  6
CONTINUOUS
 62
     7
 10
-90.000000000000014
 20
103.2
 30
0.0
 11
-126.0
 21
103.2
 31
0.0
  0
LINE
  5
95
  8
DIMNSIONS
  6
CONTINUOUS
 62
     7
 10
-40.752888604923847
 20
109.2
 30
0.0
 11
-126.0
 21
109.2
 31
0.0
  0
LINE
  5
96
  8
DIMNSIONS
  6
CONTINUOUS
 62
     7
 10
-120.0
 20
109.2
 30
0.0
 11
-120.0
 21
103.2
 31
0.0
  0
LINE
  5
97
  8
DIMNSIONS
  6
CONTINUOUS
 62
     7
 10
-120.0
 20
103.2
 30
0.0
 11
-120.0
 21
88.200000000000003
 31
0.0
  0
LINE
  5
98
  8
DIMNSIONS
  6
CONTINUOUS
 62
     7
 10
-120.0
 20
103.2
 30
0.0
 11
-117.98988061454931
 21
95.698132324218776
 31
0.0
  0
LINE
  5
99
  8
DIMNSIONS
  6
CONTINUOUS
 62
     7
 10
-120.0
 20
103.2
 30
0.0
 11
-122.01011938545069
 21
95.698132324218776
 31
0.0
  0
LINE
  5
9A
  8
DIMNSIONS
  6
CONTINUOUS
 62
     7
 10
-120.0
 20
109.2
 30
0.0
 11
-120.0
 21
125.2916666666666
 31
0.0
  0
LINE
  5
9B
  8
DIMNSIONS
  6
CONTINUOUS
 62
     7
 10
-120.0
 20
109.2
 30
0.0
 11
-122.01011938545069
 21
116.7018676757812
 31
0.0
  0
LINE
  5
9C
  8
DIMNSIONS
  6
CONTINUOUS
 62
     7
 10
-120.0
 20
109.2
 30
0.0
 11
-117.98988061454931
 21
116.7018676757812
 31
0.0
  0
TEXT
  5
9D
  8
DIMNSIONS
 62
     7
 10
-122.9816666666667
 20
120.0
 30
0.0
 40
8.1442057291666661
  1
6
 50
90.0
 41
0.7
 11
-131.12587239583331
 21
120.0
 31
0.0
 73
     3
  0
LINE
  5
9E
  8
DIMNSIONS
  6
CONTINUOUS
 62
     7
 10
-90.000000000000014
 20
0.0
 30
0.0
 11
-126.0
 21
0.0
 31
0.0
  0
LINE
  5
9F
  8
DIMNSIONS
  6
CONTINUOUS
 62
     7
 10
-56.000000000000021
 20
-2.0
 30
0.0
 11
-126.0
 21
-2.0
 31
0.0
  0
LINE
  5
A0
  8
DIMNSIONS
  6
CONTINUOUS
 62
     7
 10
-120.0
 20
-2.0
 30
0.0
 11
-120.0
 21
0.0
 31
0.0
  0
LINE
  5
A1
  8
DIMNSIONS
  6
CONTINUOUS
 62
     7
 10
-120.0
 20
0.0
 30
0.0
 11
-120.0
 21
15.0
 31
0.0
  0
LINE
  5
A2
  8
DIMNSIONS
  6
CONTINUOUS
 62
     7
 10
-120.0
 20
0.0
 30
0.0
 11
-122.01011938545069
 21
7.5018676757812539
 31
0.0
  0
LINE
  5
A3
  8
DIMNSIONS
  6
CONTINUOUS
 62
     7
 10
-120.0
 20
0.0
 30
0.0
 11
-117.98988061454931
 21
7.5018676757812539
 31
0.0
  0
LINE
  5
A4
  8
DIMNSIONS
  6
CONTINUOUS
 62
     7
 10
-120.0
 20
-2.0
 30
0.0
 11
-120.0
 21
-20.791666666666661
 31
0.0
  0
LINE
  5
A5
  8
DIMNSIONS
  6
CONTINUOUS
 62
     7
 10
-120.0
 20
-2.0
 30
0.0
 11
-117.98988061454931
 21
-9.5018676757812557
 31
0.0
  0
LINE
  5
A6
  8
DIMNSIONS
  6
CONTINUOUS
 62
     7
 10
-120.0
 20
-2.0
 30
0.0
 11
-122.01011938545069
 21
-9.5018676757812557
 31
0.0
  0
TEXT
  5
A7
  8
DIMNSIONS
 62
     7
 10
-122.9816666666667
 20
-20.791666666666661
 30
0.0
 40
8.1442057291666661
  1
2
 50
90.0
 41
0.7
 11
-131.12587239583331
 21
-20.791666666666661
 31
0.0
 73
     3
  0
TEXT
  5
A8
  8
DATA
 62
     7
 10
-139.99999999999989
 20
-230.2223700000001
 30
0.0
 40
4.8865234374999993
  1
仕様および外観は予告なく変更されることがありますので、ご了承ください。
 41
0.7
 11
-139.99999999999989
 21
-225.33584656250011
 31
0.0
 73
     3
  0
TEXT
  5
A9
  8
DATA
 62
     7
 10
250.0
 20
-209.54369999999989
 30
0.0
 40
7.3297851562499989
  1
EXT-HDMI1.3-142D
 41
0.7
 11
250.0
 21
-202.21391484374999
 31
0.0
 73
     3
  0
TEXT
  5
AA
  8
DATA
 62
     7
 10
250.0
 20
-187.7937
 30
0.0
 40
7.3297851562499989
  1
Gefen
 41
0.7
 11
250.0
 21
-180.46391484374999
 31
0.0
 73
     3
  0
TEXT
  5
AB
  8
DATA
 62
     7
 10
250.0
 20
-198.2245650000001
 30
0.0
 40
4.8865234374999993
  1
HDMI分配機
 41
0.7
 11
250.0
 21
-193.33804156250011
 31
0.0
 73
     3
  0
POLYLINE
  5
AC
  8
DATA
  6
CONTINUOUS
 62
     7
 66
     1
 10
0.0
 20
0.0
 30
0.0
 70
     1
  0
VERTEX
  5
238
  8
DATA
  6
CONTINUOUS
 62
     7
 10
210.0
 20
-35.0
 30
0.0
  0
VERTEX
  5
239
  8
DATA
  6
CONTINUOUS
 62
     7
 10
313.2000000000001
 20
-35.0
 30
0.0
  0
VERTEX
  5
23A
  8
DATA
  6
CONTINUOUS
 62
     7
 10
313.2000000000001
 20
-60.0
 30
0.0
  0
VERTEX
  5
23B
  8
DATA
  6
CONTINUOUS
 62
     7
 10
210.0
 20
-60.0
 30
0.0
  0
SEQEND
  5
23C
  8
DATA
  6
CONTINUOUS
 62
     7
  0
ARC
  5
B3
  8
DATA
  6
CONTINUOUS
 62
     7
 10
-84.000000000000014
 20
97.200000000000003
 30
0.0
 40
6.0
 50
90.0
 51
180.0
  0
ARC
  5
B4
  8
DATA
  6
CONTINUOUS
 62
     7
 10
-84.000000000000014
 20
6.0
 30
0.0
 40
6.0
 50
180.0
 51
270.0
  0
ARC
  5
B5
  8
DATA
  6
CONTINUOUS
 62
     7
 10
145.0
 20
6.0
 30
0.0
 40
6.0
 50
270.0
 51
0.0
  0
ARC
  5
B6
  8
DATA
  6
CONTINUOUS
 62
     7
 10
145.0
 20
97.200000000000003
 30
0.0
 40
6.0
 50
0.0
 51
90.0
  0
POLYLINE
  5
B7
  8
DATA
  6
CONTINUOUS
 62
     7
 66
     1
 10
0.0
 20
0.0
 30
0.0
 70
     1
  0
VERTEX
  5
23D
  8
DATA
  6
CONTINUOUS
 62
     7
 10
-90.000000000000014
 20
97.200000000000003
 30
0.0
  0
VERTEX
  5
23E
  8
DATA
  6
CONTINUOUS
 62
     7
 10
-88.000000000000014
 20
97.200000000000003
 30
0.0
  0
VERTEX
  5
23F
  8
DATA
  6
CONTINUOUS
 62
     7
 10
-88.000000000000014
 20
6.0
 30
0.0
  0
VERTEX
  5
240
  8
DATA
  6
CONTINUOUS
 62
     7
 10
-90.000000000000014
 20
6.0
 30
0.0
  0
SEQEND
  5
241
  8
DATA
  6
CONTINUOUS
 62
     7
  0
POLYLINE
  5
BE
  8
DATA
  6
CONTINUOUS
 62
     7
 66
     1
 10
0.0
 20
0.0
 30
0.0
 70
     1
  0
VERTEX
  5
242
  8
DATA
  6
CONTINUOUS
 62
     7
 10
-84.000000000000014
 20
103.2
 30
0.0
  0
VERTEX
  5
243
  8
DATA
  6
CONTINUOUS
 62
     7
 10
145.0
 20
103.2
 30
0.0
  0
VERTEX
  5
244
  8
DATA
  6
CONTINUOUS
 62
     7
 10
145.0
 20
101.2
 30
0.0
  0
VERTEX
  5
245
  8
DATA
  6
CONTINUOUS
 62
     7
 10
-84.000000000000014
 20
101.2
 30
0.0
  0
SEQEND
  5
246
  8
DATA
  6
CONTINUOUS
 62
     7
  0
POLYLINE
  5
C5
  8
DATA
  6
CONTINUOUS
 62
     7
 66
     1
 10
0.0
 20
0.0
 30
0.0
 70
     1
  0
VERTEX
  5
247
  8
DATA
  6
CONTINUOUS
 62
     7
 10
-84.000000000000014
 20
2.0
 30
0.0
  0
VERTEX
  5
248
  8
DATA
  6
CONTINUOUS
 62
     7
 10
145.0
 20
2.0
 30
0.0
  0
VERTEX
  5
249
  8
DATA
  6
CONTINUOUS
 62
     7
 10
145.0
 20
0.0
 30
0.0
  0
VERTEX
  5
24A
  8
DATA
  6
CONTINUOUS
 62
     7
 10
-84.000000000000014
 20
0.0
 30
0.0
  0
SEQEND
  5
24B
  8
DATA
  6
CONTINUOUS
 62
     7
  0
POLYLINE
  5
CC
  8
DATA
  6
CONTINUOUS
 62
     7
 66
     1
 10
0.0
 20
0.0
 30
0.0
 70
     1
  0
VERTEX
  5
24C
  8
DATA
  6
CONTINUOUS
 62
     7
 10
149.0
 20
97.200000000000003
 30
0.0
  0
VERTEX
  5
24D
  8
DATA
  6
CONTINUOUS
 62
     7
 10
151.0
 20
97.200000000000003
 30
0.0
  0
VERTEX
  5
24E
  8
DATA
  6
CONTINUOUS
 62
     7
 10
151.0
 20
6.0
 30
0.0
  0
VERTEX
  5
24F
  8
DATA
  6
CONTINUOUS
 62
     7
 10
149.0
 20
6.0
 30
0.0
  0
SEQEND
  5
250
  8
DATA
  6
CONTINUOUS
 62
     7
  0
POLYLINE
  5
D3
  8
DATA
  6
CONTINUOUS
 62
     7
 66
     1
 10
0.0
 20
0.0
 30
0.0
 70
     1
  0
VERTEX
  5
251
  8
DATA
  6
CONTINUOUS
 62
     7
 10
-90.000000000000014
 20
-35.0
 30
0.0
  0
VERTEX
  5
252
  8
DATA
  6
CONTINUOUS
 62
     7
 10
151.0
 20
-35.0
 30
0.0
  0
VERTEX
  5
253
  8
DATA
  6
CONTINUOUS
 62
     7
 10
151.0
 20
-60.0
 30
0.0
  0
VERTEX
  5
254
  8
DATA
  6
CONTINUOUS
 62
     7
 10
-90.000000000000014
 20
-60.0
 30
0.0
  0
SEQEND
  5
255
  8
DATA
  6
CONTINUOUS
 62
     7
  0
CIRCLE
  5
DA
  8
DATA
  6
CONTINUOUS
 62
     7
 10
-50.000000000000021
 20
-48.0
 30
0.0
 40
1.5
  0
CIRCLE
  5
DB
  8
DATA
  6
CONTINUOUS
 62
     7
 10
0.9999999999999857
 20
-48.0
 30
0.0
 40
1.5
  0
CIRCLE
  5
DC
  8
DATA
  6
CONTINUOUS
 62
     7
 10
33.999999999999993
 20
-48.0
 30
0.0
 40
1.5
  0
CIRCLE
  5
DD
  8
DATA
  6
CONTINUOUS
 62
     7
 10
66.999999999999986
 20
-48.0
 30
0.0
 40
1.5
  0
TEXT
  5
DE
  8
DATA
 62
     7
 10
-55.2916666666667
 20
-56.524000000000001
 30
0.0
 40
3.2576822916666659
  1
Power
 41
0.7
 11
-55.2916666666667
 21
-53.266317708333332
 31
0.0
 73
     3
  0
TEXT
  5
DF
  8
DATA
 62
     7
 10
-2.1750000000000389
 20
-56.524000000000001
 30
0.0
 40
3.2576822916666659
  1
Int
 41
0.7
 11
-2.1750000000000389
 21
-53.266317708333332
 31
0.0
 73
     3
  0
TEXT
  5
E0
  8
DATA
 62
     7
 10
30.824999999999999
 20
-56.524000000000001
 30
0.0
 40
3.2576822916666659
  1
Ext
 41
0.7
 11
30.824999999999999
 21
-53.266317708333332
 31
0.0
 73
     3
  0
TEXT
  5
E1
  8
DATA
 62
     7
 10
62.766666666666652
 20
-56.524000000000001
 30
0.0
 40
3.2576822916666659
  1
Link
 41
0.7
 11
62.766666666666652
 21
-53.266317708333332
 31
0.0
 73
     3
  0
TEXT
  5
E2
  8
DATA
 62
     7
 10
96.466515615099695
 20
-49.785999999999987
 30
0.0
 40
4.8865234374999993
  1
1:2 Splitter
 41
0.7
 11
96.466515615099695
 21
-44.899476562499977
 31
0.0
 73
     3
  0
TEXT
  5
E3
  8
DATA
 62
     7
 10
85.0
 20
-57.285999999999987
 30
0.0
 40
4.8865234374999993
  1
for HDMI 1.3
 41
0.7
 11
85.0
 21
-52.399476562499991
 31
0.0
 73
     3
  0
LINE
  5
E4
  8
DATA
  6
CONTINUOUS
 62
     7
 10
216.0
 20
-35.0
 30
0.0
 11
216.0
 21
-38.0
 31
0.0
  0
LINE
  5
E5
  8
DATA
  6
CONTINUOUS
 62
     7
 10
216.0
 20
-38.0
 30
0.0
 11
218.0
 21
-38.0
 31
0.0
  0
LINE
  5
E6
  8
DATA
  6
CONTINUOUS
 62
     7
 10
218.0
 20
-38.0
 30
0.0
 11
218.0
 21
-60.0
 31
0.0
  0
CIRCLE
  5
E7
  8
DATA
  6
CONTINUOUS
 62
     7
 10
223.0
 20
-55.5
 30
0.0
 40
2.5
  0
LINE
  5
E8
  8
DATA
  6
CONTINUOUS
 62
     7
 10
223.0
 20
-54.0
 30
0.0
 11
223.0
 21
-57.0
 31
0.0
  0
LINE
  5
E9
  8
DATA
  6
CONTINUOUS
 62
     7
 10
221.5
 20
-55.5
 30
0.0
 11
224.5
 21
-55.5
 31
0.0
  0
CIRCLE
  5
EA
  8
DATA
  6
CONTINUOUS
 62
     7
 10
223.0
 20
-55.5
 30
0.0
 40
2.5
  0
LINE
  5
EB
  8
DATA
  6
CONTINUOUS
 62
     7
 10
223.0
 20
-54.0
 30
0.0
 11
223.0
 21
-57.0
 31
0.0
  0
LINE
  5
EC
  8
DATA
  6
CONTINUOUS
 62
     7
 10
221.5
 20
-55.5
 30
0.0
 11
224.5
 21
-55.5
 31
0.0
  0
CIRCLE
  5
ED
  8
DATA
  6
CONTINUOUS
 62
     7
 10
223.0
 20
-43.0
 30
0.0
 40
2.5
  0
LINE
  5
EE
  8
DATA
  6
CONTINUOUS
 62
     7
 10
223.0
 20
-41.5
 30
0.0
 11
223.0
 21
-44.5
 31
0.0
  0
LINE
  5
EF
  8
DATA
  6
CONTINUOUS
 62
     7
 10
221.5
 20
-43.0
 30
0.0
 11
224.5
 21
-43.0
 31
0.0
  0
CIRCLE
  5
F0
  8
DATA
  6
CONTINUOUS
 62
     7
 10
223.0
 20
-43.0
 30
0.0
 40
2.5
  0
LINE
  5
F1
  8
DATA
  6
CONTINUOUS
 62
     7
 10
223.0
 20
-41.5
 30
0.0
 11
223.0
 21
-44.5
 31
0.0
  0
LINE
  5
F2
  8
DATA
  6
CONTINUOUS
 62
     7
 10
221.5
 20
-43.0
 30
0.0
 11
224.5
 21
-43.0
 31
0.0
  0
LINE
  5
F3
  8
DATA
  6
CONTINUOUS
 62
     7
 10
-73.500000000000014
 20
-65.0
 30
0.0
 11
-55.500000000000021
 21
-65.0
 31
0.0
  0
LINE
  5
F4
  8
DATA
  6
CONTINUOUS
 62
     7
 10
-73.500000000000014
 20
-65.0
 30
0.0
 11
-74.250000000000014
 21
-60.0
 31
0.0
  0
LINE
  5
F5
  8
DATA
  6
CONTINUOUS
 62
     7
 10
-55.500000000000021
 20
-65.0
 30
0.0
 11
-54.750000000000021
 21
-60.0
 31
0.0
  0
LINE
  5
F6
  8
DATA
  6
CONTINUOUS
 62
     7
 10
116.5
 20
-65.0
 30
0.0
 11
134.5
 21
-65.0
 31
0.0
  0
LINE
  5
F7
  8
DATA
  6
CONTINUOUS
 62
     7
 10
116.5
 20
-65.0
 30
0.0
 11
115.75
 21
-60.0
 31
0.0
  0
LINE
  5
F8
  8
DATA
  6
CONTINUOUS
 62
     7
 10
134.5
 20
-65.0
 30
0.0
 11
135.25
 21
-60.0
 31
0.0
  0
LINE
  5
F9
  8
DATA
  6
CONTINUOUS
 62
     7
 10
225.75
 20
-65.0
 30
0.0
 11
243.75
 21
-65.0
 31
0.0
  0
LINE
  5
FA
  8
DATA
  6
CONTINUOUS
 62
     7
 10
225.75
 20
-65.0
 30
0.0
 11
225.0
 21
-60.0
 31
0.0
  0
LINE
  5
FB
  8
DATA
  6
CONTINUOUS
 62
     7
 10
243.75
 20
-65.0
 30
0.0
 11
244.5
 21
-60.0
 31
0.0
  0
LINE
  5
FC
  8
DATA
  6
CONTINUOUS
 62
     7
 10
283.75
 20
-65.0
 30
0.0
 11
301.75
 21
-65.0
 31
0.0
  0
LINE
  5
FD
  8
DATA
  6
CONTINUOUS
 62
     7
 10
283.75
 20
-65.0
 30
0.0
 11
283.0
 21
-60.0
 31
0.0
  0
LINE
  5
FE
  8
DATA
  6
CONTINUOUS
 62
     7
 10
301.75
 20
-65.0
 30
0.0
 11
302.5
 21
-60.0
 31
0.0
  0
LINE
  5
FF
  8
DATA
  6
CONTINUOUS
 62
     7
 10
93.499999999999986
 20
103.2
 30
0.0
 11
93.499999999999986
 21
105.7
 31
0.0
  0
LINE
  5
100
  8
DATA
  6
CONTINUOUS
 62
     7
 10
97.5
 20
103.2
 30
0.0
 11
97.5
 21
105.7
 31
0.0
  0
LINE
  5
101
  8
DATA
  6
CONTINUOUS
 62
     7
 10
97.5
 20
105.7
 30
0.0
 11
93.499999999999986
 21
105.7
 31
0.0
  0
LINE
  5
102
  8
DATA
  6
CONTINUOUS
 62
     7
 10
109.5
 20
103.2
 30
0.0
 11
109.5
 21
105.7
 31
0.0
  0
LINE
  5
103
  8
DATA
  6
CONTINUOUS
 62
     7
 10
113.5
 20
103.2
 30
0.0
 11
113.5
 21
105.7
 31
0.0
  0
LINE
  5
104
  8
DATA
  6
CONTINUOUS
 62
     7
 10
113.5
 20
105.7
 30
0.0
 11
109.5
 21
105.7
 31
0.0
  0
LINE
  5
105
  8
DATA
  6
CONTINUOUS
 62
     7
 10
-34.752888604923861
 20
103.2
 30
0.0
 11
-34.752888604923861
 21
109.2
 31
0.0
  0
LINE
  5
106
  8
DATA
  6
CONTINUOUS
 62
     7
 10
-29.247111395076171
 20
103.2
 30
0.0
 11
-29.247111395076171
 21
109.2
 31
0.0
  0
LINE
  5
107
  8
DATA
  6
CONTINUOUS
 62
     7
 10
-34.752888604923861
 20
109.2
 30
0.0
 11
-29.247111395076171
 21
109.2
 31
0.0
  0
LINE
  5
108
  8
DATA
  6
CONTINUOUS
 62
     7
 10
-32.737634278542217
 20
109.2
 30
0.0
 11
-32.737634278542217
 21
103.2
 31
0.0
  0
POLYLINE
  5
109
  8
DATA
  6
CONTINUOUS
 62
     7
 66
     1
 10
0.0
 20
0.0
 30
0.0
 70
     1
  0
VERTEX
  5
256
  8
DATA
  6
CONTINUOUS
 62
     7
 10
-90.000000000000014
 20
175.0
 30
0.0
  0
VERTEX
  5
257
  8
DATA
  6
CONTINUOUS
 62
     7
 10
151.0
 20
175.0
 30
0.0
  0
VERTEX
  5
258
  8
DATA
  6
CONTINUOUS
 62
     7
 10
151.0
 20
150.0
 30
0.0
  0
VERTEX
  5
259
  8
DATA
  6
CONTINUOUS
 62
     7
 10
-90.000000000000014
 20
150.0
 30
0.0
  0
SEQEND
  5
25A
  8
DATA
  6
CONTINUOUS
 62
     7
  0
POLYLINE
  5
110
  8
DATA
  6
CONTINUOUS
 62
     7
 66
     1
 10
0.0
 20
0.0
 30
0.0
 70
     1
  0
VERTEX
  5
25B
  8
DATA
  6
CONTINUOUS
 62
     7
 10
121.5
 20
168.0
 30
0.0
  0
VERTEX
  5
25C
  8
DATA
  6
CONTINUOUS
 62
     7
 10
132.0
 20
168.0
 30
0.0
  0
VERTEX
  5
25D
  8
DATA
  6
CONTINUOUS
 62
     7
 10
132.0
 20
157.5
 30
0.0
  0
VERTEX
  5
25E
  8
DATA
  6
CONTINUOUS
 62
     7
 10
121.5
 20
157.5
 30
0.0
  0
SEQEND
  5
25F
  8
DATA
  6
CONTINUOUS
 62
     7
  0
LINE
  5
117
  8
DATA
  6
CONTINUOUS
 62
     7
 10
130.5
 20
159.0
 30
0.0
 11
123.0
 21
159.0
 31
0.0
  0
LINE
  5
118
  8
DATA
  6
CONTINUOUS
 62
     7
 10
128.75
 20
166.5
 30
0.0
 11
124.75
 21
166.5
 31
0.0
  0
LINE
  5
119
  8
DATA
  6
CONTINUOUS
 62
     7
 10
130.5
 20
159.0
 30
0.0
 11
130.5
 21
164.0
 31
0.0
  0
LINE
  5
11A
  8
DATA
  6
CONTINUOUS
 62
     7
 10
123.0
 20
164.0
 30
0.0
 11
123.0
 21
159.0
 31
0.0
  0
LINE
  5
11B
  8
DATA
  6
CONTINUOUS
 62
     7
 10
128.75
 20
166.5
 30
0.0
 11
129.75
 21
165.5
 31
0.0
  0
LINE
  5
11C
  8
DATA
  6
CONTINUOUS
 62
     7
 10
124.75
 20
166.5
 30
0.0
 11
123.75
 21
165.5
 31
0.0
  0
LINE
  5
11D
  8
DATA
  6
CONTINUOUS
 62
     7
 10
130.5
 20
164.0
 30
0.0
 11
129.75
 21
164.0
 31
0.0
  0
LINE
  5
11E
  8
DATA
  6
CONTINUOUS
 62
     7
 10
123.75
 20
164.0
 30
0.0
 11
123.0
 21
164.0
 31
0.0
  0
LINE
  5
11F
  8
DATA
  6
CONTINUOUS
 62
     7
 10
129.75
 20
165.5
 30
0.0
 11
129.75
 21
164.0
 31
0.0
  0
LINE
  5
120
  8
DATA
  6
CONTINUOUS
 62
     7
 10
123.75
 20
165.5
 30
0.0
 11
123.75
 21
164.0
 31
0.0
  0
CIRCLE
  5
121
  8
DATA
  6
CONTINUOUS
 62
     7
 10
111.5
 20
164.0
 30
0.0
 40
2.0
  0
CIRCLE
  5
122
  8
DATA
  6
CONTINUOUS
 62
     7
 10
95.499999999999986
 20
164.0
 30
0.0
 40
2.0
  0
LINE
  5
123
  8
DATA
  6
CONTINUOUS
 62
     7
 10
79.499999999999986
 20
165.5
 30
0.0
 11
79.499999999999986
 21
162.0
 31
0.0
  0
LINE
  5
124
  8
DATA
  6
CONTINUOUS
 62
     7
 10
64.499999999999986
 20
162.0
 30
0.0
 11
64.499999999999986
 21
165.5
 31
0.0
  0
LINE
  5
125
  8
DATA
  6
CONTINUOUS
 62
     7
 10
79.499999999999986
 20
162.0
 30
0.0
 11
64.499999999999986
 21
162.0
 31
0.0
  0
LINE
  5
126
  8
DATA
  6
CONTINUOUS
 62
     7
 10
77.99999999999973
 20
167.0
 30
0.0
 11
66.000000000000199
 21
167.0
 31
0.0
  0
ARC
  5
127
  8
DATA
  6
CONTINUOUS
 62
     7
 10
80.056249999999935
 20
167.55624999999989
 30
0.0
 40
2.130159178324416
 50
195.1371656437243
 51
254.8628343562761
  0
ARC
  5
128
  8
DATA
  6
CONTINUOUS
 62
     7
 10
63.94375000000003
 20
167.55624999999989
 30
0.0
 40
2.1301591783244249
 50
285.1371656437239
 51
344.8628343562757
  0
POLYLINE
  5
129
  8
DATA
  6
CONTINUOUS
 62
     7
 66
     1
 10
0.0
 20
0.0
 30
0.0
 70
     1
  0
VERTEX
  5
260
  8
DATA
  6
CONTINUOUS
 62
     7
 10
66.999999999999986
 20
164.75
 30
0.0
  0
VERTEX
  5
261
  8
DATA
  6
CONTINUOUS
 62
     7
 10
76.999999999999986
 20
164.75
 30
0.0
  0
VERTEX
  5
262
  8
DATA
  6
CONTINUOUS
 62
     7
 10
76.999999999999986
 20
164.25
 30
0.0
  0
VERTEX
  5
263
  8
DATA
  6
CONTINUOUS
 62
     7
 10
66.999999999999986
 20
164.25
 30
0.0
  0
SEQEND
  5
264
  8
DATA
  6
CONTINUOUS
 62
     7
  0
LINE
  5
130
  8
DATA
  6
CONTINUOUS
 62
     7
 10
74.015254326381651
 20
151.98474567361831
 30
0.0
 11
74.752888604923811
 21
154.7376342785422
 31
0.0
  0
LINE
  5
131
  8
DATA
  6
CONTINUOUS
 62
     7
 10
74.752888604923811
 20
154.7376342785422
 30
0.0
 11
72.737634278542188
 21
156.75288860492381
 31
0.0
  0
LINE
  5
132
  8
DATA
  6
CONTINUOUS
 62
     7
 10
72.737634278542188
 20
156.75288860492381
 30
0.0
 11
69.98474567361832
 21
156.01525432638169
 31
0.0
  0
LINE
  5
133
  8
DATA
  6
CONTINUOUS
 62
     7
 10
69.98474567361832
 20
156.01525432638169
 30
0.0
 11
69.247111395076146
 21
153.2623657214578
 31
0.0
  0
LINE
  5
134
  8
DATA
  6
CONTINUOUS
 62
     7
 10
69.247111395076146
 20
153.2623657214578
 30
0.0
 11
71.262365721457812
 21
151.2471113950761
 31
0.0
  0
LINE
  5
135
  8
DATA
  6
CONTINUOUS
 62
     7
 10
71.262365721457812
 20
151.2471113950761
 30
0.0
 11
74.015254326381651
 21
151.98474567361831
 31
0.0
  0
CIRCLE
  5
136
  8
DATA
  6
CONTINUOUS
 62
     7
 10
71.999999999999986
 20
154.0
 30
0.0
 40
1.4999999999999969
  0
LINE
  5
137
  8
DATA
  6
CONTINUOUS
 62
     7
 10
9.499999999999984
 20
165.5
 30
0.0
 11
9.499999999999984
 21
162.0
 31
0.0
  0
LINE
  5
138
  8
DATA
  6
CONTINUOUS
 62
     7
 10
-5.5000000000000142
 20
162.0
 30
0.0
 11
-5.5000000000000142
 21
165.5
 31
0.0
  0
LINE
  5
139
  8
DATA
  6
CONTINUOUS
 62
     7
 10
9.499999999999984
 20
162.0
 30
0.0
 11
-5.5000000000000142
 21
162.0
 31
0.0
  0
LINE
  5
13A
  8
DATA
  6
CONTINUOUS
 62
     7
 10
7.9999999999997442
 20
167.0
 30
0.0
 11
-3.999999999999801
 21
167.0
 31
0.0
  0
ARC
  5
13B
  8
DATA
  6
CONTINUOUS
 62
     7
 10
10.056249999999929
 20
167.55624999999989
 30
0.0
 40
2.130159178324416
 50
195.1371656437243
 51
254.8628343562761
  0
ARC
  5
13C
  8
DATA
  6
CONTINUOUS
 62
     7
 10
-6.0562499999999631
 20
167.55624999999989
 30
0.0
 40
2.1301591783244249
 50
285.1371656437239
 51
344.8628343562757
  0
POLYLINE
  5
13D
  8
DATA
  6
CONTINUOUS
 62
     7
 66
     1
 10
0.0
 20
0.0
 30
0.0
 70
     1
  0
VERTEX
  5
265
  8
DATA
  6
CONTINUOUS
 62
     7
 10
-3.0000000000000142
 20
164.75
 30
0.0
  0
VERTEX
  5
266
  8
DATA
  6
CONTINUOUS
 62
     7
 10
6.9999999999999849
 20
164.75
 30
0.0
  0
VERTEX
  5
267
  8
DATA
  6
CONTINUOUS
 62
     7
 10
6.9999999999999849
 20
164.25
 30
0.0
  0
VERTEX
  5
268
  8
DATA
  6
CONTINUOUS
 62
     7
 10
-3.0000000000000142
 20
164.25
 30
0.0
  0
SEQEND
  5
269
  8
DATA
  6
CONTINUOUS
 62
     7
  0
LINE
  5
144
  8
DATA
  6
CONTINUOUS
 62
     7
 10
4.0152543263816511
 20
151.98474567361831
 30
0.0
 11
4.7528886049238244
 21
154.7376342785422
 31
0.0
  0
LINE
  5
145
  8
DATA
  6
CONTINUOUS
 62
     7
 10
4.7528886049238244
 20
154.7376342785422
 30
0.0
 11
2.7376342785421741
 21
156.75288860492381
 31
0.0
  0
LINE
  5
146
  8
DATA
  6
CONTINUOUS
 62
     7
 10
2.7376342785421741
 20
156.75288860492381
 30
0.0
 11
-0.0152543263816796
 21
156.01525432638169
 31
0.0
  0
LINE
  5
147
  8
DATA
  6
CONTINUOUS
 62
     7
 10
-0.0152543263816796
 20
156.01525432638169
 30
0.0
 11
-0.7528886049238537
 21
153.2623657214578
 31
0.0
  0
LINE
  5
148
  8
DATA
  6
CONTINUOUS
 62
     7
 10
-0.7528886049238537
 20
153.2623657214578
 30
0.0
 11
1.262365721457811
 21
151.2471113950761
 31
0.0
  0
LINE
  5
149
  8
DATA
  6
CONTINUOUS
 62
     7
 10
1.262365721457811
 20
151.2471113950761
 30
0.0
 11
4.0152543263816511
 21
151.98474567361831
 31
0.0
  0
CIRCLE
  5
14A
  8
DATA
  6
CONTINUOUS
 62
     7
 10
1.9999999999999849
 20
154.0
 30
0.0
 40
1.4999999999999969
  0
LINE
  5
14B
  8
DATA
  6
CONTINUOUS
 62
     7
 10
-24.500000000000011
 20
165.5
 30
0.0
 11
-24.500000000000011
 21
162.0
 31
0.0
  0
LINE
  5
14C
  8
DATA
  6
CONTINUOUS
 62
     7
 10
-39.500000000000007
 20
162.0
 30
0.0
 11
-39.500000000000007
 21
165.5
 31
0.0
  0
LINE
  5
14D
  8
DATA
  6
CONTINUOUS
 62
     7
 10
-24.500000000000011
 20
162.0
 30
0.0
 11
-39.500000000000007
 21
162.0
 31
0.0
  0
LINE
  5
14E
  8
DATA
  6
CONTINUOUS
 62
     7
 10
-26.000000000000249
 20
167.0
 30
0.0
 11
-37.99999999999978
 21
167.0
 31
0.0
  0
ARC
  5
14F
  8
DATA
  6
CONTINUOUS
 62
     7
 10
-23.943750000000069
 20
167.55624999999989
 30
0.0
 40
2.130159178324416
 50
195.1371656437243
 51
254.8628343562761
  0
ARC
  5
150
  8
DATA
  6
CONTINUOUS
 62
     7
 10
-40.056249999999963
 20
167.55624999999989
 30
0.0
 40
2.1301591783244249
 50
285.1371656437239
 51
344.8628343562757
  0
POLYLINE
  5
151
  8
DATA
  6
CONTINUOUS
 62
     7
 66
     1
 10
0.0
 20
0.0
 30
0.0
 70
     1
  0
VERTEX
  5
26A
  8
DATA
  6
CONTINUOUS
 62
     7
 10
-37.000000000000007
 20
164.75
 30
0.0
  0
VERTEX
  5
26B
  8
DATA
  6
CONTINUOUS
 62
     7
 10
-27.000000000000011
 20
164.75
 30
0.0
  0
VERTEX
  5
26C
  8
DATA
  6
CONTINUOUS
 62
     7
 10
-27.000000000000011
 20
164.25
 30
0.0
  0
VERTEX
  5
26D
  8
DATA
  6
CONTINUOUS
 62
     7
 10
-37.000000000000007
 20
164.25
 30
0.0
  0
SEQEND
  5
26E
  8
DATA
  6
CONTINUOUS
 62
     7
  0
LINE
  5
158
  8
DATA
  6
CONTINUOUS
 62
     7
 10
-29.984745673618349
 20
151.98474567361831
 30
0.0
 11
-29.247111395076171
 21
154.7376342785422
 31
0.0
  0
LINE
  5
159
  8
DATA
  6
CONTINUOUS
 62
     7
 10
-29.247111395076171
 20
154.7376342785422
 30
0.0
 11
-31.262365721457812
 21
156.75288860492381
 31
0.0
  0
LINE
  5
15A
  8
DATA
  6
CONTINUOUS
 62
     7
 10
-31.262365721457812
 20
156.75288860492381
 30
0.0
 11
-34.01525432638168
 21
156.01525432638169
 31
0.0
  0
LINE
  5
15B
  8
DATA
  6
CONTINUOUS
 62
     7
 10
-34.01525432638168
 20
156.01525432638169
 30
0.0
 11
-34.752888604923861
 21
153.2623657214578
 31
0.0
  0
LINE
  5
15C
  8
DATA
  6
CONTINUOUS
 62
     7
 10
-34.752888604923861
 20
153.2623657214578
 30
0.0
 11
-32.737634278542188
 21
151.2471113950761
 31
0.0
  0
LINE
  5
15D
  8
DATA
  6
CONTINUOUS
 62
     7
 10
-32.737634278542188
 20
151.2471113950761
 30
0.0
 11
-29.984745673618349
 21
151.98474567361831
 31
0.0
  0
CIRCLE
  5
15E
  8
DATA
  6
CONTINUOUS
 62
     7
 10
-32.000000000000007
 20
154.0
 30
0.0
 40
1.4999999999999829
  0
POLYLINE
  5
15F
  8
DATA
  6
CONTINUOUS
 62
     7
 66
     1
 10
0.0
 20
0.0
 30
0.0
 70
     1
  0
VERTEX
  5
26F
  8
DATA
  6
CONTINUOUS
 62
     7
 10
-60.000000000000021
 20
168.0
 30
0.0
  0
VERTEX
  5
270
  8
DATA
  6
CONTINUOUS
 62
     7
 10
-51.000000000000021
 20
168.0
 30
0.0
  0
VERTEX
  5
271
  8
DATA
  6
CONTINUOUS
 62
     7
 10
-51.000000000000021
 20
156.5
 30
0.0
  0
VERTEX
  5
272
  8
DATA
  6
CONTINUOUS
 62
     7
 10
-60.000000000000021
 20
156.5
 30
0.0
  0
SEQEND
  5
273
  8
DATA
  6
CONTINUOUS
 62
     7
  0
CIRCLE
  5
166
  8
DATA
  6
CONTINUOUS
 62
     7
 10
-55.500000000000021
 20
161.0
 30
0.0
 40
3.0
  0
CIRCLE
  5
167
  8
DATA
  6
CONTINUOUS
 62
     7
 10
-55.500000000000021
 20
161.0
 30
0.0
 40
0.75
  0
LINE
  5
168
  8
DATA
  6
CONTINUOUS
 62
     7
 10
145.0
 20
151.0
 30
0.0
 11
145.0
 21
150.0
 31
0.0
  0
LINE
  5
169
  8
DATA
  6
CONTINUOUS
 62
     7
 10
-84.000000000000014
 20
151.0
 30
0.0
 11
145.0
 21
151.0
 31
0.0
  0
LINE
  5
16A
  8
DATA
  6
CONTINUOUS
 62
     7
 10
-84.000000000000014
 20
150.0
 30
0.0
 11
-84.000000000000014
 21
151.0
 31
0.0
  0
TEXT
  5
16B
  8
DATA
 62
     7
 10
145.0
 20
153.49584402963481
 30
0.0
 40
1.846875
  1
EXT-HDMI1.3-142D
 50
180.0
 41
0.7
 11
145.0
 21
151.6489690296348
 31
0.0
 73
     3
  0
TEXT
  5
16C
  8
DATA
 62
     7
 10
141.52609892342329
 20
155.87272371360791
 30
0.0
 40
1.846875
  1
Gefen Inc.
 50
180.0
 41
0.7
 11
141.52609892342329
 21
154.0258487136079
 31
0.0
 73
     3
  0
LINE
  5
16D
  8
DATA
  6
CONTINUOUS
 62
     7
 10
-0.7528886049238537
 20
103.2
 30
0.0
 11
-0.7528886049238537
 21
109.2
 31
0.0
  0
LINE
  5
16E
  8
DATA
  6
CONTINUOUS
 62
     7
 10
4.7528886049238244
 20
103.2
 30
0.0
 11
4.7528886049238244
 21
109.2
 31
0.0
  0
LINE
  5
16F
  8
DATA
  6
CONTINUOUS
 62
     7
 10
-0.7528886049238537
 20
109.2
 30
0.0
 11
4.7528886049238244
 21
109.2
 31
0.0
  0
LINE
  5
170
  8
DATA
  6
CONTINUOUS
 62
     7
 10
1.262365721457783
 20
109.2
 30
0.0
 11
1.262365721457783
 21
103.2
 31
0.0
  0
LINE
  5
171
  8
DATA
  6
CONTINUOUS
 62
     7
 10
69.247111395076146
 20
103.2
 30
0.0
 11
69.247111395076146
 21
109.2
 31
0.0
  0
LINE
  5
172
  8
DATA
  6
CONTINUOUS
 62
     7
 10
74.752888604923811
 20
103.2
 30
0.0
 11
74.752888604923811
 21
109.2
 31
0.0
  0
LINE
  5
173
  8
DATA
  6
CONTINUOUS
 62
     7
 10
69.247111395076146
 20
109.2
 30
0.0
 11
74.752888604923811
 21
109.2
 31
0.0
  0
LINE
  5
174
  8
DATA
  6
CONTINUOUS
 62
     7
 10
71.262365721457783
 20
109.2
 30
0.0
 11
71.262365721457783
 21
103.2
 31
0.0
  0
ARC
  5
175
  8
DATA
  6
CONTINUOUS
 62
     7
 10
209.5
 20
-48.0
 30
0.0
 40
1.5
 50
90.0
 51
270.0
  0
LINE
  5
176
  8
DATA
  6
CONTINUOUS
 62
     7
 10
313.2000000000001
 20
-47.0
 30
0.0
 11
315.7000000000001
 21
-47.0
 31
0.0
  0
LINE
  5
177
  8
DATA
  6
CONTINUOUS
 62
     7
 10
313.2000000000001
 20
-51.0
 30
0.0
 11
315.7000000000001
 21
-51.0
 31
0.0
  0
LINE
  5
178
  8
DATA
  6
CONTINUOUS
 62
     7
 10
315.7000000000001
 20
-51.0
 30
0.0
 11
315.7000000000001
 21
-47.0
 31
0.0
  0
LINE
  5
179
  8
DATA
  6
CONTINUOUS
 62
     7
 10
313.2000000000001
 20
-36.247111395076161
 30
0.0
 11
319.2000000000001
 21
-36.247111395076161
 31
0.0
  0
LINE
  5
17A
  8
DATA
  6
CONTINUOUS
 62
     7
 10
313.2000000000001
 20
-41.752888604923847
 30
0.0
 11
319.2000000000001
 21
-41.752888604923847
 31
0.0
  0
LINE
  5
17B
  8
DATA
  6
CONTINUOUS
 62
     7
 10
319.2000000000001
 20
-36.247111395076161
 30
0.0
 11
319.2000000000001
 21
-41.752888604923847
 31
0.0
  0
LINE
  5
17C
  8
DATA
  6
CONTINUOUS
 62
     7
 10
319.2000000000001
 20
-36.98474567361837
 30
0.0
 11
313.2000000000001
 21
-36.98474567361837
 31
0.0
  0
LINE
  5
17D
  8
DATA
  6
CONTINUOUS
 62
     7
 10
319.2000000000001
 20
-39.737634278542203
 30
0.0
 11
313.2000000000001
 21
-39.737634278542203
 31
0.0
  0
ARC
  5
17E
  8
DATA
  6
CONTINUOUS
 62
     7
 10
-50.000000000000021
 20
-0.5
 30
0.0
 40
1.5
 50
180.0
 51
0.0
  0
ARC
  5
17F
  8
DATA
  6
CONTINUOUS
 62
     7
 10
0.9999999999999857
 20
-0.5
 30
0.0
 40
1.5
 50
180.0
 51
0.0
  0
ARC
  5
180
  8
DATA
  6
CONTINUOUS
 62
     7
 10
33.999999999999993
 20
-0.5
 30
0.0
 40
1.5
 50
180.0
 51
0.0
  0
ARC
  5
181
  8
DATA
  6
CONTINUOUS
 62
     7
 10
66.999999999999986
 20
-0.5
 30
0.0
 40
1.5
 50
180.0
 51
0.0
  0
LINE
  5
182
  8
DATA
  6
CONTINUOUS
 62
     7
 10
-51.500000000000021
 20
-0.5
 30
0.0
 11
-51.500000000000021
 21
0.0
 31
0.0
  0
LINE
  5
183
  8
DATA
  6
CONTINUOUS
 62
     7
 10
-48.500000000000021
 20
-0.5
 30
0.0
 11
-48.500000000000021
 21
0.0
 31
0.0
  0
LINE
  5
184
  8
DATA
  6
CONTINUOUS
 62
     7
 10
-0.5000000000000142
 20
-0.5
 30
0.0
 11
-0.5000000000000142
 21
0.0
 31
0.0
  0
LINE
  5
185
  8
DATA
  6
CONTINUOUS
 62
     7
 10
2.4999999999999849
 20
-0.5
 30
0.0
 11
2.4999999999999849
 21
0.0
 31
0.0
  0
LINE
  5
186
  8
DATA
  6
CONTINUOUS
 62
     7
 10
32.499999999999993
 20
-0.5
 30
0.0
 11
32.499999999999993
 21
0.0
 31
0.0
  0
LINE
  5
187
  8
DATA
  6
CONTINUOUS
 62
     7
 10
35.499999999999993
 20
-0.5
 30
0.0
 11
35.499999999999993
 21
0.0
 31
0.0
  0
LINE
  5
188
  8
DATA
  6
CONTINUOUS
 62
     7
 10
65.499999999999986
 20
-0.5
 30
0.0
 11
65.499999999999986
 21
0.0
 31
0.0
  0
LINE
  5
189
  8
DATA
  6
CONTINUOUS
 62
     7
 10
68.499999999999986
 20
-0.5
 30
0.0
 11
68.499999999999986
 21
0.0
 31
0.0
  0
LINE
  5
18A
  8
DATA
  6
CONTINUOUS
 62
     7
 10
209.5
 20
-46.5
 30
0.0
 11
210.0
 21
-46.5
 31
0.0
  0
LINE
  5
18B
  8
DATA
  6
CONTINUOUS
 62
     7
 10
209.5
 20
-49.5
 30
0.0
 11
210.0
 21
-49.5
 31
0.0
  0
TEXT
  5
18C
  8
DATA
 62
     7
 10
141.4847451364376
 20
173.024
 30
0.0
 40
3.2576822916666659
  1
Optical Out
 50
180.0
 41
0.7
 11
141.4847451364376
 21
169.7663177083333
 31
0.0
 73
     3
  0
TEXT
  5
18D
  8
DATA
 62
     7
 10
115.73333333333331
 20
173.024
 30
0.0
 40
3.2576822916666659
  1
EDID
 50
180.0
 41
0.7
 11
115.73333333333331
 21
169.7663177083333
 31
0.0
 73
     3
  0
TEXT
  5
18E
  8
DATA
 62
     7
 10
100.7916666666667
 20
173.024
 30
0.0
 40
3.2576822916666659
  1
Reset
 50
180.0
 41
0.7
 11
100.7916666666667
 21
169.7663177083333
 31
0.0
 73
     3
  0
TEXT
  5
18F
  8
DATA
 62
     7
 10
79.408333333333303
 20
173.024
 30
0.0
 40
3.2576822916666659
  1
HDMI In
 50
180.0
 41
0.7
 11
79.408333333333303
 21
169.7663177083333
 31
0.0
 73
     3
  0
TEXT
  5
190
  8
DATA
 62
     7
 10
12.5833333333333
 20
173.024
 30
0.0
 40
3.2576822916666659
  1
HDMI Out 1
 50
180.0
 41
0.7
 11
12.5833333333333
 21
169.7663177083333
 31
0.0
 73
     3
  0
TEXT
  5
191
  8
DATA
 62
     7
 10
-21.4166666666667
 20
173.024
 30
0.0
 40
3.2576822916666659
  1
HDMI Out 2
 50
180.0
 41
0.7
 11
-21.4166666666667
 21
169.7663177083333
 31
0.0
 73
     3
  0
TEXT
  5
192
  8
DATA
 62
     7
 10
-50.20833333333335
 20
173.024
 30
0.0
 40
3.2576822916666659
  1
5V DC
 50
180.0
 41
0.7
 11
-50.20833333333335
 21
169.7663177083333
 31
0.0
 73
     3
  0
ENDSEC
  0
EOF
