  0
SECTION
  2
HEADER
  9
$ACADVER
  1
AC1009
  9
$INSBASE
 10
0.0
 20
0.0
 30
0.0
  9
$EXTMIN
 10
-170.0164782349211
 20
-265.74833863455001
 30
-0.0015258207003583
  9
$EXTMAX
 10
370.0164807494923
 20
537.09174839639525
 30
0.0000000349246037
  9
$LIMMIN
 10
0.0
 20
0.0
  9
$LIMMAX
 10
0.0
 20
0.0
  9
$ORTHOMODE
 70
     0
  9
$REGENMODE
 70
     1
  9
$FILLMODE
 70
     1
  9
$QTEXTMODE
 70
     0
  9
$MIRRTEXT
 70
     1
  9
$DRAGMODE
 70
     2
  9
$LTSCALE
 40
15.24
  9
$OSMODE
 70
   231
  9
$ATTMODE
 70
     1
  9
$TEXTSIZE
 40
0.0
  9
$TRACEWID
 40
1.0
  9
$TEXTSTYLE
  7
STANDARD
  9
$CLAYER
  8
DATA
  9
$CELTYPE
  6
BYLAYER
  9
$CECOLOR
 62
   256
  9
$DIMSCALE
 40
1.0
  9
$DIMASZ
 40
0.18
  9
$DIMEXO
 40
0.0625
  9
$DIMDLI
 40
0.38
  9
$DIMRND
 40
0.0
  9
$DIMDLE
 40
0.0
  9
$DIMEXE
 40
0.18
  9
$DIMTP
 40
0.0
  9
$DIMTM
 40
0.0
  9
$DIMTXT
 40
0.18
  9
$DIMCEN
 40
0.09
  9
$DIMTSZ
 40
0.0
  9
$DIMTOL
 70
     0
  9
$DIMLIM
 70
     0
  9
$DIMTIH
 70
     1
  9
$DIMTOH
 70
     1
  9
$DIMSE1
 70
     0
  9
$DIMSE2
 70
     0
  9
$DIMTAD
 70
     0
  9
$DIMZIN
 70
     0
  9
$DIMBLK
  1

  9
$DIMASO
 70
     1
  9
$DIMSHO
 70
     1
  9
$DIMPOST
  1

  9
$DIMAPOST
  1

  9
$DIMALT
 70
     0
  9
$DIMALTD
 70
     2
  9
$DIMALTF
 40
25.399999999999999
  9
$DIMLFAC
 40
1.0
  9
$DIMTOFL
 70
     0
  9
$DIMTVP
 40
0.0
  9
$DIMTIX
 70
     0
  9
$DIMSOXD
 70
     0
  9
$DIMSAH
 70
     0
  9
$DIMBLK1
  1

  9
$DIMBLK2
  1

  9
$DIMSTYLE
  2
STANDARD
  9
$DIMCLRD
 70
     0
  9
$DIMCLRE
 70
     0
  9
$DIMCLRT
 70
     0
  9
$DIMTFAC
 40
1.0
  9
$DIMGAP
 40
0.09
  9
$LUNITS
 70
     2
  9
$LUPREC
 70
     4
  9
$SKETCHINC
 40
0.1
  9
$FILLETRAD
 40
0.0
  9
$AUNITS
 70
     0
  9
$AUPREC
 70
     0
  9
$MENU
  1
acad
  9
$ELEVATION
 40
0.0
  9
$PELEVATION
 40
0.0
  9
$THICKNESS
 40
0.0
  9
$LIMCHECK
 70
     0
  9
$BLIPMODE
 70
     0
  9
$CHAMFERA
 40
0.0
  9
$CHAMFERB
 40
0.0
  9
$SKPOLY
 70
     0
  9
$TDCREATE
 40
2455477.4195949072
  9
$TDUPDATE
 40
2455477.4279063661
  9
$TDINDWG
 40
0.0002826389
  9
$TDUSRTIMER
 40
0.0002824537
  9
$USRTIMER
 70
     1
  9
$ANGBASE
 50
0.0
  9
$ANGDIR
 70
     0
  9
$PDMODE
 70
     1
  9
$PDSIZE
 40
-2.0
  9
$PLINEWID
 40
0.0
  9
$COORDS
 70
     0
  9
$SPLFRAME
 70
     0
  9
$SPLINETYPE
 70
     6
  9
$SPLINESEGS
 70
     8
  9
$ATTDIA
 70
     0
  9
$ATTREQ
 70
     1
  9
$HANDLING
 70
     1
  9
$HANDSEED
  5
C1B
  9
$SURFTAB1
 70
     6
  9
$SURFTAB2
 70
     6
  9
$SURFTYPE
 70
     6
  9
$SURFU
 70
     6
  9
$SURFV
 70
     6
  9
$UCSNAME
  2

  9
$UCSORG
 10
0.0
 20
0.0
 30
0.0
  9
$UCSXDIR
 10
1.0
 20
0.0
 30
0.0
  9
$UCSYDIR
 10
0.0
 20
1.0
 30
0.0
  9
$PUCSNAME
  2

  9
$PUCSORG
 10
0.0
 20
0.0
 30
0.0
  9
$PUCSXDIR
 10
1.0
 20
0.0
 30
0.0
  9
$PUCSYDIR
 10
0.0
 20
1.0
 30
0.0
  9
$USERI1
 70
     0
  9
$USERI2
 70
     0
  9
$USERI3
 70
     0
  9
$USERI4
 70
     0
  9
$USERI5
 70
     0
  9
$USERR1
 40
0.0
  9
$USERR2
 40
0.0
  9
$USERR3
 40
0.0
  9
$USERR4
 40
0.0
  9
$USERR5
 40
0.0
  9
$WORLDVIEW
 70
     1
  9
$SHADEDGE
 70
     3
  9
$SHADEDIF
 70
    70
  9
$TILEMODE
 70
     1
  9
$MAXACTVP
 70
    64
  9
$PLIMCHECK
 70
     0
  9
$PEXTMIN
 10
1.0000000000000000E+020
 20
1.0000000000000000E+020
 30
1.0000000000000000E+020
  9
$PEXTMAX
 10
-1.0000000000000000E+020
 20
-1.0000000000000000E+020
 30
-1.0000000000000000E+020
  9
$PLIMMIN
 10
0.0
 20
0.0
  9
$PLIMMAX
 10
12.0
 20
9.0
  9
$UNITMODE
 70
     0
  9
$VISRETAIN
 70
     0
  9
$PLINEGEN
 70
     1
  9
$PSLTSCALE
 70
     0
  0
ENDSEC
  0
SECTION
  2
TABLES
  0
TABLE
  2
VPORT
 70
     1
  0
VPORT
  2
*ACTIVE
 70
     0
 10
0.0
 20
0.0
 11
1.0
 21
1.0
 12
100.0000012572856
 22
135.6717048809227
 13
0.0
 23
0.0
 14
1.0
 24
1.0
 15
0.0
 25
0.0
 16
0.0
 26
0.0
 36
1.0
 17
0.0
 27
0.0
 37
0.0
 40
808.75056619927125
 41
1.9619164619164611
 42
50.0
 43
0.0
 44
0.0
 50
0.0
 51
0.0
 71
     0
 72
  2000
 73
     1
 74
     1
 75
     0
 76
     0
 77
     0
 78
     0
  0
ENDTAB
  0
TABLE
  2
LTYPE
 70
    11
  0
LTYPE
  2
CONTINUOUS
 70
     0
  3
Solid line
 72
    65
 73
     0
 40
0.0
  0
ENDTAB
  0
TABLE
  2
LAYER
 70
     5
  0
LAYER
  2
0
 70
     0
 62
     7
  6
CONTINUOUS
  0
LAYER
  2
DATA
 70
     0
 62
     7
  6
CONTINUOUS
  0
LAYER
  2
HIBINO-BASE
 70
     0
 62
     7
  6
CONTINUOUS
  0
LAYER
  2
SPEC
 70
     0
 62
     7
  6
CONTINUOUS
  0
LAYER
  2
DIMNSIONS
 70
     0
 62
     7
  6
CONTINUOUS
  0
ENDTAB
  0
TABLE
  2
STYLE
 70
     3
  0
STYLE
  2
STANDARD
 70
     0
 40
0.0
 41
1.0
 50
0.0
 71
     0
 42
0.0
  3
txt
  4
BIGFONT.SHX
  0
ENDTAB
  0
TABLE
  2
VIEW
 70
     0
  0
ENDTAB
  0
TABLE
  2
UCS
 70
     0
  0
ENDTAB
  0
TABLE
  2
APPID
 70
     3
  0
APPID
  2
ACAD
 70
     0
  0
APPID
  2
ACADANNOTATIVE
 70
     0
  0
APPID
  2
ACAD_MLEADERVER
 70
     0
  0
ENDTAB
  0
TABLE
  2
DIMSTYLE
 70
     2
  0
DIMSTYLE
  2
STANDARD
 70
     0
  3

  4

  5

  6

  7

 40
1.0
 41
0.18
 42
0.0625
 43
0.38
 44
0.18
 45
0.0
 46
0.0
 47
0.0
 48
0.0
140
0.18
141
0.09
142
0.0
143
25.399999999999999
144
1.0
145
0.0
146
1.0
147
0.09
 71
     0
 72
     0
 73
     1
 74
     1
 75
     0
 76
     0
 77
     0
 78
     0
170
     0
171
     2
172
     0
173
     0
174
     0
175
     0
176
     0
177
     0
178
     0
  0
ENDTAB
  0
ENDSEC
  0
SECTION
  2
BLOCKS
  0
BLOCK
  8
0
  2
$MODEL_SPACE
 70
     0
 10
0.0
 20
0.0
 30
0.0
  3
$MODEL_SPACE
  1

  0
ENDBLK
  5
7EE
  8
0
  0
BLOCK
 67
     1
  8
0
  2
$PAPER_SPACE
 70
     0
 10
0.0
 20
0.0
 30
0.0
  3
$PAPER_SPACE
  1

  0
ENDBLK
  5
7EA
 67
     1
  8
0
  0
ENDSEC
  0
SECTION
  2
ENTITIES
  0
LINE
  5
2C
  8
HIBINO-BASE
  6
CONTINUOUS
 62
     7
 10
-169.99999999999989
 20
537.06729578973182
 30
0.0
 11
370.0
 21
537.06729578973182
 31
0.0
  0
LINE
  5
2D
  8
HIBINO-BASE
  6
CONTINUOUS
 62
     7
 10
370.0
 20
-242.93270421026821
 30
0.0
 11
-169.99999999999989
 21
-242.93270421026821
 31
0.0
  0
LINE
  5
2E
  8
HIBINO-BASE
  6
CONTINUOUS
 62
     7
 10
-169.99999999999989
 20
-242.93270421026821
 30
0.0
 11
-169.99999999999989
 21
537.06729578973182
 31
0.0
  0
LINE
  5
2F
  8
HIBINO-BASE
  6
CONTINUOUS
 62
     7
 10
370.0
 20
537.06729578973182
 30
0.0
 11
370.0
 21
-242.93270421026821
 31
0.0
  0
LINE
  5
30
  8
HIBINO-BASE
  6
CONTINUOUS
 62
     7
 10
100.0
 20
-175.4327042102681
 30
0.0
 11
370.0
 21
-175.4327042102681
 31
0.0
  0
LINE
  5
31
  8
HIBINO-BASE
  6
CONTINUOUS
 62
     7
 10
100.0
 20
-242.93270421026821
 30
0.0
 11
100.0
 21
-175.4327042102681
 31
0.0
  0
TEXT
  5
32
  8
HIBINO-BASE
 62
     7
 10
102.7
 20
-182.95878421026811
 30
0.0
 40
4.8865234374999993
  1
NOTE
 41
0.7
 11
102.7
 21
-178.0722607727682
 31
0.0
 73
     3
  0
LINE
  5
33
  8
HIBINO-BASE
  6
CONTINUOUS
 62
     7
 10
205.0
 20
-242.93270421026821
 30
0.0
 11
205.0
 21
-175.4327042102681
 31
0.0
  0
TEXT
  5
34
  8
HIBINO-BASE
 62
     7
 10
207.69999999999999
 20
-182.95878421026811
 30
0.0
 40
4.8865234374999993
  1
TITLE
 41
0.7
 11
207.69999999999999
 21
-178.0722607727682
 31
0.0
 73
     3
  0
LINE
  5
35
  8
HIBINO-BASE
  6
CONTINUOUS
 62
     7
 10
100.0
 20
-212.9327042102681
 30
0.0
 11
370.0
 21
-212.9327042102681
 31
0.0
  0
TEXT
  5
36
  8
HIBINO-BASE
 62
     7
 10
245.19999999999999
 20
-220.28982421026819
 30
0.0
 40
4.8865234374999993
  1
DRAWN
 41
0.7
 11
245.19999999999999
 21
-215.4033007727682
 31
0.0
 73
     3
  0
TEXT
  5
37
  8
HIBINO-BASE
 62
     7
 10
170.19999999999999
 20
-220.28982421026819
 30
0.0
 40
4.8865234374999993
  1
DATE
 41
0.7
 11
170.19999999999999
 21
-215.4033007727682
 31
0.0
 73
     3
  0
TEXT
  5
38
  8
HIBINO-BASE
 62
     7
 10
140.19999999999999
 20
-220.28982421026819
 30
0.0
 40
4.8865234374999993
  1
SCALE
 41
0.7
 11
140.19999999999999
 21
-215.4033007727682
 31
0.0
 73
     3
  0
TEXT
  5
39
  8
HIBINO-BASE
 62
     7
 10
207.69999999999999
 20
-220.28982421026819
 30
0.0
 40
4.8865234374999993
  1
DESIGN
 41
0.7
 11
207.69999999999999
 21
-215.4033007727682
 31
0.0
 73
     3
  0
TEXT
  5
3A
  8
HIBINO-BASE
 62
     7
 10
320.19999999999999
 20
-220.28982421026819
 30
0.0
 40
4.8865234374999993
  1
DRAWING NO.
 41
0.7
 11
320.19999999999999
 21
-215.4033007727682
 31
0.0
 73
     3
  0
TEXT
  5
3B
  8
HIBINO-BASE
 62
     7
 10
282.69999999999999
 20
-220.28982421026819
 30
0.0
 40
4.8865234374999993
  1
CHECK
 41
0.7
 11
282.69999999999999
 21
-215.4033007727682
 31
0.0
 73
     3
  0
LINE
  5
3C
  8
HIBINO-BASE
  6
CONTINUOUS
 62
     7
 10
143.12499999999989
 20
-239.18270421026821
 30
0.0
 11
154.375
 21
-227.9327042102681
 31
0.0
  0
TEXT
  5
3D
  8
HIBINO-BASE
 62
     7
 10
141.24999999999989
 20
-231.25953421026821
 30
0.0
 40
4.8865234374999993
  1
1
 41
0.7
 11
141.24999999999989
 21
-226.3730107727682
 31
0.0
 73
     3
  0
LINE
  5
3E
  8
HIBINO-BASE
  6
CONTINUOUS
 62
     7
 10
137.5
 20
-242.93270421026821
 30
0.0
 11
137.5
 21
-212.9327042102681
 31
0.0
  0
LINE
  5
3F
  8
HIBINO-BASE
  6
CONTINUOUS
 62
     7
 10
167.5
 20
-242.93270421026821
 30
0.0
 11
167.5
 21
-212.9327042102681
 31
0.0
  0
LINE
  5
40
  8
HIBINO-BASE
  6
CONTINUOUS
 62
     7
 10
242.5
 20
-212.9327042102681
 30
0.0
 11
242.5
 21
-242.93270421026821
 31
0.0
  0
LINE
  5
41
  8
HIBINO-BASE
  6
CONTINUOUS
 62
     7
 10
317.5
 20
-212.9327042102681
 30
0.0
 11
317.5
 21
-242.93270421026821
 31
0.0
  0
LINE
  5
42
  8
HIBINO-BASE
  6
CONTINUOUS
 62
     7
 10
279.99999999999989
 20
-242.93270421026821
 30
0.0
 11
279.99999999999989
 21
-212.9327042102681
 31
0.0
  0
TEXT
  5
43
  8
HIBINO-BASE
 62
     7
 10
170.06961999999999
 20
-234.3417642102682
 30
0.0
 40
4.8865234374999993
  1
'10.10.
 41
0.7
 11
170.06961999999999
 21
-229.45524077276821
 31
0.0
 73
     3
  0
TEXT
  5
44
  8
HIBINO-BASE
 62
     7
 10
152.5
 20
-236.88453421026821
 30
0.0
 40
4.8865234374999993
  1
3
 41
0.7
 11
152.5
 21
-231.9980107727682
 31
0.0
 73
     3
  0
TEXT
  5
45
  8
HIBINO-BASE
 62
     7
 10
247.01743003310389
 20
-234.3417642102682
 30
0.0
 40
4.8865234374999993
  1
T.Ootake
 41
0.7
 11
247.01743003310389
 21
-229.45524077276821
 31
0.0
 73
     3
  0
TEXT
  5
46
  8
HIBINO-BASE
 62
     7
 10
111.65000000000001
 20
-237.0047042102681
 30
0.0
 40
9.7730468749999986
  1
A4
 41
0.7
 11
111.65000000000001
 21
-227.2316573352681
 31
0.0
 73
     3
  0
TEXT
  5
47
  8
HIBINO-BASE
 62
     7
 10
102.875
 20
-220.79106921026809
 30
0.0
 40
4.8865234374999993
  1
PAPER SIZE
 41
0.7
 11
102.875
 21
-215.9045457727681
 31
0.0
 73
     3
  0
TEXT
  5
48
  8
HIBINO-BASE
 62
     7
 10
-161.7210942293294
 20
-262.20842491279689
 30
0.0
 40
10.58746744791666
  1
Hibino-Intersound Corporation
 41
0.7
 11
-161.7210942293294
 21
-251.62095746488029
 31
0.0
 73
     3
  0
TEXT
  5
49
  8
HIBINO-BASE
 62
     7
 10
160.54182904064169
 20
-261.15516015292872
 30
0.0
 40
10.58746744791666
  1
ヒビノインターサウンド株式会社
 41
0.7
 11
160.54182904064169
 21
-250.56769270501201
 31
0.0
 73
     3
  0
LINE
  5
4A
  8
SPEC
  6
CONTINUOUS
 62
     7
 10
-147.49999999999989
 20
507.0672957897317
 30
0.0
 11
295.0
 21
507.0672957897317
 31
0.0
  0
LINE
  5
4B
  8
SPEC
  6
CONTINUOUS
 62
     7
 10
-147.49999999999989
 20
495.8172957897317
 30
0.0
 11
295.0
 21
495.8172957897317
 31
0.0
  0
LINE
  5
4C
  8
SPEC
  6
CONTINUOUS
 62
     7
 10
-147.49999999999989
 20
473.3172957897317
 30
0.0
 11
295.0
 21
473.3172957897317
 31
0.0
  0
LINE
  5
4D
  8
SPEC
  6
CONTINUOUS
 62
     7
 10
-147.49999999999989
 20
484.5672957897317
 30
0.0
 11
295.0
 21
484.5672957897317
 31
0.0
  0
LINE
  5
4E
  8
SPEC
  6
CONTINUOUS
 62
     7
 10
-147.49999999999989
 20
507.0672957897317
 30
0.0
 11
-147.49999999999989
 21
383.31729578973182
 31
0.0
  0
TEXT
  5
4F
  8
SPEC
 62
     7
 10
-143.74999999999989
 20
511.24710578973179
 30
0.0
 40
7.3297851562499989
  1
仕様
 41
0.7
 11
-143.74999999999989
 21
518.57689094598175
 31
0.0
 73
     3
  0
LINE
  5
50
  8
SPEC
  6
CONTINUOUS
 62
     7
 10
-31.249999999999989
 20
507.0672957897317
 30
0.0
 11
-31.250000000000011
 21
383.31729578973182
 31
0.0
  0
LINE
  5
51
  8
SPEC
  6
CONTINUOUS
 62
     7
 10
295.0
 20
507.0672957897317
 30
0.0
 11
295.0
 21
383.31729578973182
 31
0.0
  0
LINE
  5
52
  8
SPEC
  6
CONTINUOUS
 62
     7
 10
-147.49999999999989
 20
462.0672957897317
 30
0.0
 11
295.0
 21
462.0672957897317
 31
0.0
  0
LINE
  5
53
  8
SPEC
  6
CONTINUOUS
 62
     7
 10
-147.49999999999989
 20
450.8172957897317
 30
0.0
 11
295.0
 21
450.8172957897317
 31
0.0
  0
LINE
  5
54
  8
SPEC
  6
CONTINUOUS
 62
     7
 10
-147.49999999999989
 20
439.5672957897317
 30
0.0
 11
295.0
 21
439.5672957897317
 31
0.0
  0
LINE
  5
55
  8
SPEC
  6
CONTINUOUS
 62
     7
 10
-147.49999999999989
 20
428.3172957897317
 30
0.0
 11
295.0
 21
428.3172957897317
 31
0.0
  0
LINE
  5
56
  8
SPEC
  6
CONTINUOUS
 62
     7
 10
-147.49999999999989
 20
417.0672957897317
 30
0.0
 11
295.0
 21
417.0672957897317
 31
0.0
  0
LINE
  5
57
  8
SPEC
  6
CONTINUOUS
 62
     7
 10
-147.49999999999989
 20
405.8172957897317
 30
0.0
 11
295.0
 21
405.8172957897317
 31
0.0
  0
LINE
  5
58
  8
SPEC
  6
CONTINUOUS
 62
     7
 10
-147.49999999999989
 20
394.5672957897317
 30
0.0
 11
295.0
 21
394.5672957897317
 31
0.0
  0
LINE
  5
59
  8
SPEC
  6
CONTINUOUS
 62
     7
 10
-147.49999999999989
 20
383.31729578973182
 30
0.0
 11
295.0
 21
383.31729578973182
 31
0.0
  0
TEXT
  5
5A
  8
SPEC
 62
     7
 10
-145.03577747524901
 20
397.48927098097801
 30
0.0
 40
5.7009440104166673
  1
寸法
 41
0.7
 11
-145.03577747524901
 21
403.19021499139461
 31
0.0
 73
     3
  0
TEXT
  5
5B
  8
SPEC
 62
     7
 10
-28.54025174421928
 20
397.46021153635479
 30
0.0
 40
5.7009440104166673
  1
355(W)\U+00D730(H)\U+00D772(D)mm(突起部含まず）
 41
0.7
 11
-28.54025174421928
 21
403.1611555467714
 31
0.0
 73
     3
  0
TEXT
  5
5C
  8
SPEC
 62
     7
 10
-28.685269204770499
 20
386.61607025285389
 30
0.0
 40
5.7009440104166673
  1
約450g
 41
0.7
 11
-28.685269204770499
 21
392.31701426327061
 31
0.0
 73
     3
  0
TEXT
  5
5D
  8
SPEC
 62
     7
 10
-145.0566237729721
 20
386.4557454984843
 30
0.0
 40
5.7009440104166673
  1
重量
 41
0.7
 11
-145.0566237729721
 21
392.15668950890091
 31
0.0
 73
     3
  0
TEXT
  5
5E
  8
SPEC
 62
     7
 10
-144.93373303781601
 20
420.176088738987
 30
0.0
 40
5.7009440104166673
  1
電源
 41
0.7
 11
-144.93373303781601
 21
425.87703274940361
 31
0.0
 73
     3
  0
TEXT
  5
5F
  8
SPEC
 62
     7
 10
-28.55250052655693
 20
419.87405916205091
 30
0.0
 40
5.7009440104166673
  1
5V DC
 41
0.7
 11
-28.55250052655693
 21
425.57500317246758
 31
0.0
 73
     3
  0
TEXT
  5
60
  8
SPEC
 62
     7
 10
-145.03118261213649
 20
408.63538279980651
 30
0.0
 40
5.7009440104166673
  1
消費電力
 41
0.7
 11
-145.03118261213649
 21
414.33632681022311
 31
0.0
 73
     3
  0
TEXT
  5
61
  8
SPEC
 62
     7
 10
-28.980400123410071
 20
408.8756000774855
 30
0.0
 40
5.7009440104166673
  1
10W(最大)
 41
0.7
 11
-28.980400123410071
 21
414.57654408790222
 31
0.0
 73
     3
  0
TEXT
  5
62
  8
SPEC
 62
     7
 10
-144.90549173734519
 20
498.66070786331682
 30
0.0
 40
5.700933749999999
  1
形式
 41
0.7
 11
-144.90549173734519
 21
504.36164161331681
 31
0.0
 73
     3
  0
TEXT
  5
63
  8
SPEC
 62
     7
 10
-28.304699453884421
 20
498.38051464875451
 30
0.0
 40
5.700933749999999
  1
4\U+00D71 DVI切替機　
 41
0.7
 11
-28.304699453884421
 21
504.0814483987545
 31
0.0
 73
     3
  0
TEXT
  5
64
  8
SPEC
 62
     7
 10
-146.1188923184769
 20
487.48912253105777
 30
0.0
 40
5.700933749999999
  1
ビデオアンプ帯域
 41
0.7
 11
-146.1188923184769
 21
493.19005628105771
 31
0.0
 73
     3
  0
TEXT
  5
65
  8
SPEC
 62
     7
 10
-28.830403380560949
 20
487.34843821542171
 30
0.0
 40
5.700933749999999
  1
165MHz
 41
0.7
 11
-28.830403380560949
 21
493.04937196542181
 31
0.0
 73
     3
  0
TEXT
  5
66
  8
SPEC
 62
     7
 10
-144.99940812045071
 20
476.31330315668572
 30
0.0
 40
5.700933749999999
  1
入力ビデオ信号
 41
0.7
 11
-144.99940812045071
 21
482.0142369066856
 31
0.0
 73
     3
  0
TEXT
  5
67
  8
SPEC
 62
     7
 10
-28.91843631820943
 20
476.04287595349729
 30
0.0
 40
5.700933749999999
  1
1.2Vp-p
 41
0.7
 11
-28.91843631820943
 21
481.74380970349728
 31
0.0
 73
     3
  0
TEXT
  5
68
  8
SPEC
 62
     7
 10
-144.8921447110707
 20
464.98188959800137
 30
0.0
 40
5.700933749999999
  1
入力DDC信号
 41
0.7
 11
-144.8921447110707
 21
470.68282334800142
 31
0.0
 73
     3
  0
TEXT
  5
69
  8
SPEC
 62
     7
 10
-28.482743684864761
 20
464.88263582483972
 30
0.0
 40
5.700933749999999
  1
5Vp-p(TTL)
 41
0.7
 11
-28.482743684864761
 21
470.58356957483971
 31
0.0
 73
     3
  0
TEXT
  5
6A
  8
SPEC
 62
     7
 10
-145.41811908561951
 20
453.80607022362932
 30
0.0
 40
5.700933749999999
  1
シングルリンク最大対応解像度
 41
0.7
 11
-145.41811908561951
 21
459.50700397362942
 31
0.0
 73
     3
  0
TEXT
  5
6B
  8
SPEC
 62
     7
 10
-28.979394599544499
 20
453.84861365664722
 30
0.0
 40
5.700933749999999
  1
1080p60/1920\U+00D71200@60Hz
 41
0.7
 11
-28.979394599544499
 21
459.54954740664709
 31
0.0
 73
     3
  0
TEXT
  5
6C
  8
SPEC
 62
     7
 10
-144.784106706714
 20
442.55607022362932
 30
0.0
 40
5.700933749999999
  1
DVI入出力端子
 41
0.7
 11
-144.784106706714
 21
448.25700397362942
 31
0.0
 73
     3
  0
TEXT
  5
6D
  8
SPEC
 62
     7
 10
-28.54769772889723
 20
442.4518440101146
 30
0.0
 40
5.700933749999999
  1
DVI-I(29pin)female(digital only)
 41
0.7
 11
-28.54769772889723
 21
448.15277776011459
 31
0.0
 73
     3
  0
TEXT
  5
6E
  8
SPEC
 62
     7
 10
-146.29996592085169
 20
431.45343685104251
 30
0.0
 40
5.700933749999999
  1
リモコンポート
 41
0.7
 11
-146.29996592085169
 21
437.15437060104261
 31
0.0
 73
     3
  0
TEXT
  5
6F
  8
SPEC
 62
     7
 10
-28.558713884037399
 20
430.9673861354201
 30
0.0
 40
5.700933749999999
  1
RS232 female,mini-stereo
 41
0.7
 11
-28.558713884037399
 21
436.66831988542009
 31
0.0
 73
     3
  0
TEXT
  5
70
  8
DIMNSIONS
 62
     7
 10
40.0
 20
-206.12423421026821
 30
0.0
 40
7.3297851562499989
  1
(単位：mm)
 41
0.7
 11
40.0
 21
-198.79444905401809
 31
0.0
 73
     3
  0
LINE
  5
71
  8
DIMNSIONS
  6
CONTINUOUS
 62
     7
 10
-118.5000000002666
 20
-87.499999999893703
 30
0.0
 11
-143.5000000002666
 21
-87.499999999893703
 31
0.0
  0
LINE
  5
72
  8
DIMNSIONS
  6
CONTINUOUS
 62
     7
 10
-118.5000000002666
 20
-57.499999999893703
 30
0.0
 11
-143.5000000002666
 21
-57.499999999893703
 31
0.0
  0
LINE
  5
73
  8
DIMNSIONS
  6
CONTINUOUS
 62
     7
 10
-137.5000000002666
 20
-87.499999999893703
 30
0.0
 11
-137.5000000002666
 21
-57.499999999893703
 31
0.0
  0
LINE
  5
74
  8
DIMNSIONS
  6
CONTINUOUS
 62
     7
 10
-137.5000000002666
 20
-87.499999999893703
 30
0.0
 11
-139.5101193857173
 21
-79.998132324112447
 31
0.0
  0
LINE
  5
75
  8
DIMNSIONS
  6
CONTINUOUS
 62
     7
 10
-137.5000000002666
 20
-87.499999999893703
 30
0.0
 11
-135.48988061481589
 21
-79.998132324112447
 31
0.0
  0
LINE
  5
76
  8
DIMNSIONS
  6
CONTINUOUS
 62
     7
 10
-137.5000000002666
 20
-57.499999999893703
 30
0.0
 11
-135.48988061481589
 21
-65.001867675674958
 31
0.0
  0
LINE
  5
77
  8
DIMNSIONS
  6
CONTINUOUS
 62
     7
 10
-137.5000000002666
 20
-57.499999999893703
 30
0.0
 11
-139.5101193857173
 21
-65.001867675674958
 31
0.0
  0
TEXT
  5
78
  8
DIMNSIONS
 62
     7
 10
-140.48166666693331
 20
-77.79166666656036
 30
0.0
 40
8.1442057291666661
  1
30
 50
90.0
 41
0.7
 11
-148.62587239609991
 21
-77.79166666656036
 31
0.0
 73
     3
  0
LINE
  5
79
  8
DIMNSIONS
  6
CONTINUOUS
 62
     7
 10
-112.5000000002666
 20
-93.499999999893689
 30
0.0
 11
-112.5000000002666
 21
-118.4999999998937
 31
0.0
  0
LINE
  5
7A
  8
DIMNSIONS
  6
CONTINUOUS
 62
     7
 10
242.49999999973329
 20
-93.499999999893689
 30
0.0
 11
242.49999999973329
 21
-118.4999999998937
 31
0.0
  0
LINE
  5
7B
  8
DIMNSIONS
  6
CONTINUOUS
 62
     7
 10
-112.5000000002666
 20
-112.4999999998937
 30
0.0
 11
242.49999999973329
 21
-112.4999999998937
 31
0.0
  0
LINE
  5
7C
  8
DIMNSIONS
  6
CONTINUOUS
 62
     7
 10
-112.5000000002666
 20
-112.4999999998937
 30
0.0
 11
-104.9981323244854
 21
-110.4898806144429
 31
0.0
  0
LINE
  5
7D
  8
DIMNSIONS
  6
CONTINUOUS
 62
     7
 10
-112.5000000002666
 20
-112.4999999998937
 30
0.0
 11
-104.9981323244854
 21
-114.5101193853444
 31
0.0
  0
LINE
  5
7E
  8
DIMNSIONS
  6
CONTINUOUS
 62
     7
 10
242.49999999973329
 20
-112.4999999998937
 30
0.0
 11
234.99813232395209
 21
-114.5101193853444
 31
0.0
  0
LINE
  5
7F
  8
DIMNSIONS
  6
CONTINUOUS
 62
     7
 10
242.49999999973329
 20
-112.4999999998937
 30
0.0
 11
234.99813232395209
 21
-110.4898806144429
 31
0.0
  0
TEXT
  5
80
  8
DIMNSIONS
 62
     7
 10
57.062499999733362
 20
-109.51833333322701
 30
0.0
 40
8.1442057291666661
  1
355
 41
0.7
 11
57.062499999733362
 21
-101.37412760406031
 31
0.0
 73
     3
  0
LINE
  5
81
  8
DIMNSIONS
  6
CONTINUOUS
 62
     7
 10
-108.20641295025111
 20
-91.499999999893703
 30
0.0
 11
-143.5000000002666
 21
-91.499999999893703
 31
0.0
  0
LINE
  5
82
  8
DIMNSIONS
  6
CONTINUOUS
 62
     7
 10
-118.5000000002666
 20
-87.499999999893703
 30
0.0
 11
-143.5000000002666
 21
-87.499999999893703
 31
0.0
  0
LINE
  5
83
  8
DIMNSIONS
  6
CONTINUOUS
 62
     7
 10
-137.5000000002666
 20
-87.499999999893703
 30
0.0
 11
-137.5000000002666
 21
-91.499999999893703
 31
0.0
  0
LINE
  5
84
  8
DIMNSIONS
  6
CONTINUOUS
 62
     7
 10
-137.5000000002666
 20
-91.499999999893703
 30
0.0
 11
-137.5000000002666
 21
-106.49166666656041
 31
0.0
  0
LINE
  5
85
  8
DIMNSIONS
  6
CONTINUOUS
 62
     7
 10
-137.5000000002666
 20
-91.499999999893703
 30
0.0
 11
-135.48988061481589
 21
-99.001867675674987
 31
0.0
  0
LINE
  5
86
  8
DIMNSIONS
  6
CONTINUOUS
 62
     7
 10
-137.5000000002666
 20
-91.499999999893703
 30
0.0
 11
-139.5101193857173
 21
-99.001867675674987
 31
0.0
  0
LINE
  5
87
  8
DIMNSIONS
  6
CONTINUOUS
 62
     7
 10
-137.5000000002666
 20
-87.499999999893703
 30
0.0
 11
-137.5000000002666
 21
-72.499999999893703
 31
0.0
  0
LINE
  5
88
  8
DIMNSIONS
  6
CONTINUOUS
 62
     7
 10
-137.5000000002666
 20
-87.499999999893703
 30
0.0
 11
-139.5101193857173
 21
-79.998132324112447
 31
0.0
  0
LINE
  5
89
  8
DIMNSIONS
  6
CONTINUOUS
 62
     7
 10
-137.5000000002666
 20
-87.499999999893703
 30
0.0
 11
-135.48988061481589
 21
-79.998132324112447
 31
0.0
  0
TEXT
  5
8A
  8
DIMNSIONS
 62
     7
 10
-140.48166666693331
 20
-106.49166666656041
 30
0.0
 40
8.1442057291666661
  1
4
 50
90.0
 41
0.7
 11
-148.62587239609991
 21
-106.49166666656041
 31
0.0
 73
     3
  0
LINE
  5
8B
  8
DIMNSIONS
  6
CONTINUOUS
 62
     7
 10
-118.5000000002666
 20
-12.499999999893699
 30
0.0
 11
-143.5000000002666
 21
-12.499999999893699
 31
0.0
  0
LINE
  5
8C
  8
DIMNSIONS
  6
CONTINUOUS
 62
     7
 10
-118.5000000002666
 20
59.500000000106283
 30
0.0
 11
-143.5000000002666
 21
59.500000000106283
 31
0.0
  0
LINE
  5
8D
  8
DIMNSIONS
  6
CONTINUOUS
 62
     7
 10
-137.5000000002666
 20
-12.499999999893699
 30
0.0
 11
-137.5000000002666
 21
59.500000000106283
 31
0.0
  0
LINE
  5
8E
  8
DIMNSIONS
  6
CONTINUOUS
 62
     7
 10
-137.5000000002666
 20
-12.499999999893699
 30
0.0
 11
-139.5101193857173
 21
-4.9981323241124471
 31
0.0
  0
LINE
  5
8F
  8
DIMNSIONS
  6
CONTINUOUS
 62
     7
 10
-137.5000000002666
 20
-12.499999999893699
 30
0.0
 11
-135.48988061481589
 21
-4.9981323241124471
 31
0.0
  0
LINE
  5
90
  8
DIMNSIONS
  6
CONTINUOUS
 62
     7
 10
-137.5000000002666
 20
59.500000000106283
 30
0.0
 11
-135.48988061481589
 21
51.998132324325042
 31
0.0
  0
LINE
  5
91
  8
DIMNSIONS
  6
CONTINUOUS
 62
     7
 10
-137.5000000002666
 20
59.500000000106283
 30
0.0
 11
-139.5101193857173
 21
51.998132324325042
 31
0.0
  0
TEXT
  5
92
  8
DIMNSIONS
 62
     7
 10
-140.48166666693331
 20
18.208333333439619
 30
0.0
 40
8.1442057291666661
  1
72
 50
90.0
 41
0.7
 11
-148.62587239609991
 21
18.208333333439619
 31
0.0
 73
     3
  0
LINE
  5
93
  8
DIMNSIONS
  6
CONTINUOUS
 62
     7
 10
49.749999999733362
 20
-17.499999999893699
 30
0.0
 11
-143.5000000002666
 21
-17.499999999893699
 31
0.0
  0
LINE
  5
94
  8
DIMNSIONS
  6
CONTINUOUS
 62
     7
 10
-118.5000000002666
 20
-12.499999999893699
 30
0.0
 11
-143.5000000002666
 21
-12.499999999893699
 31
0.0
  0
LINE
  5
95
  8
DIMNSIONS
  6
CONTINUOUS
 62
     7
 10
-137.5000000002666
 20
-12.499999999893699
 30
0.0
 11
-137.5000000002666
 21
-17.499999999893699
 31
0.0
  0
LINE
  5
96
  8
DIMNSIONS
  6
CONTINUOUS
 62
     7
 10
-137.5000000002666
 20
-17.499999999893699
 30
0.0
 11
-137.5000000002666
 21
-32.29166666656036
 31
0.0
  0
LINE
  5
97
  8
DIMNSIONS
  6
CONTINUOUS
 62
     7
 10
-137.5000000002666
 20
-17.499999999893699
 30
0.0
 11
-135.48988061481589
 21
-25.001867675674958
 31
0.0
  0
LINE
  5
98
  8
DIMNSIONS
  6
CONTINUOUS
 62
     7
 10
-137.5000000002666
 20
-17.499999999893699
 30
0.0
 11
-139.5101193857173
 21
-25.001867675674958
 31
0.0
  0
LINE
  5
99
  8
DIMNSIONS
  6
CONTINUOUS
 62
     7
 10
-137.5000000002666
 20
-12.499999999893699
 30
0.0
 11
-137.5000000002666
 21
2.5000000001062959
 31
0.0
  0
LINE
  5
9A
  8
DIMNSIONS
  6
CONTINUOUS
 62
     7
 10
-137.5000000002666
 20
-12.499999999893699
 30
0.0
 11
-139.5101193857173
 21
-4.9981323241124471
 31
0.0
  0
LINE
  5
9B
  8
DIMNSIONS
  6
CONTINUOUS
 62
     7
 10
-137.5000000002666
 20
-12.499999999893699
 30
0.0
 11
-135.48988061481589
 21
-4.9981323241124471
 31
0.0
  0
TEXT
  5
9C
  8
DIMNSIONS
 62
     7
 10
-140.48166666693331
 20
-32.29166666656036
 30
0.0
 40
8.1442057291666661
  1
5
 50
90.0
 41
0.7
 11
-148.62587239609991
 21
-32.29166666656036
 31
0.0
 73
     3
  0
LINE
  5
9D
  8
DIMNSIONS
  6
CONTINUOUS
 62
     7
 10
-118.5000000002666
 20
59.500000000106283
 30
0.0
 11
-143.5000000002666
 21
59.500000000106283
 31
0.0
  0
LINE
  5
9E
  8
DIMNSIONS
  6
CONTINUOUS
 62
     7
 10
-87.357115409454707
 20
64.500000000106283
 30
0.0
 11
-143.5000000002666
 21
64.500000000106283
 31
0.0
  0
LINE
  5
9F
  8
DIMNSIONS
  6
CONTINUOUS
 62
     7
 10
-137.5000000002666
 20
64.500000000106283
 30
0.0
 11
-137.5000000002666
 21
59.500000000106283
 31
0.0
  0
LINE
  5
A0
  8
DIMNSIONS
  6
CONTINUOUS
 62
     7
 10
-137.5000000002666
 20
59.500000000106283
 30
0.0
 11
-137.5000000002666
 21
44.500000000106283
 31
0.0
  0
LINE
  5
A1
  8
DIMNSIONS
  6
CONTINUOUS
 62
     7
 10
-137.5000000002666
 20
59.500000000106283
 30
0.0
 11
-135.48988061481589
 21
51.998132324325042
 31
0.0
  0
LINE
  5
A2
  8
DIMNSIONS
  6
CONTINUOUS
 62
     7
 10
-137.5000000002666
 20
59.500000000106283
 30
0.0
 11
-139.5101193857173
 21
51.998132324325042
 31
0.0
  0
LINE
  5
A3
  8
DIMNSIONS
  6
CONTINUOUS
 62
     7
 10
-137.5000000002666
 20
64.500000000106283
 30
0.0
 11
-137.5000000002666
 21
77.69166666677296
 31
0.0
  0
LINE
  5
A4
  8
DIMNSIONS
  6
CONTINUOUS
 62
     7
 10
-137.5000000002666
 20
64.500000000106283
 30
0.0
 11
-139.5101193857173
 21
72.001867675887524
 31
0.0
  0
LINE
  5
A5
  8
DIMNSIONS
  6
CONTINUOUS
 62
     7
 10
-137.5000000002666
 20
64.500000000106283
 30
0.0
 11
-135.48988061481589
 21
72.001867675887524
 31
0.0
  0
TEXT
  5
A6
  8
DIMNSIONS
 62
     7
 10
-140.48166666693331
 20
72.400000000106274
 30
0.0
 40
8.1442057291666661
  1
5
 50
90.0
 41
0.7
 11
-148.62587239609991
 21
72.400000000106274
 31
0.0
 73
     3
  0
TEXT
  5
A7
  8
DATA
 62
     7
 10
250.0
 20
-210.288246439261
 30
0.0
 40
7.3297851562499989
  1
EXT-DVI-441N
 41
0.7
 11
250.0
 21
-202.95846128301099
 31
0.0
 73
     3
  0
TEXT
  5
A8
  8
DATA
 62
     7
 10
250.0
 20
-187.7900342102682
 30
0.0
 40
7.3297851562499989
  1
Gefen
 41
0.7
 11
250.0
 21
-180.46024905401811
 31
0.0
 73
     3
  0
TEXT
  5
A9
  8
DATA
 62
     7
 10
246.33244293719031
 20
-197.62233302707381
 30
0.0
 40
4.8865311328124994
  1
4\U+00D71 DVI切替機
 41
0.7
 11
246.33244293719031
 21
-192.7358018942613
 31
0.0
 73
     3
  0
TEXT
  5
AA
  8
DATA
 62
     7
 10
-139.99999999999989
 20
-230.21870421026821
 30
0.0
 40
4.8865234374999993
  1
仕様および外観は予告なく変更されることがありますので、ご了承ください。
 41
0.7
 11
-139.99999999999989
 21
-225.3321807727682
 31
0.0
 73
     3
  0
LINE
  5
AB
  8
DATA
  6
CONTINUOUS
 62
     7
 10
-112.5000000002666
 20
-87.499999999893703
 30
0.0
 11
242.49999999973329
 21
-87.499999999893703
 31
0.0
  0
LINE
  5
AC
  8
DATA
  6
CONTINUOUS
 62
     7
 10
-112.5000000002666
 20
-57.499999999893703
 30
0.0
 11
242.49999999973329
 21
-57.499999999893703
 31
0.0
  0
LINE
  5
AD
  8
DATA
  6
CONTINUOUS
 62
     7
 10
-112.5000000002666
 20
-87.499999999893703
 30
0.0
 11
-112.5000000002666
 21
-57.499999999893703
 31
0.0
  0
LINE
  5
AE
  8
DATA
  6
CONTINUOUS
 62
     7
 10
242.49999999973329
 20
-87.499999999893703
 30
0.0
 11
242.49999999973329
 21
-57.499999999893703
 31
0.0
  0
LINE
  5
AF
  8
DATA
  6
CONTINUOUS
 62
     7
 10
-102.20641295025111
 20
-91.499999999893703
 30
0.0
 11
-92.206412950251121
 21
-91.499999999893703
 31
0.0
  0
LINE
  5
B0
  8
DATA
  6
CONTINUOUS
 62
     7
 10
-102.20641295025111
 20
-91.499999999893703
 30
0.0
 11
-103.45641295025111
 21
-87.499999999893703
 31
0.0
  0
LINE
  5
B1
  8
DATA
  6
CONTINUOUS
 62
     7
 10
-92.206412950251121
 20
-91.499999999893703
 30
0.0
 11
-90.956412950251121
 21
-87.499999999893703
 31
0.0
  0
LINE
  5
B2
  8
DATA
  6
CONTINUOUS
 62
     7
 10
232.20641294971779
 20
-91.499999999893703
 30
0.0
 11
222.20641294971779
 21
-91.499999999893703
 31
0.0
  0
LINE
  5
B3
  8
DATA
  6
CONTINUOUS
 62
     7
 10
232.20641294971779
 20
-91.499999999893703
 30
0.0
 11
233.45641294971779
 21
-87.499999999893703
 31
0.0
  0
LINE
  5
B4
  8
DATA
  6
CONTINUOUS
 62
     7
 10
222.20641294971779
 20
-91.499999999893703
 30
0.0
 11
220.95641294971779
 21
-87.499999999893703
 31
0.0
  0
LINE
  5
B5
  8
DATA
  6
CONTINUOUS
 62
     7
 10
274.99999999973329
 20
-86.699999999893706
 30
0.0
 11
274.99999999973329
 21
-58.299999999893721
 31
0.0
  0
LINE
  5
B6
  8
DATA
  6
CONTINUOUS
 62
     7
 10
346.99999999973329
 20
-86.699999999893706
 30
0.0
 11
346.99999999973329
 21
-57.499999999893703
 31
0.0
  0
LINE
  5
B7
  8
DATA
  6
CONTINUOUS
 62
     7
 10
275.79999999973342
 20
-57.499999999893703
 30
0.0
 11
346.99999999973329
 21
-57.499999999893703
 31
0.0
  0
LINE
  5
B8
  8
DATA
  6
CONTINUOUS
 62
     7
 10
275.79999999973342
 20
-87.499999999893703
 30
0.0
 11
346.19999999973328
 21
-87.499999999893703
 31
0.0
  0
LINE
  5
B9
  8
DATA
  6
CONTINUOUS
 62
     7
 10
288.47654223726801
 20
-91.499999999893703
 30
0.0
 11
278.47654223726812
 21
-91.499999999893703
 31
0.0
  0
LINE
  5
BA
  8
DATA
  6
CONTINUOUS
 62
     7
 10
288.47654223726801
 20
-91.499999999893703
 30
0.0
 11
289.72654223726812
 21
-87.499999999893703
 31
0.0
  0
LINE
  5
BB
  8
DATA
  6
CONTINUOUS
 62
     7
 10
278.47654223726812
 20
-91.499999999893703
 30
0.0
 11
277.22654223726812
 21
-87.499999999893703
 31
0.0
  0
LINE
  5
BC
  8
DATA
  6
CONTINUOUS
 62
     7
 10
332.64221807628257
 20
-91.499999999893703
 30
0.0
 11
322.64221807628257
 21
-91.499999999893703
 31
0.0
  0
LINE
  5
BD
  8
DATA
  6
CONTINUOUS
 62
     7
 10
332.64221807628257
 20
-91.499999999893703
 30
0.0
 11
333.89221807628257
 21
-87.499999999893703
 31
0.0
  0
LINE
  5
BE
  8
DATA
  6
CONTINUOUS
 62
     7
 10
322.64221807628257
 20
-91.499999999893703
 30
0.0
 11
321.39221807628257
 21
-87.499999999893703
 31
0.0
  0
CIRCLE
  5
BF
  8
DATA
  6
CONTINUOUS
 62
     7
 10
150.4999999997334
 20
-76.499999999893703
 30
0.0
 40
4.75
  0
CIRCLE
  5
C0
  8
DATA
  6
CONTINUOUS
 62
     7
 10
120.4999999997333
 20
-76.499999999893703
 30
0.0
 40
4.75
  0
CIRCLE
  5
C1
  8
DATA
  6
CONTINUOUS
 62
     7
 10
90.499999999733348
 20
-76.499999999893703
 30
0.0
 40
4.75
  0
CIRCLE
  5
C2
  8
DATA
  6
CONTINUOUS
 62
     7
 10
60.499999999733362
 20
-76.499999999893703
 30
0.0
 40
4.75
  0
TEXT
  5
C3
  8
DATA
 62
     7
 10
55.863680965723411
 20
-86.017077745917049
 30
0.0
 40
3.2576822916666659
  1
In 1
 41
0.7
 11
55.863680965723411
 21
-82.759395454250367
 31
0.0
 73
     3
  0
TEXT
  5
C4
  8
DATA
 62
     7
 10
85.86368096572339
 20
-86.017077745917049
 30
0.0
 40
3.2576822916666659
  1
In 2
 41
0.7
 11
85.86368096572339
 21
-82.759395454250367
 31
0.0
 73
     3
  0
TEXT
  5
C5
  8
DATA
 62
     7
 10
115.8636809657234
 20
-86.017077745917049
 30
0.0
 40
3.2576822916666659
  1
In 3
 41
0.7
 11
115.8636809657234
 21
-82.759395454250367
 31
0.0
 73
     3
  0
TEXT
  5
C6
  8
DATA
 62
     7
 10
145.8636809657234
 20
-86.017077745917049
 30
0.0
 40
3.2576822916666659
  1
In 4
 41
0.7
 11
145.8636809657234
 21
-82.759395454250367
 31
0.0
 73
     3
  0
CIRCLE
  5
C7
  8
DATA
  6
CONTINUOUS
 62
     7
 10
220.49999999973329
 20
-74.499999999893703
 30
0.0
 40
1.5
  0
TEXT
  5
C8
  8
DATA
 62
     7
 10
217.4999001997387
 20
-85.559877745917035
 30
0.0
 40
2.280377604166667
  1
Power
 41
0.7
 11
217.4999001997387
 21
-83.279500141750376
 31
0.0
 73
     3
  0
TEXT
  5
C9
  8
DATA
 62
     7
 10
167.8007449644976
 20
-71.687869532867779
 30
0.0
 40
5.7009440104166647
  1
4\U+00D71
 41
0.7
 11
167.8007449644976
 21
-65.986925522451116
 31
0.0
 73
     3
  0
TEXT
  5
CA
  8
DATA
 62
     7
 10
184.39781635488251
 20
-71.764085217368674
 30
0.0
 40
8.1442057291666661
  1
DVI
 41
0.7
 11
184.39781635488251
 21
-63.619879488202002
 31
0.0
 73
     3
  0
TEXT
  5
CB
  8
DATA
 62
     7
 10
181.9701440025932
 20
-76.357333333227004
 30
0.0
 40
3.2576822916666659
  1
switcher
 41
0.7
 11
181.9701440025932
 21
-73.099651041560335
 31
0.0
 73
     3
  0
LINE
  5
CC
  8
DATA
  6
CONTINUOUS
 62
     7
 10
-112.5000000002666
 20
-12.499999999893699
 30
0.0
 11
-112.5000000002666
 21
59.500000000106283
 31
0.0
  0
LINE
  5
CD
  8
DATA
  6
CONTINUOUS
 62
     7
 10
242.49999999973329
 20
-12.499999999893699
 30
0.0
 11
242.49999999973329
 21
59.500000000106283
 31
0.0
  0
LINE
  5
CE
  8
DATA
  6
CONTINUOUS
 62
     7
 10
-112.5000000002666
 20
-12.499999999893699
 30
0.0
 11
242.49999999973329
 21
-12.499999999893699
 31
0.0
  0
LINE
  5
CF
  8
DATA
  6
CONTINUOUS
 62
     7
 10
-112.5000000002666
 20
59.500000000106283
 30
0.0
 11
242.49999999973329
 21
59.500000000106283
 31
0.0
  0
LINE
  5
D0
  8
DATA
  6
CONTINUOUS
 62
     7
 10
55.749999999733362
 20
-17.499999999893699
 30
0.0
 11
65.249999999733348
 21
-17.499999999893699
 31
0.0
  0
LINE
  5
D1
  8
DATA
  6
CONTINUOUS
 62
     7
 10
85.749999999733333
 20
-17.499999999893699
 30
0.0
 11
95.249999999733348
 21
-17.499999999893699
 31
0.0
  0
LINE
  5
D2
  8
DATA
  6
CONTINUOUS
 62
     7
 10
115.7499999997333
 20
-17.499999999893699
 30
0.0
 11
125.2499999997333
 21
-17.499999999893699
 31
0.0
  0
LINE
  5
D3
  8
DATA
  6
CONTINUOUS
 62
     7
 10
145.74999999973329
 20
-17.499999999893699
 30
0.0
 11
155.2499999997334
 21
-17.499999999893699
 31
0.0
  0
LINE
  5
D4
  8
DATA
  6
CONTINUOUS
 62
     7
 10
-112.5000000002666
 20
-85.595293193528377
 30
0.0
 11
-112.5000000002666
 21
-60.595293193528391
 31
0.0
  0
CIRCLE
  5
D5
  8
DATA
  6
CONTINUOUS
 62
     7
 10
-70.500000000266624
 20
-74.499999999893703
 30
0.0
 40
1.400000000000005
  0
CIRCLE
  5
D6
  8
DATA
  6
CONTINUOUS
 62
     7
 10
-55.500000000266631
 20
-74.499999999893703
 30
0.0
 40
1.400000000000005
  0
CIRCLE
  5
D7
  8
DATA
  6
CONTINUOUS
 62
     7
 10
-40.500000000266638
 20
-74.499999999893703
 30
0.0
 40
1.400000000000005
  0
CIRCLE
  5
D8
  8
DATA
  6
CONTINUOUS
 62
     7
 10
-25.500000000266638
 20
-74.499999999893703
 30
0.0
 40
1.400000000000005
  0
CIRCLE
  5
D9
  8
DATA
  6
CONTINUOUS
 62
     7
 10
-4.5000000002666383
 20
-72.604315769662563
 30
0.0
 40
2.5
  0
TEXT
  5
DA
  8
DATA
 62
     7
 10
-71.566434284935042
 20
-86.017077745917049
 30
0.0
 40
3.2576822916666659
  1
1
 41
0.7
 11
-71.566434284935042
 21
-82.759395454250367
 31
0.0
 73
     3
  0
TEXT
  5
DB
  8
DATA
 62
     7
 10
-56.566434284935028
 20
-86.017077745917049
 30
0.0
 40
3.2576822916666659
  1
2
 41
0.7
 11
-56.566434284935028
 21
-82.759395454250367
 31
0.0
 73
     3
  0
TEXT
  5
DC
  8
DATA
 62
     7
 10
-41.566434284935021
 20
-86.017077745917049
 30
0.0
 40
3.2576822916666659
  1
3
 41
0.7
 11
-41.566434284935021
 21
-82.759395454250367
 31
0.0
 73
     3
  0
TEXT
  5
DD
  8
DATA
 62
     7
 10
-26.566434284935031
 20
-86.017077745917049
 30
0.0
 40
3.2576822916666659
  1
4
 41
0.7
 11
-26.566434284935031
 21
-82.759395454250367
 31
0.0
 73
     3
  0
TEXT
  5
DE
  8
DATA
 62
     7
 10
-6.2351679446112911
 20
-86.017077745917049
 30
0.0
 40
3.2576822916666659
  1
IR
 41
0.7
 11
-6.2351679446112911
 21
-82.759395454250367
 31
0.0
 73
     3
  0
LINE
  5
DF
  8
DATA
  6
CONTINUOUS
 62
     7
 10
55.749999999733362
 20
-17.499999999893699
 30
0.0
 11
55.749999999733362
 21
-12.499999999893699
 31
0.0
  0
LINE
  5
E0
  8
DATA
  6
CONTINUOUS
 62
     7
 10
65.249999999733348
 20
-17.499999999893699
 30
0.0
 11
65.249999999733348
 21
-12.499999999893699
 31
0.0
  0
LINE
  5
E1
  8
DATA
  6
CONTINUOUS
 62
     7
 10
85.749999999733333
 20
-17.499999999893699
 30
0.0
 11
85.749999999733333
 21
-12.499999999893699
 31
0.0
  0
LINE
  5
E2
  8
DATA
  6
CONTINUOUS
 62
     7
 10
95.249999999733348
 20
-17.499999999893699
 30
0.0
 11
95.249999999733348
 21
-12.499999999893699
 31
0.0
  0
LINE
  5
E3
  8
DATA
  6
CONTINUOUS
 62
     7
 10
115.7499999997333
 20
-17.499999999893699
 30
0.0
 11
115.7499999997333
 21
-12.499999999893699
 31
0.0
  0
LINE
  5
E4
  8
DATA
  6
CONTINUOUS
 62
     7
 10
125.2499999997333
 20
-17.499999999893699
 30
0.0
 11
125.2499999997333
 21
-12.499999999893699
 31
0.0
  0
LINE
  5
E5
  8
DATA
  6
CONTINUOUS
 62
     7
 10
145.74999999973329
 20
-17.499999999893699
 30
0.0
 11
145.74999999973329
 21
-12.499999999893699
 31
0.0
  0
LINE
  5
E6
  8
DATA
  6
CONTINUOUS
 62
     7
 10
155.2499999997334
 20
-17.499999999893699
 30
0.0
 11
155.2499999997334
 21
-12.499999999893699
 31
0.0
  0
ARC
  5
E7
  8
DATA
  6
CONTINUOUS
 62
     7
 10
220.49999999973329
 20
-12.29797667838932
 30
0.0
 40
1.499999999999988
 50
187.7402442911544
 51
352.25975570884538
  0
ARC
  5
E8
  8
DATA
  6
CONTINUOUS
 62
     7
 10
-70.500000000266624
 20
-12.29797667838932
 30
0.0
 40
1.400000000000003
 50
188.29688322069521
 51
351.70311677930471
  0
ARC
  5
E9
  8
DATA
  6
CONTINUOUS
 62
     7
 10
-55.500000000266631
 20
-12.29797667838932
 30
0.0
 40
1.399999999999999
 50
188.29688322068591
 51
351.70311677931397
  0
ARC
  5
EA
  8
DATA
  6
CONTINUOUS
 62
     7
 10
-40.500000000266638
 20
-12.29797667838932
 30
0.0
 40
1.399999999999999
 50
188.29688322068591
 51
351.70311677931397
  0
ARC
  5
EB
  8
DATA
  6
CONTINUOUS
 62
     7
 10
-25.500000000266638
 20
-12.29797667838932
 30
0.0
 40
1.3999999999999999
 50
188.2968832207024
 51
351.70311677929772
  0
LINE
  5
EC
  8
DATA
  6
CONTINUOUS
 62
     7
 10
269.99999999973329
 20
-71.749999999893703
 30
0.0
 11
274.99999999973329
 21
-71.749999999893703
 31
0.0
  0
LINE
  5
ED
  8
DATA
  6
CONTINUOUS
 62
     7
 10
269.99999999973329
 20
-81.249999999893703
 30
0.0
 11
274.99999999973329
 21
-81.249999999893703
 31
0.0
  0
LINE
  5
EE
  8
DATA
  6
CONTINUOUS
 62
     7
 10
269.99999999973329
 20
-81.249999999893703
 30
0.0
 11
269.99999999973329
 21
-71.749999999893703
 31
0.0
  0
ARC
  5
EF
  8
DATA
  6
CONTINUOUS
 62
     7
 10
275.49486029155878
 20
-74.499999999893703
 30
0.0
 40
1.4999999999999629
 50
109.2631224459805
 51
250.7368775540202
  0
LINE
  5
F0
  8
DATA
  6
CONTINUOUS
 62
     7
 10
-112.5000000002666
 20
-4.4999999998937019
 30
0.0
 11
242.49999999973329
 21
-4.4999999998937019
 31
0.0
  0
LINE
  5
F1
  8
DATA
  6
CONTINUOUS
 62
     7
 10
-112.5000000002666
 20
130.00000000010471
 30
0.0
 11
242.49999999973329
 21
130.00000000010471
 31
0.0
  0
LINE
  5
F2
  8
DATA
  6
CONTINUOUS
 62
     7
 10
-112.5000000002666
 20
100.00000000010471
 30
0.0
 11
242.49999999973329
 21
100.00000000010471
 31
0.0
  0
LINE
  5
F3
  8
DATA
  6
CONTINUOUS
 62
     7
 10
-112.5000000002666
 20
130.00000000010471
 30
0.0
 11
-112.5000000002666
 21
100.00000000010471
 31
0.0
  0
LINE
  5
F4
  8
DATA
  6
CONTINUOUS
 62
     7
 10
242.49999999973329
 20
130.00000000010471
 30
0.0
 11
242.49999999973329
 21
100.00000000010471
 31
0.0
  0
LINE
  5
F5
  8
DATA
  6
CONTINUOUS
 62
     7
 10
-102.20641295025111
 20
134.00000000010471
 30
0.0
 11
-92.206412950251121
 21
134.00000000010471
 31
0.0
  0
LINE
  5
F6
  8
DATA
  6
CONTINUOUS
 62
     7
 10
-102.20641295025111
 20
134.00000000010471
 30
0.0
 11
-103.45641295025111
 21
130.00000000010471
 31
0.0
  0
LINE
  5
F7
  8
DATA
  6
CONTINUOUS
 62
     7
 10
-92.206412950251121
 20
134.00000000010471
 30
0.0
 11
-90.956412950251121
 21
130.00000000010471
 31
0.0
  0
LINE
  5
F8
  8
DATA
  6
CONTINUOUS
 62
     7
 10
232.20641294971779
 20
134.00000000010471
 30
0.0
 11
222.20641294971779
 21
134.00000000010471
 31
0.0
  0
LINE
  5
F9
  8
DATA
  6
CONTINUOUS
 62
     7
 10
232.20641294971779
 20
134.00000000010471
 30
0.0
 11
233.45641294971779
 21
130.00000000010471
 31
0.0
  0
LINE
  5
FA
  8
DATA
  6
CONTINUOUS
 62
     7
 10
222.20641294971779
 20
134.00000000010471
 30
0.0
 11
220.95641294971779
 21
130.00000000010471
 31
0.0
  0
CIRCLE
  5
FB
  8
DATA
  6
CONTINUOUS
 62
     7
 10
162.01597086031509
 20
117.528270914739
 30
0.0
 40
1.175000000000068
  0
POLYLINE
  5
FC
  8
DATA
  6
CONTINUOUS
 62
     7
 66
     1
 10
0.0
 20
0.0
 30
0.0
 70
     1
  0
VERTEX
  5
81A
  8
DATA
  6
CONTINUOUS
 62
     7
 10
162.01597086031509
 20
114.82827091473899
 30
0.0
  0
VERTEX
  5
81B
  8
DATA
  6
CONTINUOUS
 62
     7
 10
159.67770227009709
 20
116.178270914739
 30
0.0
  0
VERTEX
  5
81C
  8
DATA
  6
CONTINUOUS
 62
     7
 10
159.67770227009709
 20
118.87827091473901
 30
0.0
  0
VERTEX
  5
81D
  8
DATA
  6
CONTINUOUS
 62
     7
 10
162.01597086031509
 20
120.228270914739
 30
0.0
  0
VERTEX
  5
81E
  8
DATA
  6
CONTINUOUS
 62
     7
 10
164.3542394505331
 20
118.87827091473901
 30
0.0
  0
VERTEX
  5
81F
  8
DATA
  6
CONTINUOUS
 62
     7
 10
164.3542394505331
 20
116.178270914739
 30
0.0
  0
SEQEND
  5
820
  8
DATA
  6
CONTINUOUS
 62
     7
  0
CIRCLE
  5
105
  8
DATA
  6
CONTINUOUS
 62
     7
 10
194.51597086031501
 20
117.528270914739
 30
0.0
 40
1.175000000000068
  0
POLYLINE
  5
106
  8
DATA
  6
CONTINUOUS
 62
     7
 66
     1
 10
0.0
 20
0.0
 30
0.0
 70
     1
  0
VERTEX
  5
821
  8
DATA
  6
CONTINUOUS
 62
     7
 10
194.51597086031501
 20
114.82827091473899
 30
0.0
  0
VERTEX
  5
822
  8
DATA
  6
CONTINUOUS
 62
     7
 10
192.1777022700972
 20
116.178270914739
 30
0.0
  0
VERTEX
  5
823
  8
DATA
  6
CONTINUOUS
 62
     7
 10
192.1777022700972
 20
118.87827091473901
 30
0.0
  0
VERTEX
  5
824
  8
DATA
  6
CONTINUOUS
 62
     7
 10
194.51597086031501
 20
120.228270914739
 30
0.0
  0
VERTEX
  5
825
  8
DATA
  6
CONTINUOUS
 62
     7
 10
196.8542394505331
 20
118.87827091473901
 30
0.0
  0
VERTEX
  5
826
  8
DATA
  6
CONTINUOUS
 62
     7
 10
196.8542394505331
 20
116.178270914739
 30
0.0
  0
SEQEND
  5
827
  8
DATA
  6
CONTINUOUS
 62
     7
  0
LINE
  5
10F
  8
DATA
  6
CONTINUOUS
 62
     7
 10
189.21796584810161
 20
113.603270914739
 30
0.0
 11
167.318156073718
 21
113.603270914739
 31
0.0
  0
LINE
  5
110
  8
DATA
  6
CONTINUOUS
 62
     7
 10
167.8770732711703
 20
121.45327091473899
 30
0.0
 11
188.6590486506492
 21
121.45327091473899
 31
0.0
  0
POLYLINE
  5
111
  8
DATA
  6
CONTINUOUS
 62
     7
 66
     1
 10
0.0
 20
0.0
 30
0.0
 70
     1
  0
VERTEX
  5
828
  8
DATA
  6
CONTINUOUS
 62
     7
 10
187.73812713208909
 20
118.293270914739
 30
0.0
  0
VERTEX
  5
829
  8
DATA
  6
CONTINUOUS
 62
     7
 10
189.26812713208909
 20
118.293270914739
 30
0.0
  0
VERTEX
  5
82A
  8
DATA
  6
CONTINUOUS
 62
     7
 10
189.26812713208909
 20
116.763270914739
 30
0.0
  0
VERTEX
  5
82B
  8
DATA
  6
CONTINUOUS
 62
     7
 10
187.73812713208909
 20
116.763270914739
 30
0.0
  0
SEQEND
  5
82C
  8
DATA
  6
CONTINUOUS
 62
     7
  0
POLYLINE
  5
118
  8
DATA
  6
CONTINUOUS
 62
     7
 66
     1
 10
0.0
 20
0.0
 30
0.0
 70
     1
  0
VERTEX
  5
82D
  8
DATA
  6
CONTINUOUS
 62
     7
 10
185.73812713208909
 20
118.293270914739
 30
0.0
  0
VERTEX
  5
82E
  8
DATA
  6
CONTINUOUS
 62
     7
 10
187.26812713208909
 20
118.293270914739
 30
0.0
  0
VERTEX
  5
82F
  8
DATA
  6
CONTINUOUS
 62
     7
 10
187.26812713208909
 20
116.763270914739
 30
0.0
  0
VERTEX
  5
830
  8
DATA
  6
CONTINUOUS
 62
     7
 10
185.73812713208909
 20
116.763270914739
 30
0.0
  0
SEQEND
  5
831
  8
DATA
  6
CONTINUOUS
 62
     7
  0
POLYLINE
  5
11F
  8
DATA
  6
CONTINUOUS
 62
     7
 66
     1
 10
0.0
 20
0.0
 30
0.0
 70
     1
  0
VERTEX
  5
832
  8
DATA
  6
CONTINUOUS
 62
     7
 10
183.73812713208909
 20
118.293270914739
 30
0.0
  0
VERTEX
  5
833
  8
DATA
  6
CONTINUOUS
 62
     7
 10
185.26812713208909
 20
118.293270914739
 30
0.0
  0
VERTEX
  5
834
  8
DATA
  6
CONTINUOUS
 62
     7
 10
185.26812713208909
 20
116.763270914739
 30
0.0
  0
VERTEX
  5
835
  8
DATA
  6
CONTINUOUS
 62
     7
 10
183.73812713208909
 20
116.763270914739
 30
0.0
  0
SEQEND
  5
836
  8
DATA
  6
CONTINUOUS
 62
     7
  0
POLYLINE
  5
126
  8
DATA
  6
CONTINUOUS
 62
     7
 66
     1
 10
0.0
 20
0.0
 30
0.0
 70
     1
  0
VERTEX
  5
837
  8
DATA
  6
CONTINUOUS
 62
     7
 10
181.73812713208909
 20
118.293270914739
 30
0.0
  0
VERTEX
  5
838
  8
DATA
  6
CONTINUOUS
 62
     7
 10
183.26812713208909
 20
118.293270914739
 30
0.0
  0
VERTEX
  5
839
  8
DATA
  6
CONTINUOUS
 62
     7
 10
183.26812713208909
 20
116.763270914739
 30
0.0
  0
VERTEX
  5
83A
  8
DATA
  6
CONTINUOUS
 62
     7
 10
181.73812713208909
 20
116.763270914739
 30
0.0
  0
SEQEND
  5
83B
  8
DATA
  6
CONTINUOUS
 62
     7
  0
POLYLINE
  5
12D
  8
DATA
  6
CONTINUOUS
 62
     7
 66
     1
 10
0.0
 20
0.0
 30
0.0
 70
     1
  0
VERTEX
  5
83C
  8
DATA
  6
CONTINUOUS
 62
     7
 10
179.73812713208909
 20
118.293270914739
 30
0.0
  0
VERTEX
  5
83D
  8
DATA
  6
CONTINUOUS
 62
     7
 10
181.26812713208909
 20
118.293270914739
 30
0.0
  0
VERTEX
  5
83E
  8
DATA
  6
CONTINUOUS
 62
     7
 10
181.26812713208909
 20
116.763270914739
 30
0.0
  0
VERTEX
  5
83F
  8
DATA
  6
CONTINUOUS
 62
     7
 10
179.73812713208909
 20
116.763270914739
 30
0.0
  0
SEQEND
  5
840
  8
DATA
  6
CONTINUOUS
 62
     7
  0
POLYLINE
  5
134
  8
DATA
  6
CONTINUOUS
 62
     7
 66
     1
 10
0.0
 20
0.0
 30
0.0
 70
     1
  0
VERTEX
  5
841
  8
DATA
  6
CONTINUOUS
 62
     7
 10
177.73812713208909
 20
118.293270914739
 30
0.0
  0
VERTEX
  5
842
  8
DATA
  6
CONTINUOUS
 62
     7
 10
179.26812713208909
 20
118.293270914739
 30
0.0
  0
VERTEX
  5
843
  8
DATA
  6
CONTINUOUS
 62
     7
 10
179.26812713208909
 20
116.763270914739
 30
0.0
  0
VERTEX
  5
844
  8
DATA
  6
CONTINUOUS
 62
     7
 10
177.73812713208909
 20
116.763270914739
 30
0.0
  0
SEQEND
  5
845
  8
DATA
  6
CONTINUOUS
 62
     7
  0
POLYLINE
  5
13B
  8
DATA
  6
CONTINUOUS
 62
     7
 66
     1
 10
0.0
 20
0.0
 30
0.0
 70
     1
  0
VERTEX
  5
846
  8
DATA
  6
CONTINUOUS
 62
     7
 10
175.7381271320892
 20
118.293270914739
 30
0.0
  0
VERTEX
  5
847
  8
DATA
  6
CONTINUOUS
 62
     7
 10
177.26812713208909
 20
118.293270914739
 30
0.0
  0
VERTEX
  5
848
  8
DATA
  6
CONTINUOUS
 62
     7
 10
177.26812713208909
 20
116.763270914739
 30
0.0
  0
VERTEX
  5
849
  8
DATA
  6
CONTINUOUS
 62
     7
 10
175.7381271320892
 20
116.763270914739
 30
0.0
  0
SEQEND
  5
84A
  8
DATA
  6
CONTINUOUS
 62
     7
  0
POLYLINE
  5
142
  8
DATA
  6
CONTINUOUS
 62
     7
 66
     1
 10
0.0
 20
0.0
 30
0.0
 70
     1
  0
VERTEX
  5
84B
  8
DATA
  6
CONTINUOUS
 62
     7
 10
173.7381271320892
 20
118.293270914739
 30
0.0
  0
VERTEX
  5
84C
  8
DATA
  6
CONTINUOUS
 62
     7
 10
175.26812713208921
 20
118.293270914739
 30
0.0
  0
VERTEX
  5
84D
  8
DATA
  6
CONTINUOUS
 62
     7
 10
175.26812713208921
 20
116.763270914739
 30
0.0
  0
VERTEX
  5
84E
  8
DATA
  6
CONTINUOUS
 62
     7
 10
173.7381271320892
 20
116.763270914739
 30
0.0
  0
SEQEND
  5
84F
  8
DATA
  6
CONTINUOUS
 62
     7
  0
POLYLINE
  5
149
  8
DATA
  6
CONTINUOUS
 62
     7
 66
     1
 10
0.0
 20
0.0
 30
0.0
 70
     1
  0
VERTEX
  5
850
  8
DATA
  6
CONTINUOUS
 62
     7
 10
187.73812713208909
 20
116.2932709147389
 30
0.0
  0
VERTEX
  5
851
  8
DATA
  6
CONTINUOUS
 62
     7
 10
189.26812713208909
 20
116.2932709147389
 30
0.0
  0
VERTEX
  5
852
  8
DATA
  6
CONTINUOUS
 62
     7
 10
189.26812713208909
 20
114.763270914739
 30
0.0
  0
VERTEX
  5
853
  8
DATA
  6
CONTINUOUS
 62
     7
 10
187.73812713208909
 20
114.763270914739
 30
0.0
  0
SEQEND
  5
854
  8
DATA
  6
CONTINUOUS
 62
     7
  0
POLYLINE
  5
150
  8
DATA
  6
CONTINUOUS
 62
     7
 66
     1
 10
0.0
 20
0.0
 30
0.0
 70
     1
  0
VERTEX
  5
855
  8
DATA
  6
CONTINUOUS
 62
     7
 10
185.73812713208909
 20
116.2932709147389
 30
0.0
  0
VERTEX
  5
856
  8
DATA
  6
CONTINUOUS
 62
     7
 10
187.26812713208909
 20
116.2932709147389
 30
0.0
  0
VERTEX
  5
857
  8
DATA
  6
CONTINUOUS
 62
     7
 10
187.26812713208909
 20
114.763270914739
 30
0.0
  0
VERTEX
  5
858
  8
DATA
  6
CONTINUOUS
 62
     7
 10
185.73812713208909
 20
114.763270914739
 30
0.0
  0
SEQEND
  5
859
  8
DATA
  6
CONTINUOUS
 62
     7
  0
POLYLINE
  5
157
  8
DATA
  6
CONTINUOUS
 62
     7
 66
     1
 10
0.0
 20
0.0
 30
0.0
 70
     1
  0
VERTEX
  5
85A
  8
DATA
  6
CONTINUOUS
 62
     7
 10
183.73812713208909
 20
116.2932709147389
 30
0.0
  0
VERTEX
  5
85B
  8
DATA
  6
CONTINUOUS
 62
     7
 10
185.26812713208909
 20
116.2932709147389
 30
0.0
  0
VERTEX
  5
85C
  8
DATA
  6
CONTINUOUS
 62
     7
 10
185.26812713208909
 20
114.763270914739
 30
0.0
  0
VERTEX
  5
85D
  8
DATA
  6
CONTINUOUS
 62
     7
 10
183.73812713208909
 20
114.763270914739
 30
0.0
  0
SEQEND
  5
85E
  8
DATA
  6
CONTINUOUS
 62
     7
  0
POLYLINE
  5
15E
  8
DATA
  6
CONTINUOUS
 62
     7
 66
     1
 10
0.0
 20
0.0
 30
0.0
 70
     1
  0
VERTEX
  5
85F
  8
DATA
  6
CONTINUOUS
 62
     7
 10
181.73812713208909
 20
116.2932709147389
 30
0.0
  0
VERTEX
  5
860
  8
DATA
  6
CONTINUOUS
 62
     7
 10
183.26812713208909
 20
116.2932709147389
 30
0.0
  0
VERTEX
  5
861
  8
DATA
  6
CONTINUOUS
 62
     7
 10
183.26812713208909
 20
114.763270914739
 30
0.0
  0
VERTEX
  5
862
  8
DATA
  6
CONTINUOUS
 62
     7
 10
181.73812713208909
 20
114.763270914739
 30
0.0
  0
SEQEND
  5
863
  8
DATA
  6
CONTINUOUS
 62
     7
  0
POLYLINE
  5
165
  8
DATA
  6
CONTINUOUS
 62
     7
 66
     1
 10
0.0
 20
0.0
 30
0.0
 70
     1
  0
VERTEX
  5
864
  8
DATA
  6
CONTINUOUS
 62
     7
 10
179.73812713208909
 20
116.2932709147389
 30
0.0
  0
VERTEX
  5
865
  8
DATA
  6
CONTINUOUS
 62
     7
 10
181.26812713208909
 20
116.2932709147389
 30
0.0
  0
VERTEX
  5
866
  8
DATA
  6
CONTINUOUS
 62
     7
 10
181.26812713208909
 20
114.763270914739
 30
0.0
  0
VERTEX
  5
867
  8
DATA
  6
CONTINUOUS
 62
     7
 10
179.73812713208909
 20
114.763270914739
 30
0.0
  0
SEQEND
  5
868
  8
DATA
  6
CONTINUOUS
 62
     7
  0
POLYLINE
  5
16C
  8
DATA
  6
CONTINUOUS
 62
     7
 66
     1
 10
0.0
 20
0.0
 30
0.0
 70
     1
  0
VERTEX
  5
869
  8
DATA
  6
CONTINUOUS
 62
     7
 10
177.73812713208909
 20
116.2932709147389
 30
0.0
  0
VERTEX
  5
86A
  8
DATA
  6
CONTINUOUS
 62
     7
 10
179.26812713208909
 20
116.2932709147389
 30
0.0
  0
VERTEX
  5
86B
  8
DATA
  6
CONTINUOUS
 62
     7
 10
179.26812713208909
 20
114.763270914739
 30
0.0
  0
VERTEX
  5
86C
  8
DATA
  6
CONTINUOUS
 62
     7
 10
177.73812713208909
 20
114.763270914739
 30
0.0
  0
SEQEND
  5
86D
  8
DATA
  6
CONTINUOUS
 62
     7
  0
POLYLINE
  5
173
  8
DATA
  6
CONTINUOUS
 62
     7
 66
     1
 10
0.0
 20
0.0
 30
0.0
 70
     1
  0
VERTEX
  5
86E
  8
DATA
  6
CONTINUOUS
 62
     7
 10
175.7381271320892
 20
116.2932709147389
 30
0.0
  0
VERTEX
  5
86F
  8
DATA
  6
CONTINUOUS
 62
     7
 10
177.26812713208909
 20
116.2932709147389
 30
0.0
  0
VERTEX
  5
870
  8
DATA
  6
CONTINUOUS
 62
     7
 10
177.26812713208909
 20
114.763270914739
 30
0.0
  0
VERTEX
  5
871
  8
DATA
  6
CONTINUOUS
 62
     7
 10
175.7381271320892
 20
114.763270914739
 30
0.0
  0
SEQEND
  5
872
  8
DATA
  6
CONTINUOUS
 62
     7
  0
POLYLINE
  5
17A
  8
DATA
  6
CONTINUOUS
 62
     7
 66
     1
 10
0.0
 20
0.0
 30
0.0
 70
     1
  0
VERTEX
  5
873
  8
DATA
  6
CONTINUOUS
 62
     7
 10
173.7381271320892
 20
116.2932709147389
 30
0.0
  0
VERTEX
  5
874
  8
DATA
  6
CONTINUOUS
 62
     7
 10
175.26812713208921
 20
116.2932709147389
 30
0.0
  0
VERTEX
  5
875
  8
DATA
  6
CONTINUOUS
 62
     7
 10
175.26812713208921
 20
114.763270914739
 30
0.0
  0
VERTEX
  5
876
  8
DATA
  6
CONTINUOUS
 62
     7
 10
173.7381271320892
 20
114.763270914739
 30
0.0
  0
SEQEND
  5
877
  8
DATA
  6
CONTINUOUS
 62
     7
  0
POLYLINE
  5
181
  8
DATA
  6
CONTINUOUS
 62
     7
 66
     1
 10
0.0
 20
0.0
 30
0.0
 70
     1
  0
VERTEX
  5
878
  8
DATA
  6
CONTINUOUS
 62
     7
 10
187.73812713208909
 20
120.293270914739
 30
0.0
  0
VERTEX
  5
879
  8
DATA
  6
CONTINUOUS
 62
     7
 10
189.26812713208909
 20
120.293270914739
 30
0.0
  0
VERTEX
  5
87A
  8
DATA
  6
CONTINUOUS
 62
     7
 10
189.26812713208909
 20
118.763270914739
 30
0.0
  0
VERTEX
  5
87B
  8
DATA
  6
CONTINUOUS
 62
     7
 10
187.73812713208909
 20
118.763270914739
 30
0.0
  0
SEQEND
  5
87C
  8
DATA
  6
CONTINUOUS
 62
     7
  0
POLYLINE
  5
188
  8
DATA
  6
CONTINUOUS
 62
     7
 66
     1
 10
0.0
 20
0.0
 30
0.0
 70
     1
  0
VERTEX
  5
87D
  8
DATA
  6
CONTINUOUS
 62
     7
 10
185.73812713208909
 20
120.293270914739
 30
0.0
  0
VERTEX
  5
87E
  8
DATA
  6
CONTINUOUS
 62
     7
 10
187.26812713208909
 20
120.293270914739
 30
0.0
  0
VERTEX
  5
87F
  8
DATA
  6
CONTINUOUS
 62
     7
 10
187.26812713208909
 20
118.763270914739
 30
0.0
  0
VERTEX
  5
880
  8
DATA
  6
CONTINUOUS
 62
     7
 10
185.73812713208909
 20
118.763270914739
 30
0.0
  0
SEQEND
  5
881
  8
DATA
  6
CONTINUOUS
 62
     7
  0
POLYLINE
  5
18F
  8
DATA
  6
CONTINUOUS
 62
     7
 66
     1
 10
0.0
 20
0.0
 30
0.0
 70
     1
  0
VERTEX
  5
882
  8
DATA
  6
CONTINUOUS
 62
     7
 10
183.73812713208909
 20
120.293270914739
 30
0.0
  0
VERTEX
  5
883
  8
DATA
  6
CONTINUOUS
 62
     7
 10
185.26812713208909
 20
120.293270914739
 30
0.0
  0
VERTEX
  5
884
  8
DATA
  6
CONTINUOUS
 62
     7
 10
185.26812713208909
 20
118.763270914739
 30
0.0
  0
VERTEX
  5
885
  8
DATA
  6
CONTINUOUS
 62
     7
 10
183.73812713208909
 20
118.763270914739
 30
0.0
  0
SEQEND
  5
886
  8
DATA
  6
CONTINUOUS
 62
     7
  0
POLYLINE
  5
196
  8
DATA
  6
CONTINUOUS
 62
     7
 66
     1
 10
0.0
 20
0.0
 30
0.0
 70
     1
  0
VERTEX
  5
887
  8
DATA
  6
CONTINUOUS
 62
     7
 10
181.73812713208909
 20
120.293270914739
 30
0.0
  0
VERTEX
  5
888
  8
DATA
  6
CONTINUOUS
 62
     7
 10
183.26812713208909
 20
120.293270914739
 30
0.0
  0
VERTEX
  5
889
  8
DATA
  6
CONTINUOUS
 62
     7
 10
183.26812713208909
 20
118.763270914739
 30
0.0
  0
VERTEX
  5
88A
  8
DATA
  6
CONTINUOUS
 62
     7
 10
181.73812713208909
 20
118.763270914739
 30
0.0
  0
SEQEND
  5
88B
  8
DATA
  6
CONTINUOUS
 62
     7
  0
POLYLINE
  5
19D
  8
DATA
  6
CONTINUOUS
 62
     7
 66
     1
 10
0.0
 20
0.0
 30
0.0
 70
     1
  0
VERTEX
  5
88C
  8
DATA
  6
CONTINUOUS
 62
     7
 10
179.73812713208909
 20
120.293270914739
 30
0.0
  0
VERTEX
  5
88D
  8
DATA
  6
CONTINUOUS
 62
     7
 10
181.26812713208909
 20
120.293270914739
 30
0.0
  0
VERTEX
  5
88E
  8
DATA
  6
CONTINUOUS
 62
     7
 10
181.26812713208909
 20
118.763270914739
 30
0.0
  0
VERTEX
  5
88F
  8
DATA
  6
CONTINUOUS
 62
     7
 10
179.73812713208909
 20
118.763270914739
 30
0.0
  0
SEQEND
  5
890
  8
DATA
  6
CONTINUOUS
 62
     7
  0
POLYLINE
  5
1A4
  8
DATA
  6
CONTINUOUS
 62
     7
 66
     1
 10
0.0
 20
0.0
 30
0.0
 70
     1
  0
VERTEX
  5
891
  8
DATA
  6
CONTINUOUS
 62
     7
 10
177.73812713208909
 20
120.293270914739
 30
0.0
  0
VERTEX
  5
892
  8
DATA
  6
CONTINUOUS
 62
     7
 10
179.26812713208909
 20
120.293270914739
 30
0.0
  0
VERTEX
  5
893
  8
DATA
  6
CONTINUOUS
 62
     7
 10
179.26812713208909
 20
118.763270914739
 30
0.0
  0
VERTEX
  5
894
  8
DATA
  6
CONTINUOUS
 62
     7
 10
177.73812713208909
 20
118.763270914739
 30
0.0
  0
SEQEND
  5
895
  8
DATA
  6
CONTINUOUS
 62
     7
  0
POLYLINE
  5
1AB
  8
DATA
  6
CONTINUOUS
 62
     7
 66
     1
 10
0.0
 20
0.0
 30
0.0
 70
     1
  0
VERTEX
  5
896
  8
DATA
  6
CONTINUOUS
 62
     7
 10
175.7381271320892
 20
120.293270914739
 30
0.0
  0
VERTEX
  5
897
  8
DATA
  6
CONTINUOUS
 62
     7
 10
177.26812713208909
 20
120.293270914739
 30
0.0
  0
VERTEX
  5
898
  8
DATA
  6
CONTINUOUS
 62
     7
 10
177.26812713208909
 20
118.763270914739
 30
0.0
  0
VERTEX
  5
899
  8
DATA
  6
CONTINUOUS
 62
     7
 10
175.7381271320892
 20
118.763270914739
 30
0.0
  0
SEQEND
  5
89A
  8
DATA
  6
CONTINUOUS
 62
     7
  0
POLYLINE
  5
1B2
  8
DATA
  6
CONTINUOUS
 62
     7
 66
     1
 10
0.0
 20
0.0
 30
0.0
 70
     1
  0
VERTEX
  5
89B
  8
DATA
  6
CONTINUOUS
 62
     7
 10
173.7381271320892
 20
120.293270914739
 30
0.0
  0
VERTEX
  5
89C
  8
DATA
  6
CONTINUOUS
 62
     7
 10
175.26812713208921
 20
120.293270914739
 30
0.0
  0
VERTEX
  5
89D
  8
DATA
  6
CONTINUOUS
 62
     7
 10
175.26812713208921
 20
118.763270914739
 30
0.0
  0
VERTEX
  5
89E
  8
DATA
  6
CONTINUOUS
 62
     7
 10
173.7381271320892
 20
118.763270914739
 30
0.0
  0
SEQEND
  5
89F
  8
DATA
  6
CONTINUOUS
 62
     7
  0
POLYLINE
  5
1B9
  8
DATA
  6
CONTINUOUS
 62
     7
 66
     1
 10
0.0
 20
0.0
 30
0.0
  0
VERTEX
  5
8A0
  8
DATA
  6
CONTINUOUS
 62
     7
 10
169.7180609609097
 20
117.12827091473901
 30
0.0
  0
VERTEX
  5
8A1
  8
DATA
  6
CONTINUOUS
 62
     7
 10
167.6180609609097
 20
117.12827091473901
 30
0.0
  0
VERTEX
  5
8A2
  8
DATA
  6
CONTINUOUS
 62
     7
 10
167.6180609609097
 20
117.928270914739
 30
0.0
  0
VERTEX
  5
8A3
  8
DATA
  6
CONTINUOUS
 62
     7
 10
169.7180609609097
 20
117.928270914739
 30
0.0
  0
SEQEND
  5
8A4
  8
DATA
  6
CONTINUOUS
 62
     7
  0
POLYLINE
  5
1C0
  8
DATA
  6
CONTINUOUS
 62
     7
 66
     1
 10
0.0
 20
0.0
 30
0.0
  0
VERTEX
  5
8A5
  8
DATA
  6
CONTINUOUS
 62
     7
 10
170.51806096090971
 20
117.928270914739
 30
0.0
  0
VERTEX
  5
8A6
  8
DATA
  6
CONTINUOUS
 62
     7
 10
172.6180609609097
 20
117.928270914739
 30
0.0
  0
VERTEX
  5
8A7
  8
DATA
  6
CONTINUOUS
 62
     7
 10
172.6180609609097
 20
117.12827091473901
 30
0.0
  0
VERTEX
  5
8A8
  8
DATA
  6
CONTINUOUS
 62
     7
 10
170.51806096090971
 20
117.12827091473901
 30
0.0
  0
SEQEND
  5
8A9
  8
DATA
  6
CONTINUOUS
 62
     7
  0
POLYLINE
  5
1C7
  8
DATA
  6
CONTINUOUS
 62
     7
 66
     1
 10
0.0
 20
0.0
 30
0.0
  0
VERTEX
  5
8AA
  8
DATA
  6
CONTINUOUS
 62
     7
 10
169.7180609609097
 20
117.928270914739
 30
0.0
  0
VERTEX
  5
8AB
  8
DATA
  6
CONTINUOUS
 62
     7
 10
169.7180609609097
 20
120.028270914739
 30
0.0
  0
VERTEX
  5
8AC
  8
DATA
  6
CONTINUOUS
 62
     7
 10
170.51806096090971
 20
120.028270914739
 30
0.0
  0
VERTEX
  5
8AD
  8
DATA
  6
CONTINUOUS
 62
     7
 10
170.51806096090971
 20
117.928270914739
 30
0.0
  0
SEQEND
  5
8AE
  8
DATA
  6
CONTINUOUS
 62
     7
  0
POLYLINE
  5
1CE
  8
DATA
  6
CONTINUOUS
 62
     7
 66
     1
 10
0.0
 20
0.0
 30
0.0
  0
VERTEX
  5
8AF
  8
DATA
  6
CONTINUOUS
 62
     7
 10
170.51806096090971
 20
117.12827091473901
 30
0.0
  0
VERTEX
  5
8B0
  8
DATA
  6
CONTINUOUS
 62
     7
 10
170.51806096090971
 20
115.028270914739
 30
0.0
  0
VERTEX
  5
8B1
  8
DATA
  6
CONTINUOUS
 62
     7
 10
169.7180609609097
 20
115.028270914739
 30
0.0
  0
VERTEX
  5
8B2
  8
DATA
  6
CONTINUOUS
 62
     7
 10
169.7180609609097
 20
117.12827091473901
 30
0.0
  0
SEQEND
  5
8B3
  8
DATA
  6
CONTINUOUS
 62
     7
  0
POLYLINE
  5
1D5
  8
DATA
  6
CONTINUOUS
 62
     7
 66
     1
 10
0.0
 20
0.0
 30
0.0
 70
     1
  0
VERTEX
  5
8B4
  8
DATA
  6
CONTINUOUS
 62
     7
 10
170.9783453913814
 20
116.7688431040891
 30
0.0
  0
VERTEX
  5
8B5
  8
DATA
  6
CONTINUOUS
 62
     7
 10
171.9783453913814
 20
116.7688431040891
 30
0.0
  0
VERTEX
  5
8B6
  8
DATA
  6
CONTINUOUS
 62
     7
 10
171.9783453913814
 20
115.7688431040891
 30
0.0
  0
VERTEX
  5
8B7
  8
DATA
  6
CONTINUOUS
 62
     7
 10
170.9783453913814
 20
115.7688431040891
 30
0.0
  0
SEQEND
  5
8B8
  8
DATA
  6
CONTINUOUS
 62
     7
  0
POLYLINE
  5
1DC
  8
DATA
  6
CONTINUOUS
 62
     7
 66
     1
 10
0.0
 20
0.0
 30
0.0
 70
     1
  0
VERTEX
  5
8B9
  8
DATA
  6
CONTINUOUS
 62
     7
 10
168.25777653043801
 20
116.7688431040891
 30
0.0
  0
VERTEX
  5
8BA
  8
DATA
  6
CONTINUOUS
 62
     7
 10
169.25777653043801
 20
116.7688431040891
 30
0.0
  0
VERTEX
  5
8BB
  8
DATA
  6
CONTINUOUS
 62
     7
 10
169.25777653043801
 20
115.7688431040891
 30
0.0
  0
VERTEX
  5
8BC
  8
DATA
  6
CONTINUOUS
 62
     7
 10
168.25777653043801
 20
115.7688431040891
 30
0.0
  0
SEQEND
  5
8BD
  8
DATA
  6
CONTINUOUS
 62
     7
  0
POLYLINE
  5
1E3
  8
DATA
  6
CONTINUOUS
 62
     7
 66
     1
 10
0.0
 20
0.0
 30
0.0
 70
     1
  0
VERTEX
  5
8BE
  8
DATA
  6
CONTINUOUS
 62
     7
 10
170.9783453913814
 20
119.28769872538891
 30
0.0
  0
VERTEX
  5
8BF
  8
DATA
  6
CONTINUOUS
 62
     7
 10
171.9783453913814
 20
119.28769872538891
 30
0.0
  0
VERTEX
  5
8C0
  8
DATA
  6
CONTINUOUS
 62
     7
 10
171.9783453913814
 20
118.28769872538891
 30
0.0
  0
VERTEX
  5
8C1
  8
DATA
  6
CONTINUOUS
 62
     7
 10
170.9783453913814
 20
118.28769872538891
 30
0.0
  0
SEQEND
  5
8C2
  8
DATA
  6
CONTINUOUS
 62
     7
  0
POLYLINE
  5
1EA
  8
DATA
  6
CONTINUOUS
 62
     7
 66
     1
 10
0.0
 20
0.0
 30
0.0
 70
     1
  0
VERTEX
  5
8C3
  8
DATA
  6
CONTINUOUS
 62
     7
 10
168.25777653043801
 20
119.28769872538891
 30
0.0
  0
VERTEX
  5
8C4
  8
DATA
  6
CONTINUOUS
 62
     7
 10
169.25777653043801
 20
119.28769872538891
 30
0.0
  0
VERTEX
  5
8C5
  8
DATA
  6
CONTINUOUS
 62
     7
 10
169.25777653043801
 20
118.28769872538891
 30
0.0
  0
VERTEX
  5
8C6
  8
DATA
  6
CONTINUOUS
 62
     7
 10
168.25777653043801
 20
118.28769872538891
 30
0.0
  0
SEQEND
  5
8C7
  8
DATA
  6
CONTINUOUS
 62
     7
  0
LINE
  5
1F1
  8
DATA
  6
CONTINUOUS
 62
     7
 10
190.21343277885691
 20
114.69837922022521
 30
0.0
 11
189.6545155814047
 21
120.5483792202252
 31
0.0
  0
LINE
  5
1F2
  8
DATA
  6
CONTINUOUS
 62
     7
 10
166.32268914296259
 20
114.69837922022521
 30
0.0
 11
166.88160634041489
 21
120.5483792202252
 31
0.0
  0
ARC
  5
1F3
  8
DATA
  6
CONTINUOUS
 62
     7
 10
189.21796584810161
 20
114.603270914739
 30
0.0
 40
1.0
 50
270.0
 51
5.4575534851068701
  0
ARC
  5
1F4
  8
DATA
  6
CONTINUOUS
 62
     7
 10
167.318156073718
 20
114.603270914739
 30
0.0
 40
0.9999999999999744
 50
174.5424465148931
 51
270.00000000000159
  0
ARC
  5
1F5
  8
DATA
  6
CONTINUOUS
 62
     7
 10
188.6590486506492
 20
120.45327091473899
 30
0.0
 40
1.000000000000032
 50
5.4575534851074012
 51
89.99999999999838
  0
ARC
  5
1F6
  8
DATA
  6
CONTINUOUS
 62
     7
 10
167.8770732711703
 20
120.45327091473899
 30
0.0
 40
1.000000000000014
 50
90.0
 51
174.54244651489569
  0
CIRCLE
  5
1F7
  8
DATA
  6
CONTINUOUS
 62
     7
 10
116.01597086031499
 20
117.528270914739
 30
0.0
 40
1.175000000000068
  0
POLYLINE
  5
1F8
  8
DATA
  6
CONTINUOUS
 62
     7
 66
     1
 10
0.0
 20
0.0
 30
0.0
 70
     1
  0
VERTEX
  5
8C8
  8
DATA
  6
CONTINUOUS
 62
     7
 10
116.01597086031499
 20
114.82827091473899
 30
0.0
  0
VERTEX
  5
8C9
  8
DATA
  6
CONTINUOUS
 62
     7
 10
113.6777022700971
 20
116.178270914739
 30
0.0
  0
VERTEX
  5
8CA
  8
DATA
  6
CONTINUOUS
 62
     7
 10
113.6777022700971
 20
118.87827091473901
 30
0.0
  0
VERTEX
  5
8CB
  8
DATA
  6
CONTINUOUS
 62
     7
 10
116.01597086031499
 20
120.228270914739
 30
0.0
  0
VERTEX
  5
8CC
  8
DATA
  6
CONTINUOUS
 62
     7
 10
118.3542394505331
 20
118.87827091473901
 30
0.0
  0
VERTEX
  5
8CD
  8
DATA
  6
CONTINUOUS
 62
     7
 10
118.3542394505331
 20
116.178270914739
 30
0.0
  0
SEQEND
  5
8CE
  8
DATA
  6
CONTINUOUS
 62
     7
  0
CIRCLE
  5
201
  8
DATA
  6
CONTINUOUS
 62
     7
 10
148.51597086031501
 20
117.528270914739
 30
0.0
 40
1.175000000000068
  0
POLYLINE
  5
202
  8
DATA
  6
CONTINUOUS
 62
     7
 66
     1
 10
0.0
 20
0.0
 30
0.0
 70
     1
  0
VERTEX
  5
8CF
  8
DATA
  6
CONTINUOUS
 62
     7
 10
148.51597086031501
 20
114.82827091473899
 30
0.0
  0
VERTEX
  5
8D0
  8
DATA
  6
CONTINUOUS
 62
     7
 10
146.17770227009709
 20
116.178270914739
 30
0.0
  0
VERTEX
  5
8D1
  8
DATA
  6
CONTINUOUS
 62
     7
 10
146.17770227009709
 20
118.87827091473901
 30
0.0
  0
VERTEX
  5
8D2
  8
DATA
  6
CONTINUOUS
 62
     7
 10
148.51597086031501
 20
120.228270914739
 30
0.0
  0
VERTEX
  5
8D3
  8
DATA
  6
CONTINUOUS
 62
     7
 10
150.85423945053299
 20
118.87827091473901
 30
0.0
  0
VERTEX
  5
8D4
  8
DATA
  6
CONTINUOUS
 62
     7
 10
150.85423945053299
 20
116.178270914739
 30
0.0
  0
SEQEND
  5
8D5
  8
DATA
  6
CONTINUOUS
 62
     7
  0
LINE
  5
20B
  8
DATA
  6
CONTINUOUS
 62
     7
 10
143.2179658481015
 20
113.603270914739
 30
0.0
 11
121.318156073718
 21
113.603270914739
 31
0.0
  0
LINE
  5
20C
  8
DATA
  6
CONTINUOUS
 62
     7
 10
121.8770732711703
 20
121.45327091473899
 30
0.0
 11
142.6590486506492
 21
121.45327091473899
 31
0.0
  0
POLYLINE
  5
20D
  8
DATA
  6
CONTINUOUS
 62
     7
 66
     1
 10
0.0
 20
0.0
 30
0.0
 70
     1
  0
VERTEX
  5
8D6
  8
DATA
  6
CONTINUOUS
 62
     7
 10
141.73812713208909
 20
118.293270914739
 30
0.0
  0
VERTEX
  5
8D7
  8
DATA
  6
CONTINUOUS
 62
     7
 10
143.26812713208909
 20
118.293270914739
 30
0.0
  0
VERTEX
  5
8D8
  8
DATA
  6
CONTINUOUS
 62
     7
 10
143.26812713208909
 20
116.763270914739
 30
0.0
  0
VERTEX
  5
8D9
  8
DATA
  6
CONTINUOUS
 62
     7
 10
141.73812713208909
 20
116.763270914739
 30
0.0
  0
SEQEND
  5
8DA
  8
DATA
  6
CONTINUOUS
 62
     7
  0
POLYLINE
  5
214
  8
DATA
  6
CONTINUOUS
 62
     7
 66
     1
 10
0.0
 20
0.0
 30
0.0
 70
     1
  0
VERTEX
  5
8DB
  8
DATA
  6
CONTINUOUS
 62
     7
 10
139.73812713208909
 20
118.293270914739
 30
0.0
  0
VERTEX
  5
8DC
  8
DATA
  6
CONTINUOUS
 62
     7
 10
141.26812713208909
 20
118.293270914739
 30
0.0
  0
VERTEX
  5
8DD
  8
DATA
  6
CONTINUOUS
 62
     7
 10
141.26812713208909
 20
116.763270914739
 30
0.0
  0
VERTEX
  5
8DE
  8
DATA
  6
CONTINUOUS
 62
     7
 10
139.73812713208909
 20
116.763270914739
 30
0.0
  0
SEQEND
  5
8DF
  8
DATA
  6
CONTINUOUS
 62
     7
  0
POLYLINE
  5
21B
  8
DATA
  6
CONTINUOUS
 62
     7
 66
     1
 10
0.0
 20
0.0
 30
0.0
 70
     1
  0
VERTEX
  5
8E0
  8
DATA
  6
CONTINUOUS
 62
     7
 10
137.73812713208909
 20
118.293270914739
 30
0.0
  0
VERTEX
  5
8E1
  8
DATA
  6
CONTINUOUS
 62
     7
 10
139.26812713208909
 20
118.293270914739
 30
0.0
  0
VERTEX
  5
8E2
  8
DATA
  6
CONTINUOUS
 62
     7
 10
139.26812713208909
 20
116.763270914739
 30
0.0
  0
VERTEX
  5
8E3
  8
DATA
  6
CONTINUOUS
 62
     7
 10
137.73812713208909
 20
116.763270914739
 30
0.0
  0
SEQEND
  5
8E4
  8
DATA
  6
CONTINUOUS
 62
     7
  0
POLYLINE
  5
222
  8
DATA
  6
CONTINUOUS
 62
     7
 66
     1
 10
0.0
 20
0.0
 30
0.0
 70
     1
  0
VERTEX
  5
8E5
  8
DATA
  6
CONTINUOUS
 62
     7
 10
135.73812713208909
 20
118.293270914739
 30
0.0
  0
VERTEX
  5
8E6
  8
DATA
  6
CONTINUOUS
 62
     7
 10
137.26812713208909
 20
118.293270914739
 30
0.0
  0
VERTEX
  5
8E7
  8
DATA
  6
CONTINUOUS
 62
     7
 10
137.26812713208909
 20
116.763270914739
 30
0.0
  0
VERTEX
  5
8E8
  8
DATA
  6
CONTINUOUS
 62
     7
 10
135.73812713208909
 20
116.763270914739
 30
0.0
  0
SEQEND
  5
8E9
  8
DATA
  6
CONTINUOUS
 62
     7
  0
POLYLINE
  5
229
  8
DATA
  6
CONTINUOUS
 62
     7
 66
     1
 10
0.0
 20
0.0
 30
0.0
 70
     1
  0
VERTEX
  5
8EA
  8
DATA
  6
CONTINUOUS
 62
     7
 10
133.73812713208909
 20
118.293270914739
 30
0.0
  0
VERTEX
  5
8EB
  8
DATA
  6
CONTINUOUS
 62
     7
 10
135.26812713208909
 20
118.293270914739
 30
0.0
  0
VERTEX
  5
8EC
  8
DATA
  6
CONTINUOUS
 62
     7
 10
135.26812713208909
 20
116.763270914739
 30
0.0
  0
VERTEX
  5
8ED
  8
DATA
  6
CONTINUOUS
 62
     7
 10
133.73812713208909
 20
116.763270914739
 30
0.0
  0
SEQEND
  5
8EE
  8
DATA
  6
CONTINUOUS
 62
     7
  0
POLYLINE
  5
230
  8
DATA
  6
CONTINUOUS
 62
     7
 66
     1
 10
0.0
 20
0.0
 30
0.0
 70
     1
  0
VERTEX
  5
8EF
  8
DATA
  6
CONTINUOUS
 62
     7
 10
131.73812713208909
 20
118.293270914739
 30
0.0
  0
VERTEX
  5
8F0
  8
DATA
  6
CONTINUOUS
 62
     7
 10
133.26812713208909
 20
118.293270914739
 30
0.0
  0
VERTEX
  5
8F1
  8
DATA
  6
CONTINUOUS
 62
     7
 10
133.26812713208909
 20
116.763270914739
 30
0.0
  0
VERTEX
  5
8F2
  8
DATA
  6
CONTINUOUS
 62
     7
 10
131.73812713208909
 20
116.763270914739
 30
0.0
  0
SEQEND
  5
8F3
  8
DATA
  6
CONTINUOUS
 62
     7
  0
POLYLINE
  5
237
  8
DATA
  6
CONTINUOUS
 62
     7
 66
     1
 10
0.0
 20
0.0
 30
0.0
 70
     1
  0
VERTEX
  5
8F4
  8
DATA
  6
CONTINUOUS
 62
     7
 10
129.7381271320892
 20
118.293270914739
 30
0.0
  0
VERTEX
  5
8F5
  8
DATA
  6
CONTINUOUS
 62
     7
 10
131.26812713208909
 20
118.293270914739
 30
0.0
  0
VERTEX
  5
8F6
  8
DATA
  6
CONTINUOUS
 62
     7
 10
131.26812713208909
 20
116.763270914739
 30
0.0
  0
VERTEX
  5
8F7
  8
DATA
  6
CONTINUOUS
 62
     7
 10
129.7381271320892
 20
116.763270914739
 30
0.0
  0
SEQEND
  5
8F8
  8
DATA
  6
CONTINUOUS
 62
     7
  0
POLYLINE
  5
23E
  8
DATA
  6
CONTINUOUS
 62
     7
 66
     1
 10
0.0
 20
0.0
 30
0.0
 70
     1
  0
VERTEX
  5
8F9
  8
DATA
  6
CONTINUOUS
 62
     7
 10
127.7381271320892
 20
118.293270914739
 30
0.0
  0
VERTEX
  5
8FA
  8
DATA
  6
CONTINUOUS
 62
     7
 10
129.26812713208921
 20
118.293270914739
 30
0.0
  0
VERTEX
  5
8FB
  8
DATA
  6
CONTINUOUS
 62
     7
 10
129.26812713208921
 20
116.763270914739
 30
0.0
  0
VERTEX
  5
8FC
  8
DATA
  6
CONTINUOUS
 62
     7
 10
127.7381271320892
 20
116.763270914739
 30
0.0
  0
SEQEND
  5
8FD
  8
DATA
  6
CONTINUOUS
 62
     7
  0
POLYLINE
  5
245
  8
DATA
  6
CONTINUOUS
 62
     7
 66
     1
 10
0.0
 20
0.0
 30
0.0
 70
     1
  0
VERTEX
  5
8FE
  8
DATA
  6
CONTINUOUS
 62
     7
 10
141.73812713208909
 20
116.2932709147389
 30
0.0
  0
VERTEX
  5
8FF
  8
DATA
  6
CONTINUOUS
 62
     7
 10
143.26812713208909
 20
116.2932709147389
 30
0.0
  0
VERTEX
  5
900
  8
DATA
  6
CONTINUOUS
 62
     7
 10
143.26812713208909
 20
114.763270914739
 30
0.0
  0
VERTEX
  5
901
  8
DATA
  6
CONTINUOUS
 62
     7
 10
141.73812713208909
 20
114.763270914739
 30
0.0
  0
SEQEND
  5
902
  8
DATA
  6
CONTINUOUS
 62
     7
  0
POLYLINE
  5
24C
  8
DATA
  6
CONTINUOUS
 62
     7
 66
     1
 10
0.0
 20
0.0
 30
0.0
 70
     1
  0
VERTEX
  5
903
  8
DATA
  6
CONTINUOUS
 62
     7
 10
139.73812713208909
 20
116.2932709147389
 30
0.0
  0
VERTEX
  5
904
  8
DATA
  6
CONTINUOUS
 62
     7
 10
141.26812713208909
 20
116.2932709147389
 30
0.0
  0
VERTEX
  5
905
  8
DATA
  6
CONTINUOUS
 62
     7
 10
141.26812713208909
 20
114.763270914739
 30
0.0
  0
VERTEX
  5
906
  8
DATA
  6
CONTINUOUS
 62
     7
 10
139.73812713208909
 20
114.763270914739
 30
0.0
  0
SEQEND
  5
907
  8
DATA
  6
CONTINUOUS
 62
     7
  0
POLYLINE
  5
253
  8
DATA
  6
CONTINUOUS
 62
     7
 66
     1
 10
0.0
 20
0.0
 30
0.0
 70
     1
  0
VERTEX
  5
908
  8
DATA
  6
CONTINUOUS
 62
     7
 10
137.73812713208909
 20
116.2932709147389
 30
0.0
  0
VERTEX
  5
909
  8
DATA
  6
CONTINUOUS
 62
     7
 10
139.26812713208909
 20
116.2932709147389
 30
0.0
  0
VERTEX
  5
90A
  8
DATA
  6
CONTINUOUS
 62
     7
 10
139.26812713208909
 20
114.763270914739
 30
0.0
  0
VERTEX
  5
90B
  8
DATA
  6
CONTINUOUS
 62
     7
 10
137.73812713208909
 20
114.763270914739
 30
0.0
  0
SEQEND
  5
90C
  8
DATA
  6
CONTINUOUS
 62
     7
  0
POLYLINE
  5
25A
  8
DATA
  6
CONTINUOUS
 62
     7
 66
     1
 10
0.0
 20
0.0
 30
0.0
 70
     1
  0
VERTEX
  5
90D
  8
DATA
  6
CONTINUOUS
 62
     7
 10
135.73812713208909
 20
116.2932709147389
 30
0.0
  0
VERTEX
  5
90E
  8
DATA
  6
CONTINUOUS
 62
     7
 10
137.26812713208909
 20
116.2932709147389
 30
0.0
  0
VERTEX
  5
90F
  8
DATA
  6
CONTINUOUS
 62
     7
 10
137.26812713208909
 20
114.763270914739
 30
0.0
  0
VERTEX
  5
910
  8
DATA
  6
CONTINUOUS
 62
     7
 10
135.73812713208909
 20
114.763270914739
 30
0.0
  0
SEQEND
  5
911
  8
DATA
  6
CONTINUOUS
 62
     7
  0
POLYLINE
  5
261
  8
DATA
  6
CONTINUOUS
 62
     7
 66
     1
 10
0.0
 20
0.0
 30
0.0
 70
     1
  0
VERTEX
  5
912
  8
DATA
  6
CONTINUOUS
 62
     7
 10
133.73812713208909
 20
116.2932709147389
 30
0.0
  0
VERTEX
  5
913
  8
DATA
  6
CONTINUOUS
 62
     7
 10
135.26812713208909
 20
116.2932709147389
 30
0.0
  0
VERTEX
  5
914
  8
DATA
  6
CONTINUOUS
 62
     7
 10
135.26812713208909
 20
114.763270914739
 30
0.0
  0
VERTEX
  5
915
  8
DATA
  6
CONTINUOUS
 62
     7
 10
133.73812713208909
 20
114.763270914739
 30
0.0
  0
SEQEND
  5
916
  8
DATA
  6
CONTINUOUS
 62
     7
  0
POLYLINE
  5
268
  8
DATA
  6
CONTINUOUS
 62
     7
 66
     1
 10
0.0
 20
0.0
 30
0.0
 70
     1
  0
VERTEX
  5
917
  8
DATA
  6
CONTINUOUS
 62
     7
 10
131.73812713208909
 20
116.2932709147389
 30
0.0
  0
VERTEX
  5
918
  8
DATA
  6
CONTINUOUS
 62
     7
 10
133.26812713208909
 20
116.2932709147389
 30
0.0
  0
VERTEX
  5
919
  8
DATA
  6
CONTINUOUS
 62
     7
 10
133.26812713208909
 20
114.763270914739
 30
0.0
  0
VERTEX
  5
91A
  8
DATA
  6
CONTINUOUS
 62
     7
 10
131.73812713208909
 20
114.763270914739
 30
0.0
  0
SEQEND
  5
91B
  8
DATA
  6
CONTINUOUS
 62
     7
  0
POLYLINE
  5
26F
  8
DATA
  6
CONTINUOUS
 62
     7
 66
     1
 10
0.0
 20
0.0
 30
0.0
 70
     1
  0
VERTEX
  5
91C
  8
DATA
  6
CONTINUOUS
 62
     7
 10
129.7381271320892
 20
116.2932709147389
 30
0.0
  0
VERTEX
  5
91D
  8
DATA
  6
CONTINUOUS
 62
     7
 10
131.26812713208909
 20
116.2932709147389
 30
0.0
  0
VERTEX
  5
91E
  8
DATA
  6
CONTINUOUS
 62
     7
 10
131.26812713208909
 20
114.763270914739
 30
0.0
  0
VERTEX
  5
91F
  8
DATA
  6
CONTINUOUS
 62
     7
 10
129.7381271320892
 20
114.763270914739
 30
0.0
  0
SEQEND
  5
920
  8
DATA
  6
CONTINUOUS
 62
     7
  0
POLYLINE
  5
276
  8
DATA
  6
CONTINUOUS
 62
     7
 66
     1
 10
0.0
 20
0.0
 30
0.0
 70
     1
  0
VERTEX
  5
921
  8
DATA
  6
CONTINUOUS
 62
     7
 10
127.7381271320892
 20
116.2932709147389
 30
0.0
  0
VERTEX
  5
922
  8
DATA
  6
CONTINUOUS
 62
     7
 10
129.26812713208921
 20
116.2932709147389
 30
0.0
  0
VERTEX
  5
923
  8
DATA
  6
CONTINUOUS
 62
     7
 10
129.26812713208921
 20
114.763270914739
 30
0.0
  0
VERTEX
  5
924
  8
DATA
  6
CONTINUOUS
 62
     7
 10
127.7381271320892
 20
114.763270914739
 30
0.0
  0
SEQEND
  5
925
  8
DATA
  6
CONTINUOUS
 62
     7
  0
POLYLINE
  5
27D
  8
DATA
  6
CONTINUOUS
 62
     7
 66
     1
 10
0.0
 20
0.0
 30
0.0
 70
     1
  0
VERTEX
  5
926
  8
DATA
  6
CONTINUOUS
 62
     7
 10
141.73812713208909
 20
120.293270914739
 30
0.0
  0
VERTEX
  5
927
  8
DATA
  6
CONTINUOUS
 62
     7
 10
143.26812713208909
 20
120.293270914739
 30
0.0
  0
VERTEX
  5
928
  8
DATA
  6
CONTINUOUS
 62
     7
 10
143.26812713208909
 20
118.763270914739
 30
0.0
  0
VERTEX
  5
929
  8
DATA
  6
CONTINUOUS
 62
     7
 10
141.73812713208909
 20
118.763270914739
 30
0.0
  0
SEQEND
  5
92A
  8
DATA
  6
CONTINUOUS
 62
     7
  0
POLYLINE
  5
284
  8
DATA
  6
CONTINUOUS
 62
     7
 66
     1
 10
0.0
 20
0.0
 30
0.0
 70
     1
  0
VERTEX
  5
92B
  8
DATA
  6
CONTINUOUS
 62
     7
 10
139.73812713208909
 20
120.293270914739
 30
0.0
  0
VERTEX
  5
92C
  8
DATA
  6
CONTINUOUS
 62
     7
 10
141.26812713208909
 20
120.293270914739
 30
0.0
  0
VERTEX
  5
92D
  8
DATA
  6
CONTINUOUS
 62
     7
 10
141.26812713208909
 20
118.763270914739
 30
0.0
  0
VERTEX
  5
92E
  8
DATA
  6
CONTINUOUS
 62
     7
 10
139.73812713208909
 20
118.763270914739
 30
0.0
  0
SEQEND
  5
92F
  8
DATA
  6
CONTINUOUS
 62
     7
  0
POLYLINE
  5
28B
  8
DATA
  6
CONTINUOUS
 62
     7
 66
     1
 10
0.0
 20
0.0
 30
0.0
 70
     1
  0
VERTEX
  5
930
  8
DATA
  6
CONTINUOUS
 62
     7
 10
137.73812713208909
 20
120.293270914739
 30
0.0
  0
VERTEX
  5
931
  8
DATA
  6
CONTINUOUS
 62
     7
 10
139.26812713208909
 20
120.293270914739
 30
0.0
  0
VERTEX
  5
932
  8
DATA
  6
CONTINUOUS
 62
     7
 10
139.26812713208909
 20
118.763270914739
 30
0.0
  0
VERTEX
  5
933
  8
DATA
  6
CONTINUOUS
 62
     7
 10
137.73812713208909
 20
118.763270914739
 30
0.0
  0
SEQEND
  5
934
  8
DATA
  6
CONTINUOUS
 62
     7
  0
POLYLINE
  5
292
  8
DATA
  6
CONTINUOUS
 62
     7
 66
     1
 10
0.0
 20
0.0
 30
0.0
 70
     1
  0
VERTEX
  5
935
  8
DATA
  6
CONTINUOUS
 62
     7
 10
135.73812713208909
 20
120.293270914739
 30
0.0
  0
VERTEX
  5
936
  8
DATA
  6
CONTINUOUS
 62
     7
 10
137.26812713208909
 20
120.293270914739
 30
0.0
  0
VERTEX
  5
937
  8
DATA
  6
CONTINUOUS
 62
     7
 10
137.26812713208909
 20
118.763270914739
 30
0.0
  0
VERTEX
  5
938
  8
DATA
  6
CONTINUOUS
 62
     7
 10
135.73812713208909
 20
118.763270914739
 30
0.0
  0
SEQEND
  5
939
  8
DATA
  6
CONTINUOUS
 62
     7
  0
POLYLINE
  5
299
  8
DATA
  6
CONTINUOUS
 62
     7
 66
     1
 10
0.0
 20
0.0
 30
0.0
 70
     1
  0
VERTEX
  5
93A
  8
DATA
  6
CONTINUOUS
 62
     7
 10
133.73812713208909
 20
120.293270914739
 30
0.0
  0
VERTEX
  5
93B
  8
DATA
  6
CONTINUOUS
 62
     7
 10
135.26812713208909
 20
120.293270914739
 30
0.0
  0
VERTEX
  5
93C
  8
DATA
  6
CONTINUOUS
 62
     7
 10
135.26812713208909
 20
118.763270914739
 30
0.0
  0
VERTEX
  5
93D
  8
DATA
  6
CONTINUOUS
 62
     7
 10
133.73812713208909
 20
118.763270914739
 30
0.0
  0
SEQEND
  5
93E
  8
DATA
  6
CONTINUOUS
 62
     7
  0
POLYLINE
  5
2A0
  8
DATA
  6
CONTINUOUS
 62
     7
 66
     1
 10
0.0
 20
0.0
 30
0.0
 70
     1
  0
VERTEX
  5
93F
  8
DATA
  6
CONTINUOUS
 62
     7
 10
131.73812713208909
 20
120.293270914739
 30
0.0
  0
VERTEX
  5
940
  8
DATA
  6
CONTINUOUS
 62
     7
 10
133.26812713208909
 20
120.293270914739
 30
0.0
  0
VERTEX
  5
941
  8
DATA
  6
CONTINUOUS
 62
     7
 10
133.26812713208909
 20
118.763270914739
 30
0.0
  0
VERTEX
  5
942
  8
DATA
  6
CONTINUOUS
 62
     7
 10
131.73812713208909
 20
118.763270914739
 30
0.0
  0
SEQEND
  5
943
  8
DATA
  6
CONTINUOUS
 62
     7
  0
POLYLINE
  5
2A7
  8
DATA
  6
CONTINUOUS
 62
     7
 66
     1
 10
0.0
 20
0.0
 30
0.0
 70
     1
  0
VERTEX
  5
944
  8
DATA
  6
CONTINUOUS
 62
     7
 10
129.7381271320892
 20
120.293270914739
 30
0.0
  0
VERTEX
  5
945
  8
DATA
  6
CONTINUOUS
 62
     7
 10
131.26812713208909
 20
120.293270914739
 30
0.0
  0
VERTEX
  5
946
  8
DATA
  6
CONTINUOUS
 62
     7
 10
131.26812713208909
 20
118.763270914739
 30
0.0
  0
VERTEX
  5
947
  8
DATA
  6
CONTINUOUS
 62
     7
 10
129.7381271320892
 20
118.763270914739
 30
0.0
  0
SEQEND
  5
948
  8
DATA
  6
CONTINUOUS
 62
     7
  0
POLYLINE
  5
2AE
  8
DATA
  6
CONTINUOUS
 62
     7
 66
     1
 10
0.0
 20
0.0
 30
0.0
 70
     1
  0
VERTEX
  5
949
  8
DATA
  6
CONTINUOUS
 62
     7
 10
127.7381271320892
 20
120.293270914739
 30
0.0
  0
VERTEX
  5
94A
  8
DATA
  6
CONTINUOUS
 62
     7
 10
129.26812713208921
 20
120.293270914739
 30
0.0
  0
VERTEX
  5
94B
  8
DATA
  6
CONTINUOUS
 62
     7
 10
129.26812713208921
 20
118.763270914739
 30
0.0
  0
VERTEX
  5
94C
  8
DATA
  6
CONTINUOUS
 62
     7
 10
127.7381271320892
 20
118.763270914739
 30
0.0
  0
SEQEND
  5
94D
  8
DATA
  6
CONTINUOUS
 62
     7
  0
POLYLINE
  5
2B5
  8
DATA
  6
CONTINUOUS
 62
     7
 66
     1
 10
0.0
 20
0.0
 30
0.0
  0
VERTEX
  5
94E
  8
DATA
  6
CONTINUOUS
 62
     7
 10
123.7180609609097
 20
117.12827091473901
 30
0.0
  0
VERTEX
  5
94F
  8
DATA
  6
CONTINUOUS
 62
     7
 10
121.6180609609097
 20
117.12827091473901
 30
0.0
  0
VERTEX
  5
950
  8
DATA
  6
CONTINUOUS
 62
     7
 10
121.6180609609097
 20
117.928270914739
 30
0.0
  0
VERTEX
  5
951
  8
DATA
  6
CONTINUOUS
 62
     7
 10
123.7180609609097
 20
117.928270914739
 30
0.0
  0
SEQEND
  5
952
  8
DATA
  6
CONTINUOUS
 62
     7
  0
POLYLINE
  5
2BC
  8
DATA
  6
CONTINUOUS
 62
     7
 66
     1
 10
0.0
 20
0.0
 30
0.0
  0
VERTEX
  5
953
  8
DATA
  6
CONTINUOUS
 62
     7
 10
124.51806096090969
 20
117.928270914739
 30
0.0
  0
VERTEX
  5
954
  8
DATA
  6
CONTINUOUS
 62
     7
 10
126.6180609609097
 20
117.928270914739
 30
0.0
  0
VERTEX
  5
955
  8
DATA
  6
CONTINUOUS
 62
     7
 10
126.6180609609097
 20
117.12827091473901
 30
0.0
  0
VERTEX
  5
956
  8
DATA
  6
CONTINUOUS
 62
     7
 10
124.51806096090969
 20
117.12827091473901
 30
0.0
  0
SEQEND
  5
957
  8
DATA
  6
CONTINUOUS
 62
     7
  0
POLYLINE
  5
2C3
  8
DATA
  6
CONTINUOUS
 62
     7
 66
     1
 10
0.0
 20
0.0
 30
0.0
  0
VERTEX
  5
958
  8
DATA
  6
CONTINUOUS
 62
     7
 10
123.7180609609097
 20
117.928270914739
 30
0.0
  0
VERTEX
  5
959
  8
DATA
  6
CONTINUOUS
 62
     7
 10
123.7180609609097
 20
120.028270914739
 30
0.0
  0
VERTEX
  5
95A
  8
DATA
  6
CONTINUOUS
 62
     7
 10
124.51806096090969
 20
120.028270914739
 30
0.0
  0
VERTEX
  5
95B
  8
DATA
  6
CONTINUOUS
 62
     7
 10
124.51806096090969
 20
117.928270914739
 30
0.0
  0
SEQEND
  5
95C
  8
DATA
  6
CONTINUOUS
 62
     7
  0
POLYLINE
  5
2CA
  8
DATA
  6
CONTINUOUS
 62
     7
 66
     1
 10
0.0
 20
0.0
 30
0.0
  0
VERTEX
  5
95D
  8
DATA
  6
CONTINUOUS
 62
     7
 10
124.51806096090969
 20
117.12827091473901
 30
0.0
  0
VERTEX
  5
95E
  8
DATA
  6
CONTINUOUS
 62
     7
 10
124.51806096090969
 20
115.028270914739
 30
0.0
  0
VERTEX
  5
95F
  8
DATA
  6
CONTINUOUS
 62
     7
 10
123.7180609609097
 20
115.028270914739
 30
0.0
  0
VERTEX
  5
960
  8
DATA
  6
CONTINUOUS
 62
     7
 10
123.7180609609097
 20
117.12827091473901
 30
0.0
  0
SEQEND
  5
961
  8
DATA
  6
CONTINUOUS
 62
     7
  0
POLYLINE
  5
2D1
  8
DATA
  6
CONTINUOUS
 62
     7
 66
     1
 10
0.0
 20
0.0
 30
0.0
 70
     1
  0
VERTEX
  5
962
  8
DATA
  6
CONTINUOUS
 62
     7
 10
124.9783453913814
 20
116.7688431040891
 30
0.0
  0
VERTEX
  5
963
  8
DATA
  6
CONTINUOUS
 62
     7
 10
125.9783453913814
 20
116.7688431040891
 30
0.0
  0
VERTEX
  5
964
  8
DATA
  6
CONTINUOUS
 62
     7
 10
125.9783453913814
 20
115.7688431040891
 30
0.0
  0
VERTEX
  5
965
  8
DATA
  6
CONTINUOUS
 62
     7
 10
124.9783453913814
 20
115.7688431040891
 30
0.0
  0
SEQEND
  5
966
  8
DATA
  6
CONTINUOUS
 62
     7
  0
POLYLINE
  5
2D8
  8
DATA
  6
CONTINUOUS
 62
     7
 66
     1
 10
0.0
 20
0.0
 30
0.0
 70
     1
  0
VERTEX
  5
967
  8
DATA
  6
CONTINUOUS
 62
     7
 10
122.25777653043799
 20
116.7688431040891
 30
0.0
  0
VERTEX
  5
968
  8
DATA
  6
CONTINUOUS
 62
     7
 10
123.25777653043799
 20
116.7688431040891
 30
0.0
  0
VERTEX
  5
969
  8
DATA
  6
CONTINUOUS
 62
     7
 10
123.25777653043799
 20
115.7688431040891
 30
0.0
  0
VERTEX
  5
96A
  8
DATA
  6
CONTINUOUS
 62
     7
 10
122.25777653043799
 20
115.7688431040891
 30
0.0
  0
SEQEND
  5
96B
  8
DATA
  6
CONTINUOUS
 62
     7
  0
POLYLINE
  5
2DF
  8
DATA
  6
CONTINUOUS
 62
     7
 66
     1
 10
0.0
 20
0.0
 30
0.0
 70
     1
  0
VERTEX
  5
96C
  8
DATA
  6
CONTINUOUS
 62
     7
 10
124.9783453913814
 20
119.28769872538891
 30
0.0
  0
VERTEX
  5
96D
  8
DATA
  6
CONTINUOUS
 62
     7
 10
125.9783453913814
 20
119.28769872538891
 30
0.0
  0
VERTEX
  5
96E
  8
DATA
  6
CONTINUOUS
 62
     7
 10
125.9783453913814
 20
118.28769872538891
 30
0.0
  0
VERTEX
  5
96F
  8
DATA
  6
CONTINUOUS
 62
     7
 10
124.9783453913814
 20
118.28769872538891
 30
0.0
  0
SEQEND
  5
970
  8
DATA
  6
CONTINUOUS
 62
     7
  0
POLYLINE
  5
2E6
  8
DATA
  6
CONTINUOUS
 62
     7
 66
     1
 10
0.0
 20
0.0
 30
0.0
 70
     1
  0
VERTEX
  5
971
  8
DATA
  6
CONTINUOUS
 62
     7
 10
122.25777653043799
 20
119.28769872538891
 30
0.0
  0
VERTEX
  5
972
  8
DATA
  6
CONTINUOUS
 62
     7
 10
123.25777653043799
 20
119.28769872538891
 30
0.0
  0
VERTEX
  5
973
  8
DATA
  6
CONTINUOUS
 62
     7
 10
123.25777653043799
 20
118.28769872538891
 30
0.0
  0
VERTEX
  5
974
  8
DATA
  6
CONTINUOUS
 62
     7
 10
122.25777653043799
 20
118.28769872538891
 30
0.0
  0
SEQEND
  5
975
  8
DATA
  6
CONTINUOUS
 62
     7
  0
LINE
  5
2ED
  8
DATA
  6
CONTINUOUS
 62
     7
 10
144.21343277885691
 20
114.69837922022521
 30
0.0
 11
143.65451558140461
 21
120.5483792202252
 31
0.0
  0
LINE
  5
2EE
  8
DATA
  6
CONTINUOUS
 62
     7
 10
120.3226891429626
 20
114.69837922022521
 30
0.0
 11
120.8816063404149
 21
120.5483792202252
 31
0.0
  0
ARC
  5
2EF
  8
DATA
  6
CONTINUOUS
 62
     7
 10
143.2179658481015
 20
114.603270914739
 30
0.0
 40
1.0
 50
270.0
 51
5.4575534851068142
  0
ARC
  5
2F0
  8
DATA
  6
CONTINUOUS
 62
     7
 10
121.318156073718
 20
114.603270914739
 30
0.0
 40
0.9999999999999744
 50
174.5424465148931
 51
270.00000000000159
  0
ARC
  5
2F1
  8
DATA
  6
CONTINUOUS
 62
     7
 10
142.6590486506492
 20
120.45327091473899
 30
0.0
 40
1.000000000000032
 50
5.4575534851074012
 51
89.99999999999838
  0
ARC
  5
2F2
  8
DATA
  6
CONTINUOUS
 62
     7
 10
121.8770732711703
 20
120.45327091473899
 30
0.0
 40
1.000000000000014
 50
90.0
 51
174.54244651489569
  0
CIRCLE
  5
2F3
  8
DATA
  6
CONTINUOUS
 62
     7
 10
70.015970860315093
 20
117.528270914739
 30
0.0
 40
1.175000000000068
  0
POLYLINE
  5
2F4
  8
DATA
  6
CONTINUOUS
 62
     7
 66
     1
 10
0.0
 20
0.0
 30
0.0
 70
     1
  0
VERTEX
  5
976
  8
DATA
  6
CONTINUOUS
 62
     7
 10
70.015970860315093
 20
114.82827091473899
 30
0.0
  0
VERTEX
  5
977
  8
DATA
  6
CONTINUOUS
 62
     7
 10
67.677702270097171
 20
116.178270914739
 30
0.0
  0
VERTEX
  5
978
  8
DATA
  6
CONTINUOUS
 62
     7
 10
67.677702270097171
 20
118.87827091473901
 30
0.0
  0
VERTEX
  5
979
  8
DATA
  6
CONTINUOUS
 62
     7
 10
70.015970860315093
 20
120.228270914739
 30
0.0
  0
VERTEX
  5
97A
  8
DATA
  6
CONTINUOUS
 62
     7
 10
72.354239450533143
 20
118.87827091473901
 30
0.0
  0
VERTEX
  5
97B
  8
DATA
  6
CONTINUOUS
 62
     7
 10
72.354239450533143
 20
116.178270914739
 30
0.0
  0
SEQEND
  5
97C
  8
DATA
  6
CONTINUOUS
 62
     7
  0
CIRCLE
  5
2FD
  8
DATA
  6
CONTINUOUS
 62
     7
 10
102.51597086031499
 20
117.528270914739
 30
0.0
 40
1.175000000000068
  0
POLYLINE
  5
2FE
  8
DATA
  6
CONTINUOUS
 62
     7
 66
     1
 10
0.0
 20
0.0
 30
0.0
 70
     1
  0
VERTEX
  5
97D
  8
DATA
  6
CONTINUOUS
 62
     7
 10
102.51597086031499
 20
114.82827091473899
 30
0.0
  0
VERTEX
  5
97E
  8
DATA
  6
CONTINUOUS
 62
     7
 10
100.1777022700971
 20
116.178270914739
 30
0.0
  0
VERTEX
  5
97F
  8
DATA
  6
CONTINUOUS
 62
     7
 10
100.1777022700971
 20
118.87827091473901
 30
0.0
  0
VERTEX
  5
980
  8
DATA
  6
CONTINUOUS
 62
     7
 10
102.51597086031499
 20
120.228270914739
 30
0.0
  0
VERTEX
  5
981
  8
DATA
  6
CONTINUOUS
 62
     7
 10
104.8542394505331
 20
118.87827091473901
 30
0.0
  0
VERTEX
  5
982
  8
DATA
  6
CONTINUOUS
 62
     7
 10
104.8542394505331
 20
116.178270914739
 30
0.0
  0
SEQEND
  5
983
  8
DATA
  6
CONTINUOUS
 62
     7
  0
LINE
  5
307
  8
DATA
  6
CONTINUOUS
 62
     7
 10
97.217965848101557
 20
113.603270914739
 30
0.0
 11
75.318156073718029
 21
113.603270914739
 31
0.0
  0
LINE
  5
308
  8
DATA
  6
CONTINUOUS
 62
     7
 10
75.877073271170303
 20
121.45327091473899
 30
0.0
 11
96.659048650649225
 21
121.45327091473899
 31
0.0
  0
POLYLINE
  5
309
  8
DATA
  6
CONTINUOUS
 62
     7
 66
     1
 10
0.0
 20
0.0
 30
0.0
 70
     1
  0
VERTEX
  5
984
  8
DATA
  6
CONTINUOUS
 62
     7
 10
95.738127132089133
 20
118.293270914739
 30
0.0
  0
VERTEX
  5
985
  8
DATA
  6
CONTINUOUS
 62
     7
 10
97.268127132089134
 20
118.293270914739
 30
0.0
  0
VERTEX
  5
986
  8
DATA
  6
CONTINUOUS
 62
     7
 10
97.268127132089134
 20
116.763270914739
 30
0.0
  0
VERTEX
  5
987
  8
DATA
  6
CONTINUOUS
 62
     7
 10
95.738127132089133
 20
116.763270914739
 30
0.0
  0
SEQEND
  5
988
  8
DATA
  6
CONTINUOUS
 62
     7
  0
POLYLINE
  5
310
  8
DATA
  6
CONTINUOUS
 62
     7
 66
     1
 10
0.0
 20
0.0
 30
0.0
 70
     1
  0
VERTEX
  5
989
  8
DATA
  6
CONTINUOUS
 62
     7
 10
93.738127132089133
 20
118.293270914739
 30
0.0
  0
VERTEX
  5
98A
  8
DATA
  6
CONTINUOUS
 62
     7
 10
95.268127132089106
 20
118.293270914739
 30
0.0
  0
VERTEX
  5
98B
  8
DATA
  6
CONTINUOUS
 62
     7
 10
95.268127132089106
 20
116.763270914739
 30
0.0
  0
VERTEX
  5
98C
  8
DATA
  6
CONTINUOUS
 62
     7
 10
93.738127132089133
 20
116.763270914739
 30
0.0
  0
SEQEND
  5
98D
  8
DATA
  6
CONTINUOUS
 62
     7
  0
POLYLINE
  5
317
  8
DATA
  6
CONTINUOUS
 62
     7
 66
     1
 10
0.0
 20
0.0
 30
0.0
 70
     1
  0
VERTEX
  5
98E
  8
DATA
  6
CONTINUOUS
 62
     7
 10
91.738127132089133
 20
118.293270914739
 30
0.0
  0
VERTEX
  5
98F
  8
DATA
  6
CONTINUOUS
 62
     7
 10
93.26812713208912
 20
118.293270914739
 30
0.0
  0
VERTEX
  5
990
  8
DATA
  6
CONTINUOUS
 62
     7
 10
93.26812713208912
 20
116.763270914739
 30
0.0
  0
VERTEX
  5
991
  8
DATA
  6
CONTINUOUS
 62
     7
 10
91.738127132089133
 20
116.763270914739
 30
0.0
  0
SEQEND
  5
992
  8
DATA
  6
CONTINUOUS
 62
     7
  0
POLYLINE
  5
31E
  8
DATA
  6
CONTINUOUS
 62
     7
 66
     1
 10
0.0
 20
0.0
 30
0.0
 70
     1
  0
VERTEX
  5
993
  8
DATA
  6
CONTINUOUS
 62
     7
 10
89.738127132089119
 20
118.293270914739
 30
0.0
  0
VERTEX
  5
994
  8
DATA
  6
CONTINUOUS
 62
     7
 10
91.268127132089106
 20
118.293270914739
 30
0.0
  0
VERTEX
  5
995
  8
DATA
  6
CONTINUOUS
 62
     7
 10
91.268127132089106
 20
116.763270914739
 30
0.0
  0
VERTEX
  5
996
  8
DATA
  6
CONTINUOUS
 62
     7
 10
89.738127132089119
 20
116.763270914739
 30
0.0
  0
SEQEND
  5
997
  8
DATA
  6
CONTINUOUS
 62
     7
  0
POLYLINE
  5
325
  8
DATA
  6
CONTINUOUS
 62
     7
 66
     1
 10
0.0
 20
0.0
 30
0.0
 70
     1
  0
VERTEX
  5
998
  8
DATA
  6
CONTINUOUS
 62
     7
 10
87.738127132089105
 20
118.293270914739
 30
0.0
  0
VERTEX
  5
999
  8
DATA
  6
CONTINUOUS
 62
     7
 10
89.26812713208912
 20
118.293270914739
 30
0.0
  0
VERTEX
  5
99A
  8
DATA
  6
CONTINUOUS
 62
     7
 10
89.26812713208912
 20
116.763270914739
 30
0.0
  0
VERTEX
  5
99B
  8
DATA
  6
CONTINUOUS
 62
     7
 10
87.738127132089105
 20
116.763270914739
 30
0.0
  0
SEQEND
  5
99C
  8
DATA
  6
CONTINUOUS
 62
     7
  0
POLYLINE
  5
32C
  8
DATA
  6
CONTINUOUS
 62
     7
 66
     1
 10
0.0
 20
0.0
 30
0.0
 70
     1
  0
VERTEX
  5
99D
  8
DATA
  6
CONTINUOUS
 62
     7
 10
85.738127132089133
 20
118.293270914739
 30
0.0
  0
VERTEX
  5
99E
  8
DATA
  6
CONTINUOUS
 62
     7
 10
87.268127132089134
 20
118.293270914739
 30
0.0
  0
VERTEX
  5
99F
  8
DATA
  6
CONTINUOUS
 62
     7
 10
87.268127132089134
 20
116.763270914739
 30
0.0
  0
VERTEX
  5
9A0
  8
DATA
  6
CONTINUOUS
 62
     7
 10
85.738127132089133
 20
116.763270914739
 30
0.0
  0
SEQEND
  5
9A1
  8
DATA
  6
CONTINUOUS
 62
     7
  0
POLYLINE
  5
333
  8
DATA
  6
CONTINUOUS
 62
     7
 66
     1
 10
0.0
 20
0.0
 30
0.0
 70
     1
  0
VERTEX
  5
9A2
  8
DATA
  6
CONTINUOUS
 62
     7
 10
83.738127132089176
 20
118.293270914739
 30
0.0
  0
VERTEX
  5
9A3
  8
DATA
  6
CONTINUOUS
 62
     7
 10
85.268127132089134
 20
118.293270914739
 30
0.0
  0
VERTEX
  5
9A4
  8
DATA
  6
CONTINUOUS
 62
     7
 10
85.268127132089134
 20
116.763270914739
 30
0.0
  0
VERTEX
  5
9A5
  8
DATA
  6
CONTINUOUS
 62
     7
 10
83.738127132089176
 20
116.763270914739
 30
0.0
  0
SEQEND
  5
9A6
  8
DATA
  6
CONTINUOUS
 62
     7
  0
POLYLINE
  5
33A
  8
DATA
  6
CONTINUOUS
 62
     7
 66
     1
 10
0.0
 20
0.0
 30
0.0
 70
     1
  0
VERTEX
  5
9A7
  8
DATA
  6
CONTINUOUS
 62
     7
 10
81.738127132089176
 20
118.293270914739
 30
0.0
  0
VERTEX
  5
9A8
  8
DATA
  6
CONTINUOUS
 62
     7
 10
83.268127132089177
 20
118.293270914739
 30
0.0
  0
VERTEX
  5
9A9
  8
DATA
  6
CONTINUOUS
 62
     7
 10
83.268127132089177
 20
116.763270914739
 30
0.0
  0
VERTEX
  5
9AA
  8
DATA
  6
CONTINUOUS
 62
     7
 10
81.738127132089176
 20
116.763270914739
 30
0.0
  0
SEQEND
  5
9AB
  8
DATA
  6
CONTINUOUS
 62
     7
  0
POLYLINE
  5
341
  8
DATA
  6
CONTINUOUS
 62
     7
 66
     1
 10
0.0
 20
0.0
 30
0.0
 70
     1
  0
VERTEX
  5
9AC
  8
DATA
  6
CONTINUOUS
 62
     7
 10
95.738127132089133
 20
116.2932709147389
 30
0.0
  0
VERTEX
  5
9AD
  8
DATA
  6
CONTINUOUS
 62
     7
 10
97.268127132089134
 20
116.2932709147389
 30
0.0
  0
VERTEX
  5
9AE
  8
DATA
  6
CONTINUOUS
 62
     7
 10
97.268127132089134
 20
114.763270914739
 30
0.0
  0
VERTEX
  5
9AF
  8
DATA
  6
CONTINUOUS
 62
     7
 10
95.738127132089133
 20
114.763270914739
 30
0.0
  0
SEQEND
  5
9B0
  8
DATA
  6
CONTINUOUS
 62
     7
  0
POLYLINE
  5
348
  8
DATA
  6
CONTINUOUS
 62
     7
 66
     1
 10
0.0
 20
0.0
 30
0.0
 70
     1
  0
VERTEX
  5
9B1
  8
DATA
  6
CONTINUOUS
 62
     7
 10
93.738127132089133
 20
116.2932709147389
 30
0.0
  0
VERTEX
  5
9B2
  8
DATA
  6
CONTINUOUS
 62
     7
 10
95.268127132089106
 20
116.2932709147389
 30
0.0
  0
VERTEX
  5
9B3
  8
DATA
  6
CONTINUOUS
 62
     7
 10
95.268127132089106
 20
114.763270914739
 30
0.0
  0
VERTEX
  5
9B4
  8
DATA
  6
CONTINUOUS
 62
     7
 10
93.738127132089133
 20
114.763270914739
 30
0.0
  0
SEQEND
  5
9B5
  8
DATA
  6
CONTINUOUS
 62
     7
  0
POLYLINE
  5
34F
  8
DATA
  6
CONTINUOUS
 62
     7
 66
     1
 10
0.0
 20
0.0
 30
0.0
 70
     1
  0
VERTEX
  5
9B6
  8
DATA
  6
CONTINUOUS
 62
     7
 10
91.738127132089133
 20
116.2932709147389
 30
0.0
  0
VERTEX
  5
9B7
  8
DATA
  6
CONTINUOUS
 62
     7
 10
93.26812713208912
 20
116.2932709147389
 30
0.0
  0
VERTEX
  5
9B8
  8
DATA
  6
CONTINUOUS
 62
     7
 10
93.26812713208912
 20
114.763270914739
 30
0.0
  0
VERTEX
  5
9B9
  8
DATA
  6
CONTINUOUS
 62
     7
 10
91.738127132089133
 20
114.763270914739
 30
0.0
  0
SEQEND
  5
9BA
  8
DATA
  6
CONTINUOUS
 62
     7
  0
POLYLINE
  5
356
  8
DATA
  6
CONTINUOUS
 62
     7
 66
     1
 10
0.0
 20
0.0
 30
0.0
 70
     1
  0
VERTEX
  5
9BB
  8
DATA
  6
CONTINUOUS
 62
     7
 10
89.738127132089119
 20
116.2932709147389
 30
0.0
  0
VERTEX
  5
9BC
  8
DATA
  6
CONTINUOUS
 62
     7
 10
91.268127132089106
 20
116.2932709147389
 30
0.0
  0
VERTEX
  5
9BD
  8
DATA
  6
CONTINUOUS
 62
     7
 10
91.268127132089106
 20
114.763270914739
 30
0.0
  0
VERTEX
  5
9BE
  8
DATA
  6
CONTINUOUS
 62
     7
 10
89.738127132089119
 20
114.763270914739
 30
0.0
  0
SEQEND
  5
9BF
  8
DATA
  6
CONTINUOUS
 62
     7
  0
POLYLINE
  5
35D
  8
DATA
  6
CONTINUOUS
 62
     7
 66
     1
 10
0.0
 20
0.0
 30
0.0
 70
     1
  0
VERTEX
  5
9C0
  8
DATA
  6
CONTINUOUS
 62
     7
 10
87.738127132089105
 20
116.2932709147389
 30
0.0
  0
VERTEX
  5
9C1
  8
DATA
  6
CONTINUOUS
 62
     7
 10
89.26812713208912
 20
116.2932709147389
 30
0.0
  0
VERTEX
  5
9C2
  8
DATA
  6
CONTINUOUS
 62
     7
 10
89.26812713208912
 20
114.763270914739
 30
0.0
  0
VERTEX
  5
9C3
  8
DATA
  6
CONTINUOUS
 62
     7
 10
87.738127132089105
 20
114.763270914739
 30
0.0
  0
SEQEND
  5
9C4
  8
DATA
  6
CONTINUOUS
 62
     7
  0
POLYLINE
  5
364
  8
DATA
  6
CONTINUOUS
 62
     7
 66
     1
 10
0.0
 20
0.0
 30
0.0
 70
     1
  0
VERTEX
  5
9C5
  8
DATA
  6
CONTINUOUS
 62
     7
 10
85.738127132089133
 20
116.2932709147389
 30
0.0
  0
VERTEX
  5
9C6
  8
DATA
  6
CONTINUOUS
 62
     7
 10
87.268127132089134
 20
116.2932709147389
 30
0.0
  0
VERTEX
  5
9C7
  8
DATA
  6
CONTINUOUS
 62
     7
 10
87.268127132089134
 20
114.763270914739
 30
0.0
  0
VERTEX
  5
9C8
  8
DATA
  6
CONTINUOUS
 62
     7
 10
85.738127132089133
 20
114.763270914739
 30
0.0
  0
SEQEND
  5
9C9
  8
DATA
  6
CONTINUOUS
 62
     7
  0
POLYLINE
  5
36B
  8
DATA
  6
CONTINUOUS
 62
     7
 66
     1
 10
0.0
 20
0.0
 30
0.0
 70
     1
  0
VERTEX
  5
9CA
  8
DATA
  6
CONTINUOUS
 62
     7
 10
83.738127132089176
 20
116.2932709147389
 30
0.0
  0
VERTEX
  5
9CB
  8
DATA
  6
CONTINUOUS
 62
     7
 10
85.268127132089134
 20
116.2932709147389
 30
0.0
  0
VERTEX
  5
9CC
  8
DATA
  6
CONTINUOUS
 62
     7
 10
85.268127132089134
 20
114.763270914739
 30
0.0
  0
VERTEX
  5
9CD
  8
DATA
  6
CONTINUOUS
 62
     7
 10
83.738127132089176
 20
114.763270914739
 30
0.0
  0
SEQEND
  5
9CE
  8
DATA
  6
CONTINUOUS
 62
     7
  0
POLYLINE
  5
372
  8
DATA
  6
CONTINUOUS
 62
     7
 66
     1
 10
0.0
 20
0.0
 30
0.0
 70
     1
  0
VERTEX
  5
9CF
  8
DATA
  6
CONTINUOUS
 62
     7
 10
81.738127132089176
 20
116.2932709147389
 30
0.0
  0
VERTEX
  5
9D0
  8
DATA
  6
CONTINUOUS
 62
     7
 10
83.268127132089177
 20
116.2932709147389
 30
0.0
  0
VERTEX
  5
9D1
  8
DATA
  6
CONTINUOUS
 62
     7
 10
83.268127132089177
 20
114.763270914739
 30
0.0
  0
VERTEX
  5
9D2
  8
DATA
  6
CONTINUOUS
 62
     7
 10
81.738127132089176
 20
114.763270914739
 30
0.0
  0
SEQEND
  5
9D3
  8
DATA
  6
CONTINUOUS
 62
     7
  0
POLYLINE
  5
379
  8
DATA
  6
CONTINUOUS
 62
     7
 66
     1
 10
0.0
 20
0.0
 30
0.0
 70
     1
  0
VERTEX
  5
9D4
  8
DATA
  6
CONTINUOUS
 62
     7
 10
95.738127132089133
 20
120.293270914739
 30
0.0
  0
VERTEX
  5
9D5
  8
DATA
  6
CONTINUOUS
 62
     7
 10
97.268127132089134
 20
120.293270914739
 30
0.0
  0
VERTEX
  5
9D6
  8
DATA
  6
CONTINUOUS
 62
     7
 10
97.268127132089134
 20
118.763270914739
 30
0.0
  0
VERTEX
  5
9D7
  8
DATA
  6
CONTINUOUS
 62
     7
 10
95.738127132089133
 20
118.763270914739
 30
0.0
  0
SEQEND
  5
9D8
  8
DATA
  6
CONTINUOUS
 62
     7
  0
POLYLINE
  5
380
  8
DATA
  6
CONTINUOUS
 62
     7
 66
     1
 10
0.0
 20
0.0
 30
0.0
 70
     1
  0
VERTEX
  5
9D9
  8
DATA
  6
CONTINUOUS
 62
     7
 10
93.738127132089133
 20
120.293270914739
 30
0.0
  0
VERTEX
  5
9DA
  8
DATA
  6
CONTINUOUS
 62
     7
 10
95.268127132089106
 20
120.293270914739
 30
0.0
  0
VERTEX
  5
9DB
  8
DATA
  6
CONTINUOUS
 62
     7
 10
95.268127132089106
 20
118.763270914739
 30
0.0
  0
VERTEX
  5
9DC
  8
DATA
  6
CONTINUOUS
 62
     7
 10
93.738127132089133
 20
118.763270914739
 30
0.0
  0
SEQEND
  5
9DD
  8
DATA
  6
CONTINUOUS
 62
     7
  0
POLYLINE
  5
387
  8
DATA
  6
CONTINUOUS
 62
     7
 66
     1
 10
0.0
 20
0.0
 30
0.0
 70
     1
  0
VERTEX
  5
9DE
  8
DATA
  6
CONTINUOUS
 62
     7
 10
91.738127132089133
 20
120.293270914739
 30
0.0
  0
VERTEX
  5
9DF
  8
DATA
  6
CONTINUOUS
 62
     7
 10
93.26812713208912
 20
120.293270914739
 30
0.0
  0
VERTEX
  5
9E0
  8
DATA
  6
CONTINUOUS
 62
     7
 10
93.26812713208912
 20
118.763270914739
 30
0.0
  0
VERTEX
  5
9E1
  8
DATA
  6
CONTINUOUS
 62
     7
 10
91.738127132089133
 20
118.763270914739
 30
0.0
  0
SEQEND
  5
9E2
  8
DATA
  6
CONTINUOUS
 62
     7
  0
POLYLINE
  5
38E
  8
DATA
  6
CONTINUOUS
 62
     7
 66
     1
 10
0.0
 20
0.0
 30
0.0
 70
     1
  0
VERTEX
  5
9E3
  8
DATA
  6
CONTINUOUS
 62
     7
 10
89.738127132089119
 20
120.293270914739
 30
0.0
  0
VERTEX
  5
9E4
  8
DATA
  6
CONTINUOUS
 62
     7
 10
91.268127132089106
 20
120.293270914739
 30
0.0
  0
VERTEX
  5
9E5
  8
DATA
  6
CONTINUOUS
 62
     7
 10
91.268127132089106
 20
118.763270914739
 30
0.0
  0
VERTEX
  5
9E6
  8
DATA
  6
CONTINUOUS
 62
     7
 10
89.738127132089119
 20
118.763270914739
 30
0.0
  0
SEQEND
  5
9E7
  8
DATA
  6
CONTINUOUS
 62
     7
  0
POLYLINE
  5
395
  8
DATA
  6
CONTINUOUS
 62
     7
 66
     1
 10
0.0
 20
0.0
 30
0.0
 70
     1
  0
VERTEX
  5
9E8
  8
DATA
  6
CONTINUOUS
 62
     7
 10
87.738127132089105
 20
120.293270914739
 30
0.0
  0
VERTEX
  5
9E9
  8
DATA
  6
CONTINUOUS
 62
     7
 10
89.26812713208912
 20
120.293270914739
 30
0.0
  0
VERTEX
  5
9EA
  8
DATA
  6
CONTINUOUS
 62
     7
 10
89.26812713208912
 20
118.763270914739
 30
0.0
  0
VERTEX
  5
9EB
  8
DATA
  6
CONTINUOUS
 62
     7
 10
87.738127132089105
 20
118.763270914739
 30
0.0
  0
SEQEND
  5
9EC
  8
DATA
  6
CONTINUOUS
 62
     7
  0
POLYLINE
  5
39C
  8
DATA
  6
CONTINUOUS
 62
     7
 66
     1
 10
0.0
 20
0.0
 30
0.0
 70
     1
  0
VERTEX
  5
9ED
  8
DATA
  6
CONTINUOUS
 62
     7
 10
85.738127132089133
 20
120.293270914739
 30
0.0
  0
VERTEX
  5
9EE
  8
DATA
  6
CONTINUOUS
 62
     7
 10
87.268127132089134
 20
120.293270914739
 30
0.0
  0
VERTEX
  5
9EF
  8
DATA
  6
CONTINUOUS
 62
     7
 10
87.268127132089134
 20
118.763270914739
 30
0.0
  0
VERTEX
  5
9F0
  8
DATA
  6
CONTINUOUS
 62
     7
 10
85.738127132089133
 20
118.763270914739
 30
0.0
  0
SEQEND
  5
9F1
  8
DATA
  6
CONTINUOUS
 62
     7
  0
POLYLINE
  5
3A3
  8
DATA
  6
CONTINUOUS
 62
     7
 66
     1
 10
0.0
 20
0.0
 30
0.0
 70
     1
  0
VERTEX
  5
9F2
  8
DATA
  6
CONTINUOUS
 62
     7
 10
83.738127132089176
 20
120.293270914739
 30
0.0
  0
VERTEX
  5
9F3
  8
DATA
  6
CONTINUOUS
 62
     7
 10
85.268127132089134
 20
120.293270914739
 30
0.0
  0
VERTEX
  5
9F4
  8
DATA
  6
CONTINUOUS
 62
     7
 10
85.268127132089134
 20
118.763270914739
 30
0.0
  0
VERTEX
  5
9F5
  8
DATA
  6
CONTINUOUS
 62
     7
 10
83.738127132089176
 20
118.763270914739
 30
0.0
  0
SEQEND
  5
9F6
  8
DATA
  6
CONTINUOUS
 62
     7
  0
POLYLINE
  5
3AA
  8
DATA
  6
CONTINUOUS
 62
     7
 66
     1
 10
0.0
 20
0.0
 30
0.0
 70
     1
  0
VERTEX
  5
9F7
  8
DATA
  6
CONTINUOUS
 62
     7
 10
81.738127132089176
 20
120.293270914739
 30
0.0
  0
VERTEX
  5
9F8
  8
DATA
  6
CONTINUOUS
 62
     7
 10
83.268127132089177
 20
120.293270914739
 30
0.0
  0
VERTEX
  5
9F9
  8
DATA
  6
CONTINUOUS
 62
     7
 10
83.268127132089177
 20
118.763270914739
 30
0.0
  0
VERTEX
  5
9FA
  8
DATA
  6
CONTINUOUS
 62
     7
 10
81.738127132089176
 20
118.763270914739
 30
0.0
  0
SEQEND
  5
9FB
  8
DATA
  6
CONTINUOUS
 62
     7
  0
POLYLINE
  5
3B1
  8
DATA
  6
CONTINUOUS
 62
     7
 66
     1
 10
0.0
 20
0.0
 30
0.0
  0
VERTEX
  5
9FC
  8
DATA
  6
CONTINUOUS
 62
     7
 10
77.718060960909696
 20
117.12827091473901
 30
0.0
  0
VERTEX
  5
9FD
  8
DATA
  6
CONTINUOUS
 62
     7
 10
75.618060960909702
 20
117.12827091473901
 30
0.0
  0
VERTEX
  5
9FE
  8
DATA
  6
CONTINUOUS
 62
     7
 10
75.618060960909702
 20
117.928270914739
 30
0.0
  0
VERTEX
  5
9FF
  8
DATA
  6
CONTINUOUS
 62
     7
 10
77.718060960909696
 20
117.928270914739
 30
0.0
  0
SEQEND
  5
A00
  8
DATA
  6
CONTINUOUS
 62
     7
  0
POLYLINE
  5
3B8
  8
DATA
  6
CONTINUOUS
 62
     7
 66
     1
 10
0.0
 20
0.0
 30
0.0
  0
VERTEX
  5
A01
  8
DATA
  6
CONTINUOUS
 62
     7
 10
78.518060960909693
 20
117.928270914739
 30
0.0
  0
VERTEX
  5
A02
  8
DATA
  6
CONTINUOUS
 62
     7
 10
80.618060960909702
 20
117.928270914739
 30
0.0
  0
VERTEX
  5
A03
  8
DATA
  6
CONTINUOUS
 62
     7
 10
80.618060960909702
 20
117.12827091473901
 30
0.0
  0
VERTEX
  5
A04
  8
DATA
  6
CONTINUOUS
 62
     7
 10
78.518060960909693
 20
117.12827091473901
 30
0.0
  0
SEQEND
  5
A05
  8
DATA
  6
CONTINUOUS
 62
     7
  0
POLYLINE
  5
3BF
  8
DATA
  6
CONTINUOUS
 62
     7
 66
     1
 10
0.0
 20
0.0
 30
0.0
  0
VERTEX
  5
A06
  8
DATA
  6
CONTINUOUS
 62
     7
 10
77.718060960909696
 20
117.928270914739
 30
0.0
  0
VERTEX
  5
A07
  8
DATA
  6
CONTINUOUS
 62
     7
 10
77.718060960909696
 20
120.028270914739
 30
0.0
  0
VERTEX
  5
A08
  8
DATA
  6
CONTINUOUS
 62
     7
 10
78.518060960909693
 20
120.028270914739
 30
0.0
  0
VERTEX
  5
A09
  8
DATA
  6
CONTINUOUS
 62
     7
 10
78.518060960909693
 20
117.928270914739
 30
0.0
  0
SEQEND
  5
A0A
  8
DATA
  6
CONTINUOUS
 62
     7
  0
POLYLINE
  5
3C6
  8
DATA
  6
CONTINUOUS
 62
     7
 66
     1
 10
0.0
 20
0.0
 30
0.0
  0
VERTEX
  5
A0B
  8
DATA
  6
CONTINUOUS
 62
     7
 10
78.518060960909693
 20
117.12827091473901
 30
0.0
  0
VERTEX
  5
A0C
  8
DATA
  6
CONTINUOUS
 62
     7
 10
78.518060960909693
 20
115.028270914739
 30
0.0
  0
VERTEX
  5
A0D
  8
DATA
  6
CONTINUOUS
 62
     7
 10
77.718060960909696
 20
115.028270914739
 30
0.0
  0
VERTEX
  5
A0E
  8
DATA
  6
CONTINUOUS
 62
     7
 10
77.718060960909696
 20
117.12827091473901
 30
0.0
  0
SEQEND
  5
A0F
  8
DATA
  6
CONTINUOUS
 62
     7
  0
POLYLINE
  5
3CD
  8
DATA
  6
CONTINUOUS
 62
     7
 66
     1
 10
0.0
 20
0.0
 30
0.0
 70
     1
  0
VERTEX
  5
A10
  8
DATA
  6
CONTINUOUS
 62
     7
 10
78.978345391381424
 20
116.7688431040891
 30
0.0
  0
VERTEX
  5
A11
  8
DATA
  6
CONTINUOUS
 62
     7
 10
79.978345391381424
 20
116.7688431040891
 30
0.0
  0
VERTEX
  5
A12
  8
DATA
  6
CONTINUOUS
 62
     7
 10
79.978345391381424
 20
115.7688431040891
 30
0.0
  0
VERTEX
  5
A13
  8
DATA
  6
CONTINUOUS
 62
     7
 10
78.978345391381424
 20
115.7688431040891
 30
0.0
  0
SEQEND
  5
A14
  8
DATA
  6
CONTINUOUS
 62
     7
  0
POLYLINE
  5
3D4
  8
DATA
  6
CONTINUOUS
 62
     7
 66
     1
 10
0.0
 20
0.0
 30
0.0
 70
     1
  0
VERTEX
  5
A15
  8
DATA
  6
CONTINUOUS
 62
     7
 10
76.257776530437965
 20
116.7688431040891
 30
0.0
  0
VERTEX
  5
A16
  8
DATA
  6
CONTINUOUS
 62
     7
 10
77.25777653043798
 20
116.7688431040891
 30
0.0
  0
VERTEX
  5
A17
  8
DATA
  6
CONTINUOUS
 62
     7
 10
77.25777653043798
 20
115.7688431040891
 30
0.0
  0
VERTEX
  5
A18
  8
DATA
  6
CONTINUOUS
 62
     7
 10
76.257776530437965
 20
115.7688431040891
 30
0.0
  0
SEQEND
  5
A19
  8
DATA
  6
CONTINUOUS
 62
     7
  0
POLYLINE
  5
3DB
  8
DATA
  6
CONTINUOUS
 62
     7
 66
     1
 10
0.0
 20
0.0
 30
0.0
 70
     1
  0
VERTEX
  5
A1A
  8
DATA
  6
CONTINUOUS
 62
     7
 10
78.978345391381424
 20
119.28769872538891
 30
0.0
  0
VERTEX
  5
A1B
  8
DATA
  6
CONTINUOUS
 62
     7
 10
79.978345391381424
 20
119.28769872538891
 30
0.0
  0
VERTEX
  5
A1C
  8
DATA
  6
CONTINUOUS
 62
     7
 10
79.978345391381424
 20
118.28769872538891
 30
0.0
  0
VERTEX
  5
A1D
  8
DATA
  6
CONTINUOUS
 62
     7
 10
78.978345391381424
 20
118.28769872538891
 30
0.0
  0
SEQEND
  5
A1E
  8
DATA
  6
CONTINUOUS
 62
     7
  0
POLYLINE
  5
3E2
  8
DATA
  6
CONTINUOUS
 62
     7
 66
     1
 10
0.0
 20
0.0
 30
0.0
 70
     1
  0
VERTEX
  5
A1F
  8
DATA
  6
CONTINUOUS
 62
     7
 10
76.257776530437965
 20
119.28769872538891
 30
0.0
  0
VERTEX
  5
A20
  8
DATA
  6
CONTINUOUS
 62
     7
 10
77.25777653043798
 20
119.28769872538891
 30
0.0
  0
VERTEX
  5
A21
  8
DATA
  6
CONTINUOUS
 62
     7
 10
77.25777653043798
 20
118.28769872538891
 30
0.0
  0
VERTEX
  5
A22
  8
DATA
  6
CONTINUOUS
 62
     7
 10
76.257776530437965
 20
118.28769872538891
 30
0.0
  0
SEQEND
  5
A23
  8
DATA
  6
CONTINUOUS
 62
     7
  0
LINE
  5
3E9
  8
DATA
  6
CONTINUOUS
 62
     7
 10
98.213432778856927
 20
114.69837922022521
 30
0.0
 11
97.654515581404652
 21
120.5483792202252
 31
0.0
  0
LINE
  5
3EA
  8
DATA
  6
CONTINUOUS
 62
     7
 10
74.322689142962631
 20
114.69837922022521
 30
0.0
 11
74.881606340414933
 21
120.5483792202252
 31
0.0
  0
ARC
  5
3EB
  8
DATA
  6
CONTINUOUS
 62
     7
 10
97.217965848101557
 20
114.603270914739
 30
0.0
 40
1.0
 50
270.0
 51
5.4575534851068142
  0
ARC
  5
3EC
  8
DATA
  6
CONTINUOUS
 62
     7
 10
75.318156073718001
 20
114.603270914739
 30
0.0
 40
0.9999999999999744
 50
174.5424465148931
 51
270.00000000000159
  0
ARC
  5
3ED
  8
DATA
  6
CONTINUOUS
 62
     7
 10
96.659048650649225
 20
120.45327091473899
 30
0.0
 40
1.000000000000032
 50
5.4575534851074012
 51
89.99999999999838
  0
ARC
  5
3EE
  8
DATA
  6
CONTINUOUS
 62
     7
 10
75.877073271170303
 20
120.45327091473899
 30
0.0
 40
1.000000000000014
 50
90.0
 51
174.54244651489569
  0
CIRCLE
  5
3EF
  8
DATA
  6
CONTINUOUS
 62
     7
 10
24.015970860315111
 20
117.528270914739
 30
0.0
 40
1.175000000000068
  0
POLYLINE
  5
3F0
  8
DATA
  6
CONTINUOUS
 62
     7
 66
     1
 10
0.0
 20
0.0
 30
0.0
 70
     1
  0
VERTEX
  5
A24
  8
DATA
  6
CONTINUOUS
 62
     7
 10
24.015970860315111
 20
114.82827091473899
 30
0.0
  0
VERTEX
  5
A25
  8
DATA
  6
CONTINUOUS
 62
     7
 10
21.677702270097178
 20
116.178270914739
 30
0.0
  0
VERTEX
  5
A26
  8
DATA
  6
CONTINUOUS
 62
     7
 10
21.677702270097178
 20
118.87827091473901
 30
0.0
  0
VERTEX
  5
A27
  8
DATA
  6
CONTINUOUS
 62
     7
 10
24.015970860315111
 20
120.228270914739
 30
0.0
  0
VERTEX
  5
A28
  8
DATA
  6
CONTINUOUS
 62
     7
 10
26.35423945053315
 20
118.87827091473901
 30
0.0
  0
VERTEX
  5
A29
  8
DATA
  6
CONTINUOUS
 62
     7
 10
26.35423945053315
 20
116.178270914739
 30
0.0
  0
SEQEND
  5
A2A
  8
DATA
  6
CONTINUOUS
 62
     7
  0
CIRCLE
  5
3F9
  8
DATA
  6
CONTINUOUS
 62
     7
 10
56.515970860315043
 20
117.528270914739
 30
0.0
 40
1.175000000000068
  0
POLYLINE
  5
3FA
  8
DATA
  6
CONTINUOUS
 62
     7
 66
     1
 10
0.0
 20
0.0
 30
0.0
 70
     1
  0
VERTEX
  5
A2B
  8
DATA
  6
CONTINUOUS
 62
     7
 10
56.515970860315043
 20
114.82827091473899
 30
0.0
  0
VERTEX
  5
A2C
  8
DATA
  6
CONTINUOUS
 62
     7
 10
54.177702270097107
 20
116.178270914739
 30
0.0
  0
VERTEX
  5
A2D
  8
DATA
  6
CONTINUOUS
 62
     7
 10
54.177702270097107
 20
118.87827091473901
 30
0.0
  0
VERTEX
  5
A2E
  8
DATA
  6
CONTINUOUS
 62
     7
 10
56.515970860315043
 20
120.228270914739
 30
0.0
  0
VERTEX
  5
A2F
  8
DATA
  6
CONTINUOUS
 62
     7
 10
58.854239450533072
 20
118.87827091473901
 30
0.0
  0
VERTEX
  5
A30
  8
DATA
  6
CONTINUOUS
 62
     7
 10
58.854239450533072
 20
116.178270914739
 30
0.0
  0
SEQEND
  5
A31
  8
DATA
  6
CONTINUOUS
 62
     7
  0
LINE
  5
403
  8
DATA
  6
CONTINUOUS
 62
     7
 10
51.217965848101542
 20
113.603270914739
 30
0.0
 11
29.31815607371805
 21
113.603270914739
 31
0.0
  0
LINE
  5
404
  8
DATA
  6
CONTINUOUS
 62
     7
 10
29.877073271170321
 20
121.45327091473899
 30
0.0
 11
50.659048650649261
 21
121.45327091473899
 31
0.0
  0
POLYLINE
  5
405
  8
DATA
  6
CONTINUOUS
 62
     7
 66
     1
 10
0.0
 20
0.0
 30
0.0
 70
     1
  0
VERTEX
  5
A32
  8
DATA
  6
CONTINUOUS
 62
     7
 10
49.738127132089119
 20
118.293270914739
 30
0.0
  0
VERTEX
  5
A33
  8
DATA
  6
CONTINUOUS
 62
     7
 10
51.268127132089127
 20
118.293270914739
 30
0.0
  0
VERTEX
  5
A34
  8
DATA
  6
CONTINUOUS
 62
     7
 10
51.268127132089127
 20
116.763270914739
 30
0.0
  0
VERTEX
  5
A35
  8
DATA
  6
CONTINUOUS
 62
     7
 10
49.738127132089119
 20
116.763270914739
 30
0.0
  0
SEQEND
  5
A36
  8
DATA
  6
CONTINUOUS
 62
     7
  0
POLYLINE
  5
40C
  8
DATA
  6
CONTINUOUS
 62
     7
 66
     1
 10
0.0
 20
0.0
 30
0.0
 70
     1
  0
VERTEX
  5
A37
  8
DATA
  6
CONTINUOUS
 62
     7
 10
47.738127132089119
 20
118.293270914739
 30
0.0
  0
VERTEX
  5
A38
  8
DATA
  6
CONTINUOUS
 62
     7
 10
49.268127132089127
 20
118.293270914739
 30
0.0
  0
VERTEX
  5
A39
  8
DATA
  6
CONTINUOUS
 62
     7
 10
49.268127132089127
 20
116.763270914739
 30
0.0
  0
VERTEX
  5
A3A
  8
DATA
  6
CONTINUOUS
 62
     7
 10
47.738127132089119
 20
116.763270914739
 30
0.0
  0
SEQEND
  5
A3B
  8
DATA
  6
CONTINUOUS
 62
     7
  0
POLYLINE
  5
413
  8
DATA
  6
CONTINUOUS
 62
     7
 66
     1
 10
0.0
 20
0.0
 30
0.0
 70
     1
  0
VERTEX
  5
A3C
  8
DATA
  6
CONTINUOUS
 62
     7
 10
45.738127132089119
 20
118.293270914739
 30
0.0
  0
VERTEX
  5
A3D
  8
DATA
  6
CONTINUOUS
 62
     7
 10
47.268127132089127
 20
118.293270914739
 30
0.0
  0
VERTEX
  5
A3E
  8
DATA
  6
CONTINUOUS
 62
     7
 10
47.268127132089127
 20
116.763270914739
 30
0.0
  0
VERTEX
  5
A3F
  8
DATA
  6
CONTINUOUS
 62
     7
 10
45.738127132089119
 20
116.763270914739
 30
0.0
  0
SEQEND
  5
A40
  8
DATA
  6
CONTINUOUS
 62
     7
  0
POLYLINE
  5
41A
  8
DATA
  6
CONTINUOUS
 62
     7
 66
     1
 10
0.0
 20
0.0
 30
0.0
 70
     1
  0
VERTEX
  5
A41
  8
DATA
  6
CONTINUOUS
 62
     7
 10
43.738127132089119
 20
118.293270914739
 30
0.0
  0
VERTEX
  5
A42
  8
DATA
  6
CONTINUOUS
 62
     7
 10
45.26812713208912
 20
118.293270914739
 30
0.0
  0
VERTEX
  5
A43
  8
DATA
  6
CONTINUOUS
 62
     7
 10
45.26812713208912
 20
116.763270914739
 30
0.0
  0
VERTEX
  5
A44
  8
DATA
  6
CONTINUOUS
 62
     7
 10
43.738127132089119
 20
116.763270914739
 30
0.0
  0
SEQEND
  5
A45
  8
DATA
  6
CONTINUOUS
 62
     7
  0
POLYLINE
  5
421
  8
DATA
  6
CONTINUOUS
 62
     7
 66
     1
 10
0.0
 20
0.0
 30
0.0
 70
     1
  0
VERTEX
  5
A46
  8
DATA
  6
CONTINUOUS
 62
     7
 10
41.738127132089133
 20
118.293270914739
 30
0.0
  0
VERTEX
  5
A47
  8
DATA
  6
CONTINUOUS
 62
     7
 10
43.26812713208912
 20
118.293270914739
 30
0.0
  0
VERTEX
  5
A48
  8
DATA
  6
CONTINUOUS
 62
     7
 10
43.26812713208912
 20
116.763270914739
 30
0.0
  0
VERTEX
  5
A49
  8
DATA
  6
CONTINUOUS
 62
     7
 10
41.738127132089133
 20
116.763270914739
 30
0.0
  0
SEQEND
  5
A4A
  8
DATA
  6
CONTINUOUS
 62
     7
  0
POLYLINE
  5
428
  8
DATA
  6
CONTINUOUS
 62
     7
 66
     1
 10
0.0
 20
0.0
 30
0.0
 70
     1
  0
VERTEX
  5
A4B
  8
DATA
  6
CONTINUOUS
 62
     7
 10
39.738127132089133
 20
118.293270914739
 30
0.0
  0
VERTEX
  5
A4C
  8
DATA
  6
CONTINUOUS
 62
     7
 10
41.268127132089127
 20
118.293270914739
 30
0.0
  0
VERTEX
  5
A4D
  8
DATA
  6
CONTINUOUS
 62
     7
 10
41.268127132089127
 20
116.763270914739
 30
0.0
  0
VERTEX
  5
A4E
  8
DATA
  6
CONTINUOUS
 62
     7
 10
39.738127132089133
 20
116.763270914739
 30
0.0
  0
SEQEND
  5
A4F
  8
DATA
  6
CONTINUOUS
 62
     7
  0
POLYLINE
  5
42F
  8
DATA
  6
CONTINUOUS
 62
     7
 66
     1
 10
0.0
 20
0.0
 30
0.0
 70
     1
  0
VERTEX
  5
A50
  8
DATA
  6
CONTINUOUS
 62
     7
 10
37.738127132089183
 20
118.293270914739
 30
0.0
  0
VERTEX
  5
A51
  8
DATA
  6
CONTINUOUS
 62
     7
 10
39.268127132089141
 20
118.293270914739
 30
0.0
  0
VERTEX
  5
A52
  8
DATA
  6
CONTINUOUS
 62
     7
 10
39.268127132089141
 20
116.763270914739
 30
0.0
  0
VERTEX
  5
A53
  8
DATA
  6
CONTINUOUS
 62
     7
 10
37.738127132089183
 20
116.763270914739
 30
0.0
  0
SEQEND
  5
A54
  8
DATA
  6
CONTINUOUS
 62
     7
  0
POLYLINE
  5
436
  8
DATA
  6
CONTINUOUS
 62
     7
 66
     1
 10
0.0
 20
0.0
 30
0.0
 70
     1
  0
VERTEX
  5
A55
  8
DATA
  6
CONTINUOUS
 62
     7
 10
35.738127132089183
 20
118.293270914739
 30
0.0
  0
VERTEX
  5
A56
  8
DATA
  6
CONTINUOUS
 62
     7
 10
37.268127132089177
 20
118.293270914739
 30
0.0
  0
VERTEX
  5
A57
  8
DATA
  6
CONTINUOUS
 62
     7
 10
37.268127132089177
 20
116.763270914739
 30
0.0
  0
VERTEX
  5
A58
  8
DATA
  6
CONTINUOUS
 62
     7
 10
35.738127132089183
 20
116.763270914739
 30
0.0
  0
SEQEND
  5
A59
  8
DATA
  6
CONTINUOUS
 62
     7
  0
POLYLINE
  5
43D
  8
DATA
  6
CONTINUOUS
 62
     7
 66
     1
 10
0.0
 20
0.0
 30
0.0
 70
     1
  0
VERTEX
  5
A5A
  8
DATA
  6
CONTINUOUS
 62
     7
 10
49.738127132089119
 20
116.2932709147389
 30
0.0
  0
VERTEX
  5
A5B
  8
DATA
  6
CONTINUOUS
 62
     7
 10
51.268127132089127
 20
116.2932709147389
 30
0.0
  0
VERTEX
  5
A5C
  8
DATA
  6
CONTINUOUS
 62
     7
 10
51.268127132089127
 20
114.763270914739
 30
0.0
  0
VERTEX
  5
A5D
  8
DATA
  6
CONTINUOUS
 62
     7
 10
49.738127132089119
 20
114.763270914739
 30
0.0
  0
SEQEND
  5
A5E
  8
DATA
  6
CONTINUOUS
 62
     7
  0
POLYLINE
  5
444
  8
DATA
  6
CONTINUOUS
 62
     7
 66
     1
 10
0.0
 20
0.0
 30
0.0
 70
     1
  0
VERTEX
  5
A5F
  8
DATA
  6
CONTINUOUS
 62
     7
 10
47.738127132089119
 20
116.2932709147389
 30
0.0
  0
VERTEX
  5
A60
  8
DATA
  6
CONTINUOUS
 62
     7
 10
49.268127132089127
 20
116.2932709147389
 30
0.0
  0
VERTEX
  5
A61
  8
DATA
  6
CONTINUOUS
 62
     7
 10
49.268127132089127
 20
114.763270914739
 30
0.0
  0
VERTEX
  5
A62
  8
DATA
  6
CONTINUOUS
 62
     7
 10
47.738127132089119
 20
114.763270914739
 30
0.0
  0
SEQEND
  5
A63
  8
DATA
  6
CONTINUOUS
 62
     7
  0
POLYLINE
  5
44B
  8
DATA
  6
CONTINUOUS
 62
     7
 66
     1
 10
0.0
 20
0.0
 30
0.0
 70
     1
  0
VERTEX
  5
A64
  8
DATA
  6
CONTINUOUS
 62
     7
 10
45.738127132089119
 20
116.2932709147389
 30
0.0
  0
VERTEX
  5
A65
  8
DATA
  6
CONTINUOUS
 62
     7
 10
47.268127132089127
 20
116.2932709147389
 30
0.0
  0
VERTEX
  5
A66
  8
DATA
  6
CONTINUOUS
 62
     7
 10
47.268127132089127
 20
114.763270914739
 30
0.0
  0
VERTEX
  5
A67
  8
DATA
  6
CONTINUOUS
 62
     7
 10
45.738127132089119
 20
114.763270914739
 30
0.0
  0
SEQEND
  5
A68
  8
DATA
  6
CONTINUOUS
 62
     7
  0
POLYLINE
  5
452
  8
DATA
  6
CONTINUOUS
 62
     7
 66
     1
 10
0.0
 20
0.0
 30
0.0
 70
     1
  0
VERTEX
  5
A69
  8
DATA
  6
CONTINUOUS
 62
     7
 10
43.738127132089119
 20
116.2932709147389
 30
0.0
  0
VERTEX
  5
A6A
  8
DATA
  6
CONTINUOUS
 62
     7
 10
45.26812713208912
 20
116.2932709147389
 30
0.0
  0
VERTEX
  5
A6B
  8
DATA
  6
CONTINUOUS
 62
     7
 10
45.26812713208912
 20
114.763270914739
 30
0.0
  0
VERTEX
  5
A6C
  8
DATA
  6
CONTINUOUS
 62
     7
 10
43.738127132089119
 20
114.763270914739
 30
0.0
  0
SEQEND
  5
A6D
  8
DATA
  6
CONTINUOUS
 62
     7
  0
POLYLINE
  5
459
  8
DATA
  6
CONTINUOUS
 62
     7
 66
     1
 10
0.0
 20
0.0
 30
0.0
 70
     1
  0
VERTEX
  5
A6E
  8
DATA
  6
CONTINUOUS
 62
     7
 10
41.738127132089133
 20
116.2932709147389
 30
0.0
  0
VERTEX
  5
A6F
  8
DATA
  6
CONTINUOUS
 62
     7
 10
43.26812713208912
 20
116.2932709147389
 30
0.0
  0
VERTEX
  5
A70
  8
DATA
  6
CONTINUOUS
 62
     7
 10
43.26812713208912
 20
114.763270914739
 30
0.0
  0
VERTEX
  5
A71
  8
DATA
  6
CONTINUOUS
 62
     7
 10
41.738127132089133
 20
114.763270914739
 30
0.0
  0
SEQEND
  5
A72
  8
DATA
  6
CONTINUOUS
 62
     7
  0
POLYLINE
  5
460
  8
DATA
  6
CONTINUOUS
 62
     7
 66
     1
 10
0.0
 20
0.0
 30
0.0
 70
     1
  0
VERTEX
  5
A73
  8
DATA
  6
CONTINUOUS
 62
     7
 10
39.738127132089133
 20
116.2932709147389
 30
0.0
  0
VERTEX
  5
A74
  8
DATA
  6
CONTINUOUS
 62
     7
 10
41.268127132089127
 20
116.2932709147389
 30
0.0
  0
VERTEX
  5
A75
  8
DATA
  6
CONTINUOUS
 62
     7
 10
41.268127132089127
 20
114.763270914739
 30
0.0
  0
VERTEX
  5
A76
  8
DATA
  6
CONTINUOUS
 62
     7
 10
39.738127132089133
 20
114.763270914739
 30
0.0
  0
SEQEND
  5
A77
  8
DATA
  6
CONTINUOUS
 62
     7
  0
POLYLINE
  5
467
  8
DATA
  6
CONTINUOUS
 62
     7
 66
     1
 10
0.0
 20
0.0
 30
0.0
 70
     1
  0
VERTEX
  5
A78
  8
DATA
  6
CONTINUOUS
 62
     7
 10
37.738127132089183
 20
116.2932709147389
 30
0.0
  0
VERTEX
  5
A79
  8
DATA
  6
CONTINUOUS
 62
     7
 10
39.268127132089141
 20
116.2932709147389
 30
0.0
  0
VERTEX
  5
A7A
  8
DATA
  6
CONTINUOUS
 62
     7
 10
39.268127132089141
 20
114.763270914739
 30
0.0
  0
VERTEX
  5
A7B
  8
DATA
  6
CONTINUOUS
 62
     7
 10
37.738127132089183
 20
114.763270914739
 30
0.0
  0
SEQEND
  5
A7C
  8
DATA
  6
CONTINUOUS
 62
     7
  0
POLYLINE
  5
46E
  8
DATA
  6
CONTINUOUS
 62
     7
 66
     1
 10
0.0
 20
0.0
 30
0.0
 70
     1
  0
VERTEX
  5
A7D
  8
DATA
  6
CONTINUOUS
 62
     7
 10
35.738127132089183
 20
116.2932709147389
 30
0.0
  0
VERTEX
  5
A7E
  8
DATA
  6
CONTINUOUS
 62
     7
 10
37.268127132089177
 20
116.2932709147389
 30
0.0
  0
VERTEX
  5
A7F
  8
DATA
  6
CONTINUOUS
 62
     7
 10
37.268127132089177
 20
114.763270914739
 30
0.0
  0
VERTEX
  5
A80
  8
DATA
  6
CONTINUOUS
 62
     7
 10
35.738127132089183
 20
114.763270914739
 30
0.0
  0
SEQEND
  5
A81
  8
DATA
  6
CONTINUOUS
 62
     7
  0
POLYLINE
  5
475
  8
DATA
  6
CONTINUOUS
 62
     7
 66
     1
 10
0.0
 20
0.0
 30
0.0
 70
     1
  0
VERTEX
  5
A82
  8
DATA
  6
CONTINUOUS
 62
     7
 10
49.738127132089119
 20
120.293270914739
 30
0.0
  0
VERTEX
  5
A83
  8
DATA
  6
CONTINUOUS
 62
     7
 10
51.268127132089127
 20
120.293270914739
 30
0.0
  0
VERTEX
  5
A84
  8
DATA
  6
CONTINUOUS
 62
     7
 10
51.268127132089127
 20
118.763270914739
 30
0.0
  0
VERTEX
  5
A85
  8
DATA
  6
CONTINUOUS
 62
     7
 10
49.738127132089119
 20
118.763270914739
 30
0.0
  0
SEQEND
  5
A86
  8
DATA
  6
CONTINUOUS
 62
     7
  0
POLYLINE
  5
47C
  8
DATA
  6
CONTINUOUS
 62
     7
 66
     1
 10
0.0
 20
0.0
 30
0.0
 70
     1
  0
VERTEX
  5
A87
  8
DATA
  6
CONTINUOUS
 62
     7
 10
47.738127132089119
 20
120.293270914739
 30
0.0
  0
VERTEX
  5
A88
  8
DATA
  6
CONTINUOUS
 62
     7
 10
49.268127132089127
 20
120.293270914739
 30
0.0
  0
VERTEX
  5
A89
  8
DATA
  6
CONTINUOUS
 62
     7
 10
49.268127132089127
 20
118.763270914739
 30
0.0
  0
VERTEX
  5
A8A
  8
DATA
  6
CONTINUOUS
 62
     7
 10
47.738127132089119
 20
118.763270914739
 30
0.0
  0
SEQEND
  5
A8B
  8
DATA
  6
CONTINUOUS
 62
     7
  0
POLYLINE
  5
483
  8
DATA
  6
CONTINUOUS
 62
     7
 66
     1
 10
0.0
 20
0.0
 30
0.0
 70
     1
  0
VERTEX
  5
A8C
  8
DATA
  6
CONTINUOUS
 62
     7
 10
45.738127132089119
 20
120.293270914739
 30
0.0
  0
VERTEX
  5
A8D
  8
DATA
  6
CONTINUOUS
 62
     7
 10
47.268127132089127
 20
120.293270914739
 30
0.0
  0
VERTEX
  5
A8E
  8
DATA
  6
CONTINUOUS
 62
     7
 10
47.268127132089127
 20
118.763270914739
 30
0.0
  0
VERTEX
  5
A8F
  8
DATA
  6
CONTINUOUS
 62
     7
 10
45.738127132089119
 20
118.763270914739
 30
0.0
  0
SEQEND
  5
A90
  8
DATA
  6
CONTINUOUS
 62
     7
  0
POLYLINE
  5
48A
  8
DATA
  6
CONTINUOUS
 62
     7
 66
     1
 10
0.0
 20
0.0
 30
0.0
 70
     1
  0
VERTEX
  5
A91
  8
DATA
  6
CONTINUOUS
 62
     7
 10
43.738127132089119
 20
120.293270914739
 30
0.0
  0
VERTEX
  5
A92
  8
DATA
  6
CONTINUOUS
 62
     7
 10
45.26812713208912
 20
120.293270914739
 30
0.0
  0
VERTEX
  5
A93
  8
DATA
  6
CONTINUOUS
 62
     7
 10
45.26812713208912
 20
118.763270914739
 30
0.0
  0
VERTEX
  5
A94
  8
DATA
  6
CONTINUOUS
 62
     7
 10
43.738127132089119
 20
118.763270914739
 30
0.0
  0
SEQEND
  5
A95
  8
DATA
  6
CONTINUOUS
 62
     7
  0
POLYLINE
  5
491
  8
DATA
  6
CONTINUOUS
 62
     7
 66
     1
 10
0.0
 20
0.0
 30
0.0
 70
     1
  0
VERTEX
  5
A96
  8
DATA
  6
CONTINUOUS
 62
     7
 10
41.738127132089133
 20
120.293270914739
 30
0.0
  0
VERTEX
  5
A97
  8
DATA
  6
CONTINUOUS
 62
     7
 10
43.26812713208912
 20
120.293270914739
 30
0.0
  0
VERTEX
  5
A98
  8
DATA
  6
CONTINUOUS
 62
     7
 10
43.26812713208912
 20
118.763270914739
 30
0.0
  0
VERTEX
  5
A99
  8
DATA
  6
CONTINUOUS
 62
     7
 10
41.738127132089133
 20
118.763270914739
 30
0.0
  0
SEQEND
  5
A9A
  8
DATA
  6
CONTINUOUS
 62
     7
  0
POLYLINE
  5
498
  8
DATA
  6
CONTINUOUS
 62
     7
 66
     1
 10
0.0
 20
0.0
 30
0.0
 70
     1
  0
VERTEX
  5
A9B
  8
DATA
  6
CONTINUOUS
 62
     7
 10
39.738127132089133
 20
120.293270914739
 30
0.0
  0
VERTEX
  5
A9C
  8
DATA
  6
CONTINUOUS
 62
     7
 10
41.268127132089127
 20
120.293270914739
 30
0.0
  0
VERTEX
  5
A9D
  8
DATA
  6
CONTINUOUS
 62
     7
 10
41.268127132089127
 20
118.763270914739
 30
0.0
  0
VERTEX
  5
A9E
  8
DATA
  6
CONTINUOUS
 62
     7
 10
39.738127132089133
 20
118.763270914739
 30
0.0
  0
SEQEND
  5
A9F
  8
DATA
  6
CONTINUOUS
 62
     7
  0
POLYLINE
  5
49F
  8
DATA
  6
CONTINUOUS
 62
     7
 66
     1
 10
0.0
 20
0.0
 30
0.0
 70
     1
  0
VERTEX
  5
AA0
  8
DATA
  6
CONTINUOUS
 62
     7
 10
37.738127132089183
 20
120.293270914739
 30
0.0
  0
VERTEX
  5
AA1
  8
DATA
  6
CONTINUOUS
 62
     7
 10
39.268127132089141
 20
120.293270914739
 30
0.0
  0
VERTEX
  5
AA2
  8
DATA
  6
CONTINUOUS
 62
     7
 10
39.268127132089141
 20
118.763270914739
 30
0.0
  0
VERTEX
  5
AA3
  8
DATA
  6
CONTINUOUS
 62
     7
 10
37.738127132089183
 20
118.763270914739
 30
0.0
  0
SEQEND
  5
AA4
  8
DATA
  6
CONTINUOUS
 62
     7
  0
POLYLINE
  5
4A6
  8
DATA
  6
CONTINUOUS
 62
     7
 66
     1
 10
0.0
 20
0.0
 30
0.0
 70
     1
  0
VERTEX
  5
AA5
  8
DATA
  6
CONTINUOUS
 62
     7
 10
35.738127132089183
 20
120.293270914739
 30
0.0
  0
VERTEX
  5
AA6
  8
DATA
  6
CONTINUOUS
 62
     7
 10
37.268127132089177
 20
120.293270914739
 30
0.0
  0
VERTEX
  5
AA7
  8
DATA
  6
CONTINUOUS
 62
     7
 10
37.268127132089177
 20
118.763270914739
 30
0.0
  0
VERTEX
  5
AA8
  8
DATA
  6
CONTINUOUS
 62
     7
 10
35.738127132089183
 20
118.763270914739
 30
0.0
  0
SEQEND
  5
AA9
  8
DATA
  6
CONTINUOUS
 62
     7
  0
POLYLINE
  5
4AD
  8
DATA
  6
CONTINUOUS
 62
     7
 66
     1
 10
0.0
 20
0.0
 30
0.0
  0
VERTEX
  5
AAA
  8
DATA
  6
CONTINUOUS
 62
     7
 10
31.71806096090971
 20
117.12827091473901
 30
0.0
  0
VERTEX
  5
AAB
  8
DATA
  6
CONTINUOUS
 62
     7
 10
29.61806096090972
 20
117.12827091473901
 30
0.0
  0
VERTEX
  5
AAC
  8
DATA
  6
CONTINUOUS
 62
     7
 10
29.61806096090972
 20
117.928270914739
 30
0.0
  0
VERTEX
  5
AAD
  8
DATA
  6
CONTINUOUS
 62
     7
 10
31.71806096090971
 20
117.928270914739
 30
0.0
  0
SEQEND
  5
AAE
  8
DATA
  6
CONTINUOUS
 62
     7
  0
POLYLINE
  5
4B4
  8
DATA
  6
CONTINUOUS
 62
     7
 66
     1
 10
0.0
 20
0.0
 30
0.0
  0
VERTEX
  5
AAF
  8
DATA
  6
CONTINUOUS
 62
     7
 10
32.518060960909722
 20
117.928270914739
 30
0.0
  0
VERTEX
  5
AB0
  8
DATA
  6
CONTINUOUS
 62
     7
 10
34.618060960909723
 20
117.928270914739
 30
0.0
  0
VERTEX
  5
AB1
  8
DATA
  6
CONTINUOUS
 62
     7
 10
34.618060960909723
 20
117.12827091473901
 30
0.0
  0
VERTEX
  5
AB2
  8
DATA
  6
CONTINUOUS
 62
     7
 10
32.518060960909722
 20
117.12827091473901
 30
0.0
  0
SEQEND
  5
AB3
  8
DATA
  6
CONTINUOUS
 62
     7
  0
POLYLINE
  5
4BB
  8
DATA
  6
CONTINUOUS
 62
     7
 66
     1
 10
0.0
 20
0.0
 30
0.0
  0
VERTEX
  5
AB4
  8
DATA
  6
CONTINUOUS
 62
     7
 10
31.71806096090971
 20
117.928270914739
 30
0.0
  0
VERTEX
  5
AB5
  8
DATA
  6
CONTINUOUS
 62
     7
 10
31.71806096090971
 20
120.028270914739
 30
0.0
  0
VERTEX
  5
AB6
  8
DATA
  6
CONTINUOUS
 62
     7
 10
32.518060960909722
 20
120.028270914739
 30
0.0
  0
VERTEX
  5
AB7
  8
DATA
  6
CONTINUOUS
 62
     7
 10
32.518060960909722
 20
117.928270914739
 30
0.0
  0
SEQEND
  5
AB8
  8
DATA
  6
CONTINUOUS
 62
     7
  0
POLYLINE
  5
4C2
  8
DATA
  6
CONTINUOUS
 62
     7
 66
     1
 10
0.0
 20
0.0
 30
0.0
  0
VERTEX
  5
AB9
  8
DATA
  6
CONTINUOUS
 62
     7
 10
32.518060960909722
 20
117.12827091473901
 30
0.0
  0
VERTEX
  5
ABA
  8
DATA
  6
CONTINUOUS
 62
     7
 10
32.518060960909722
 20
115.028270914739
 30
0.0
  0
VERTEX
  5
ABB
  8
DATA
  6
CONTINUOUS
 62
     7
 10
31.71806096090971
 20
115.028270914739
 30
0.0
  0
VERTEX
  5
ABC
  8
DATA
  6
CONTINUOUS
 62
     7
 10
31.71806096090971
 20
117.12827091473901
 30
0.0
  0
SEQEND
  5
ABD
  8
DATA
  6
CONTINUOUS
 62
     7
  0
POLYLINE
  5
4C9
  8
DATA
  6
CONTINUOUS
 62
     7
 66
     1
 10
0.0
 20
0.0
 30
0.0
 70
     1
  0
VERTEX
  5
ABE
  8
DATA
  6
CONTINUOUS
 62
     7
 10
32.978345391381438
 20
116.7688431040891
 30
0.0
  0
VERTEX
  5
ABF
  8
DATA
  6
CONTINUOUS
 62
     7
 10
33.978345391381438
 20
116.7688431040891
 30
0.0
  0
VERTEX
  5
AC0
  8
DATA
  6
CONTINUOUS
 62
     7
 10
33.978345391381438
 20
115.7688431040891
 30
0.0
  0
VERTEX
  5
AC1
  8
DATA
  6
CONTINUOUS
 62
     7
 10
32.978345391381438
 20
115.7688431040891
 30
0.0
  0
SEQEND
  5
AC2
  8
DATA
  6
CONTINUOUS
 62
     7
  0
POLYLINE
  5
4D0
  8
DATA
  6
CONTINUOUS
 62
     7
 66
     1
 10
0.0
 20
0.0
 30
0.0
 70
     1
  0
VERTEX
  5
AC3
  8
DATA
  6
CONTINUOUS
 62
     7
 10
30.257776530438001
 20
116.7688431040891
 30
0.0
  0
VERTEX
  5
AC4
  8
DATA
  6
CONTINUOUS
 62
     7
 10
31.257776530438001
 20
116.7688431040891
 30
0.0
  0
VERTEX
  5
AC5
  8
DATA
  6
CONTINUOUS
 62
     7
 10
31.257776530438001
 20
115.7688431040891
 30
0.0
  0
VERTEX
  5
AC6
  8
DATA
  6
CONTINUOUS
 62
     7
 10
30.257776530438001
 20
115.7688431040891
 30
0.0
  0
SEQEND
  5
AC7
  8
DATA
  6
CONTINUOUS
 62
     7
  0
POLYLINE
  5
4D7
  8
DATA
  6
CONTINUOUS
 62
     7
 66
     1
 10
0.0
 20
0.0
 30
0.0
 70
     1
  0
VERTEX
  5
AC8
  8
DATA
  6
CONTINUOUS
 62
     7
 10
32.978345391381438
 20
119.28769872538891
 30
0.0
  0
VERTEX
  5
AC9
  8
DATA
  6
CONTINUOUS
 62
     7
 10
33.978345391381438
 20
119.28769872538891
 30
0.0
  0
VERTEX
  5
ACA
  8
DATA
  6
CONTINUOUS
 62
     7
 10
33.978345391381438
 20
118.28769872538891
 30
0.0
  0
VERTEX
  5
ACB
  8
DATA
  6
CONTINUOUS
 62
     7
 10
32.978345391381438
 20
118.28769872538891
 30
0.0
  0
SEQEND
  5
ACC
  8
DATA
  6
CONTINUOUS
 62
     7
  0
POLYLINE
  5
4DE
  8
DATA
  6
CONTINUOUS
 62
     7
 66
     1
 10
0.0
 20
0.0
 30
0.0
 70
     1
  0
VERTEX
  5
ACD
  8
DATA
  6
CONTINUOUS
 62
     7
 10
30.257776530438001
 20
119.28769872538891
 30
0.0
  0
VERTEX
  5
ACE
  8
DATA
  6
CONTINUOUS
 62
     7
 10
31.257776530438001
 20
119.28769872538891
 30
0.0
  0
VERTEX
  5
ACF
  8
DATA
  6
CONTINUOUS
 62
     7
 10
31.257776530438001
 20
118.28769872538891
 30
0.0
  0
VERTEX
  5
AD0
  8
DATA
  6
CONTINUOUS
 62
     7
 10
30.257776530438001
 20
118.28769872538891
 30
0.0
  0
SEQEND
  5
AD1
  8
DATA
  6
CONTINUOUS
 62
     7
  0
LINE
  5
4E5
  8
DATA
  6
CONTINUOUS
 62
     7
 10
52.213432778856898
 20
114.69837922022521
 30
0.0
 11
51.654515581404638
 21
120.5483792202252
 31
0.0
  0
LINE
  5
4E6
  8
DATA
  6
CONTINUOUS
 62
     7
 10
28.322689142962659
 20
114.69837922022521
 30
0.0
 11
28.88160634041493
 21
120.5483792202252
 31
0.0
  0
ARC
  5
4E7
  8
DATA
  6
CONTINUOUS
 62
     7
 10
51.217965848101542
 20
114.603270914739
 30
0.0
 40
1.0
 50
270.0
 51
5.4575534851068142
  0
ARC
  5
4E8
  8
DATA
  6
CONTINUOUS
 62
     7
 10
29.318156073718018
 20
114.603270914739
 30
0.0
 40
0.9999999999999744
 50
174.5424465148931
 51
270.00000000000159
  0
ARC
  5
4E9
  8
DATA
  6
CONTINUOUS
 62
     7
 10
50.659048650649218
 20
120.45327091473899
 30
0.0
 40
1.000000000000032
 50
5.4575534851074012
 51
89.99999999999838
  0
ARC
  5
4EA
  8
DATA
  6
CONTINUOUS
 62
     7
 10
29.877073271170321
 20
120.45327091473899
 30
0.0
 40
1.000000000000014
 50
90.0
 51
174.54244651489569
  0
CIRCLE
  5
4EB
  8
DATA
  6
CONTINUOUS
 62
     7
 10
-29.984029139684889
 20
117.528270914739
 30
0.0
 40
1.175000000000068
  0
POLYLINE
  5
4EC
  8
DATA
  6
CONTINUOUS
 62
     7
 66
     1
 10
0.0
 20
0.0
 30
0.0
 70
     1
  0
VERTEX
  5
AD2
  8
DATA
  6
CONTINUOUS
 62
     7
 10
-29.984029139684889
 20
114.82827091473899
 30
0.0
  0
VERTEX
  5
AD3
  8
DATA
  6
CONTINUOUS
 62
     7
 10
-32.322297729902807
 20
116.178270914739
 30
0.0
  0
VERTEX
  5
AD4
  8
DATA
  6
CONTINUOUS
 62
     7
 10
-32.322297729902807
 20
118.87827091473901
 30
0.0
  0
VERTEX
  5
AD5
  8
DATA
  6
CONTINUOUS
 62
     7
 10
-29.984029139684889
 20
120.228270914739
 30
0.0
  0
VERTEX
  5
AD6
  8
DATA
  6
CONTINUOUS
 62
     7
 10
-27.64576054946685
 20
118.87827091473901
 30
0.0
  0
VERTEX
  5
AD7
  8
DATA
  6
CONTINUOUS
 62
     7
 10
-27.64576054946685
 20
116.178270914739
 30
0.0
  0
SEQEND
  5
AD8
  8
DATA
  6
CONTINUOUS
 62
     7
  0
CIRCLE
  5
4F5
  8
DATA
  6
CONTINUOUS
 62
     7
 10
2.5159708603150501
 20
117.528270914739
 30
0.0
 40
1.175000000000068
  0
POLYLINE
  5
4F6
  8
DATA
  6
CONTINUOUS
 62
     7
 66
     1
 10
0.0
 20
0.0
 30
0.0
 70
     1
  0
VERTEX
  5
AD9
  8
DATA
  6
CONTINUOUS
 62
     7
 10
2.5159708603150501
 20
114.82827091473899
 30
0.0
  0
VERTEX
  5
ADA
  8
DATA
  6
CONTINUOUS
 62
     7
 10
0.1777022700971287
 20
116.178270914739
 30
0.0
  0
VERTEX
  5
ADB
  8
DATA
  6
CONTINUOUS
 62
     7
 10
0.1777022700971287
 20
118.87827091473901
 30
0.0
  0
VERTEX
  5
ADC
  8
DATA
  6
CONTINUOUS
 62
     7
 10
2.5159708603150501
 20
120.228270914739
 30
0.0
  0
VERTEX
  5
ADD
  8
DATA
  6
CONTINUOUS
 62
     7
 10
4.8542394505330861
 20
118.87827091473901
 30
0.0
  0
VERTEX
  5
ADE
  8
DATA
  6
CONTINUOUS
 62
     7
 10
4.8542394505330861
 20
116.178270914739
 30
0.0
  0
SEQEND
  5
ADF
  8
DATA
  6
CONTINUOUS
 62
     7
  0
LINE
  5
4FF
  8
DATA
  6
CONTINUOUS
 62
     7
 10
-2.7820341518984568
 20
113.603270914739
 30
0.0
 11
-24.68184392628196
 21
113.603270914739
 31
0.0
  0
LINE
  5
500
  8
DATA
  6
CONTINUOUS
 62
     7
 10
-24.122926728829679
 20
121.45327091473899
 30
0.0
 11
-3.340951349350731
 21
121.45327091473899
 31
0.0
  0
POLYLINE
  5
501
  8
DATA
  6
CONTINUOUS
 62
     7
 66
     1
 10
0.0
 20
0.0
 30
0.0
 70
     1
  0
VERTEX
  5
AE0
  8
DATA
  6
CONTINUOUS
 62
     7
 10
-4.2618728679108671
 20
118.293270914739
 30
0.0
  0
VERTEX
  5
AE1
  8
DATA
  6
CONTINUOUS
 62
     7
 10
-2.731872867910865
 20
118.293270914739
 30
0.0
  0
VERTEX
  5
AE2
  8
DATA
  6
CONTINUOUS
 62
     7
 10
-2.731872867910865
 20
116.763270914739
 30
0.0
  0
VERTEX
  5
AE3
  8
DATA
  6
CONTINUOUS
 62
     7
 10
-4.2618728679108671
 20
116.763270914739
 30
0.0
  0
SEQEND
  5
AE4
  8
DATA
  6
CONTINUOUS
 62
     7
  0
POLYLINE
  5
508
  8
DATA
  6
CONTINUOUS
 62
     7
 66
     1
 10
0.0
 20
0.0
 30
0.0
 70
     1
  0
VERTEX
  5
AE5
  8
DATA
  6
CONTINUOUS
 62
     7
 10
-6.2618728679108671
 20
118.293270914739
 30
0.0
  0
VERTEX
  5
AE6
  8
DATA
  6
CONTINUOUS
 62
     7
 10
-4.731872867910865
 20
118.293270914739
 30
0.0
  0
VERTEX
  5
AE7
  8
DATA
  6
CONTINUOUS
 62
     7
 10
-4.731872867910865
 20
116.763270914739
 30
0.0
  0
VERTEX
  5
AE8
  8
DATA
  6
CONTINUOUS
 62
     7
 10
-6.2618728679108671
 20
116.763270914739
 30
0.0
  0
SEQEND
  5
AE9
  8
DATA
  6
CONTINUOUS
 62
     7
  0
POLYLINE
  5
50F
  8
DATA
  6
CONTINUOUS
 62
     7
 66
     1
 10
0.0
 20
0.0
 30
0.0
 70
     1
  0
VERTEX
  5
AEA
  8
DATA
  6
CONTINUOUS
 62
     7
 10
-8.2618728679108671
 20
118.293270914739
 30
0.0
  0
VERTEX
  5
AEB
  8
DATA
  6
CONTINUOUS
 62
     7
 10
-6.731872867910865
 20
118.293270914739
 30
0.0
  0
VERTEX
  5
AEC
  8
DATA
  6
CONTINUOUS
 62
     7
 10
-6.731872867910865
 20
116.763270914739
 30
0.0
  0
VERTEX
  5
AED
  8
DATA
  6
CONTINUOUS
 62
     7
 10
-8.2618728679108671
 20
116.763270914739
 30
0.0
  0
SEQEND
  5
AEE
  8
DATA
  6
CONTINUOUS
 62
     7
  0
POLYLINE
  5
516
  8
DATA
  6
CONTINUOUS
 62
     7
 66
     1
 10
0.0
 20
0.0
 30
0.0
 70
     1
  0
VERTEX
  5
AEF
  8
DATA
  6
CONTINUOUS
 62
     7
 10
-10.261872867910871
 20
118.293270914739
 30
0.0
  0
VERTEX
  5
AF0
  8
DATA
  6
CONTINUOUS
 62
     7
 10
-8.7318728679108677
 20
118.293270914739
 30
0.0
  0
VERTEX
  5
AF1
  8
DATA
  6
CONTINUOUS
 62
     7
 10
-8.7318728679108677
 20
116.763270914739
 30
0.0
  0
VERTEX
  5
AF2
  8
DATA
  6
CONTINUOUS
 62
     7
 10
-10.261872867910871
 20
116.763270914739
 30
0.0
  0
SEQEND
  5
AF3
  8
DATA
  6
CONTINUOUS
 62
     7
  0
POLYLINE
  5
51D
  8
DATA
  6
CONTINUOUS
 62
     7
 66
     1
 10
0.0
 20
0.0
 30
0.0
 70
     1
  0
VERTEX
  5
AF4
  8
DATA
  6
CONTINUOUS
 62
     7
 10
-12.261872867910871
 20
118.293270914739
 30
0.0
  0
VERTEX
  5
AF5
  8
DATA
  6
CONTINUOUS
 62
     7
 10
-10.731872867910861
 20
118.293270914739
 30
0.0
  0
VERTEX
  5
AF6
  8
DATA
  6
CONTINUOUS
 62
     7
 10
-10.731872867910861
 20
116.763270914739
 30
0.0
  0
VERTEX
  5
AF7
  8
DATA
  6
CONTINUOUS
 62
     7
 10
-12.261872867910871
 20
116.763270914739
 30
0.0
  0
SEQEND
  5
AF8
  8
DATA
  6
CONTINUOUS
 62
     7
  0
POLYLINE
  5
524
  8
DATA
  6
CONTINUOUS
 62
     7
 66
     1
 10
0.0
 20
0.0
 30
0.0
 70
     1
  0
VERTEX
  5
AF9
  8
DATA
  6
CONTINUOUS
 62
     7
 10
-14.26187286791086
 20
118.293270914739
 30
0.0
  0
VERTEX
  5
AFA
  8
DATA
  6
CONTINUOUS
 62
     7
 10
-12.731872867910861
 20
118.293270914739
 30
0.0
  0
VERTEX
  5
AFB
  8
DATA
  6
CONTINUOUS
 62
     7
 10
-12.731872867910861
 20
116.763270914739
 30
0.0
  0
VERTEX
  5
AFC
  8
DATA
  6
CONTINUOUS
 62
     7
 10
-14.26187286791086
 20
116.763270914739
 30
0.0
  0
SEQEND
  5
AFD
  8
DATA
  6
CONTINUOUS
 62
     7
  0
POLYLINE
  5
52B
  8
DATA
  6
CONTINUOUS
 62
     7
 66
     1
 10
0.0
 20
0.0
 30
0.0
 70
     1
  0
VERTEX
  5
AFE
  8
DATA
  6
CONTINUOUS
 62
     7
 10
-16.26187286791081
 20
118.293270914739
 30
0.0
  0
VERTEX
  5
AFF
  8
DATA
  6
CONTINUOUS
 62
     7
 10
-14.731872867910861
 20
118.293270914739
 30
0.0
  0
VERTEX
  5
B00
  8
DATA
  6
CONTINUOUS
 62
     7
 10
-14.731872867910861
 20
116.763270914739
 30
0.0
  0
VERTEX
  5
B01
  8
DATA
  6
CONTINUOUS
 62
     7
 10
-16.26187286791081
 20
116.763270914739
 30
0.0
  0
SEQEND
  5
B02
  8
DATA
  6
CONTINUOUS
 62
     7
  0
POLYLINE
  5
532
  8
DATA
  6
CONTINUOUS
 62
     7
 66
     1
 10
0.0
 20
0.0
 30
0.0
 70
     1
  0
VERTEX
  5
B03
  8
DATA
  6
CONTINUOUS
 62
     7
 10
-18.26187286791081
 20
118.293270914739
 30
0.0
  0
VERTEX
  5
B04
  8
DATA
  6
CONTINUOUS
 62
     7
 10
-16.731872867910798
 20
118.293270914739
 30
0.0
  0
VERTEX
  5
B05
  8
DATA
  6
CONTINUOUS
 62
     7
 10
-16.731872867910798
 20
116.763270914739
 30
0.0
  0
VERTEX
  5
B06
  8
DATA
  6
CONTINUOUS
 62
     7
 10
-18.26187286791081
 20
116.763270914739
 30
0.0
  0
SEQEND
  5
B07
  8
DATA
  6
CONTINUOUS
 62
     7
  0
POLYLINE
  5
539
  8
DATA
  6
CONTINUOUS
 62
     7
 66
     1
 10
0.0
 20
0.0
 30
0.0
 70
     1
  0
VERTEX
  5
B08
  8
DATA
  6
CONTINUOUS
 62
     7
 10
-4.2618728679108671
 20
116.2932709147389
 30
0.0
  0
VERTEX
  5
B09
  8
DATA
  6
CONTINUOUS
 62
     7
 10
-2.731872867910865
 20
116.2932709147389
 30
0.0
  0
VERTEX
  5
B0A
  8
DATA
  6
CONTINUOUS
 62
     7
 10
-2.731872867910865
 20
114.763270914739
 30
0.0
  0
VERTEX
  5
B0B
  8
DATA
  6
CONTINUOUS
 62
     7
 10
-4.2618728679108671
 20
114.763270914739
 30
0.0
  0
SEQEND
  5
B0C
  8
DATA
  6
CONTINUOUS
 62
     7
  0
POLYLINE
  5
540
  8
DATA
  6
CONTINUOUS
 62
     7
 66
     1
 10
0.0
 20
0.0
 30
0.0
 70
     1
  0
VERTEX
  5
B0D
  8
DATA
  6
CONTINUOUS
 62
     7
 10
-6.2618728679108671
 20
116.2932709147389
 30
0.0
  0
VERTEX
  5
B0E
  8
DATA
  6
CONTINUOUS
 62
     7
 10
-4.731872867910865
 20
116.2932709147389
 30
0.0
  0
VERTEX
  5
B0F
  8
DATA
  6
CONTINUOUS
 62
     7
 10
-4.731872867910865
 20
114.763270914739
 30
0.0
  0
VERTEX
  5
B10
  8
DATA
  6
CONTINUOUS
 62
     7
 10
-6.2618728679108671
 20
114.763270914739
 30
0.0
  0
SEQEND
  5
B11
  8
DATA
  6
CONTINUOUS
 62
     7
  0
POLYLINE
  5
547
  8
DATA
  6
CONTINUOUS
 62
     7
 66
     1
 10
0.0
 20
0.0
 30
0.0
 70
     1
  0
VERTEX
  5
B12
  8
DATA
  6
CONTINUOUS
 62
     7
 10
-8.2618728679108671
 20
116.2932709147389
 30
0.0
  0
VERTEX
  5
B13
  8
DATA
  6
CONTINUOUS
 62
     7
 10
-6.731872867910865
 20
116.2932709147389
 30
0.0
  0
VERTEX
  5
B14
  8
DATA
  6
CONTINUOUS
 62
     7
 10
-6.731872867910865
 20
114.763270914739
 30
0.0
  0
VERTEX
  5
B15
  8
DATA
  6
CONTINUOUS
 62
     7
 10
-8.2618728679108671
 20
114.763270914739
 30
0.0
  0
SEQEND
  5
B16
  8
DATA
  6
CONTINUOUS
 62
     7
  0
POLYLINE
  5
54E
  8
DATA
  6
CONTINUOUS
 62
     7
 66
     1
 10
0.0
 20
0.0
 30
0.0
 70
     1
  0
VERTEX
  5
B17
  8
DATA
  6
CONTINUOUS
 62
     7
 10
-10.261872867910871
 20
116.2932709147389
 30
0.0
  0
VERTEX
  5
B18
  8
DATA
  6
CONTINUOUS
 62
     7
 10
-8.7318728679108677
 20
116.2932709147389
 30
0.0
  0
VERTEX
  5
B19
  8
DATA
  6
CONTINUOUS
 62
     7
 10
-8.7318728679108677
 20
114.763270914739
 30
0.0
  0
VERTEX
  5
B1A
  8
DATA
  6
CONTINUOUS
 62
     7
 10
-10.261872867910871
 20
114.763270914739
 30
0.0
  0
SEQEND
  5
B1B
  8
DATA
  6
CONTINUOUS
 62
     7
  0
POLYLINE
  5
555
  8
DATA
  6
CONTINUOUS
 62
     7
 66
     1
 10
0.0
 20
0.0
 30
0.0
 70
     1
  0
VERTEX
  5
B1C
  8
DATA
  6
CONTINUOUS
 62
     7
 10
-12.261872867910871
 20
116.2932709147389
 30
0.0
  0
VERTEX
  5
B1D
  8
DATA
  6
CONTINUOUS
 62
     7
 10
-10.731872867910861
 20
116.2932709147389
 30
0.0
  0
VERTEX
  5
B1E
  8
DATA
  6
CONTINUOUS
 62
     7
 10
-10.731872867910861
 20
114.763270914739
 30
0.0
  0
VERTEX
  5
B1F
  8
DATA
  6
CONTINUOUS
 62
     7
 10
-12.261872867910871
 20
114.763270914739
 30
0.0
  0
SEQEND
  5
B20
  8
DATA
  6
CONTINUOUS
 62
     7
  0
POLYLINE
  5
55C
  8
DATA
  6
CONTINUOUS
 62
     7
 66
     1
 10
0.0
 20
0.0
 30
0.0
 70
     1
  0
VERTEX
  5
B21
  8
DATA
  6
CONTINUOUS
 62
     7
 10
-14.26187286791086
 20
116.2932709147389
 30
0.0
  0
VERTEX
  5
B22
  8
DATA
  6
CONTINUOUS
 62
     7
 10
-12.731872867910861
 20
116.2932709147389
 30
0.0
  0
VERTEX
  5
B23
  8
DATA
  6
CONTINUOUS
 62
     7
 10
-12.731872867910861
 20
114.763270914739
 30
0.0
  0
VERTEX
  5
B24
  8
DATA
  6
CONTINUOUS
 62
     7
 10
-14.26187286791086
 20
114.763270914739
 30
0.0
  0
SEQEND
  5
B25
  8
DATA
  6
CONTINUOUS
 62
     7
  0
POLYLINE
  5
563
  8
DATA
  6
CONTINUOUS
 62
     7
 66
     1
 10
0.0
 20
0.0
 30
0.0
 70
     1
  0
VERTEX
  5
B26
  8
DATA
  6
CONTINUOUS
 62
     7
 10
-16.26187286791081
 20
116.2932709147389
 30
0.0
  0
VERTEX
  5
B27
  8
DATA
  6
CONTINUOUS
 62
     7
 10
-14.731872867910861
 20
116.2932709147389
 30
0.0
  0
VERTEX
  5
B28
  8
DATA
  6
CONTINUOUS
 62
     7
 10
-14.731872867910861
 20
114.763270914739
 30
0.0
  0
VERTEX
  5
B29
  8
DATA
  6
CONTINUOUS
 62
     7
 10
-16.26187286791081
 20
114.763270914739
 30
0.0
  0
SEQEND
  5
B2A
  8
DATA
  6
CONTINUOUS
 62
     7
  0
POLYLINE
  5
56A
  8
DATA
  6
CONTINUOUS
 62
     7
 66
     1
 10
0.0
 20
0.0
 30
0.0
 70
     1
  0
VERTEX
  5
B2B
  8
DATA
  6
CONTINUOUS
 62
     7
 10
-18.26187286791081
 20
116.2932709147389
 30
0.0
  0
VERTEX
  5
B2C
  8
DATA
  6
CONTINUOUS
 62
     7
 10
-16.731872867910798
 20
116.2932709147389
 30
0.0
  0
VERTEX
  5
B2D
  8
DATA
  6
CONTINUOUS
 62
     7
 10
-16.731872867910798
 20
114.763270914739
 30
0.0
  0
VERTEX
  5
B2E
  8
DATA
  6
CONTINUOUS
 62
     7
 10
-18.26187286791081
 20
114.763270914739
 30
0.0
  0
SEQEND
  5
B2F
  8
DATA
  6
CONTINUOUS
 62
     7
  0
POLYLINE
  5
571
  8
DATA
  6
CONTINUOUS
 62
     7
 66
     1
 10
0.0
 20
0.0
 30
0.0
 70
     1
  0
VERTEX
  5
B30
  8
DATA
  6
CONTINUOUS
 62
     7
 10
-4.2618728679108671
 20
120.293270914739
 30
0.0
  0
VERTEX
  5
B31
  8
DATA
  6
CONTINUOUS
 62
     7
 10
-2.731872867910865
 20
120.293270914739
 30
0.0
  0
VERTEX
  5
B32
  8
DATA
  6
CONTINUOUS
 62
     7
 10
-2.731872867910865
 20
118.763270914739
 30
0.0
  0
VERTEX
  5
B33
  8
DATA
  6
CONTINUOUS
 62
     7
 10
-4.2618728679108671
 20
118.763270914739
 30
0.0
  0
SEQEND
  5
B34
  8
DATA
  6
CONTINUOUS
 62
     7
  0
POLYLINE
  5
578
  8
DATA
  6
CONTINUOUS
 62
     7
 66
     1
 10
0.0
 20
0.0
 30
0.0
 70
     1
  0
VERTEX
  5
B35
  8
DATA
  6
CONTINUOUS
 62
     7
 10
-6.2618728679108671
 20
120.293270914739
 30
0.0
  0
VERTEX
  5
B36
  8
DATA
  6
CONTINUOUS
 62
     7
 10
-4.731872867910865
 20
120.293270914739
 30
0.0
  0
VERTEX
  5
B37
  8
DATA
  6
CONTINUOUS
 62
     7
 10
-4.731872867910865
 20
118.763270914739
 30
0.0
  0
VERTEX
  5
B38
  8
DATA
  6
CONTINUOUS
 62
     7
 10
-6.2618728679108671
 20
118.763270914739
 30
0.0
  0
SEQEND
  5
B39
  8
DATA
  6
CONTINUOUS
 62
     7
  0
POLYLINE
  5
57F
  8
DATA
  6
CONTINUOUS
 62
     7
 66
     1
 10
0.0
 20
0.0
 30
0.0
 70
     1
  0
VERTEX
  5
B3A
  8
DATA
  6
CONTINUOUS
 62
     7
 10
-8.2618728679108671
 20
120.293270914739
 30
0.0
  0
VERTEX
  5
B3B
  8
DATA
  6
CONTINUOUS
 62
     7
 10
-6.731872867910865
 20
120.293270914739
 30
0.0
  0
VERTEX
  5
B3C
  8
DATA
  6
CONTINUOUS
 62
     7
 10
-6.731872867910865
 20
118.763270914739
 30
0.0
  0
VERTEX
  5
B3D
  8
DATA
  6
CONTINUOUS
 62
     7
 10
-8.2618728679108671
 20
118.763270914739
 30
0.0
  0
SEQEND
  5
B3E
  8
DATA
  6
CONTINUOUS
 62
     7
  0
POLYLINE
  5
586
  8
DATA
  6
CONTINUOUS
 62
     7
 66
     1
 10
0.0
 20
0.0
 30
0.0
 70
     1
  0
VERTEX
  5
B3F
  8
DATA
  6
CONTINUOUS
 62
     7
 10
-10.261872867910871
 20
120.293270914739
 30
0.0
  0
VERTEX
  5
B40
  8
DATA
  6
CONTINUOUS
 62
     7
 10
-8.7318728679108677
 20
120.293270914739
 30
0.0
  0
VERTEX
  5
B41
  8
DATA
  6
CONTINUOUS
 62
     7
 10
-8.7318728679108677
 20
118.763270914739
 30
0.0
  0
VERTEX
  5
B42
  8
DATA
  6
CONTINUOUS
 62
     7
 10
-10.261872867910871
 20
118.763270914739
 30
0.0
  0
SEQEND
  5
B43
  8
DATA
  6
CONTINUOUS
 62
     7
  0
POLYLINE
  5
58D
  8
DATA
  6
CONTINUOUS
 62
     7
 66
     1
 10
0.0
 20
0.0
 30
0.0
 70
     1
  0
VERTEX
  5
B44
  8
DATA
  6
CONTINUOUS
 62
     7
 10
-12.261872867910871
 20
120.293270914739
 30
0.0
  0
VERTEX
  5
B45
  8
DATA
  6
CONTINUOUS
 62
     7
 10
-10.731872867910861
 20
120.293270914739
 30
0.0
  0
VERTEX
  5
B46
  8
DATA
  6
CONTINUOUS
 62
     7
 10
-10.731872867910861
 20
118.763270914739
 30
0.0
  0
VERTEX
  5
B47
  8
DATA
  6
CONTINUOUS
 62
     7
 10
-12.261872867910871
 20
118.763270914739
 30
0.0
  0
SEQEND
  5
B48
  8
DATA
  6
CONTINUOUS
 62
     7
  0
POLYLINE
  5
594
  8
DATA
  6
CONTINUOUS
 62
     7
 66
     1
 10
0.0
 20
0.0
 30
0.0
 70
     1
  0
VERTEX
  5
B49
  8
DATA
  6
CONTINUOUS
 62
     7
 10
-14.26187286791086
 20
120.293270914739
 30
0.0
  0
VERTEX
  5
B4A
  8
DATA
  6
CONTINUOUS
 62
     7
 10
-12.731872867910861
 20
120.293270914739
 30
0.0
  0
VERTEX
  5
B4B
  8
DATA
  6
CONTINUOUS
 62
     7
 10
-12.731872867910861
 20
118.763270914739
 30
0.0
  0
VERTEX
  5
B4C
  8
DATA
  6
CONTINUOUS
 62
     7
 10
-14.26187286791086
 20
118.763270914739
 30
0.0
  0
SEQEND
  5
B4D
  8
DATA
  6
CONTINUOUS
 62
     7
  0
POLYLINE
  5
59B
  8
DATA
  6
CONTINUOUS
 62
     7
 66
     1
 10
0.0
 20
0.0
 30
0.0
 70
     1
  0
VERTEX
  5
B4E
  8
DATA
  6
CONTINUOUS
 62
     7
 10
-16.26187286791081
 20
120.293270914739
 30
0.0
  0
VERTEX
  5
B4F
  8
DATA
  6
CONTINUOUS
 62
     7
 10
-14.731872867910861
 20
120.293270914739
 30
0.0
  0
VERTEX
  5
B50
  8
DATA
  6
CONTINUOUS
 62
     7
 10
-14.731872867910861
 20
118.763270914739
 30
0.0
  0
VERTEX
  5
B51
  8
DATA
  6
CONTINUOUS
 62
     7
 10
-16.26187286791081
 20
118.763270914739
 30
0.0
  0
SEQEND
  5
B52
  8
DATA
  6
CONTINUOUS
 62
     7
  0
POLYLINE
  5
5A2
  8
DATA
  6
CONTINUOUS
 62
     7
 66
     1
 10
0.0
 20
0.0
 30
0.0
 70
     1
  0
VERTEX
  5
B53
  8
DATA
  6
CONTINUOUS
 62
     7
 10
-18.26187286791081
 20
120.293270914739
 30
0.0
  0
VERTEX
  5
B54
  8
DATA
  6
CONTINUOUS
 62
     7
 10
-16.731872867910798
 20
120.293270914739
 30
0.0
  0
VERTEX
  5
B55
  8
DATA
  6
CONTINUOUS
 62
     7
 10
-16.731872867910798
 20
118.763270914739
 30
0.0
  0
VERTEX
  5
B56
  8
DATA
  6
CONTINUOUS
 62
     7
 10
-18.26187286791081
 20
118.763270914739
 30
0.0
  0
SEQEND
  5
B57
  8
DATA
  6
CONTINUOUS
 62
     7
  0
POLYLINE
  5
5A9
  8
DATA
  6
CONTINUOUS
 62
     7
 66
     1
 10
0.0
 20
0.0
 30
0.0
  0
VERTEX
  5
B58
  8
DATA
  6
CONTINUOUS
 62
     7
 10
-22.28193903909029
 20
117.12827091473901
 30
0.0
  0
VERTEX
  5
B59
  8
DATA
  6
CONTINUOUS
 62
     7
 10
-24.381939039090291
 20
117.12827091473901
 30
0.0
  0
VERTEX
  5
B5A
  8
DATA
  6
CONTINUOUS
 62
     7
 10
-24.381939039090291
 20
117.928270914739
 30
0.0
  0
VERTEX
  5
B5B
  8
DATA
  6
CONTINUOUS
 62
     7
 10
-22.28193903909029
 20
117.928270914739
 30
0.0
  0
SEQEND
  5
B5C
  8
DATA
  6
CONTINUOUS
 62
     7
  0
POLYLINE
  5
5B0
  8
DATA
  6
CONTINUOUS
 62
     7
 66
     1
 10
0.0
 20
0.0
 30
0.0
  0
VERTEX
  5
B5D
  8
DATA
  6
CONTINUOUS
 62
     7
 10
-21.481939039090278
 20
117.928270914739
 30
0.0
  0
VERTEX
  5
B5E
  8
DATA
  6
CONTINUOUS
 62
     7
 10
-19.38193903909028
 20
117.928270914739
 30
0.0
  0
VERTEX
  5
B5F
  8
DATA
  6
CONTINUOUS
 62
     7
 10
-19.38193903909028
 20
117.12827091473901
 30
0.0
  0
VERTEX
  5
B60
  8
DATA
  6
CONTINUOUS
 62
     7
 10
-21.481939039090278
 20
117.12827091473901
 30
0.0
  0
SEQEND
  5
B61
  8
DATA
  6
CONTINUOUS
 62
     7
  0
POLYLINE
  5
5B7
  8
DATA
  6
CONTINUOUS
 62
     7
 66
     1
 10
0.0
 20
0.0
 30
0.0
  0
VERTEX
  5
B62
  8
DATA
  6
CONTINUOUS
 62
     7
 10
-22.28193903909029
 20
117.928270914739
 30
0.0
  0
VERTEX
  5
B63
  8
DATA
  6
CONTINUOUS
 62
     7
 10
-22.28193903909029
 20
120.028270914739
 30
0.0
  0
VERTEX
  5
B64
  8
DATA
  6
CONTINUOUS
 62
     7
 10
-21.481939039090278
 20
120.028270914739
 30
0.0
  0
VERTEX
  5
B65
  8
DATA
  6
CONTINUOUS
 62
     7
 10
-21.481939039090278
 20
117.928270914739
 30
0.0
  0
SEQEND
  5
B66
  8
DATA
  6
CONTINUOUS
 62
     7
  0
POLYLINE
  5
5BE
  8
DATA
  6
CONTINUOUS
 62
     7
 66
     1
 10
0.0
 20
0.0
 30
0.0
  0
VERTEX
  5
B67
  8
DATA
  6
CONTINUOUS
 62
     7
 10
-21.481939039090278
 20
117.12827091473901
 30
0.0
  0
VERTEX
  5
B68
  8
DATA
  6
CONTINUOUS
 62
     7
 10
-21.481939039090278
 20
115.028270914739
 30
0.0
  0
VERTEX
  5
B69
  8
DATA
  6
CONTINUOUS
 62
     7
 10
-22.28193903909029
 20
115.028270914739
 30
0.0
  0
VERTEX
  5
B6A
  8
DATA
  6
CONTINUOUS
 62
     7
 10
-22.28193903909029
 20
117.12827091473901
 30
0.0
  0
SEQEND
  5
B6B
  8
DATA
  6
CONTINUOUS
 62
     7
  0
POLYLINE
  5
5C5
  8
DATA
  6
CONTINUOUS
 62
     7
 66
     1
 10
0.0
 20
0.0
 30
0.0
 70
     1
  0
VERTEX
  5
B6C
  8
DATA
  6
CONTINUOUS
 62
     7
 10
-21.021654608618562
 20
116.7688431040891
 30
0.0
  0
VERTEX
  5
B6D
  8
DATA
  6
CONTINUOUS
 62
     7
 10
-20.021654608618562
 20
116.7688431040891
 30
0.0
  0
VERTEX
  5
B6E
  8
DATA
  6
CONTINUOUS
 62
     7
 10
-20.021654608618562
 20
115.7688431040891
 30
0.0
  0
VERTEX
  5
B6F
  8
DATA
  6
CONTINUOUS
 62
     7
 10
-21.021654608618562
 20
115.7688431040891
 30
0.0
  0
SEQEND
  5
B70
  8
DATA
  6
CONTINUOUS
 62
     7
  0
POLYLINE
  5
5CC
  8
DATA
  6
CONTINUOUS
 62
     7
 66
     1
 10
0.0
 20
0.0
 30
0.0
 70
     1
  0
VERTEX
  5
B71
  8
DATA
  6
CONTINUOUS
 62
     7
 10
-23.74222346956201
 20
116.7688431040891
 30
0.0
  0
VERTEX
  5
B72
  8
DATA
  6
CONTINUOUS
 62
     7
 10
-22.74222346956201
 20
116.7688431040891
 30
0.0
  0
VERTEX
  5
B73
  8
DATA
  6
CONTINUOUS
 62
     7
 10
-22.74222346956201
 20
115.7688431040891
 30
0.0
  0
VERTEX
  5
B74
  8
DATA
  6
CONTINUOUS
 62
     7
 10
-23.74222346956201
 20
115.7688431040891
 30
0.0
  0
SEQEND
  5
B75
  8
DATA
  6
CONTINUOUS
 62
     7
  0
POLYLINE
  5
5D3
  8
DATA
  6
CONTINUOUS
 62
     7
 66
     1
 10
0.0
 20
0.0
 30
0.0
 70
     1
  0
VERTEX
  5
B76
  8
DATA
  6
CONTINUOUS
 62
     7
 10
-21.021654608618562
 20
119.28769872538891
 30
0.0
  0
VERTEX
  5
B77
  8
DATA
  6
CONTINUOUS
 62
     7
 10
-20.021654608618562
 20
119.28769872538891
 30
0.0
  0
VERTEX
  5
B78
  8
DATA
  6
CONTINUOUS
 62
     7
 10
-20.021654608618562
 20
118.28769872538891
 30
0.0
  0
VERTEX
  5
B79
  8
DATA
  6
CONTINUOUS
 62
     7
 10
-21.021654608618562
 20
118.28769872538891
 30
0.0
  0
SEQEND
  5
B7A
  8
DATA
  6
CONTINUOUS
 62
     7
  0
POLYLINE
  5
5DA
  8
DATA
  6
CONTINUOUS
 62
     7
 66
     1
 10
0.0
 20
0.0
 30
0.0
 70
     1
  0
VERTEX
  5
B7B
  8
DATA
  6
CONTINUOUS
 62
     7
 10
-23.74222346956201
 20
119.28769872538891
 30
0.0
  0
VERTEX
  5
B7C
  8
DATA
  6
CONTINUOUS
 62
     7
 10
-22.74222346956201
 20
119.28769872538891
 30
0.0
  0
VERTEX
  5
B7D
  8
DATA
  6
CONTINUOUS
 62
     7
 10
-22.74222346956201
 20
118.28769872538891
 30
0.0
  0
VERTEX
  5
B7E
  8
DATA
  6
CONTINUOUS
 62
     7
 10
-23.74222346956201
 20
118.28769872538891
 30
0.0
  0
SEQEND
  5
B7F
  8
DATA
  6
CONTINUOUS
 62
     7
  0
LINE
  5
5E1
  8
DATA
  6
CONTINUOUS
 62
     7
 10
-1.786567221143101
 20
114.69837922022521
 30
0.0
 11
-2.3454844185953481
 21
120.5483792202252
 31
0.0
  0
LINE
  5
5E2
  8
DATA
  6
CONTINUOUS
 62
     7
 10
-25.677310857037341
 20
114.69837922022521
 30
0.0
 11
-25.11839365958507
 21
120.5483792202252
 31
0.0
  0
ARC
  5
5E3
  8
DATA
  6
CONTINUOUS
 62
     7
 10
-2.7820341518984568
 20
114.603270914739
 30
0.0
 40
1.0
 50
270.0
 51
5.4575534851068701
  0
ARC
  5
5E4
  8
DATA
  6
CONTINUOUS
 62
     7
 10
-24.681843926281989
 20
114.603270914739
 30
0.0
 40
0.9999999999999744
 50
174.5424465148931
 51
270.00000000000159
  0
ARC
  5
5E5
  8
DATA
  6
CONTINUOUS
 62
     7
 10
-3.3409513493507599
 20
120.45327091473899
 30
0.0
 40
1.000000000000032
 50
5.4575534851074012
 51
89.99999999999838
  0
ARC
  5
5E6
  8
DATA
  6
CONTINUOUS
 62
     7
 10
-24.122926728829679
 20
120.45327091473899
 30
0.0
 40
1.000000000000014
 50
90.0
 51
174.54244651489569
  0
CIRCLE
  5
5E7
  8
DATA
  6
CONTINUOUS
 62
     7
 10
-79.018846819236671
 20
117.5077994728329
 30
0.0
 40
1.175000000000068
  0
POLYLINE
  5
5E8
  8
DATA
  6
CONTINUOUS
 62
     7
 66
     1
 10
0.0
 20
0.0
 30
0.0
 70
     1
  0
VERTEX
  5
B80
  8
DATA
  6
CONTINUOUS
 62
     7
 10
-79.018846819236671
 20
114.8077994728329
 30
0.0
  0
VERTEX
  5
B81
  8
DATA
  6
CONTINUOUS
 62
     7
 10
-76.680578229018749
 20
116.15779947283291
 30
0.0
  0
VERTEX
  5
B82
  8
DATA
  6
CONTINUOUS
 62
     7
 10
-76.680578229018749
 20
118.8577994728328
 30
0.0
  0
VERTEX
  5
B83
  8
DATA
  6
CONTINUOUS
 62
     7
 10
-79.018846819236671
 20
120.2077994728329
 30
0.0
  0
VERTEX
  5
B84
  8
DATA
  6
CONTINUOUS
 62
     7
 10
-81.357115409454721
 20
118.8577994728328
 30
0.0
  0
VERTEX
  5
B85
  8
DATA
  6
CONTINUOUS
 62
     7
 10
-81.357115409454721
 20
116.15779947283291
 30
0.0
  0
SEQEND
  5
B86
  8
DATA
  6
CONTINUOUS
 62
     7
  0
CIRCLE
  5
5F1
  8
DATA
  6
CONTINUOUS
 62
     7
 10
-54.018846819236678
 20
117.5077994728329
 30
0.0
 40
1.175000000000068
  0
POLYLINE
  5
5F2
  8
DATA
  6
CONTINUOUS
 62
     7
 66
     1
 10
0.0
 20
0.0
 30
0.0
 70
     1
  0
VERTEX
  5
B87
  8
DATA
  6
CONTINUOUS
 62
     7
 10
-54.018846819236678
 20
114.8077994728329
 30
0.0
  0
VERTEX
  5
B88
  8
DATA
  6
CONTINUOUS
 62
     7
 10
-51.680578229018771
 20
116.15779947283291
 30
0.0
  0
VERTEX
  5
B89
  8
DATA
  6
CONTINUOUS
 62
     7
 10
-51.680578229018771
 20
118.8577994728328
 30
0.0
  0
VERTEX
  5
B8A
  8
DATA
  6
CONTINUOUS
 62
     7
 10
-54.018846819236678
 20
120.2077994728329
 30
0.0
  0
VERTEX
  5
B8B
  8
DATA
  6
CONTINUOUS
 62
     7
 10
-56.357115409454721
 20
118.8577994728328
 30
0.0
  0
VERTEX
  5
B8C
  8
DATA
  6
CONTINUOUS
 62
     7
 10
-56.357115409454721
 20
116.15779947283291
 30
0.0
  0
SEQEND
  5
B8D
  8
DATA
  6
CONTINUOUS
 62
     7
  0
LINE
  5
5FB
  8
DATA
  6
CONTINUOUS
 62
     7
 10
-72.120610029425237
 20
121.5077994728329
 30
0.0
 11
-60.917083609048021
 21
121.5077994728329
 31
0.0
  0
LINE
  5
5FC
  8
DATA
  6
CONTINUOUS
 62
     7
 10
-60.104583609048127
 20
113.5077994728328
 30
0.0
 11
-72.933110029425237
 21
113.5077994728328
 31
0.0
  0
LINE
  5
5FD
  8
DATA
  6
CONTINUOUS
 62
     7
 10
-59.533866761796467
 20
120.3239271052159
 30
0.0
 11
-58.721366761796581
 21
115.1239271052159
 31
0.0
  0
LINE
  5
5FE
  8
DATA
  6
CONTINUOUS
 62
     7
 10
-74.316326876676783
 20
115.1239271052159
 30
0.0
 11
-73.503826876676783
 21
120.3239271052159
 31
0.0
  0
CIRCLE
  5
5FF
  8
DATA
  6
CONTINUOUS
 62
     7
 10
-66.492217048761702
 20
115.8714913016792
 30
0.0
 40
0.5
  0
ARC
  5
600
  8
DATA
  6
CONTINUOUS
 62
     7
 10
-60.104583609048127
 20
114.90779947283291
 30
0.0
 40
1.400000000000019
 50
270.0
 51
8.8806591505205574
  0
ARC
  5
601
  8
DATA
  6
CONTINUOUS
 62
     7
 10
-72.933110029425237
 20
114.90779947283291
 30
0.0
 40
1.400000000000019
 50
171.1193408494795
 51
270.0
  0
ARC
  5
602
  8
DATA
  6
CONTINUOUS
 62
     7
 10
-60.917083609048021
 20
120.1077994728328
 30
0.0
 40
1.400000000000015
 50
8.8806591505193833
 51
89.999999999999986
  0
ARC
  5
603
  8
DATA
  6
CONTINUOUS
 62
     7
 10
-72.120610029425237
 20
120.1077994728328
 30
0.0
 40
1.399999999999991
 50
90.0
 51
171.1193408494795
  0
CIRCLE
  5
604
  8
DATA
  6
CONTINUOUS
 62
     7
 10
-63.992217048761702
 20
115.8714913016792
 30
0.0
 40
0.5
  0
CIRCLE
  5
605
  8
DATA
  6
CONTINUOUS
 62
     7
 10
-61.492217048761702
 20
115.8714913016792
 30
0.0
 40
0.5
  0
CIRCLE
  5
606
  8
DATA
  6
CONTINUOUS
 62
     7
 10
-68.992217048761702
 20
115.8714913016792
 30
0.0
 40
0.5
  0
CIRCLE
  5
607
  8
DATA
  6
CONTINUOUS
 62
     7
 10
-71.492217048761702
 20
115.8714913016792
 30
0.0
 40
0.5
  0
CIRCLE
  5
608
  8
DATA
  6
CONTINUOUS
 62
     7
 10
-65.296705872690453
 20
119.4900117204419
 30
0.0
 40
0.5
  0
CIRCLE
  5
609
  8
DATA
  6
CONTINUOUS
 62
     7
 10
-62.796705872690453
 20
119.4900117204419
 30
0.0
 40
0.5
  0
CIRCLE
  5
60A
  8
DATA
  6
CONTINUOUS
 62
     7
 10
-67.796705872690453
 20
119.4900117204419
 30
0.0
 40
0.5
  0
CIRCLE
  5
60B
  8
DATA
  6
CONTINUOUS
 62
     7
 10
-70.296705872690453
 20
119.4900117204419
 30
0.0
 40
0.5
  0
TEXT
  5
60C
  8
DATA
 62
     7
 10
-61.230576789602843
 20
127.0708479394645
 30
0.0
 40
2.4432617187500001
  1
RS-232
 50
180.0
 41
0.7
 11
-61.230576789602843
 21
124.62758622071451
 31
0.0
 73
     3
  0
TEXT
  5
60D
  8
DATA
 62
     7
 10
-6.6442316131479346
 20
127.0708479394645
 30
0.0
 40
2.4432617187500001
  1
DVI Out
 50
180.0
 41
0.7
 11
-6.6442316131479364
 21
124.62758622071451
 31
0.0
 73
     3
  0
TEXT
  5
60E
  8
DATA
 62
     7
 10
44.927717832081441
 20
127.0708479394645
 30
0.0
 40
2.4432617187500001
  1
In 4
 50
180.0
 41
0.7
 11
44.927717832081441
 21
124.62758622071451
 31
0.0
 73
     3
  0
TEXT
  5
60F
  8
DATA
 62
     7
 10
90.927717832081484
 20
127.0708479394645
 30
0.0
 40
2.4432617187500001
  1
In 3
 50
180.0
 41
0.7
 11
90.927717832081484
 21
124.62758622071451
 31
0.0
 73
     3
  0
TEXT
  5
610
  8
DATA
 62
     7
 10
136.9277178320815
 20
127.0708479394645
 30
0.0
 40
2.4432617187500001
  1
In 2
 50
180.0
 41
0.7
 11
136.9277178320815
 21
124.62758622071451
 31
0.0
 73
     3
  0
TEXT
  5
611
  8
DATA
 62
     7
 10
181.6064794071024
 20
127.0708479394645
 30
0.0
 40
2.4432617187500001
  1
In 1
 50
180.0
 41
0.7
 11
181.6064794071024
 21
124.62758622071451
 31
0.0
 73
     3
  0
CIRCLE
  5
612
  8
DATA
  6
CONTINUOUS
 62
     7
 10
-93.500000000266667
 20
117.50000000010471
 30
0.0
 40
3.0
  0
CIRCLE
  5
613
  8
DATA
  6
CONTINUOUS
 62
     7
 10
-93.500000000266667
 20
117.50000000010471
 30
0.0
 40
1.5999999999999941
  0
TEXT
  5
614
  8
DATA
 62
     7
 10
-88.796559959572903
 20
127.0708479394645
 30
0.0
 40
2.4432617187500001
  1
Ext-IR
 50
180.0
 41
0.7
 11
-88.796559959572903
 21
124.62758622071451
 31
0.0
 73
     3
  0
CIRCLE
  5
615
  8
DATA
  6
CONTINUOUS
 62
     7
 10
223.49999999973329
 20
117.50000000010471
 30
0.0
 40
3.25
  0
CIRCLE
  5
616
  8
DATA
  6
CONTINUOUS
 62
     7
 10
223.49999999973329
 20
117.50000000010471
 30
0.0
 40
0.5
  0
TEXT
  5
617
  8
DATA
 62
     7
 10
227.6683978390875
 20
127.0708479394645
 30
0.0
 40
2.4432617187500001
  1
5V DC
 50
180.0
 41
0.7
 11
227.6683978390875
 21
124.62758622071451
 31
0.0
 73
     3
  0
LINE
  5
618
  8
DATA
  6
CONTINUOUS
 62
     7
 10
159.7095705905561
 20
64.500000000106283
 30
0.0
 11
159.7095705905561
 21
59.500000000106283
 31
0.0
  0
LINE
  5
619
  8
DATA
  6
CONTINUOUS
 62
     7
 10
164.386107770992
 20
64.500000000106283
 30
0.0
 11
164.386107770992
 21
59.500000000106283
 31
0.0
  0
LINE
  5
61A
  8
DATA
  6
CONTINUOUS
 62
     7
 10
192.20957059055621
 20
64.500000000106283
 30
0.0
 11
192.20957059055621
 21
59.500000000106283
 31
0.0
  0
LINE
  5
61B
  8
DATA
  6
CONTINUOUS
 62
     7
 10
196.8861077709924
 20
64.500000000106283
 30
0.0
 11
196.8861077709924
 21
59.500000000106283
 31
0.0
  0
LINE
  5
61C
  8
DATA
  6
CONTINUOUS
 62
     7
 10
166.3524673628269
 20
64.500000000106283
 30
0.0
 11
166.3524673628269
 21
59.500000000106283
 31
0.0
  0
LINE
  5
61D
  8
DATA
  6
CONTINUOUS
 62
     7
 10
190.2294673993697
 20
64.500000000106283
 30
0.0
 11
190.2294673993697
 21
59.500000000106283
 31
0.0
  0
LINE
  5
61E
  8
DATA
  6
CONTINUOUS
 62
     7
 10
196.8861077709924
 20
64.500000000106283
 30
0.0
 11
192.20957059055621
 21
64.500000000106283
 31
0.0
  0
LINE
  5
61F
  8
DATA
  6
CONTINUOUS
 62
     7
 10
190.2294673993697
 20
64.500000000106283
 30
0.0
 11
166.3524673628269
 21
64.500000000106283
 31
0.0
  0
LINE
  5
620
  8
DATA
  6
CONTINUOUS
 62
     7
 10
164.386107770992
 20
64.500000000106283
 30
0.0
 11
159.7095705905561
 21
64.500000000106283
 31
0.0
  0
LINE
  5
621
  8
DATA
  6
CONTINUOUS
 62
     7
 10
113.7095705905561
 20
64.500000000106283
 30
0.0
 11
113.7095705905561
 21
59.500000000106283
 31
0.0
  0
LINE
  5
622
  8
DATA
  6
CONTINUOUS
 62
     7
 10
118.386107770992
 20
64.500000000106283
 30
0.0
 11
118.386107770992
 21
59.500000000106283
 31
0.0
  0
LINE
  5
623
  8
DATA
  6
CONTINUOUS
 62
     7
 10
146.20957059055621
 20
64.500000000106283
 30
0.0
 11
146.20957059055621
 21
59.500000000106283
 31
0.0
  0
LINE
  5
624
  8
DATA
  6
CONTINUOUS
 62
     7
 10
150.88610777099231
 20
64.500000000106283
 30
0.0
 11
150.88610777099231
 21
59.500000000106283
 31
0.0
  0
LINE
  5
625
  8
DATA
  6
CONTINUOUS
 62
     7
 10
120.3524673628269
 20
64.500000000106283
 30
0.0
 11
120.3524673628269
 21
59.500000000106283
 31
0.0
  0
LINE
  5
626
  8
DATA
  6
CONTINUOUS
 62
     7
 10
144.22946739936961
 20
64.500000000106283
 30
0.0
 11
144.22946739936961
 21
59.500000000106283
 31
0.0
  0
LINE
  5
627
  8
DATA
  6
CONTINUOUS
 62
     7
 10
150.88610777099231
 20
64.500000000106283
 30
0.0
 11
146.20957059055621
 21
64.500000000106283
 31
0.0
  0
LINE
  5
628
  8
DATA
  6
CONTINUOUS
 62
     7
 10
144.22946739936961
 20
64.500000000106283
 30
0.0
 11
120.3524673628269
 21
64.500000000106283
 31
0.0
  0
LINE
  5
629
  8
DATA
  6
CONTINUOUS
 62
     7
 10
118.386107770992
 20
64.500000000106283
 30
0.0
 11
113.7095705905561
 21
64.500000000106283
 31
0.0
  0
LINE
  5
62A
  8
DATA
  6
CONTINUOUS
 62
     7
 10
67.709570590556098
 20
64.500000000106283
 30
0.0
 11
67.709570590556098
 21
59.500000000106283
 31
0.0
  0
LINE
  5
62B
  8
DATA
  6
CONTINUOUS
 62
     7
 10
72.386107770992055
 20
64.500000000106283
 30
0.0
 11
72.386107770992055
 21
59.500000000106283
 31
0.0
  0
LINE
  5
62C
  8
DATA
  6
CONTINUOUS
 62
     7
 10
100.2095705905561
 20
64.500000000106283
 30
0.0
 11
100.2095705905561
 21
59.500000000106283
 31
0.0
  0
LINE
  5
62D
  8
DATA
  6
CONTINUOUS
 62
     7
 10
104.8861077709923
 20
64.500000000106283
 30
0.0
 11
104.8861077709923
 21
59.500000000106283
 31
0.0
  0
LINE
  5
62E
  8
DATA
  6
CONTINUOUS
 62
     7
 10
74.352467362826914
 20
64.500000000106283
 30
0.0
 11
74.352467362826914
 21
59.500000000106283
 31
0.0
  0
LINE
  5
62F
  8
DATA
  6
CONTINUOUS
 62
     7
 10
98.229467399369653
 20
64.500000000106283
 30
0.0
 11
98.229467399369653
 21
59.500000000106283
 31
0.0
  0
LINE
  5
630
  8
DATA
  6
CONTINUOUS
 62
     7
 10
104.8861077709923
 20
64.500000000106283
 30
0.0
 11
100.2095705905561
 21
64.500000000106283
 31
0.0
  0
LINE
  5
631
  8
DATA
  6
CONTINUOUS
 62
     7
 10
98.229467399369653
 20
64.500000000106283
 30
0.0
 11
74.352467362826914
 21
64.500000000106283
 31
0.0
  0
LINE
  5
632
  8
DATA
  6
CONTINUOUS
 62
     7
 10
72.386107770992055
 20
64.500000000106283
 30
0.0
 11
67.709570590556098
 21
64.500000000106283
 31
0.0
  0
LINE
  5
633
  8
DATA
  6
CONTINUOUS
 62
     7
 10
21.709570590556108
 20
64.500000000106283
 30
0.0
 11
21.709570590556108
 21
59.500000000106283
 31
0.0
  0
LINE
  5
634
  8
DATA
  6
CONTINUOUS
 62
     7
 10
26.386107770992069
 20
64.500000000106283
 30
0.0
 11
26.386107770992069
 21
59.500000000106283
 31
0.0
  0
LINE
  5
635
  8
DATA
  6
CONTINUOUS
 62
     7
 10
54.209570590556183
 20
64.500000000106283
 30
0.0
 11
54.209570590556183
 21
59.500000000106283
 31
0.0
  0
LINE
  5
636
  8
DATA
  6
CONTINUOUS
 62
     7
 10
58.886107770992311
 20
64.500000000106283
 30
0.0
 11
58.886107770992311
 21
59.500000000106283
 31
0.0
  0
LINE
  5
637
  8
DATA
  6
CONTINUOUS
 62
     7
 10
28.352467362826939
 20
64.500000000106283
 30
0.0
 11
28.352467362826939
 21
59.500000000106283
 31
0.0
  0
LINE
  5
638
  8
DATA
  6
CONTINUOUS
 62
     7
 10
52.229467399369682
 20
64.500000000106283
 30
0.0
 11
52.229467399369682
 21
59.500000000106283
 31
0.0
  0
LINE
  5
639
  8
DATA
  6
CONTINUOUS
 62
     7
 10
58.886107770992311
 20
64.500000000106283
 30
0.0
 11
54.209570590556183
 21
64.500000000106283
 31
0.0
  0
LINE
  5
63A
  8
DATA
  6
CONTINUOUS
 62
     7
 10
52.229467399369682
 20
64.500000000106283
 30
0.0
 11
28.352467362826939
 21
64.500000000106283
 31
0.0
  0
LINE
  5
63B
  8
DATA
  6
CONTINUOUS
 62
     7
 10
26.386107770992069
 20
64.500000000106283
 30
0.0
 11
21.709570590556108
 21
64.500000000106283
 31
0.0
  0
LINE
  5
63C
  8
DATA
  6
CONTINUOUS
 62
     7
 10
-32.290429409443888
 20
64.500000000106283
 30
0.0
 11
-32.290429409443888
 21
59.500000000106283
 31
0.0
  0
LINE
  5
63D
  8
DATA
  6
CONTINUOUS
 62
     7
 10
-27.613892229007931
 20
64.500000000106283
 30
0.0
 11
-27.613892229007931
 21
59.500000000106283
 31
0.0
  0
LINE
  5
63E
  8
DATA
  6
CONTINUOUS
 62
     7
 10
0.2095705905561971
 20
64.500000000106283
 30
0.0
 11
0.2095705905561971
 21
59.500000000106283
 31
0.0
  0
LINE
  5
63F
  8
DATA
  6
CONTINUOUS
 62
     7
 10
4.8861077709923251
 20
64.500000000106283
 30
0.0
 11
4.8861077709923251
 21
59.500000000106283
 31
0.0
  0
LINE
  5
640
  8
DATA
  6
CONTINUOUS
 62
     7
 10
-25.647532637173061
 20
64.500000000106283
 30
0.0
 11
-25.647532637173061
 21
59.500000000106283
 31
0.0
  0
LINE
  5
641
  8
DATA
  6
CONTINUOUS
 62
     7
 10
-1.770532600630317
 20
64.500000000106283
 30
0.0
 11
-1.770532600630317
 21
59.500000000106283
 31
0.0
  0
LINE
  5
642
  8
DATA
  6
CONTINUOUS
 62
     7
 10
4.8861077709923251
 20
64.500000000106283
 30
0.0
 11
0.2095705905561971
 21
64.500000000106283
 31
0.0
  0
LINE
  5
643
  8
DATA
  6
CONTINUOUS
 62
     7
 10
-1.770532600630317
 20
64.500000000106283
 30
0.0
 11
-25.647532637173061
 21
64.500000000106283
 31
0.0
  0
LINE
  5
644
  8
DATA
  6
CONTINUOUS
 62
     7
 10
-27.613892229007931
 20
64.500000000106283
 30
0.0
 11
-32.290429409443888
 21
64.500000000106283
 31
0.0
  0
LINE
  5
645
  8
DATA
  6
CONTINUOUS
 62
     7
 10
-96.500000000266652
 20
60.500000000106269
 30
0.0
 11
-96.500000000266652
 21
59.500000000106283
 31
0.0
  0
LINE
  5
646
  8
DATA
  6
CONTINUOUS
 62
     7
 10
-90.500000000266652
 20
60.500000000106269
 30
0.0
 11
-90.500000000266652
 21
59.500000000106283
 31
0.0
  0
LINE
  5
647
  8
DATA
  6
CONTINUOUS
 62
     7
 10
-96.500000000266652
 20
60.500000000106269
 30
0.0
 11
-90.500000000266652
 21
60.500000000106269
 31
0.0
  0
LINE
  5
648
  8
DATA
  6
CONTINUOUS
 62
     7
 10
-51.680578229018771
 20
64.500000000106283
 30
0.0
 11
-56.357115409454721
 21
64.500000000106283
 31
0.0
  0
LINE
  5
649
  8
DATA
  6
CONTINUOUS
 62
     7
 10
-58.70518041252371
 20
64.500000000106283
 30
0.0
 11
-74.330270212532014
 21
64.500000000106283
 31
0.0
  0
LINE
  5
64A
  8
DATA
  6
CONTINUOUS
 62
     7
 10
-76.680578229018749
 20
64.500000000106283
 30
0.0
 11
-81.357115409454721
 21
64.500000000106283
 31
0.0
  0
LINE
  5
64B
  8
DATA
  6
CONTINUOUS
 62
     7
 10
-81.357115409454721
 20
64.500000000106283
 30
0.0
 11
-81.357115409454721
 21
59.500000000106283
 31
0.0
  0
LINE
  5
64C
  8
DATA
  6
CONTINUOUS
 62
     7
 10
-76.680578229018749
 20
64.500000000106283
 30
0.0
 11
-76.680578229018749
 21
59.500000000106283
 31
0.0
  0
LINE
  5
64D
  8
DATA
  6
CONTINUOUS
 62
     7
 10
-56.357115409454721
 20
64.500000000106283
 30
0.0
 11
-56.357115409454721
 21
59.500000000106283
 31
0.0
  0
LINE
  5
64E
  8
DATA
  6
CONTINUOUS
 62
     7
 10
-51.680578229018771
 20
64.500000000106283
 30
0.0
 11
-51.680578229018771
 21
59.500000000106283
 31
0.0
  0
LINE
  5
64F
  8
DATA
  6
CONTINUOUS
 62
     7
 10
-74.330270212532014
 20
64.500000000106283
 30
0.0
 11
-74.330270212532014
 21
59.500000000106283
 31
0.0
  0
LINE
  5
650
  8
DATA
  6
CONTINUOUS
 62
     7
 10
-58.70518041252371
 20
64.500000000106283
 30
0.0
 11
-58.70518041252371
 21
59.500000000106283
 31
0.0
  0
LINE
  5
651
  8
DATA
  6
CONTINUOUS
 62
     7
 10
351.99999999983339
 20
-70.863956521660739
 30
0.0
 11
351.99999999983339
 21
-78.71395652166251
 31
0.0
  0
LINE
  5
652
  8
DATA
  6
CONTINUOUS
 62
     7
 10
346.99999999983339
 20
-72.08895652166251
 30
0.0
 11
351.99999999983339
 21
-72.08895652166251
 31
0.0
  0
LINE
  5
653
  8
DATA
  6
CONTINUOUS
 62
     7
 10
346.99999999983339
 20
-77.488956521662487
 30
0.0
 11
351.99999999983339
 21
-77.488956521662487
 31
0.0
  0
LINE
  5
654
  8
DATA
  6
CONTINUOUS
 62
     7
 10
346.99999999983339
 20
-70.863956521660739
 30
0.0
 11
351.99999999983339
 21
-70.863956521660569
 31
0.0
  0
LINE
  5
655
  8
DATA
  6
CONTINUOUS
 62
     7
 10
346.99999999983339
 20
-78.71395652166251
 30
0.0
 11
351.99999999983339
 21
-78.71395652166251
 31
0.0
  0
LINE
  5
656
  8
DATA
  6
CONTINUOUS
 62
     7
 10
275.99999999973329
 20
-85.699999999893706
 30
0.0
 11
275.99999999973329
 21
-59.299999999893707
 31
0.0
  0
LINE
  5
657
  8
DATA
  6
CONTINUOUS
 62
     7
 10
345.99999999973329
 20
-85.699999999893706
 30
0.0
 11
345.99999999973329
 21
-58.499999999893703
 31
0.0
  0
LINE
  5
658
  8
DATA
  6
CONTINUOUS
 62
     7
 10
282.99999999973329
 20
-58.499999999893703
 30
0.0
 11
282.99999999973329
 21
-57.499999999893703
 31
0.0
  0
LINE
  5
659
  8
DATA
  6
CONTINUOUS
 62
     7
 10
280.99999999973329
 20
-87.499999999893703
 30
0.0
 11
280.99999999973329
 21
-86.499999999893703
 31
0.0
  0
LINE
  5
65A
  8
DATA
  6
CONTINUOUS
 62
     7
 10
276.79999999973342
 20
-86.499999999893703
 30
0.0
 11
280.99999999973329
 21
-86.499999999893703
 31
0.0
  0
ARC
  5
65B
  8
DATA
  6
CONTINUOUS
 62
     7
 10
275.79999999973342
 20
-58.299999999893721
 30
0.0
 40
0.8000000000000113
 50
90.0
 51
180.0
  0
ARC
  5
65C
  8
DATA
  6
CONTINUOUS
 62
     7
 10
276.79999999973342
 20
-59.299999999893707
 30
0.0
 40
0.8000000000000113
 50
90.0
 51
180.0
  0
ARC
  5
65D
  8
DATA
  6
CONTINUOUS
 62
     7
 10
276.79999999973342
 20
-85.699999999893706
 30
0.0
 40
0.8000000000000113
 50
180.0
 51
270.0
  0
ARC
  5
65E
  8
DATA
  6
CONTINUOUS
 62
     7
 10
275.79999999973342
 20
-86.699999999893706
 30
0.0
 40
0.8000000000000113
 50
180.0
 51
270.0
  0
LINE
  5
65F
  8
DATA
  6
CONTINUOUS
 62
     7
 10
334.99999999973329
 20
-87.499999999893703
 30
0.0
 11
334.99999999973329
 21
-86.499999999893703
 31
0.0
  0
LINE
  5
660
  8
DATA
  6
CONTINUOUS
 62
     7
 10
345.19999999973328
 20
-86.499999999893703
 30
0.0
 11
334.99999999973329
 21
-86.499999999893703
 31
0.0
  0
ARC
  5
661
  8
DATA
  6
CONTINUOUS
 62
     7
 10
345.19999999973328
 20
-85.699999999893706
 30
0.0
 40
0.8000000000000113
 50
270.0
 51
0.0
  0
ARC
  5
662
  8
DATA
  6
CONTINUOUS
 62
     7
 10
346.19999999973328
 20
-86.699999999893706
 30
0.0
 40
0.8000000000000113
 50
270.0
 51
0.0
  0
CIRCLE
  5
663
  8
DATA
  6
CONTINUOUS
 62
     7
 10
287.49999999973329
 20
-80.499999999893703
 30
0.0
 40
2.4250000000000109
  0
LINE
  5
664
  8
DATA
  6
CONTINUOUS
 62
     7
 10
287.49999999973329
 20
-81.912090648542005
 30
0.0
 11
287.49999999973329
 21
-79.087909351245401
 31
0.0
  0
LINE
  5
665
  8
DATA
  6
CONTINUOUS
 62
     7
 10
286.08790935108499
 20
-80.499999999893703
 30
0.0
 11
288.91209064838159
 21
-80.499999999893703
 31
0.0
  0
CIRCLE
  5
666
  8
DATA
  6
CONTINUOUS
 62
     7
 10
287.49999999973329
 20
-64.499999999893703
 30
0.0
 40
2.4250000000000109
  0
LINE
  5
667
  8
DATA
  6
CONTINUOUS
 62
     7
 10
287.49999999973329
 20
-65.912090648542005
 30
0.0
 11
287.49999999973329
 21
-63.087909351245393
 31
0.0
  0
LINE
  5
668
  8
DATA
  6
CONTINUOUS
 62
     7
 10
286.08790935108499
 20
-64.499999999893703
 30
0.0
 11
288.91209064838159
 21
-64.499999999893703
 31
0.0
  0
CIRCLE
  5
669
  8
DATA
  6
CONTINUOUS
 62
     7
 10
325.49999999973329
 20
-80.499999999893703
 30
0.0
 40
2.4250000000000109
  0
LINE
  5
66A
  8
DATA
  6
CONTINUOUS
 62
     7
 10
325.49999999973329
 20
-81.912090648542005
 30
0.0
 11
325.49999999973329
 21
-79.087909351245401
 31
0.0
  0
LINE
  5
66B
  8
DATA
  6
CONTINUOUS
 62
     7
 10
324.0879093510851
 20
-80.499999999893703
 30
0.0
 11
326.91209064838159
 21
-80.499999999893703
 31
0.0
  0
LINE
  5
66C
  8
DATA
  6
CONTINUOUS
 62
     7
 10
-112.5000000002666
 20
246.9999999998326
 30
0.0
 11
-112.5000000002666
 21
174.9999999998328
 31
0.0
  0
LINE
  5
66D
  8
DATA
  6
CONTINUOUS
 62
     7
 10
242.49999999973329
 20
246.9999999998326
 30
0.0
 11
242.49999999973329
 21
174.9999999998328
 31
0.0
  0
LINE
  5
66E
  8
DATA
  6
CONTINUOUS
 62
     7
 10
-112.5000000002666
 20
246.9999999998326
 30
0.0
 11
242.49999999973329
 21
246.9999999998326
 31
0.0
  0
LINE
  5
66F
  8
DATA
  6
CONTINUOUS
 62
     7
 10
-112.5000000002666
 20
174.9999999998328
 30
0.0
 11
242.49999999973329
 21
174.9999999998328
 31
0.0
  0
LINE
  5
670
  8
DATA
  6
CONTINUOUS
 62
     7
 10
55.749999999733362
 20
251.9999999998326
 30
0.0
 11
65.249999999733348
 21
251.9999999998326
 31
0.0
  0
LINE
  5
671
  8
DATA
  6
CONTINUOUS
 62
     7
 10
85.749999999733333
 20
251.9999999998326
 30
0.0
 11
95.249999999733348
 21
251.9999999998326
 31
0.0
  0
LINE
  5
672
  8
DATA
  6
CONTINUOUS
 62
     7
 10
115.7499999997333
 20
251.9999999998326
 30
0.0
 11
125.2499999997333
 21
251.9999999998326
 31
0.0
  0
LINE
  5
673
  8
DATA
  6
CONTINUOUS
 62
     7
 10
145.74999999973329
 20
251.9999999998326
 30
0.0
 11
155.2499999997334
 21
251.9999999998326
 31
0.0
  0
LINE
  5
674
  8
DATA
  6
CONTINUOUS
 62
     7
 10
55.749999999733362
 20
251.9999999998326
 30
0.0
 11
55.749999999733362
 21
246.9999999998326
 31
0.0
  0
LINE
  5
675
  8
DATA
  6
CONTINUOUS
 62
     7
 10
65.249999999733348
 20
251.9999999998326
 30
0.0
 11
65.249999999733348
 21
246.9999999998326
 31
0.0
  0
LINE
  5
676
  8
DATA
  6
CONTINUOUS
 62
     7
 10
85.749999999733333
 20
251.9999999998326
 30
0.0
 11
85.749999999733333
 21
246.9999999998326
 31
0.0
  0
LINE
  5
677
  8
DATA
  6
CONTINUOUS
 62
     7
 10
95.249999999733348
 20
251.9999999998326
 30
0.0
 11
95.249999999733348
 21
246.9999999998326
 31
0.0
  0
LINE
  5
678
  8
DATA
  6
CONTINUOUS
 62
     7
 10
115.7499999997333
 20
251.9999999998326
 30
0.0
 11
115.7499999997333
 21
246.9999999998326
 31
0.0
  0
LINE
  5
679
  8
DATA
  6
CONTINUOUS
 62
     7
 10
125.2499999997333
 20
251.9999999998326
 30
0.0
 11
125.2499999997333
 21
246.9999999998326
 31
0.0
  0
LINE
  5
67A
  8
DATA
  6
CONTINUOUS
 62
     7
 10
145.74999999973329
 20
251.9999999998326
 30
0.0
 11
145.74999999973329
 21
246.9999999998326
 31
0.0
  0
LINE
  5
67B
  8
DATA
  6
CONTINUOUS
 62
     7
 10
155.2499999997334
 20
251.9999999998326
 30
0.0
 11
155.2499999997334
 21
246.9999999998326
 31
0.0
  0
ARC
  5
67C
  8
DATA
  6
CONTINUOUS
 62
     7
 10
220.49999999973329
 20
246.7979766783283
 30
0.0
 40
1.499999999999984
 50
7.740244291153429
 51
172.2597557088466
  0
ARC
  5
67D
  8
DATA
  6
CONTINUOUS
 62
     7
 10
-70.500000000266624
 20
246.7979766783283
 30
0.0
 40
1.399999999999999
 50
8.2968832206941414
 51
171.70311677930579
  0
ARC
  5
67E
  8
DATA
  6
CONTINUOUS
 62
     7
 10
-55.500000000266631
 20
246.7979766783283
 30
0.0
 40
1.399999999999999
 50
8.2968832206859151
 51
171.70311677931409
  0
ARC
  5
67F
  8
DATA
  6
CONTINUOUS
 62
     7
 10
-40.500000000266638
 20
246.7979766783283
 30
0.0
 40
1.399999999999999
 50
8.2968832206859151
 51
171.70311677931409
  0
ARC
  5
680
  8
DATA
  6
CONTINUOUS
 62
     7
 10
-25.500000000266638
 20
246.7979766783283
 30
0.0
 40
1.3999999999999999
 50
8.2968832207023642
 51
171.70311677929769
  0
LINE
  5
681
  8
DATA
  6
CONTINUOUS
 62
     7
 10
159.7095705905561
 20
169.9999999998328
 30
0.0
 11
159.7095705905561
 21
174.9999999998328
 31
0.0
  0
LINE
  5
682
  8
DATA
  6
CONTINUOUS
 62
     7
 10
164.386107770992
 20
169.9999999998328
 30
0.0
 11
164.386107770992
 21
174.9999999998328
 31
0.0
  0
LINE
  5
683
  8
DATA
  6
CONTINUOUS
 62
     7
 10
192.20957059055621
 20
169.9999999998328
 30
0.0
 11
192.20957059055621
 21
174.9999999998328
 31
0.0
  0
LINE
  5
684
  8
DATA
  6
CONTINUOUS
 62
     7
 10
196.8861077709924
 20
169.9999999998328
 30
0.0
 11
196.8861077709924
 21
174.9999999998328
 31
0.0
  0
LINE
  5
685
  8
DATA
  6
CONTINUOUS
 62
     7
 10
166.3524673628269
 20
169.9999999998328
 30
0.0
 11
166.3524673628269
 21
174.9999999998328
 31
0.0
  0
LINE
  5
686
  8
DATA
  6
CONTINUOUS
 62
     7
 10
190.2294673993697
 20
169.9999999998328
 30
0.0
 11
190.2294673993697
 21
174.9999999998328
 31
0.0
  0
LINE
  5
687
  8
DATA
  6
CONTINUOUS
 62
     7
 10
196.8861077709924
 20
169.9999999998328
 30
0.0
 11
192.20957059055621
 21
169.9999999998328
 31
0.0
  0
LINE
  5
688
  8
DATA
  6
CONTINUOUS
 62
     7
 10
190.2294673993697
 20
169.9999999998328
 30
0.0
 11
166.3524673628269
 21
169.9999999998328
 31
0.0
  0
LINE
  5
689
  8
DATA
  6
CONTINUOUS
 62
     7
 10
164.386107770992
 20
169.9999999998328
 30
0.0
 11
159.7095705905561
 21
169.9999999998328
 31
0.0
  0
LINE
  5
68A
  8
DATA
  6
CONTINUOUS
 62
     7
 10
113.7095705905561
 20
169.9999999998328
 30
0.0
 11
113.7095705905561
 21
174.9999999998328
 31
0.0
  0
LINE
  5
68B
  8
DATA
  6
CONTINUOUS
 62
     7
 10
118.386107770992
 20
169.9999999998328
 30
0.0
 11
118.386107770992
 21
174.9999999998328
 31
0.0
  0
LINE
  5
68C
  8
DATA
  6
CONTINUOUS
 62
     7
 10
146.20957059055621
 20
169.9999999998328
 30
0.0
 11
146.20957059055621
 21
174.9999999998328
 31
0.0
  0
LINE
  5
68D
  8
DATA
  6
CONTINUOUS
 62
     7
 10
150.88610777099231
 20
169.9999999998328
 30
0.0
 11
150.88610777099231
 21
174.9999999998328
 31
0.0
  0
LINE
  5
68E
  8
DATA
  6
CONTINUOUS
 62
     7
 10
120.3524673628269
 20
169.9999999998328
 30
0.0
 11
120.3524673628269
 21
174.9999999998328
 31
0.0
  0
LINE
  5
68F
  8
DATA
  6
CONTINUOUS
 62
     7
 10
144.22946739936961
 20
169.9999999998328
 30
0.0
 11
144.22946739936961
 21
174.9999999998328
 31
0.0
  0
LINE
  5
690
  8
DATA
  6
CONTINUOUS
 62
     7
 10
150.88610777099231
 20
169.9999999998328
 30
0.0
 11
146.20957059055621
 21
169.9999999998328
 31
0.0
  0
LINE
  5
691
  8
DATA
  6
CONTINUOUS
 62
     7
 10
144.22946739936961
 20
169.9999999998328
 30
0.0
 11
120.3524673628269
 21
169.9999999998328
 31
0.0
  0
LINE
  5
692
  8
DATA
  6
CONTINUOUS
 62
     7
 10
118.386107770992
 20
169.9999999998328
 30
0.0
 11
113.7095705905561
 21
169.9999999998328
 31
0.0
  0
LINE
  5
693
  8
DATA
  6
CONTINUOUS
 62
     7
 10
67.709570590556098
 20
169.9999999998328
 30
0.0
 11
67.709570590556098
 21
174.9999999998328
 31
0.0
  0
LINE
  5
694
  8
DATA
  6
CONTINUOUS
 62
     7
 10
72.386107770992055
 20
169.9999999998328
 30
0.0
 11
72.386107770992055
 21
174.9999999998328
 31
0.0
  0
LINE
  5
695
  8
DATA
  6
CONTINUOUS
 62
     7
 10
100.2095705905561
 20
169.9999999998328
 30
0.0
 11
100.2095705905561
 21
174.9999999998328
 31
0.0
  0
LINE
  5
696
  8
DATA
  6
CONTINUOUS
 62
     7
 10
104.8861077709923
 20
169.9999999998328
 30
0.0
 11
104.8861077709923
 21
174.9999999998328
 31
0.0
  0
LINE
  5
697
  8
DATA
  6
CONTINUOUS
 62
     7
 10
74.352467362826914
 20
169.9999999998328
 30
0.0
 11
74.352467362826914
 21
174.9999999998328
 31
0.0
  0
LINE
  5
698
  8
DATA
  6
CONTINUOUS
 62
     7
 10
98.229467399369653
 20
169.9999999998328
 30
0.0
 11
98.229467399369653
 21
174.9999999998328
 31
0.0
  0
LINE
  5
699
  8
DATA
  6
CONTINUOUS
 62
     7
 10
104.8861077709923
 20
169.9999999998328
 30
0.0
 11
100.2095705905561
 21
169.9999999998328
 31
0.0
  0
LINE
  5
69A
  8
DATA
  6
CONTINUOUS
 62
     7
 10
98.229467399369653
 20
169.9999999998328
 30
0.0
 11
74.352467362826914
 21
169.9999999998328
 31
0.0
  0
LINE
  5
69B
  8
DATA
  6
CONTINUOUS
 62
     7
 10
72.386107770992055
 20
169.9999999998328
 30
0.0
 11
67.709570590556098
 21
169.9999999998328
 31
0.0
  0
LINE
  5
69C
  8
DATA
  6
CONTINUOUS
 62
     7
 10
21.709570590556108
 20
169.9999999998328
 30
0.0
 11
21.709570590556108
 21
174.9999999998328
 31
0.0
  0
LINE
  5
69D
  8
DATA
  6
CONTINUOUS
 62
     7
 10
26.386107770992069
 20
169.9999999998328
 30
0.0
 11
26.386107770992069
 21
174.9999999998328
 31
0.0
  0
LINE
  5
69E
  8
DATA
  6
CONTINUOUS
 62
     7
 10
54.209570590556183
 20
169.9999999998328
 30
0.0
 11
54.209570590556183
 21
174.9999999998328
 31
0.0
  0
LINE
  5
69F
  8
DATA
  6
CONTINUOUS
 62
     7
 10
58.886107770992311
 20
169.9999999998328
 30
0.0
 11
58.886107770992311
 21
174.9999999998328
 31
0.0
  0
LINE
  5
6A0
  8
DATA
  6
CONTINUOUS
 62
     7
 10
28.352467362826939
 20
169.9999999998328
 30
0.0
 11
28.352467362826939
 21
174.9999999998328
 31
0.0
  0
LINE
  5
6A1
  8
DATA
  6
CONTINUOUS
 62
     7
 10
52.229467399369682
 20
169.9999999998328
 30
0.0
 11
52.229467399369682
 21
174.9999999998328
 31
0.0
  0
LINE
  5
6A2
  8
DATA
  6
CONTINUOUS
 62
     7
 10
58.886107770992311
 20
169.9999999998328
 30
0.0
 11
54.209570590556183
 21
169.9999999998328
 31
0.0
  0
LINE
  5
6A3
  8
DATA
  6
CONTINUOUS
 62
     7
 10
52.229467399369682
 20
169.9999999998328
 30
0.0
 11
28.352467362826939
 21
169.9999999998328
 31
0.0
  0
LINE
  5
6A4
  8
DATA
  6
CONTINUOUS
 62
     7
 10
26.386107770992069
 20
169.9999999998328
 30
0.0
 11
21.709570590556108
 21
169.9999999998328
 31
0.0
  0
LINE
  5
6A5
  8
DATA
  6
CONTINUOUS
 62
     7
 10
-32.290429409443888
 20
169.9999999998328
 30
0.0
 11
-32.290429409443888
 21
174.9999999998328
 31
0.0
  0
LINE
  5
6A6
  8
DATA
  6
CONTINUOUS
 62
     7
 10
-27.613892229007931
 20
169.9999999998328
 30
0.0
 11
-27.613892229007931
 21
174.9999999998328
 31
0.0
  0
LINE
  5
6A7
  8
DATA
  6
CONTINUOUS
 62
     7
 10
0.2095705905561971
 20
169.9999999998328
 30
0.0
 11
0.2095705905561971
 21
174.9999999998328
 31
0.0
  0
LINE
  5
6A8
  8
DATA
  6
CONTINUOUS
 62
     7
 10
4.8861077709923251
 20
169.9999999998328
 30
0.0
 11
4.8861077709923251
 21
174.9999999998328
 31
0.0
  0
LINE
  5
6A9
  8
DATA
  6
CONTINUOUS
 62
     7
 10
-25.647532637173061
 20
169.9999999998328
 30
0.0
 11
-25.647532637173061
 21
174.9999999998328
 31
0.0
  0
LINE
  5
6AA
  8
DATA
  6
CONTINUOUS
 62
     7
 10
-1.770532600630317
 20
169.9999999998328
 30
0.0
 11
-1.770532600630317
 21
174.9999999998328
 31
0.0
  0
LINE
  5
6AB
  8
DATA
  6
CONTINUOUS
 62
     7
 10
4.8861077709923251
 20
169.9999999998328
 30
0.0
 11
0.2095705905561971
 21
169.9999999998328
 31
0.0
  0
LINE
  5
6AC
  8
DATA
  6
CONTINUOUS
 62
     7
 10
-1.770532600630317
 20
169.9999999998328
 30
0.0
 11
-25.647532637173061
 21
169.9999999998328
 31
0.0
  0
LINE
  5
6AD
  8
DATA
  6
CONTINUOUS
 62
     7
 10
-27.613892229007931
 20
169.9999999998328
 30
0.0
 11
-32.290429409443888
 21
169.9999999998328
 31
0.0
  0
LINE
  5
6AE
  8
DATA
  6
CONTINUOUS
 62
     7
 10
-96.500000000266652
 20
173.9999999998328
 30
0.0
 11
-96.500000000266652
 21
174.9999999998328
 31
0.0
  0
LINE
  5
6AF
  8
DATA
  6
CONTINUOUS
 62
     7
 10
-90.500000000266652
 20
173.9999999998328
 30
0.0
 11
-90.500000000266652
 21
174.9999999998328
 31
0.0
  0
LINE
  5
6B0
  8
DATA
  6
CONTINUOUS
 62
     7
 10
-96.500000000266652
 20
173.9999999998328
 30
0.0
 11
-90.500000000266652
 21
173.9999999998328
 31
0.0
  0
LINE
  5
6B1
  8
DATA
  6
CONTINUOUS
 62
     7
 10
-51.680578229018771
 20
169.9999999998328
 30
0.0
 11
-56.357115409454721
 21
169.9999999998328
 31
0.0
  0
LINE
  5
6B2
  8
DATA
  6
CONTINUOUS
 62
     7
 10
-58.70518041252371
 20
169.9999999998328
 30
0.0
 11
-74.330270212532014
 21
169.9999999998328
 31
0.0
  0
LINE
  5
6B3
  8
DATA
  6
CONTINUOUS
 62
     7
 10
-76.680578229018749
 20
169.9999999998328
 30
0.0
 11
-81.357115409454721
 21
169.9999999998328
 31
0.0
  0
LINE
  5
6B4
  8
DATA
  6
CONTINUOUS
 62
     7
 10
-81.357115409454721
 20
169.9999999998328
 30
0.0
 11
-81.357115409454721
 21
174.9999999998328
 31
0.0
  0
LINE
  5
6B5
  8
DATA
  6
CONTINUOUS
 62
     7
 10
-76.680578229018749
 20
169.9999999998328
 30
0.0
 11
-76.680578229018749
 21
174.9999999998328
 31
0.0
  0
LINE
  5
6B6
  8
DATA
  6
CONTINUOUS
 62
     7
 10
-56.357115409454721
 20
169.9999999998328
 30
0.0
 11
-56.357115409454721
 21
174.9999999998328
 31
0.0
  0
LINE
  5
6B7
  8
DATA
  6
CONTINUOUS
 62
     7
 10
-51.680578229018771
 20
169.9999999998328
 30
0.0
 11
-51.680578229018771
 21
174.9999999998328
 31
0.0
  0
LINE
  5
6B8
  8
DATA
  6
CONTINUOUS
 62
     7
 10
-74.330270212532014
 20
169.9999999998328
 30
0.0
 11
-74.330270212532014
 21
174.9999999998328
 31
0.0
  0
LINE
  5
6B9
  8
DATA
  6
CONTINUOUS
 62
     7
 10
-58.70518041252371
 20
169.9999999998328
 30
0.0
 11
-58.70518041252371
 21
174.9999999998328
 31
0.0
  0
LINE
  5
6BA
  8
DATA
  6
CONTINUOUS
 62
     7
 10
-112.5000000002666
 20
186.9999999998328
 30
0.0
 11
242.49999999973329
 21
186.9999999998328
 31
0.0
  0
CIRCLE
  5
6BB
  8
DATA
  6
CONTINUOUS
 62
     7
 10
-103.5000000002666
 20
238.4999999998326
 30
0.0
 40
6.5
  0
CIRCLE
  5
6BC
  8
DATA
  6
CONTINUOUS
 62
     7
 10
-103.5000000002666
 20
238.4999999998326
 30
0.0
 40
5.0
  0
CIRCLE
  5
6BD
  8
DATA
  6
CONTINUOUS
 62
     7
 10
233.49999999973329
 20
238.4999999998326
 30
0.0
 40
6.5
  0
CIRCLE
  5
6BE
  8
DATA
  6
CONTINUOUS
 62
     7
 10
233.49999999973329
 20
238.4999999998326
 30
0.0
 40
5.0
  0
CIRCLE
  5
6BF
  8
DATA
  6
CONTINUOUS
 62
     7
 10
-103.5000000002666
 20
197.4417133326904
 30
0.0
 40
6.5
  0
CIRCLE
  5
6C0
  8
DATA
  6
CONTINUOUS
 62
     7
 10
-103.5000000002666
 20
197.4417133326904
 30
0.0
 40
5.0
  0
CIRCLE
  5
6C1
  8
DATA
  6
CONTINUOUS
 62
     7
 10
233.49999999973329
 20
197.4417133326904
 30
0.0
 40
6.5
  0
CIRCLE
  5
6C2
  8
DATA
  6
CONTINUOUS
 62
     7
 10
233.49999999973329
 20
197.4417133326904
 30
0.0
 40
5.0
  0
LINE
  5
6C3
  8
DATA
  6
CONTINUOUS
 62
     7
 10
-111.0000000002666
 20
239.9999999998326
 30
0.0
 11
-111.0000000002666
 21
186.9999999998328
 31
0.0
  0
LINE
  5
6C4
  8
DATA
  6
CONTINUOUS
 62
     7
 10
240.99999999973329
 20
239.9999999998326
 30
0.0
 11
240.99999999973329
 21
186.9999999998328
 31
0.0
  0
LINE
  5
6C5
  8
DATA
  6
CONTINUOUS
 62
     7
 10
-112.5000000002666
 20
239.9999999998326
 30
0.0
 11
-111.0000000002666
 21
239.9999999998326
 31
0.0
  0
LINE
  5
6C6
  8
DATA
  6
CONTINUOUS
 62
     7
 10
240.99999999973329
 20
239.9999999998326
 30
0.0
 11
242.49999999973329
 21
239.9999999998326
 31
0.0
  0
CIRCLE
  5
6C7
  8
DATA
  6
CONTINUOUS
 62
     7
 10
-84.000000000266624
 20
181.70901388649321
 30
0.0
 40
2.5
  0
LINE
  5
6C8
  8
DATA
  6
CONTINUOUS
 62
     7
 10
-84.000000000266624
 20
180.30754788449809
 30
0.0
 11
-84.000000000266624
 21
183.11047988848819
 31
0.0
  0
LINE
  5
6C9
  8
DATA
  6
CONTINUOUS
 62
     7
 10
-82.598533998271591
 20
181.70901388649321
 30
0.0
 11
-85.401466002261657
 21
181.70901388649321
 31
0.0
  0
CIRCLE
  5
6CA
  8
DATA
  6
CONTINUOUS
 62
     7
 10
18.999999999733362
 20
181.70901388649321
 30
0.0
 40
2.5
  0
LINE
  5
6CB
  8
DATA
  6
CONTINUOUS
 62
     7
 10
18.999999999733362
 20
180.30754788449809
 30
0.0
 11
18.999999999733362
 21
183.11047988848819
 31
0.0
  0
LINE
  5
6CC
  8
DATA
  6
CONTINUOUS
 62
     7
 10
20.401466001728391
 20
181.70901388649321
 30
0.0
 11
17.598533997738329
 21
181.70901388649321
 31
0.0
  0
CIRCLE
  5
6CD
  8
DATA
  6
CONTINUOUS
 62
     7
 10
110.9999999997333
 20
181.70901388649321
 30
0.0
 40
2.5
  0
LINE
  5
6CE
  8
DATA
  6
CONTINUOUS
 62
     7
 10
110.9999999997333
 20
180.30754788449809
 30
0.0
 11
110.9999999997333
 21
183.11047988848819
 31
0.0
  0
LINE
  5
6CF
  8
DATA
  6
CONTINUOUS
 62
     7
 10
112.40146600172839
 20
181.70901388649321
 30
0.0
 11
109.5985339977383
 21
181.70901388649321
 31
0.0
  0
CIRCLE
  5
6D0
  8
DATA
  6
CONTINUOUS
 62
     7
 10
213.99999999973329
 20
181.70901388649321
 30
0.0
 40
2.5
  0
LINE
  5
6D1
  8
DATA
  6
CONTINUOUS
 62
     7
 10
213.99999999973329
 20
180.30754788449809
 30
0.0
 11
213.99999999973329
 21
183.11047988848819
 31
0.0
  0
LINE
  5
6D2
  8
DATA
  6
CONTINUOUS
 62
     7
 10
215.40146600172841
 20
181.70901388649321
 30
0.0
 11
212.5985339977384
 21
181.70901388649321
 31
0.0
  0
LINE
  5
6D3
  8
DATA
  6
CONTINUOUS
 62
     7
 10
-80.205151895270774
 20
231.97669273886891
 30
0.0
 11
-80.205151895270774
 21
210.97669273886891
 31
0.0
  0
LINE
  5
6D4
  8
DATA
  6
CONTINUOUS
 62
     7
 10
-86.505151895270842
 20
231.97669273886891
 30
0.0
 11
-86.505151895270842
 21
210.97669273886891
 31
0.0
  0
LINE
  5
6D5
  8
DATA
  6
CONTINUOUS
 62
     7
 10
-86.505151895270842
 20
231.97669273886891
 30
0.0
 11
-80.205151895270774
 21
231.97669273886891
 31
0.0
  0
LINE
  5
6D6
  8
DATA
  6
CONTINUOUS
 62
     7
 10
-86.505151895270842
 20
210.97669273886891
 30
0.0
 11
-80.205151895270774
 21
210.97669273886891
 31
0.0
  0
POLYLINE
  5
6D7
  8
DATA
  6
CONTINUOUS
 62
     7
 66
     1
 10
0.0
 20
0.0
 30
0.0
 70
     1
  0
VERTEX
  5
B8E
  8
DATA
  6
CONTINUOUS
 62
     7
 10
-84.227454459139182
 20
230.73234107227461
 30
0.0
  0
VERTEX
  5
B8F
  8
DATA
  6
CONTINUOUS
 62
     7
 10
-82.227454459139182
 20
230.73234107227461
 30
0.0
  0
VERTEX
  5
B90
  8
DATA
  6
CONTINUOUS
 62
     7
 10
-82.227454459139182
 20
229.8323410722746
 30
0.0
  0
VERTEX
  5
B91
  8
DATA
  6
CONTINUOUS
 62
     7
 10
-84.227454459139182
 20
229.8323410722746
 30
0.0
  0
SEQEND
  5
B92
  8
DATA
  6
CONTINUOUS
 62
     7
  0
POLYLINE
  5
6DE
  8
DATA
  6
CONTINUOUS
 62
     7
 66
     1
 10
0.0
 20
0.0
 30
0.0
 70
     1
  0
VERTEX
  5
B93
  8
DATA
  6
CONTINUOUS
 62
     7
 10
-84.227454459139182
 20
228.23234107227461
 30
0.0
  0
VERTEX
  5
B94
  8
DATA
  6
CONTINUOUS
 62
     7
 10
-82.227454459139182
 20
228.23234107227461
 30
0.0
  0
VERTEX
  5
B95
  8
DATA
  6
CONTINUOUS
 62
     7
 10
-82.227454459139182
 20
227.3323410722746
 30
0.0
  0
VERTEX
  5
B96
  8
DATA
  6
CONTINUOUS
 62
     7
 10
-84.227454459139182
 20
227.3323410722746
 30
0.0
  0
SEQEND
  5
B97
  8
DATA
  6
CONTINUOUS
 62
     7
  0
POLYLINE
  5
6E5
  8
DATA
  6
CONTINUOUS
 62
     7
 66
     1
 10
0.0
 20
0.0
 30
0.0
 70
     1
  0
VERTEX
  5
B98
  8
DATA
  6
CONTINUOUS
 62
     7
 10
-84.227454459139182
 20
225.73234107227461
 30
0.0
  0
VERTEX
  5
B99
  8
DATA
  6
CONTINUOUS
 62
     7
 10
-82.227454459139182
 20
225.73234107227461
 30
0.0
  0
VERTEX
  5
B9A
  8
DATA
  6
CONTINUOUS
 62
     7
 10
-82.227454459139182
 20
224.8323410722746
 30
0.0
  0
VERTEX
  5
B9B
  8
DATA
  6
CONTINUOUS
 62
     7
 10
-84.227454459139182
 20
224.8323410722746
 30
0.0
  0
SEQEND
  5
B9C
  8
DATA
  6
CONTINUOUS
 62
     7
  0
POLYLINE
  5
6EC
  8
DATA
  6
CONTINUOUS
 62
     7
 66
     1
 10
0.0
 20
0.0
 30
0.0
 70
     1
  0
VERTEX
  5
B9D
  8
DATA
  6
CONTINUOUS
 62
     7
 10
-84.227454459139182
 20
223.23234107227461
 30
0.0
  0
VERTEX
  5
B9E
  8
DATA
  6
CONTINUOUS
 62
     7
 10
-82.227454459139182
 20
223.23234107227461
 30
0.0
  0
VERTEX
  5
B9F
  8
DATA
  6
CONTINUOUS
 62
     7
 10
-82.227454459139182
 20
222.3323410722746
 30
0.0
  0
VERTEX
  5
BA0
  8
DATA
  6
CONTINUOUS
 62
     7
 10
-84.227454459139182
 20
222.3323410722746
 30
0.0
  0
SEQEND
  5
BA1
  8
DATA
  6
CONTINUOUS
 62
     7
  0
POLYLINE
  5
6F3
  8
DATA
  6
CONTINUOUS
 62
     7
 66
     1
 10
0.0
 20
0.0
 30
0.0
 70
     1
  0
VERTEX
  5
BA2
  8
DATA
  6
CONTINUOUS
 62
     7
 10
-84.227454459139182
 20
220.73234107227469
 30
0.0
  0
VERTEX
  5
BA3
  8
DATA
  6
CONTINUOUS
 62
     7
 10
-82.227454459139182
 20
220.73234107227469
 30
0.0
  0
VERTEX
  5
BA4
  8
DATA
  6
CONTINUOUS
 62
     7
 10
-82.227454459139182
 20
219.8323410722746
 30
0.0
  0
VERTEX
  5
BA5
  8
DATA
  6
CONTINUOUS
 62
     7
 10
-84.227454459139182
 20
219.8323410722746
 30
0.0
  0
SEQEND
  5
BA6
  8
DATA
  6
CONTINUOUS
 62
     7
  0
POLYLINE
  5
6FA
  8
DATA
  6
CONTINUOUS
 62
     7
 66
     1
 10
0.0
 20
0.0
 30
0.0
 70
     1
  0
VERTEX
  5
BA7
  8
DATA
  6
CONTINUOUS
 62
     7
 10
-84.227454459139182
 20
218.23234107227461
 30
0.0
  0
VERTEX
  5
BA8
  8
DATA
  6
CONTINUOUS
 62
     7
 10
-82.227454459139182
 20
218.23234107227461
 30
0.0
  0
VERTEX
  5
BA9
  8
DATA
  6
CONTINUOUS
 62
     7
 10
-82.227454459139182
 20
217.3323410722746
 30
0.0
  0
VERTEX
  5
BAA
  8
DATA
  6
CONTINUOUS
 62
     7
 10
-84.227454459139182
 20
217.3323410722746
 30
0.0
  0
SEQEND
  5
BAB
  8
DATA
  6
CONTINUOUS
 62
     7
  0
POLYLINE
  5
701
  8
DATA
  6
CONTINUOUS
 62
     7
 66
     1
 10
0.0
 20
0.0
 30
0.0
 70
     1
  0
VERTEX
  5
BAC
  8
DATA
  6
CONTINUOUS
 62
     7
 10
-84.227454459139182
 20
215.73234107227461
 30
0.0
  0
VERTEX
  5
BAD
  8
DATA
  6
CONTINUOUS
 62
     7
 10
-82.227454459139182
 20
215.73234107227461
 30
0.0
  0
VERTEX
  5
BAE
  8
DATA
  6
CONTINUOUS
 62
     7
 10
-82.227454459139182
 20
214.8323410722746
 30
0.0
  0
VERTEX
  5
BAF
  8
DATA
  6
CONTINUOUS
 62
     7
 10
-84.227454459139182
 20
214.8323410722746
 30
0.0
  0
SEQEND
  5
BB0
  8
DATA
  6
CONTINUOUS
 62
     7
  0
POLYLINE
  5
708
  8
DATA
  6
CONTINUOUS
 62
     7
 66
     1
 10
0.0
 20
0.0
 30
0.0
 70
     1
  0
VERTEX
  5
BB1
  8
DATA
  6
CONTINUOUS
 62
     7
 10
-84.227454459139182
 20
213.23234107227461
 30
0.0
  0
VERTEX
  5
BB2
  8
DATA
  6
CONTINUOUS
 62
     7
 10
-82.227454459139182
 20
213.23234107227461
 30
0.0
  0
VERTEX
  5
BB3
  8
DATA
  6
CONTINUOUS
 62
     7
 10
-82.227454459139182
 20
212.3323410722746
 30
0.0
  0
VERTEX
  5
BB4
  8
DATA
  6
CONTINUOUS
 62
     7
 10
-84.227454459139182
 20
212.3323410722746
 30
0.0
  0
SEQEND
  5
BB5
  8
DATA
  6
CONTINUOUS
 62
     7
  0
LINE
  5
70F
  8
DATA
  6
CONTINUOUS
 62
     7
 10
-83.227454459139182
 20
212.3323410722746
 30
0.0
 11
-83.227454459139182
 21
213.23234107227461
 31
0.0
  0
LINE
  5
710
  8
DATA
  6
CONTINUOUS
 62
     7
 10
-83.227454459139182
 20
214.8323410722746
 30
0.0
 11
-83.227454459139182
 21
215.73234107227461
 31
0.0
  0
LINE
  5
711
  8
DATA
  6
CONTINUOUS
 62
     7
 10
-83.227454459139182
 20
217.3323410722746
 30
0.0
 11
-83.227454459139182
 21
218.23234107227461
 31
0.0
  0
LINE
  5
712
  8
DATA
  6
CONTINUOUS
 62
     7
 10
-83.227454459139182
 20
219.8323410722746
 30
0.0
 11
-83.227454459139182
 21
220.73234107227469
 31
0.0
  0
LINE
  5
713
  8
DATA
  6
CONTINUOUS
 62
     7
 10
-83.227454459139182
 20
222.3323410722746
 30
0.0
 11
-83.227454459139182
 21
223.23234107227461
 31
0.0
  0
LINE
  5
714
  8
DATA
  6
CONTINUOUS
 62
     7
 10
-83.227454459139182
 20
224.8323410722746
 30
0.0
 11
-83.227454459139182
 21
225.73234107227461
 31
0.0
  0
LINE
  5
715
  8
DATA
  6
CONTINUOUS
 62
     7
 10
-83.227454459139182
 20
227.3323410722746
 30
0.0
 11
-83.227454459139182
 21
228.23234107227461
 31
0.0
  0
LINE
  5
716
  8
DATA
  6
CONTINUOUS
 62
     7
 10
-83.227454459139182
 20
229.8323410722746
 30
0.0
 11
-83.227454459139182
 21
230.73234107227461
 31
0.0
  0
TEXT
  5
717
  8
DATA
 62
     7
 10
-81.602781143719639
 20
230.99481065789001
 30
0.0
 40
0.8144205729166667
  1
ON
 50
270.0
 41
0.7
 11
-80.788360570802979
 21
230.99481065789001
 31
0.0
 73
     3
  0
TEXT
  5
718
  8
DATA
 62
     7
 10
-85.801132501810457
 20
230.53801611491929
 30
0.0
 40
0.8144205729166667
  1
1
 50
270.0
 41
0.7
 11
-84.986711928893797
 21
230.53801611491929
 31
0.0
 73
     3
  0
TEXT
  5
719
  8
DATA
 62
     7
 10
-85.801132501810457
 20
228.03801611491929
 30
0.0
 40
0.8144205729166667
  1
2
 50
270.0
 41
0.7
 11
-84.986711928893797
 21
228.03801611491929
 31
0.0
 73
     3
  0
TEXT
  5
71A
  8
DATA
 62
     7
 10
-85.801132501810457
 20
225.53801611491929
 30
0.0
 40
0.8144205729166667
  1
3
 50
270.0
 41
0.7
 11
-84.986711928893797
 21
225.53801611491929
 31
0.0
 73
     3
  0
TEXT
  5
71B
  8
DATA
 62
     7
 10
-85.801132501810457
 20
223.03801611491929
 30
0.0
 40
0.8144205729166667
  1
4
 50
270.0
 41
0.7
 11
-84.986711928893797
 21
223.03801611491929
 31
0.0
 73
     3
  0
TEXT
  5
71C
  8
DATA
 62
     7
 10
-85.801132501810457
 20
220.53801611491929
 30
0.0
 40
0.8144205729166667
  1
5
 50
270.0
 41
0.7
 11
-84.986711928893797
 21
220.53801611491929
 31
0.0
 73
     3
  0
TEXT
  5
71D
  8
DATA
 62
     7
 10
-85.801132501810457
 20
218.03801611491929
 30
0.0
 40
0.8144205729166667
  1
6
 50
270.0
 41
0.7
 11
-84.986711928893797
 21
218.03801611491929
 31
0.0
 73
     3
  0
TEXT
  5
71E
  8
DATA
 62
     7
 10
-85.801132501810457
 20
215.53801611491929
 30
0.0
 40
0.8144205729166667
  1
7
 50
270.0
 41
0.7
 11
-84.986711928893797
 21
215.53801611491929
 31
0.0
 73
     3
  0
TEXT
  5
71F
  8
DATA
 62
     7
 10
-85.801132501810457
 20
213.03801611491929
 30
0.0
 40
0.8144205729166667
  1
8
 50
270.0
 41
0.7
 11
-84.986711928893797
 21
213.03801611491929
 31
0.0
 73
     3
  0
LINE
  5
720
  8
DATA
  6
CONTINUOUS
 62
     7
 10
-83.71485134123192
 20
230.73234107227461
 30
0.0
 11
-83.71485134123192
 21
229.8323410722746
 31
0.0
  0
LINE
  5
721
  8
DATA
  6
CONTINUOUS
 62
     7
 10
-83.71485134123192
 20
228.23234107227461
 30
0.0
 11
-83.71485134123192
 21
227.3323410722746
 31
0.0
  0
LINE
  5
722
  8
DATA
  6
CONTINUOUS
 62
     7
 10
-83.71485134123192
 20
225.73234107227461
 30
0.0
 11
-83.71485134123192
 21
224.8323410722746
 31
0.0
  0
LINE
  5
723
  8
DATA
  6
CONTINUOUS
 62
     7
 10
-83.71485134123192
 20
223.23234107227461
 30
0.0
 11
-83.71485134123192
 21
222.3323410722746
 31
0.0
  0
LINE
  5
724
  8
DATA
  6
CONTINUOUS
 62
     7
 10
-83.71485134123192
 20
220.73234107227469
 30
0.0
 11
-83.71485134123192
 21
219.8323410722746
 31
0.0
  0
LINE
  5
725
  8
DATA
  6
CONTINUOUS
 62
     7
 10
-83.71485134123192
 20
218.23234107227461
 30
0.0
 11
-83.71485134123192
 21
217.3323410722746
 31
0.0
  0
LINE
  5
726
  8
DATA
  6
CONTINUOUS
 62
     7
 10
-83.71485134123192
 20
215.73234107227461
 30
0.0
 11
-83.71485134123192
 21
214.8323410722746
 31
0.0
  0
LINE
  5
727
  8
DATA
  6
CONTINUOUS
 62
     7
 10
-83.71485134123192
 20
213.23234107227461
 30
0.0
 11
-83.71485134123192
 21
212.3323410722746
 31
0.0
  0
LINE
  5
728
  8
DATA
  6
CONTINUOUS
 62
     7
 10
319.70498743807519
 20
306.26302564970001
 30
0.0
 11
319.70498743807519
 21
169.76302564969961
 31
0.0
  0
LINE
  5
729
  8
DATA
  6
CONTINUOUS
 62
     7
 10
278.7549874380752
 20
306.26302564970001
 30
0.0
 11
278.7549874380752
 21
169.76302564969961
 31
0.0
  0
LINE
  5
72A
  8
DATA
  6
CONTINUOUS
 62
     7
 10
278.7549874380752
 20
306.26302564970001
 30
0.0
 11
319.70498743807519
 21
306.26302564970001
 31
0.0
  0
LINE
  5
72B
  8
DATA
  6
CONTINUOUS
 62
     7
 10
278.7549874380752
 20
169.76302564969961
 30
0.0
 11
319.70498743807519
 21
169.76302564969961
 31
0.0
  0
POLYLINE
  5
72C
  8
DATA
  6
CONTINUOUS
 62
     7
 66
     1
 10
0.0
 20
0.0
 30
0.0
 70
     1
  0
VERTEX
  5
BB6
  8
DATA
  6
CONTINUOUS
 62
     7
 10
293.56002077293118
 20
298.17473981683742
 30
0.0
  0
VERTEX
  5
BB7
  8
DATA
  6
CONTINUOUS
 62
     7
 10
306.56002077293118
 20
298.17473981683742
 30
0.0
  0
VERTEX
  5
BB8
  8
DATA
  6
CONTINUOUS
 62
     7
 10
306.56002077293118
 20
292.32473981683722
 30
0.0
  0
VERTEX
  5
BB9
  8
DATA
  6
CONTINUOUS
 62
     7
 10
293.56002077293118
 20
292.32473981683722
 30
0.0
  0
SEQEND
  5
BBA
  8
DATA
  6
CONTINUOUS
 62
     7
  0
POLYLINE
  5
733
  8
DATA
  6
CONTINUOUS
 62
     7
 66
     1
 10
0.0
 20
0.0
 30
0.0
 70
     1
  0
VERTEX
  5
BBB
  8
DATA
  6
CONTINUOUS
 62
     7
 10
293.56002077293118
 20
281.92473981683742
 30
0.0
  0
VERTEX
  5
BBC
  8
DATA
  6
CONTINUOUS
 62
     7
 10
306.56002077293118
 20
281.92473981683742
 30
0.0
  0
VERTEX
  5
BBD
  8
DATA
  6
CONTINUOUS
 62
     7
 10
306.56002077293118
 20
276.07473981683728
 30
0.0
  0
VERTEX
  5
BBE
  8
DATA
  6
CONTINUOUS
 62
     7
 10
293.56002077293118
 20
276.07473981683728
 30
0.0
  0
SEQEND
  5
BBF
  8
DATA
  6
CONTINUOUS
 62
     7
  0
POLYLINE
  5
73A
  8
DATA
  6
CONTINUOUS
 62
     7
 66
     1
 10
0.0
 20
0.0
 30
0.0
 70
     1
  0
VERTEX
  5
BC0
  8
DATA
  6
CONTINUOUS
 62
     7
 10
293.56002077293118
 20
265.67473981683742
 30
0.0
  0
VERTEX
  5
BC1
  8
DATA
  6
CONTINUOUS
 62
     7
 10
306.56002077293118
 20
265.67473981683742
 30
0.0
  0
VERTEX
  5
BC2
  8
DATA
  6
CONTINUOUS
 62
     7
 10
306.56002077293118
 20
259.82473981683728
 30
0.0
  0
VERTEX
  5
BC3
  8
DATA
  6
CONTINUOUS
 62
     7
 10
293.56002077293118
 20
259.82473981683728
 30
0.0
  0
SEQEND
  5
BC4
  8
DATA
  6
CONTINUOUS
 62
     7
  0
POLYLINE
  5
741
  8
DATA
  6
CONTINUOUS
 62
     7
 66
     1
 10
0.0
 20
0.0
 30
0.0
 70
     1
  0
VERTEX
  5
BC5
  8
DATA
  6
CONTINUOUS
 62
     7
 10
293.56002077293118
 20
249.42473981683739
 30
0.0
  0
VERTEX
  5
BC6
  8
DATA
  6
CONTINUOUS
 62
     7
 10
306.56002077293118
 20
249.42473981683739
 30
0.0
  0
VERTEX
  5
BC7
  8
DATA
  6
CONTINUOUS
 62
     7
 10
306.56002077293118
 20
243.57473981683731
 30
0.0
  0
VERTEX
  5
BC8
  8
DATA
  6
CONTINUOUS
 62
     7
 10
293.56002077293118
 20
243.57473981683731
 30
0.0
  0
SEQEND
  5
BC9
  8
DATA
  6
CONTINUOUS
 62
     7
  0
POLYLINE
  5
748
  8
DATA
  6
CONTINUOUS
 62
     7
 66
     1
 10
0.0
 20
0.0
 30
0.0
 70
     1
  0
VERTEX
  5
BCA
  8
DATA
  6
CONTINUOUS
 62
     7
 10
293.56002077293118
 20
233.1747398168373
 30
0.0
  0
VERTEX
  5
BCB
  8
DATA
  6
CONTINUOUS
 62
     7
 10
306.56002077293118
 20
233.1747398168373
 30
0.0
  0
VERTEX
  5
BCC
  8
DATA
  6
CONTINUOUS
 62
     7
 10
306.56002077293118
 20
227.32473981683719
 30
0.0
  0
VERTEX
  5
BCD
  8
DATA
  6
CONTINUOUS
 62
     7
 10
293.56002077293118
 20
227.32473981683719
 30
0.0
  0
SEQEND
  5
BCE
  8
DATA
  6
CONTINUOUS
 62
     7
  0
POLYLINE
  5
74F
  8
DATA
  6
CONTINUOUS
 62
     7
 66
     1
 10
0.0
 20
0.0
 30
0.0
 70
     1
  0
VERTEX
  5
BCF
  8
DATA
  6
CONTINUOUS
 62
     7
 10
293.56002077293118
 20
216.9247398168371
 30
0.0
  0
VERTEX
  5
BD0
  8
DATA
  6
CONTINUOUS
 62
     7
 10
306.56002077293118
 20
216.9247398168371
 30
0.0
  0
VERTEX
  5
BD1
  8
DATA
  6
CONTINUOUS
 62
     7
 10
306.56002077293118
 20
211.074739816837
 30
0.0
  0
VERTEX
  5
BD2
  8
DATA
  6
CONTINUOUS
 62
     7
 10
293.56002077293118
 20
211.074739816837
 30
0.0
  0
SEQEND
  5
BD3
  8
DATA
  6
CONTINUOUS
 62
     7
  0
POLYLINE
  5
756
  8
DATA
  6
CONTINUOUS
 62
     7
 66
     1
 10
0.0
 20
0.0
 30
0.0
 70
     1
  0
VERTEX
  5
BD4
  8
DATA
  6
CONTINUOUS
 62
     7
 10
293.56002077293118
 20
200.6747398168369
 30
0.0
  0
VERTEX
  5
BD5
  8
DATA
  6
CONTINUOUS
 62
     7
 10
306.56002077293118
 20
200.6747398168369
 30
0.0
  0
VERTEX
  5
BD6
  8
DATA
  6
CONTINUOUS
 62
     7
 10
306.56002077293118
 20
194.8247398168368
 30
0.0
  0
VERTEX
  5
BD7
  8
DATA
  6
CONTINUOUS
 62
     7
 10
293.56002077293118
 20
194.8247398168368
 30
0.0
  0
SEQEND
  5
BD8
  8
DATA
  6
CONTINUOUS
 62
     7
  0
POLYLINE
  5
75D
  8
DATA
  6
CONTINUOUS
 62
     7
 66
     1
 10
0.0
 20
0.0
 30
0.0
 70
     1
  0
VERTEX
  5
BD9
  8
DATA
  6
CONTINUOUS
 62
     7
 10
293.56002077293118
 20
184.4247398168369
 30
0.0
  0
VERTEX
  5
BDA
  8
DATA
  6
CONTINUOUS
 62
     7
 10
306.56002077293118
 20
184.4247398168369
 30
0.0
  0
VERTEX
  5
BDB
  8
DATA
  6
CONTINUOUS
 62
     7
 10
306.56002077293118
 20
178.57473981683691
 30
0.0
  0
VERTEX
  5
BDC
  8
DATA
  6
CONTINUOUS
 62
     7
 10
293.56002077293118
 20
178.57473981683691
 30
0.0
  0
SEQEND
  5
BDD
  8
DATA
  6
CONTINUOUS
 62
     7
  0
LINE
  5
764
  8
DATA
  6
CONTINUOUS
 62
     7
 10
300.06002077293118
 20
178.57473981683691
 30
0.0
 11
300.06002077293118
 21
184.4247398168369
 31
0.0
  0
LINE
  5
765
  8
DATA
  6
CONTINUOUS
 62
     7
 10
300.06002077293118
 20
194.8247398168368
 30
0.0
 11
300.06002077293118
 21
200.6747398168369
 31
0.0
  0
LINE
  5
766
  8
DATA
  6
CONTINUOUS
 62
     7
 10
300.06002077293118
 20
211.074739816837
 30
0.0
 11
300.06002077293118
 21
216.9247398168371
 31
0.0
  0
LINE
  5
767
  8
DATA
  6
CONTINUOUS
 62
     7
 10
300.06002077293118
 20
227.32473981683719
 30
0.0
 11
300.06002077293118
 21
233.1747398168373
 31
0.0
  0
LINE
  5
768
  8
DATA
  6
CONTINUOUS
 62
     7
 10
300.06002077293118
 20
243.57473981683731
 30
0.0
 11
300.06002077293118
 21
249.42473981683739
 31
0.0
  0
LINE
  5
769
  8
DATA
  6
CONTINUOUS
 62
     7
 10
300.06002077293118
 20
259.82473981683728
 30
0.0
 11
300.06002077293118
 21
265.67473981683742
 31
0.0
  0
LINE
  5
76A
  8
DATA
  6
CONTINUOUS
 62
     7
 10
300.06002077293118
 20
276.07473981683728
 30
0.0
 11
300.06002077293118
 21
281.92473981683742
 31
0.0
  0
LINE
  5
76B
  8
DATA
  6
CONTINUOUS
 62
     7
 10
300.06002077293118
 20
292.32473981683722
 30
0.0
 11
300.06002077293118
 21
298.17473981683742
 31
0.0
  0
TEXT
  5
76C
  8
DATA
 62
     7
 10
310.6203973231577
 20
299.88079212333719
 30
0.0
 40
5.2937337239583346
  1
ON
 50
270.0
 41
0.7
 11
315.91413104711597
 21
299.88079212333719
 31
0.0
 73
     3
  0
TEXT
  5
76D
  8
DATA
 62
     7
 10
283.33111349556788
 20
296.91162759402761
 30
0.0
 40
5.2937337239583346
  1
1
 50
270.0
 41
0.7
 11
288.6248472195262
 21
296.91162759402761
 31
0.0
 73
     3
  0
TEXT
  5
76E
  8
DATA
 62
     7
 10
283.33111349556788
 20
280.66162759402772
 30
0.0
 40
5.2937337239583346
  1
2
 50
270.0
 41
0.7
 11
288.6248472195262
 21
280.66162759402772
 31
0.0
 73
     3
  0
TEXT
  5
76F
  8
DATA
 62
     7
 10
283.33111349556788
 20
264.41162759402772
 30
0.0
 40
5.2937337239583346
  1
3
 50
270.0
 41
0.7
 11
288.6248472195262
 21
264.41162759402772
 31
0.0
 73
     3
  0
TEXT
  5
770
  8
DATA
 62
     7
 10
283.33111349556788
 20
248.16162759402769
 30
0.0
 40
5.2937337239583346
  1
4
 50
270.0
 41
0.7
 11
288.6248472195262
 21
248.16162759402769
 31
0.0
 73
     3
  0
TEXT
  5
771
  8
DATA
 62
     7
 10
283.33111349556788
 20
231.91162759402761
 30
0.0
 40
5.2937337239583346
  1
5
 50
270.0
 41
0.7
 11
288.6248472195262
 21
231.91162759402761
 31
0.0
 73
     3
  0
TEXT
  5
772
  8
DATA
 62
     7
 10
283.33111349556788
 20
215.66162759402741
 30
0.0
 40
5.2937337239583346
  1
6
 50
270.0
 41
0.7
 11
288.6248472195262
 21
215.66162759402741
 31
0.0
 73
     3
  0
TEXT
  5
773
  8
DATA
 62
     7
 10
283.33111349556788
 20
199.4116275940271
 30
0.0
 40
5.2937337239583346
  1
7
 50
270.0
 41
0.7
 11
288.6248472195262
 21
199.4116275940271
 31
0.0
 73
     3
  0
TEXT
  5
774
  8
DATA
 62
     7
 10
283.33111349556788
 20
183.16162759402721
 30
0.0
 40
5.2937337239583346
  1
8
 50
270.0
 41
0.7
 11
288.6248472195262
 21
183.16162759402721
 31
0.0
 73
     3
  0
LINE
  5
775
  8
DATA
  6
CONTINUOUS
 62
     7
 10
296.89194103932812
 20
298.17473981683742
 30
0.0
 11
296.89194103932812
 21
292.32473981683722
 31
0.0
  0
LINE
  5
776
  8
DATA
  6
CONTINUOUS
 62
     7
 10
296.89194103932812
 20
281.92473981683742
 30
0.0
 11
296.89194103932812
 21
276.07473981683728
 31
0.0
  0
LINE
  5
777
  8
DATA
  6
CONTINUOUS
 62
     7
 10
296.89194103932812
 20
265.67473981683742
 30
0.0
 11
296.89194103932812
 21
259.82473981683728
 31
0.0
  0
LINE
  5
778
  8
DATA
  6
CONTINUOUS
 62
     7
 10
296.89194103932812
 20
249.42473981683739
 30
0.0
 11
296.89194103932812
 21
243.57473981683731
 31
0.0
  0
LINE
  5
779
  8
DATA
  6
CONTINUOUS
 62
     7
 10
296.89194103932812
 20
233.1747398168373
 30
0.0
 11
296.89194103932812
 21
227.32473981683719
 31
0.0
  0
LINE
  5
77A
  8
DATA
  6
CONTINUOUS
 62
     7
 10
296.89194103932812
 20
216.9247398168371
 30
0.0
 11
296.89194103932812
 21
211.074739816837
 31
0.0
  0
LINE
  5
77B
  8
DATA
  6
CONTINUOUS
 62
     7
 10
296.89194103932812
 20
200.6747398168369
 30
0.0
 11
296.89194103932812
 21
194.8247398168368
 31
0.0
  0
LINE
  5
77C
  8
DATA
  6
CONTINUOUS
 62
     7
 10
296.89194103932812
 20
184.4247398168369
 30
0.0
 11
296.89194103932812
 21
178.57473981683691
 31
0.0
  0
LINE
  5
77D
  8
DATA
  6
CONTINUOUS
 62
     7
 10
276.79999999973342
 20
-58.499999999893703
 30
0.0
 11
282.99999999973329
 21
-58.499999999893703
 31
0.0
  0
TEXT
  5
77E
  8
DATA
 62
     7
 10
241.1724334500814
 20
152.80183240797371
 30
0.0
 40
8.1442057291666661
  1
ディップスイッチ拡大図
 41
0.7
 11
241.1724334500814
 21
160.94603813714031
 31
0.0
 73
     3
  0
LINE
  5
77F
  8
DATA
  6
CONTINUOUS
 62
     7
 10
362.4999999997334
 20
150.00000000010621
 30
0.0
 11
237.49999999973329
 21
150.00000000010621
 31
0.0
  0
ENDSEC
  0
EOF
