  0
SECTION
  2
HEADER
  9
$ACADVER
  1
AC1009
  9
$INSBASE
 10
0.0
 20
0.0
 30
0.0
  9
$EXTMIN
 10
-80.010985489947416
 20
-131.63053115337669
 30
-0.0015258207003583
  9
$EXTMAX
 10
280.01098716632811
 20
403.53457440790811
 30
0.0000000349246037
  9
$LIMMIN
 10
0.0
 20
0.0
  9
$LIMMAX
 10
0.0
 20
0.0
  9
$ORTHOMODE
 70
     0
  9
$REGENMODE
 70
     1
  9
$FILLMODE
 70
     1
  9
$QTEXTMODE
 70
     0
  9
$MIRRTEXT
 70
     1
  9
$DRAGMODE
 70
     2
  9
$LTSCALE
 40
10.16
  9
$OSMODE
 70
   231
  9
$ATTMODE
 70
     1
  9
$TEXTSIZE
 40
0.0
  9
$TRACEWID
 40
1.0
  9
$TEXTSTYLE
  7
STANDARD
  9
$CLAYER
  8
DATA
  9
$CELTYPE
  6
BYLAYER
  9
$CECOLOR
 62
   256
  9
$DIMSCALE
 40
1.0
  9
$DIMASZ
 40
0.18
  9
$DIMEXO
 40
0.0625
  9
$DIMDLI
 40
0.38
  9
$DIMRND
 40
0.0
  9
$DIMDLE
 40
0.0
  9
$DIMEXE
 40
0.18
  9
$DIMTP
 40
0.0
  9
$DIMTM
 40
0.0
  9
$DIMTXT
 40
0.18
  9
$DIMCEN
 40
0.09
  9
$DIMTSZ
 40
0.0
  9
$DIMTOL
 70
     0
  9
$DIMLIM
 70
     0
  9
$DIMTIH
 70
     1
  9
$DIMTOH
 70
     1
  9
$DIMSE1
 70
     0
  9
$DIMSE2
 70
     0
  9
$DIMTAD
 70
     0
  9
$DIMZIN
 70
     0
  9
$DIMBLK
  1

  9
$DIMASO
 70
     1
  9
$DIMSHO
 70
     1
  9
$DIMPOST
  1

  9
$DIMAPOST
  1

  9
$DIMALT
 70
     0
  9
$DIMALTD
 70
     2
  9
$DIMALTF
 40
25.399999999999999
  9
$DIMLFAC
 40
1.0
  9
$DIMTOFL
 70
     0
  9
$DIMTVP
 40
0.0
  9
$DIMTIX
 70
     0
  9
$DIMSOXD
 70
     0
  9
$DIMSAH
 70
     0
  9
$DIMBLK1
  1

  9
$DIMBLK2
  1

  9
$DIMSTYLE
  2
STANDARD
  9
$DIMCLRD
 70
     0
  9
$DIMCLRE
 70
     0
  9
$DIMCLRT
 70
     0
  9
$DIMTFAC
 40
1.0
  9
$DIMGAP
 40
0.09
  9
$LUNITS
 70
     2
  9
$LUPREC
 70
     4
  9
$SKETCHINC
 40
0.1
  9
$FILLETRAD
 40
0.0
  9
$AUNITS
 70
     0
  9
$AUPREC
 70
     0
  9
$MENU
  1
acad
  9
$ELEVATION
 40
0.0
  9
$PELEVATION
 40
0.0
  9
$THICKNESS
 40
0.0
  9
$LIMCHECK
 70
     0
  9
$BLIPMODE
 70
     0
  9
$CHAMFERA
 40
0.0
  9
$CHAMFERB
 40
0.0
  9
$SKPOLY
 70
     0
  9
$TDCREATE
 40
2455202.7163425931
  9
$TDUPDATE
 40
2455202.7166554062
  9
$TDINDWG
 40
0.0002444676
  9
$TDUSRTIMER
 40
0.0002444676
  9
$USRTIMER
 70
     1
  9
$ANGBASE
 50
0.0
  9
$ANGDIR
 70
     0
  9
$PDMODE
 70
     1
  9
$PDSIZE
 40
-2.0
  9
$PLINEWID
 40
0.0
  9
$COORDS
 70
     0
  9
$SPLFRAME
 70
     0
  9
$SPLINETYPE
 70
     6
  9
$SPLINESEGS
 70
     8
  9
$ATTDIA
 70
     0
  9
$ATTREQ
 70
     1
  9
$HANDLING
 70
     1
  9
$HANDSEED
  5
708
  9
$SURFTAB1
 70
     6
  9
$SURFTAB2
 70
     6
  9
$SURFTYPE
 70
     6
  9
$SURFU
 70
     6
  9
$SURFV
 70
     6
  9
$UCSNAME
  2

  9
$UCSORG
 10
0.0
 20
0.0
 30
0.0
  9
$UCSXDIR
 10
1.0
 20
0.0
 30
0.0
  9
$UCSYDIR
 10
0.0
 20
1.0
 30
0.0
  9
$PUCSNAME
  2

  9
$PUCSORG
 10
0.0
 20
0.0
 30
0.0
  9
$PUCSXDIR
 10
1.0
 20
0.0
 30
0.0
  9
$PUCSYDIR
 10
0.0
 20
1.0
 30
0.0
  9
$USERI1
 70
     0
  9
$USERI2
 70
     0
  9
$USERI3
 70
     0
  9
$USERI4
 70
     0
  9
$USERI5
 70
     0
  9
$USERR1
 40
0.0
  9
$USERR2
 40
0.0
  9
$USERR3
 40
0.0
  9
$USERR4
 40
0.0
  9
$USERR5
 40
0.0
  9
$WORLDVIEW
 70
     1
  9
$SHADEDGE
 70
     3
  9
$SHADEDIF
 70
    70
  9
$TILEMODE
 70
     1
  9
$MAXACTVP
 70
    64
  9
$PLIMCHECK
 70
     0
  9
$PEXTMIN
 10
1.0000000000000000E+020
 20
1.0000000000000000E+020
 30
1.0000000000000000E+020
  9
$PEXTMAX
 10
-1.0000000000000000E+020
 20
-1.0000000000000000E+020
 30
-1.0000000000000000E+020
  9
$PLIMMIN
 10
0.0
 20
0.0
  9
$PLIMMAX
 10
12.0
 20
9.0
  9
$UNITMODE
 70
     0
  9
$VISRETAIN
 70
     0
  9
$PLINEGEN
 70
     1
  9
$PSLTSCALE
 70
     0
  0
ENDSEC
  0
SECTION
  2
TABLES
  0
TABLE
  2
VPORT
 70
     1
  0
VPORT
  2
*ACTIVE
 70
     0
 10
0.0
 20
0.0
 11
1.0
 21
1.0
 12
100.0000008381904
 22
135.95202162726571
 13
0.0
 23
0.0
 14
1.0
 24
1.0
 15
0.0
 25
0.0
 16
0.0
 26
0.0
 36
1.0
 17
0.0
 27
0.0
 37
0.0
 40
539.10981149908309
 41
1.964329643296433
 42
50.0
 43
0.0
 44
0.0
 50
0.0
 51
0.0
 71
     0
 72
  2000
 73
     1
 74
     1
 75
     0
 76
     0
 77
     0
 78
     0
  0
ENDTAB
  0
TABLE
  2
LTYPE
 70
    11
  0
LTYPE
  2
CONTINUOUS
 70
     0
  3
Solid line
 72
    65
 73
     0
 40
0.0
  0
ENDTAB
  0
TABLE
  2
LAYER
 70
     5
  0
LAYER
  2
0
 70
     0
 62
     7
  6
CONTINUOUS
  0
LAYER
  2
DATA
 70
     0
 62
     7
  6
CONTINUOUS
  0
LAYER
  2
HIBINO-BASE
 70
     0
 62
     7
  6
CONTINUOUS
  0
LAYER
  2
SPEC
 70
     0
 62
     7
  6
CONTINUOUS
  0
LAYER
  2
DIMNSIONS
 70
     0
 62
     7
  6
CONTINUOUS
  0
ENDTAB
  0
TABLE
  2
STYLE
 70
     3
  0
STYLE
  2
STANDARD
 70
     0
 40
0.0
 41
1.0
 50
0.0
 71
     0
 42
0.0
  3
txt
  4
BIGFONT.SHX
  0
ENDTAB
  0
TABLE
  2
VIEW
 70
     0
  0
ENDTAB
  0
TABLE
  2
UCS
 70
     0
  0
ENDTAB
  0
TABLE
  2
APPID
 70
     3
  0
APPID
  2
ACAD
 70
     0
  0
APPID
  2
ACADANNOTATIVE
 70
     0
  0
APPID
  2
ACAD_MLEADERVER
 70
     0
  0
ENDTAB
  0
TABLE
  2
DIMSTYLE
 70
     2
  0
DIMSTYLE
  2
STANDARD
 70
     0
  3

  4

  5

  6

  7

 40
1.0
 41
0.18
 42
0.0625
 43
0.38
 44
0.18
 45
0.0
 46
0.0
 47
0.0
 48
0.0
140
0.18
141
0.09
142
0.0
143
25.399999999999999
144
1.0
145
0.0
146
1.0
147
0.09
 71
     0
 72
     0
 73
     1
 74
     1
 75
     0
 76
     0
 77
     0
 78
     0
170
     0
171
     2
172
     0
173
     0
174
     0
175
     0
176
     0
177
     0
178
     0
  0
ENDTAB
  0
ENDSEC
  0
SECTION
  2
BLOCKS
  0
BLOCK
  8
0
  2
$MODEL_SPACE
 70
     0
 10
0.0
 20
0.0
 30
0.0
  3
$MODEL_SPACE
  1

  0
ENDBLK
  5
49F
  8
0
  0
BLOCK
 67
     1
  8
0
  2
$PAPER_SPACE
 70
     0
 10
0.0
 20
0.0
 30
0.0
  3
$PAPER_SPACE
  1

  0
ENDBLK
  5
49B
 67
     1
  8
0
  0
ENDSEC
  0
SECTION
  2
ENTITIES
  0
LINE
  5
2C
  8
HIBINO-BASE
  6
CONTINUOUS
 62
     7
 10
-79.999999999999986
 20
403.51827454690522
 30
0.0
 11
279.99999999999989
 21
403.51827454690522
 31
0.0
  0
LINE
  5
2D
  8
HIBINO-BASE
  6
CONTINUOUS
 62
     7
 10
279.99999999999989
 20
-116.4817254530948
 30
0.0
 11
-79.999999999999986
 21
-116.4817254530948
 31
0.0
  0
LINE
  5
2E
  8
HIBINO-BASE
  6
CONTINUOUS
 62
     7
 10
-79.999999999999986
 20
-116.4817254530948
 30
0.0
 11
-79.999999999999986
 21
403.51827454690522
 31
0.0
  0
LINE
  5
2F
  8
HIBINO-BASE
  6
CONTINUOUS
 62
     7
 10
279.99999999999989
 20
403.51827454690522
 30
0.0
 11
279.99999999999989
 21
-116.4817254530948
 31
0.0
  0
LINE
  5
30
  8
HIBINO-BASE
  6
CONTINUOUS
 62
     7
 10
100.0
 20
-71.481725453094782
 30
0.0
 11
279.99999999999989
 21
-71.481725453094782
 31
0.0
  0
LINE
  5
31
  8
HIBINO-BASE
  6
CONTINUOUS
 62
     7
 10
100.0
 20
-116.4817254530948
 30
0.0
 11
100.0
 21
-71.481725453094782
 31
0.0
  0
TEXT
  5
32
  8
HIBINO-BASE
 62
     7
 10
101.8
 20
-76.499112119761492
 30
0.0
 40
3.2576822916666659
  1
NOTE
 41
0.7
 11
101.8
 21
-73.241429828094823
 31
0.0
 73
     3
  0
LINE
  5
33
  8
HIBINO-BASE
  6
CONTINUOUS
 62
     7
 10
170.0
 20
-116.4817254530948
 30
0.0
 11
170.0
 21
-71.481725453094782
 31
0.0
  0
TEXT
  5
34
  8
HIBINO-BASE
 62
     7
 10
171.7999999999999
 20
-76.499112119761492
 30
0.0
 40
3.2576822916666659
  1
TITLE
 41
0.7
 11
171.7999999999999
 21
-73.241429828094823
 31
0.0
 73
     3
  0
LINE
  5
35
  8
HIBINO-BASE
  6
CONTINUOUS
 62
     7
 10
100.0
 20
-96.481725453094782
 30
0.0
 11
279.99999999999989
 21
-96.481725453094782
 31
0.0
  0
TEXT
  5
36
  8
HIBINO-BASE
 62
     7
 10
196.80000000000001
 20
-101.38647211976151
 30
0.0
 40
3.2576822916666659
  1
DRAWN
 41
0.7
 11
196.80000000000001
 21
-98.12878982809481
 31
0.0
 73
     3
  0
TEXT
  5
37
  8
HIBINO-BASE
 62
     7
 10
146.7999999999999
 20
-101.38647211976151
 30
0.0
 40
3.2576822916666659
  1
DATE
 41
0.7
 11
146.7999999999999
 21
-98.12878982809481
 31
0.0
 73
     3
  0
TEXT
  5
38
  8
HIBINO-BASE
 62
     7
 10
126.8
 20
-101.38647211976151
 30
0.0
 40
3.2576822916666659
  1
SCALE
 41
0.7
 11
126.8
 21
-98.12878982809481
 31
0.0
 73
     3
  0
TEXT
  5
39
  8
HIBINO-BASE
 62
     7
 10
171.7999999999999
 20
-101.38647211976151
 30
0.0
 40
3.2576822916666659
  1
DESIGN
 41
0.7
 11
171.7999999999999
 21
-98.12878982809481
 31
0.0
 73
     3
  0
TEXT
  5
3A
  8
HIBINO-BASE
 62
     7
 10
246.7999999999999
 20
-101.38647211976151
 30
0.0
 40
3.2576822916666659
  1
DRAWING NO.
 41
0.7
 11
246.7999999999999
 21
-98.12878982809481
 31
0.0
 73
     3
  0
TEXT
  5
3B
  8
HIBINO-BASE
 62
     7
 10
221.7999999999999
 20
-101.38647211976151
 30
0.0
 40
3.2576822916666659
  1
CHECK
 41
0.7
 11
221.7999999999999
 21
-98.12878982809481
 31
0.0
 73
     3
  0
LINE
  5
3C
  8
HIBINO-BASE
  6
CONTINUOUS
 62
     7
 10
128.74999999999989
 20
-113.9817254530948
 30
0.0
 11
136.25
 21
-106.4817254530947
 31
0.0
  0
TEXT
  5
3D
  8
HIBINO-BASE
 62
     7
 10
127.5
 20
-108.6996121197614
 30
0.0
 40
3.2576822916666659
  1
1
 41
0.7
 11
127.5
 21
-105.4419298280948
 31
0.0
 73
     3
  0
LINE
  5
3E
  8
HIBINO-BASE
  6
CONTINUOUS
 62
     7
 10
125.0
 20
-116.4817254530948
 30
0.0
 11
125.0
 21
-96.481725453094782
 31
0.0
  0
LINE
  5
3F
  8
HIBINO-BASE
  6
CONTINUOUS
 62
     7
 10
145.0
 20
-116.4817254530948
 30
0.0
 11
145.0
 21
-96.481725453094782
 31
0.0
  0
LINE
  5
40
  8
HIBINO-BASE
  6
CONTINUOUS
 62
     7
 10
195.0
 20
-96.481725453094782
 30
0.0
 11
195.0
 21
-116.4817254530948
 31
0.0
  0
LINE
  5
41
  8
HIBINO-BASE
  6
CONTINUOUS
 62
     7
 10
245.0
 20
-96.481725453094782
 30
0.0
 11
245.0
 21
-116.4817254530948
 31
0.0
  0
LINE
  5
42
  8
HIBINO-BASE
  6
CONTINUOUS
 62
     7
 10
220.0
 20
-116.4817254530948
 30
0.0
 11
220.0
 21
-96.481725453094782
 31
0.0
  0
TEXT
  5
43
  8
HIBINO-BASE
 62
     7
 10
146.71307999999999
 20
-110.7544321197614
 30
0.0
 40
3.2576822916666659
  1
'09.10.
 41
0.7
 11
146.71307999999999
 21
-107.49674982809481
 31
0.0
 73
     3
  0
TEXT
  5
44
  8
HIBINO-BASE
 62
     7
 10
135.0
 20
-112.4496121197614
 30
0.0
 40
3.2576822916666659
  1
2
 41
0.7
 11
135.0
 21
-109.1919298280948
 31
0.0
 73
     3
  0
TEXT
  5
45
  8
HIBINO-BASE
 62
     7
 10
107.76666666666659
 20
-112.5297254530948
 30
0.0
 40
6.5153645833333318
  1
A4
 41
0.7
 11
107.76666666666659
 21
-106.0143608697615
 31
0.0
 73
     3
  0
TEXT
  5
46
  8
HIBINO-BASE
 62
     7
 10
101.9166666666666
 20
-101.7206354530948
 30
0.0
 40
3.2576822916666659
  1
PAPER SIZE
 41
0.7
 11
101.9166666666666
 21
-98.462953161428146
 31
0.0
 73
     3
  0
TEXT
  5
47
  8
HIBINO-BASE
 62
     7
 10
-74.171578506403733
 20
-129.27071252960431
 30
0.0
 40
7.0583116319444441
  1
Hibino-Intersound Corporation
 41
0.7
 11
-74.171578506403733
 21
-122.2124008976599
 31
0.0
 73
     3
  0
TEXT
  5
48
  8
HIBINO-BASE
 62
     7
 10
141.2919332079756
 20
-128.65003452868569
 30
0.0
 40
7.0583116319444441
  1
ヒビノインターサウンド株式会社
 41
0.7
 11
141.2919332079756
 21
-121.5917228967413
 31
0.0
 73
     3
  0
TEXT
  5
49
  8
HIBINO-BASE
 62
     7
 10
197.2528452664134
 20
-110.6624137825101
 30
0.0
 40
3.2576822916666659
  1
T.Ootake
 41
0.7
 11
197.2528452664134
 21
-107.4047314908435
 31
0.0
 73
     3
  0
TEXT
  5
4A
  8
SPEC
 62
     7
 10
-62.5
 20
386.30481454690522
 30
0.0
 40
4.8865234375000002
  1
仕様
 41
0.7
 11
-62.5
 21
391.19133798440521
 31
0.0
 73
     3
  0
LINE
  5
4B
  8
SPEC
  6
CONTINUOUS
 62
     7
 10
-64.999999999880785
 20
383.51827454681802
 30
0.0
 11
230.0000000001192
 21
383.51827454681802
 31
0.0
  0
LINE
  5
4C
  8
SPEC
  6
CONTINUOUS
 62
     7
 10
-64.999999999880785
 20
376.01827454681802
 30
0.0
 11
230.0000000001192
 21
376.01827454681802
 31
0.0
  0
LINE
  5
4D
  8
SPEC
  6
CONTINUOUS
 62
     7
 10
-64.999999999880785
 20
346.01827454681802
 30
0.0
 11
230.0000000001192
 21
346.01827454681802
 31
0.0
  0
LINE
  5
4E
  8
SPEC
  6
CONTINUOUS
 62
     7
 10
-64.999999999880785
 20
353.51827454681802
 30
0.0
 11
230.0000000001192
 21
353.51827454681802
 31
0.0
  0
LINE
  5
4F
  8
SPEC
  6
CONTINUOUS
 62
     7
 10
-64.999999999880785
 20
361.01827454681802
 30
0.0
 11
230.0000000001192
 21
361.01827454681802
 31
0.0
  0
LINE
  5
50
  8
SPEC
  6
CONTINUOUS
 62
     7
 10
230.0000000001192
 20
338.51827454681802
 30
0.0
 11
-64.999999999880785
 21
338.51827454681802
 31
0.0
  0
LINE
  5
51
  8
SPEC
  6
CONTINUOUS
 62
     7
 10
-64.999999999880785
 20
368.51827454681802
 30
0.0
 11
230.0000000001192
 21
368.51827454681802
 31
0.0
  0
LINE
  5
52
  8
SPEC
  6
CONTINUOUS
 62
     7
 10
-64.999999999880785
 20
383.51827454681802
 30
0.0
 11
-64.999999999880785
 21
308.51827454681802
 31
0.0
  0
LINE
  5
53
  8
SPEC
  6
CONTINUOUS
 62
     7
 10
230.0000000001192
 20
383.51827454681802
 30
0.0
 11
230.0000000001192
 21
308.51827454681802
 31
0.0
  0
LINE
  5
54
  8
SPEC
  6
CONTINUOUS
 62
     7
 10
12.368625531135519
 20
383.51827454681802
 30
0.0
 11
12.368625531135519
 21
308.51827454681802
 31
0.0
  0
LINE
  5
55
  8
SPEC
  6
CONTINUOUS
 62
     7
 10
230.0000000001192
 20
331.01827454681802
 30
0.0
 11
-64.999999999880785
 21
331.01827454681802
 31
0.0
  0
LINE
  5
56
  8
SPEC
  6
CONTINUOUS
 62
     7
 10
230.0000000001192
 20
323.51827454681802
 30
0.0
 11
-64.999999999880785
 21
323.51827454681802
 31
0.0
  0
LINE
  5
57
  8
SPEC
  6
CONTINUOUS
 62
     7
 10
230.0000000001192
 20
316.01827454681802
 30
0.0
 11
-64.999999999880785
 21
316.01827454681802
 31
0.0
  0
LINE
  5
58
  8
SPEC
  6
CONTINUOUS
 62
     7
 10
230.0000000001192
 20
308.51827454681802
 30
0.0
 11
-64.999999999880785
 21
308.51827454681802
 31
0.0
  0
TEXT
  5
59
  8
SPEC
 62
     7
 10
-63.294237166050991
 20
378.00431997609871
 30
0.0
 40
3.8006293402777769
  1
形式
 41
0.7
 11
-63.294237166050991
 21
381.80494931637651
 31
0.0
 73
     3
  0
TEXT
  5
5A
  8
SPEC
 62
     7
 10
-63.448780442484157
 20
370.4645124607614
 30
0.0
 40
3.8006293402777769
  1
出力ビデオ帯域
 41
0.7
 11
-63.448780442484157
 21
374.26514180103919
 31
0.0
 73
     3
  0
TEXT
  5
5B
  8
SPEC
 62
     7
 10
13.92788924937294
 20
370.3332883344699
 30
0.0
 40
3.8006293402777769
  1
165MHz
 41
0.7
 11
13.92788924937294
 21
374.13391767474769
 31
0.0
 73
     3
  0
TEXT
  5
5C
  8
SPEC
 62
     7
 10
13.93405296854956
 20
362.98770979908102
 30
0.0
 40
3.8006293402777769
  1
1.2Vp-p
 41
0.7
 11
13.93405296854956
 21
366.78833913935881
 31
0.0
 73
     3
  0
TEXT
  5
5D
  8
SPEC
 62
     7
 10
-63.239740520128152
 20
363.00944890966139
 30
0.0
 40
3.8006293402777769
  1
入力ビデオ信号
 41
0.7
 11
-63.239740520128152
 21
366.81007824993918
 31
0.0
 73
     3
  0
TEXT
  5
5E
  8
SPEC
 62
     7
 10
-63.273021826564367
 20
355.44459712455591
 30
0.0
 40
3.8006293402777769
  1
入力DDC信号
 41
0.7
 11
-63.273021826564367
 21
359.24522646483371
 31
0.0
 73
     3
  0
TEXT
  5
5F
  8
SPEC
 62
     7
 10
14.175280135887331
 20
355.38618224282339
 30
0.0
 40
3.8006293402777769
  1
5Vp-p(TTL)
 41
0.7
 11
14.175280135887331
 21
359.18681158310119
 31
0.0
 73
     3
  0
TEXT
  5
60
  8
SPEC
 62
     7
 10
-63.212800068279229
 20
348.00184101737921
 30
0.0
 40
3.8006293402777769
  1
最大対応解像度
 41
0.7
 11
-63.212800068279229
 21
351.802470357657
 31
0.0
 73
     3
  0
TEXT
  5
61
  8
SPEC
 62
     7
 10
13.949249694504401
 20
347.9384599774732
 30
0.0
 40
3.8006293402777769
  1
1920\U+00D71200
 41
0.7
 11
13.949249694504401
 21
351.73908931775088
 31
0.0
 73
     3
  0
TEXT
  5
62
  8
SPEC
 62
     7
 10
-63.04173484841985
 20
340.36023141097132
 30
0.0
 40
3.8006293402777769
  1
DVI入出力端子
 41
0.7
 11
-63.04173484841985
 21
344.160860751249
 31
0.0
 73
     3
  0
TEXT
  5
63
  8
SPEC
 62
     7
 10
14.178922704985951
 20
340.18577188510642
 30
0.0
 40
3.8006293402777769
  1
DVI-D
 41
0.7
 11
14.178922704985951
 21
343.98640122538421
 31
0.0
 73
     3
  0
TEXT
  5
64
  8
SPEC
 62
     7
 10
-63.383785990588521
 20
318.2285849960532
 30
0.0
 40
3.8006293402777769
  1
寸法
 41
0.7
 11
-63.383785990588521
 21
322.02921433633111
 31
0.0
 73
     3
  0
TEXT
  5
65
  8
SPEC
 62
     7
 10
-63.335103109499862
 20
310.5408877511
 30
0.0
 40
3.8006293402777769
  1
重量
 41
0.7
 11
-63.335103109499862
 21
314.34151709137791
 31
0.0
 73
     3
  0
TEXT
  5
66
  8
SPEC
 62
     7
 10
-63.198173723116881
 20
333.08512127790988
 30
0.0
 40
3.8006293402777769
  1
電源
 41
0.7
 11
-63.198173723116881
 21
336.88575061818773
 31
0.0
 73
     3
  0
TEXT
  5
67
  8
SPEC
 62
     7
 10
14.166237532575961
 20
332.66007030873681
 30
0.0
 40
3.8006293402777769
  1
5V DC
 41
0.7
 11
14.166237532575961
 21
336.4606996490146
 31
0.0
 73
     3
  0
TEXT
  5
68
  8
SPEC
 62
     7
 10
14.008311960117
 20
317.97808936611972
 30
0.0
 40
3.8006293402777769
  1
157(W)\U+00D725(H)\U+00D776(D)mm(突起部含まず)
 41
0.7
 11
14.008311960117
 21
321.7787187063974
 31
0.0
 73
     3
  0
TEXT
  5
69
  8
SPEC
 62
     7
 10
14.080829541272459
 20
310.50647956124902
 30
0.0
 40
3.8006293402777769
  1
約220g
 41
0.7
 11
14.080829541272459
 21
314.30710890152682
 31
0.0
 73
     3
  0
TEXT
  5
6A
  8
SPEC
 62
     7
 10
-63.291262483607333
 20
325.50433371957388
 30
0.0
 40
3.8006293402777769
  1
消費電力
 41
0.7
 11
-63.291262483607333
 21
329.30496305985167
 31
0.0
 73
     3
  0
TEXT
  5
6B
  8
SPEC
 62
     7
 10
14.020422106596779
 20
325.52515855511439
 30
0.0
 40
3.8006293402777769
  1
15W(最大)
 41
0.7
 11
14.020422106596779
 21
329.32578789539218
 31
0.0
 73
     3
  0
TEXT
  5
6C
  8
SPEC
 62
     7
 10
14.22131490081207
 20
377.79983359132513
 30
0.0
 40
3.8006293402777769
  1
DVI切替機
 41
0.7
 11
14.22131490081207
 21
381.60046293160292
 31
0.0
 73
     3
  0
TEXT
  5
6D
  8
DIMNSIONS
 62
     7
 10
60.0
 20
-91.942745453094787
 30
0.0
 40
4.8865234375000002
  1
(単位：mm)
 41
0.7
 11
60.0
 21
-87.056222015594784
 31
0.0
 73
     3
  0
LINE
  5
6E
  8
DIMNSIONS
  6
CONTINUOUS
 62
     7
 10
-31.249999999999989
 20
16.349999999999991
 30
0.0
 11
-31.249999999999989
 21
-4.0
 31
0.0
  0
LINE
  5
6F
  8
DIMNSIONS
  6
CONTINUOUS
 62
     7
 10
125.75
 20
16.349999999999991
 30
0.0
 11
125.75
 21
-4.0
 31
0.0
  0
LINE
  5
70
  8
DIMNSIONS
  6
CONTINUOUS
 62
     7
 10
-31.249999999999989
 20
0.0
 30
0.0
 11
125.75
 21
0.0
 31
0.0
  0
LINE
  5
71
  8
DIMNSIONS
  6
CONTINUOUS
 62
     7
 10
-31.249999999999989
 20
0.0
 30
0.0
 11
-26.248754882812491
 21
1.3400795903004901
 31
0.0
  0
LINE
  5
72
  8
DIMNSIONS
  6
CONTINUOUS
 62
     7
 10
-31.249999999999989
 20
0.0
 30
0.0
 11
-26.248754882812491
 21
-1.3400795903004901
 31
0.0
  0
LINE
  5
73
  8
DIMNSIONS
  6
CONTINUOUS
 62
     7
 10
125.75
 20
0.0
 30
0.0
 11
120.74875488281241
 21
-1.3400795903004901
 31
0.0
  0
LINE
  5
74
  8
DIMNSIONS
  6
CONTINUOUS
 62
     7
 10
125.75
 20
0.0
 30
0.0
 11
120.74875488281241
 21
1.3400795903004901
 31
0.0
  0
TEXT
  5
75
  8
DIMNSIONS
 62
     7
 10
41.958333333333329
 20
1.987777777777753
 30
0.0
 40
5.4294704861111107
  1
157
 41
0.7
 11
41.958333333333329
 21
7.4172482638888653
 31
0.0
 73
     3
  0
LINE
  5
76
  8
DIMNSIONS
  6
CONTINUOUS
 62
     7
 10
-33.649999999999991
 20
18.75
 30
0.0
 11
-47.750000000000021
 21
18.75
 31
0.0
  0
LINE
  5
77
  8
DIMNSIONS
  6
CONTINUOUS
 62
     7
 10
-33.649999999999991
 20
43.75
 30
0.0
 11
-47.750000000000021
 21
43.75
 31
0.0
  0
LINE
  5
78
  8
DIMNSIONS
  6
CONTINUOUS
 62
     7
 10
-43.750000000000021
 20
18.75
 30
0.0
 11
-43.750000000000021
 21
43.75
 31
0.0
  0
LINE
  5
79
  8
DIMNSIONS
  6
CONTINUOUS
 62
     7
 10
-43.750000000000021
 20
18.75
 30
0.0
 11
-45.090079590300498
 21
23.751245117187491
 31
0.0
  0
LINE
  5
7A
  8
DIMNSIONS
  6
CONTINUOUS
 62
     7
 10
-43.750000000000021
 20
18.75
 30
0.0
 11
-42.409920409699517
 21
23.751245117187491
 31
0.0
  0
LINE
  5
7B
  8
DIMNSIONS
  6
CONTINUOUS
 62
     7
 10
-43.750000000000021
 20
43.75
 30
0.0
 11
-42.409920409699517
 21
38.748754882812513
 31
0.0
  0
LINE
  5
7C
  8
DIMNSIONS
  6
CONTINUOUS
 62
     7
 10
-43.750000000000021
 20
43.75
 30
0.0
 11
-45.090079590300498
 21
38.748754882812513
 31
0.0
  0
TEXT
  5
7D
  8
DIMNSIONS
 62
     7
 10
-45.737777777777772
 20
27.722222222222229
 30
0.0
 40
5.4294704861111107
  1
25
 50
90.0
 41
0.7
 11
-51.167248263888887
 21
27.722222222222229
 31
0.0
 73
     3
  0
LINE
  5
7E
  8
DIMNSIONS
  6
CONTINUOUS
 62
     7
 10
-30.681971941627172
 20
15.75
 30
0.0
 11
-47.750000000000021
 21
15.75
 31
0.0
  0
LINE
  5
7F
  8
DIMNSIONS
  6
CONTINUOUS
 62
     7
 10
-33.649999999999991
 20
18.75
 30
0.0
 11
-47.750000000000021
 21
18.75
 31
0.0
  0
LINE
  5
80
  8
DIMNSIONS
  6
CONTINUOUS
 62
     7
 10
-43.750000000000021
 20
18.75
 30
0.0
 11
-43.750000000000021
 21
15.75
 31
0.0
  0
LINE
  5
81
  8
DIMNSIONS
  6
CONTINUOUS
 62
     7
 10
-43.750000000000021
 20
15.75
 30
0.0
 11
-43.750000000000021
 21
2.7222222222222281
 31
0.0
  0
LINE
  5
82
  8
DIMNSIONS
  6
CONTINUOUS
 62
     7
 10
-43.750000000000021
 20
15.75
 30
0.0
 11
-42.409920409699517
 21
10.7487548828125
 31
0.0
  0
LINE
  5
83
  8
DIMNSIONS
  6
CONTINUOUS
 62
     7
 10
-43.750000000000021
 20
15.75
 30
0.0
 11
-45.090079590300498
 21
10.7487548828125
 31
0.0
  0
LINE
  5
84
  8
DIMNSIONS
  6
CONTINUOUS
 62
     7
 10
-43.750000000000021
 20
18.75
 30
0.0
 11
-43.750000000000021
 21
28.75
 31
0.0
  0
LINE
  5
85
  8
DIMNSIONS
  6
CONTINUOUS
 62
     7
 10
-43.750000000000021
 20
18.75
 30
0.0
 11
-45.090079590300498
 21
23.751245117187491
 31
0.0
  0
LINE
  5
86
  8
DIMNSIONS
  6
CONTINUOUS
 62
     7
 10
-43.750000000000021
 20
18.75
 30
0.0
 11
-42.409920409699517
 21
23.751245117187491
 31
0.0
  0
TEXT
  5
87
  8
DIMNSIONS
 62
     7
 10
-45.737777777777772
 20
2.7222222222222281
 30
0.0
 40
5.4294704861111107
  1
3
 50
90.0
 41
0.7
 11
-51.167248263888887
 21
2.7222222222222281
 31
0.0
 73
     3
  0
LINE
  5
88
  8
DIMNSIONS
  6
CONTINUOUS
 62
     7
 10
-35.249999999999993
 20
68.75
 30
0.0
 11
-47.750000000000021
 21
68.75
 31
0.0
  0
LINE
  5
89
  8
DIMNSIONS
  6
CONTINUOUS
 62
     7
 10
-35.249999999999993
 20
144.75
 30
0.0
 11
-47.750000000000021
 21
144.75
 31
0.0
  0
LINE
  5
8A
  8
DIMNSIONS
  6
CONTINUOUS
 62
     7
 10
-43.750000000000021
 20
68.75
 30
0.0
 11
-43.750000000000021
 21
144.75
 31
0.0
  0
LINE
  5
8B
  8
DIMNSIONS
  6
CONTINUOUS
 62
     7
 10
-43.750000000000021
 20
68.75
 30
0.0
 11
-45.090079590300498
 21
73.75124511718748
 31
0.0
  0
LINE
  5
8C
  8
DIMNSIONS
  6
CONTINUOUS
 62
     7
 10
-43.750000000000021
 20
68.75
 30
0.0
 11
-42.409920409699517
 21
73.75124511718748
 31
0.0
  0
LINE
  5
8D
  8
DIMNSIONS
  6
CONTINUOUS
 62
     7
 10
-43.750000000000021
 20
144.75
 30
0.0
 11
-42.409920409699517
 21
139.74875488281251
 31
0.0
  0
LINE
  5
8E
  8
DIMNSIONS
  6
CONTINUOUS
 62
     7
 10
-43.750000000000021
 20
144.75
 30
0.0
 11
-45.090079590300498
 21
139.74875488281251
 31
0.0
  0
TEXT
  5
8F
  8
DIMNSIONS
 62
     7
 10
-45.737777777777772
 20
103.2222222222222
 30
0.0
 40
5.4294704861111107
  1
76
 50
90.0
 41
0.7
 11
-51.167248263888887
 21
103.2222222222222
 31
0.0
 73
     3
  0
LINE
  5
90
  8
DIMNSIONS
  6
CONTINUOUS
 62
     7
 10
63.100000000000023
 20
65.75
 30
0.0
 11
-47.750000000000021
 21
65.75
 31
0.0
  0
LINE
  5
91
  8
DIMNSIONS
  6
CONTINUOUS
 62
     7
 10
-35.249999999999993
 20
68.75
 30
0.0
 11
-47.750000000000021
 21
68.75
 31
0.0
  0
LINE
  5
92
  8
DIMNSIONS
  6
CONTINUOUS
 62
     7
 10
-43.750000000000021
 20
68.75
 30
0.0
 11
-43.750000000000021
 21
65.75
 31
0.0
  0
LINE
  5
93
  8
DIMNSIONS
  6
CONTINUOUS
 62
     7
 10
-43.750000000000021
 20
65.75
 30
0.0
 11
-43.750000000000021
 21
52.722222222222221
 31
0.0
  0
LINE
  5
94
  8
DIMNSIONS
  6
CONTINUOUS
 62
     7
 10
-43.750000000000021
 20
65.75
 30
0.0
 11
-42.409920409699517
 21
60.748754882812499
 31
0.0
  0
LINE
  5
95
  8
DIMNSIONS
  6
CONTINUOUS
 62
     7
 10
-43.750000000000021
 20
65.75
 30
0.0
 11
-45.090079590300498
 21
60.748754882812499
 31
0.0
  0
LINE
  5
96
  8
DIMNSIONS
  6
CONTINUOUS
 62
     7
 10
-43.750000000000021
 20
68.75
 30
0.0
 11
-43.750000000000021
 21
78.75
 31
0.0
  0
LINE
  5
97
  8
DIMNSIONS
  6
CONTINUOUS
 62
     7
 10
-43.750000000000021
 20
68.75
 30
0.0
 11
-45.090079590300498
 21
73.75124511718748
 31
0.0
  0
LINE
  5
98
  8
DIMNSIONS
  6
CONTINUOUS
 62
     7
 10
-43.750000000000021
 20
68.75
 30
0.0
 11
-42.409920409699517
 21
73.75124511718748
 31
0.0
  0
TEXT
  5
99
  8
DIMNSIONS
 62
     7
 10
-45.737777777777772
 20
52.722222222222221
 30
0.0
 40
5.4294704861111107
  1
3
 50
90.0
 41
0.7
 11
-51.167248263888887
 21
52.722222222222221
 31
0.0
 73
     3
  0
LINE
  5
9A
  8
DIMNSIONS
  6
CONTINUOUS
 62
     7
 10
-35.249999999999993
 20
144.75
 30
0.0
 11
-47.750000000000021
 21
144.75
 31
0.0
  0
LINE
  5
9B
  8
DIMNSIONS
  6
CONTINUOUS
 62
     7
 10
-28.859350439586319
 20
149.75000000009209
 30
0.0
 11
-47.750000000000021
 21
149.75000000009209
 31
0.0
  0
LINE
  5
9C
  8
DIMNSIONS
  6
CONTINUOUS
 62
     7
 10
-43.750000000000021
 20
149.75000000009209
 30
0.0
 11
-43.750000000000021
 21
144.75
 31
0.0
  0
LINE
  5
9D
  8
DIMNSIONS
  6
CONTINUOUS
 62
     7
 10
-43.750000000000021
 20
144.75
 30
0.0
 11
-43.750000000000021
 21
134.75
 31
0.0
  0
LINE
  5
9E
  8
DIMNSIONS
  6
CONTINUOUS
 62
     7
 10
-43.750000000000021
 20
144.75
 30
0.0
 11
-42.409920409699517
 21
139.74875488281251
 31
0.0
  0
LINE
  5
9F
  8
DIMNSIONS
  6
CONTINUOUS
 62
     7
 10
-43.750000000000021
 20
144.75
 30
0.0
 11
-45.090079590300498
 21
139.74875488281251
 31
0.0
  0
LINE
  5
A0
  8
DIMNSIONS
  6
CONTINUOUS
 62
     7
 10
-43.750000000000021
 20
149.75000000009209
 30
0.0
 11
-43.750000000000021
 21
159.77777777777769
 31
0.0
  0
LINE
  5
A1
  8
DIMNSIONS
  6
CONTINUOUS
 62
     7
 10
-43.750000000000021
 20
149.75000000009209
 30
0.0
 11
-45.090079590300498
 21
154.75124511727969
 31
0.0
  0
LINE
  5
A2
  8
DIMNSIONS
  6
CONTINUOUS
 62
     7
 10
-43.750000000000021
 20
149.75000000009209
 30
0.0
 11
-42.409920409699517
 21
154.75124511727969
 31
0.0
  0
TEXT
  5
A3
  8
DIMNSIONS
 62
     7
 10
-45.737777777777772
 20
156.25
 30
0.0
 40
5.4294704861111107
  1
5
 50
90.0
 41
0.7
 11
-51.167248263888887
 21
156.25
 31
0.0
 73
     3
  0
TEXT
  5
A4
  8
DATA
 62
     7
 10
-60.0
 20
-108.0057254530948
 30
0.0
 40
3.2576822916666659
  1
仕様および外観は予告なく変更されることがありますので、ご了承ください。
 41
0.7
 11
-60.0
 21
-104.7480431614282
 31
0.0
 73
     3
  0
TEXT
  5
A5
  8
DATA
 62
     7
 10
199.69999999999999
 20
-94.339548033015404
 30
0.0
 40
4.8865234375000002
  1
EXT-MINIDVI-241N
 41
0.7
 11
199.69999999999999
 21
-89.453024595515387
 31
0.0
 73
     3
  0
TEXT
  5
A6
  8
DATA
 62
     7
 10
199.77608675388549
 20
-78.459714364339845
 30
0.0
 40
4.8865234375000002
  1
Gefen
 41
0.7
 11
199.77608675388549
 21
-73.573190926839843
 31
0.0
 73
     3
  0
LINE
  5
A7
  8
DATA
  6
CONTINUOUS
 62
     7
 10
-31.249999999999989
 20
20.350000000000001
 30
0.0
 11
-31.249999999999989
 21
42.150000000000013
 31
0.0
  0
LINE
  5
A8
  8
DATA
  6
CONTINUOUS
 62
     7
 10
124.15000000000001
 20
18.75
 30
0.0
 11
113.75
 21
18.75
 31
0.0
  0
LINE
  5
A9
  8
DATA
  6
CONTINUOUS
 62
     7
 10
-19.249999999999979
 20
18.75
 30
0.0
 11
-29.649999999999991
 21
18.75
 31
0.0
  0
LINE
  5
AA
  8
DATA
  6
CONTINUOUS
 62
     7
 10
125.75
 20
42.150000000000013
 30
0.0
 11
125.75
 21
20.350000000000001
 31
0.0
  0
LINE
  5
AB
  8
DATA
  6
CONTINUOUS
 62
     7
 10
-29.649999999999991
 20
43.75
 30
0.0
 11
124.15000000000001
 21
43.75
 31
0.0
  0
LINE
  5
AC
  8
DATA
  6
CONTINUOUS
 62
     7
 10
168.75
 20
18.75
 30
0.0
 11
168.75
 21
43.75
 31
0.0
  0
LINE
  5
AD
  8
DATA
  6
CONTINUOUS
 62
     7
 10
244.75
 20
18.75
 30
0.0
 11
168.75
 21
18.75
 31
0.0
  0
LINE
  5
AE
  8
DATA
  6
CONTINUOUS
 62
     7
 10
244.75
 20
43.75
 30
0.0
 11
244.75
 21
18.75
 31
0.0
  0
LINE
  5
AF
  8
DATA
  6
CONTINUOUS
 62
     7
 10
168.75
 20
43.75
 30
0.0
 11
244.75
 21
43.75
 31
0.0
  0
LINE
  5
B0
  8
DATA
  6
CONTINUOUS
 62
     7
 10
-31.249999999999989
 20
68.75
 30
0.0
 11
-31.249999999999989
 21
144.75
 31
0.0
  0
LINE
  5
B1
  8
DATA
  6
CONTINUOUS
 62
     7
 10
125.75
 20
68.75
 30
0.0
 11
-31.249999999999989
 21
68.75
 31
0.0
  0
LINE
  5
B2
  8
DATA
  6
CONTINUOUS
 62
     7
 10
125.75
 20
144.75
 30
0.0
 11
125.75
 21
68.75
 31
0.0
  0
LINE
  5
B3
  8
DATA
  6
CONTINUOUS
 62
     7
 10
-31.249999999999989
 20
144.75
 30
0.0
 11
125.75
 21
144.75
 31
0.0
  0
LINE
  5
B4
  8
DATA
  6
CONTINUOUS
 62
     7
 10
122.55
 20
20.350000000000001
 30
0.0
 11
-28.050000000000001
 21
20.350000000000001
 31
0.0
  0
LINE
  5
B5
  8
DATA
  6
CONTINUOUS
 62
     7
 10
-28.050000000000001
 20
42.150000000000013
 30
0.0
 11
122.55
 21
42.150000000000013
 31
0.0
  0
LINE
  5
B6
  8
DATA
  6
CONTINUOUS
 62
     7
 10
-29.649999999999991
 20
21.949999999999989
 30
0.0
 11
-29.649999999999991
 21
40.550000000000011
 31
0.0
  0
LINE
  5
B7
  8
DATA
  6
CONTINUOUS
 62
     7
 10
124.15000000000001
 20
40.550000000000011
 30
0.0
 11
124.15000000000001
 21
21.949999999999989
 31
0.0
  0
LINE
  5
B8
  8
DATA
  6
CONTINUOUS
 62
     7
 10
-19.249999999999979
 20
18.75
 30
0.0
 11
-19.249999999999979
 21
20.350000000000001
 31
0.0
  0
LINE
  5
B9
  8
DATA
  6
CONTINUOUS
 62
     7
 10
113.75
 20
18.75
 30
0.0
 11
113.75
 21
20.350000000000001
 31
0.0
  0
ARC
  5
BA
  8
DATA
  6
CONTINUOUS
 62
     7
 10
-28.050000000000001
 20
40.550000000000011
 30
0.0
 40
1.5999999999999941
 50
90.0
 51
180.0
  0
ARC
  5
BB
  8
DATA
  6
CONTINUOUS
 62
     7
 10
-29.649999999999991
 20
42.150000000000013
 30
0.0
 40
1.5999999999999941
 50
90.0
 51
180.0
  0
ARC
  5
BC
  8
DATA
  6
CONTINUOUS
 62
     7
 10
-28.049999999999969
 20
21.949999999999989
 30
0.0
 40
1.6000000000000221
 50
180.0
 51
269.99999999999898
  0
ARC
  5
BD
  8
DATA
  6
CONTINUOUS
 62
     7
 10
-29.65000000000002
 20
20.350000000000001
 30
0.0
 40
1.599999999999965
 50
180.0
 51
270.00000000000102
  0
ARC
  5
BE
  8
DATA
  6
CONTINUOUS
 62
     7
 10
122.55
 20
21.949999999999989
 30
0.0
 40
1.5999999999999941
 50
270.0
 51
0.0
  0
ARC
  5
BF
  8
DATA
  6
CONTINUOUS
 62
     7
 10
124.15000000000001
 20
20.350000000000001
 30
0.0
 40
1.5999999999999941
 50
270.0
 51
0.0
  0
ARC
  5
C0
  8
DATA
  6
CONTINUOUS
 62
     7
 10
122.55
 20
40.550000000000011
 30
0.0
 40
1.600000000000001
 50
0.0
 51
90.0
  0
ARC
  5
C1
  8
DATA
  6
CONTINUOUS
 62
     7
 10
124.15000000000001
 20
42.150000000000013
 30
0.0
 40
1.600000000000001
 50
0.0
 51
90.0
  0
LINE
  5
C2
  8
DATA
  6
CONTINUOUS
 62
     7
 10
-26.681971941627179
 20
15.75
 30
0.0
 11
-27.681971941626809
 21
18.75
 31
0.0
  0
LINE
  5
C3
  8
DATA
  6
CONTINUOUS
 62
     7
 10
-20.681971941627179
 20
15.75
 30
0.0
 11
-19.681971941627179
 21
18.75
 31
0.0
  0
LINE
  5
C4
  8
DATA
  6
CONTINUOUS
 62
     7
 10
-26.681971941627179
 20
15.75
 30
0.0
 11
-20.681971941627179
 21
15.75
 31
0.0
  0
LINE
  5
C5
  8
DATA
  6
CONTINUOUS
 62
     7
 10
121.1819719416271
 20
15.75
 30
0.0
 11
122.1819719416268
 21
18.75
 31
0.0
  0
LINE
  5
C6
  8
DATA
  6
CONTINUOUS
 62
     7
 10
115.1819719416271
 20
15.75
 30
0.0
 11
114.1819719416271
 21
18.75
 31
0.0
  0
LINE
  5
C7
  8
DATA
  6
CONTINUOUS
 62
     7
 10
121.1819719416271
 20
15.75
 30
0.0
 11
115.1819719416271
 21
15.75
 31
0.0
  0
CIRCLE
  5
C8
  8
DATA
  6
CONTINUOUS
 62
     7
 10
-6.2499999999999849
 20
31.75
 30
0.0
 40
1.5
  0
CIRCLE
  5
C9
  8
DATA
  6
CONTINUOUS
 62
     7
 10
6.3500000000000076
 20
31.75
 30
0.0
 40
2.5
  0
CIRCLE
  5
CA
  8
DATA
  6
CONTINUOUS
 62
     7
 10
34.350000000000009
 20
31.75
 30
0.0
 40
1.5
  0
CIRCLE
  5
CB
  8
DATA
  6
CONTINUOUS
 62
     7
 10
52.750000000000021
 20
31.75
 30
0.0
 40
1.5
  0
CIRCLE
  5
CC
  8
DATA
  6
CONTINUOUS
 62
     7
 10
101.75
 20
31.75
 30
0.0
 40
1.849999999999999
  0
LINE
  5
CD
  8
DATA
  6
CONTINUOUS
 62
     7
 10
101.0968027352578
 20
31.09680273525781
 30
0.0
 11
102.4031972647422
 21
32.403197264742197
 31
0.0
  0
LINE
  5
CE
  8
DATA
  6
CONTINUOUS
 62
     7
 10
102.4031972647422
 20
31.09680273525781
 30
0.0
 11
101.0968027352578
 21
32.403197264742197
 31
0.0
  0
CIRCLE
  5
CF
  8
DATA
  6
CONTINUOUS
 62
     7
 10
88.749999999999986
 20
31.75
 30
0.0
 40
1.849999999999999
  0
LINE
  5
D0
  8
DATA
  6
CONTINUOUS
 62
     7
 10
88.096802735257796
 20
31.09680273525781
 30
0.0
 11
89.403197264742204
 21
32.403197264742197
 31
0.0
  0
LINE
  5
D1
  8
DATA
  6
CONTINUOUS
 62
     7
 10
89.403197264742204
 20
31.09680273525781
 30
0.0
 11
88.096802735257796
 21
32.403197264742197
 31
0.0
  0
CIRCLE
  5
D2
  8
DATA
  6
CONTINUOUS
 62
     7
 10
71.750000000000014
 20
30.756340666173799
 30
0.0
 40
4.6499999999999986
  0
CIRCLE
  5
D3
  8
DATA
  6
CONTINUOUS
 62
     7
 10
21.350000000000009
 20
28.780739664831799
 30
0.0
 40
3.0
  0
CIRCLE
  5
D4
  8
DATA
  6
CONTINUOUS
 62
     7
 10
21.350000000000009
 20
28.780739664831799
 30
0.0
 40
1.75
  0
TEXT
  5
D5
  8
DATA
 62
     7
 10
97.634271606567481
 20
35.208795061565489
 30
0.0
 40
5.4294704861111107
  1
miniDVI
 41
0.7
 11
97.634271606567481
 21
40.638265547676603
 31
0.0
 73
     3
  0
TEXT
  5
D6
  8
DATA
 62
     7
 10
105.2689072520415
 20
30.52653906027615
 30
0.0
 40
3.2576822916666659
  1
switcher
 41
0.7
 11
105.2689072520415
 21
33.784221351942819
 31
0.0
 73
     3
  0
TEXT
  5
D7
  8
DATA
 62
     7
 10
-9.7994235307934048
 20
21.299323115497469
 30
0.0
 40
2.1717881944444439
  1
Power
 41
0.7
 11
-9.7994235307934048
 21
23.471111309941922
 31
0.0
 73
     3
  0
TEXT
  5
D8
  8
DATA
 62
     7
 10
4.6230031970006564
 20
21.299323115497469
 30
0.0
 40
2.1717881944444439
  1
IR
 41
0.7
 11
4.6230031970006564
 21
23.471111309941922
 31
0.0
 73
     3
  0
TEXT
  5
D9
  8
DATA
 62
     7
 10
16.996140059199199
 20
21.299323115497469
 30
0.0
 40
2.1717881944444439
  1
Ext-IR
 41
0.7
 11
16.996140059199199
 21
23.471111309941922
 31
0.0
 73
     3
  0
TEXT
  5
DA
  8
DATA
 62
     7
 10
33.61933758644642
 20
21.299323115497469
 30
0.0
 40
2.1717881944444439
  1
1
 41
0.7
 11
33.61933758644642
 21
23.471111309941922
 31
0.0
 73
     3
  0
TEXT
  5
DB
  8
DATA
 62
     7
 10
51.837008592475371
 20
21.299323115497469
 30
0.0
 40
2.1717881944444439
  1
2
 41
0.7
 11
51.837008592475371
 21
23.471111309941922
 31
0.0
 73
     3
  0
TEXT
  5
DC
  8
DATA
 62
     7
 10
66.892029879646685
 20
21.299323115497469
 30
0.0
 40
2.1717881944444439
  1
Select
 41
0.7
 11
66.892029879646685
 21
23.471111309941922
 31
0.0
 73
     3
  0
TEXT
  5
DD
  8
DATA
 62
     7
 10
85.761814257030025
 20
21.299323115497469
 30
0.0
 40
2.1717881944444439
  1
EQ 1
 41
0.7
 11
85.761814257030025
 21
23.471111309941922
 31
0.0
 73
     3
  0
TEXT
  5
DE
  8
DATA
 62
     7
 10
99.305483104615433
 20
21.299323115497469
 30
0.0
 40
2.1717881944444439
  1
EQ 2
 41
0.7
 11
99.305483104615433
 21
23.471111309941922
 31
0.0
 73
     3
  0
LINE
  5
DF
  8
DATA
  6
CONTINUOUS
 62
     7
 10
-31.249999999999989
 20
210.90000000000001
 30
0.0
 11
-31.249999999999989
 21
189.09999999999999
 31
0.0
  0
LINE
  5
E0
  8
DATA
  6
CONTINUOUS
 62
     7
 10
124.15000000000001
 20
212.5
 30
0.0
 11
113.75
 21
212.5
 31
0.0
  0
LINE
  5
E1
  8
DATA
  6
CONTINUOUS
 62
     7
 10
-19.249999999999979
 20
212.5
 30
0.0
 11
-29.649999999999991
 21
212.5
 31
0.0
  0
LINE
  5
E2
  8
DATA
  6
CONTINUOUS
 62
     7
 10
125.75
 20
189.09999999999999
 30
0.0
 11
125.75
 21
210.90000000000001
 31
0.0
  0
LINE
  5
E3
  8
DATA
  6
CONTINUOUS
 62
     7
 10
-29.649999999999991
 20
187.5
 30
0.0
 11
124.15000000000001
 21
187.5
 31
0.0
  0
LINE
  5
E4
  8
DATA
  6
CONTINUOUS
 62
     7
 10
122.55
 20
210.90000000000001
 30
0.0
 11
-28.050000000000001
 21
210.90000000000001
 31
0.0
  0
LINE
  5
E5
  8
DATA
  6
CONTINUOUS
 62
     7
 10
-29.649999999999991
 20
209.30000000000001
 30
0.0
 11
-29.649999999999991
 21
189.09999999999999
 31
0.0
  0
LINE
  5
E6
  8
DATA
  6
CONTINUOUS
 62
     7
 10
124.15000000000001
 20
189.09999999999999
 30
0.0
 11
124.15000000000001
 21
209.30000000000001
 31
0.0
  0
LINE
  5
E7
  8
DATA
  6
CONTINUOUS
 62
     7
 10
-19.249999999999979
 20
212.5
 30
0.0
 11
-19.249999999999979
 21
210.90000000000001
 31
0.0
  0
LINE
  5
E8
  8
DATA
  6
CONTINUOUS
 62
     7
 10
113.75
 20
212.5
 30
0.0
 11
113.75
 21
210.90000000000001
 31
0.0
  0
ARC
  5
E9
  8
DATA
  6
CONTINUOUS
 62
     7
 10
-29.649999999999991
 20
189.09999999999999
 30
0.0
 40
1.5999999999999941
 50
180.0
 51
270.0
  0
ARC
  5
EA
  8
DATA
  6
CONTINUOUS
 62
     7
 10
-28.049999999999969
 20
209.30000000000001
 30
0.0
 40
1.5999999999999941
 50
90.000000000001009
 51
180.0
  0
ARC
  5
EB
  8
DATA
  6
CONTINUOUS
 62
     7
 10
-29.65000000000002
 20
210.90000000000001
 30
0.0
 40
1.5999999999999941
 50
89.999999999998977
 51
180.0
  0
ARC
  5
EC
  8
DATA
  6
CONTINUOUS
 62
     7
 10
122.55
 20
209.30000000000001
 30
0.0
 40
1.600000000000001
 50
0.0
 51
90.0
  0
ARC
  5
ED
  8
DATA
  6
CONTINUOUS
 62
     7
 10
124.15000000000001
 20
210.90000000000001
 30
0.0
 40
1.600000000000001
 50
0.0
 51
90.0
  0
ARC
  5
EE
  8
DATA
  6
CONTINUOUS
 62
     7
 10
124.15000000000001
 20
189.09999999999999
 30
0.0
 40
1.5999999999999941
 50
270.0
 51
0.0
  0
LINE
  5
EF
  8
DATA
  6
CONTINUOUS
 62
     7
 10
-26.681971941627179
 20
215.5
 30
0.0
 11
-27.681971941626809
 21
212.5
 31
0.0
  0
LINE
  5
F0
  8
DATA
  6
CONTINUOUS
 62
     7
 10
-20.681971941627179
 20
215.5
 30
0.0
 11
-19.681971941627179
 21
212.5
 31
0.0
  0
LINE
  5
F1
  8
DATA
  6
CONTINUOUS
 62
     7
 10
-26.681971941627179
 20
215.5
 30
0.0
 11
-20.681971941627179
 21
215.5
 31
0.0
  0
LINE
  5
F2
  8
DATA
  6
CONTINUOUS
 62
     7
 10
121.1819719416271
 20
215.5
 30
0.0
 11
122.1819719416268
 21
212.5
 31
0.0
  0
LINE
  5
F3
  8
DATA
  6
CONTINUOUS
 62
     7
 10
115.1819719416271
 20
215.5
 30
0.0
 11
114.1819719416271
 21
212.5
 31
0.0
  0
LINE
  5
F4
  8
DATA
  6
CONTINUOUS
 62
     7
 10
121.1819719416271
 20
215.5
 30
0.0
 11
115.1819719416271
 21
215.5
 31
0.0
  0
CIRCLE
  5
F5
  8
DATA
  6
CONTINUOUS
 62
     7
 10
9.9789181506714169
 20
199.9994354934193
 30
0.0
 40
1.175000000000068
  0
POLYLINE
  5
F6
  8
DATA
  6
CONTINUOUS
 62
     7
 66
     1
 10
0.0
 20
0.0
 30
0.0
 70
     1
  0
VERTEX
  5
4CB
  8
DATA
  6
CONTINUOUS
 62
     7
 10
9.9789181506714169
 20
197.2994354934194
 30
0.0
  0
VERTEX
  5
4CC
  8
DATA
  6
CONTINUOUS
 62
     7
 10
12.317186740889341
 20
198.64943549341939
 30
0.0
  0
VERTEX
  5
4CD
  8
DATA
  6
CONTINUOUS
 62
     7
 10
12.317186740889341
 20
201.34943549341929
 30
0.0
  0
VERTEX
  5
4CE
  8
DATA
  6
CONTINUOUS
 62
     7
 10
9.9789181506714169
 20
202.6994354934192
 30
0.0
  0
VERTEX
  5
4CF
  8
DATA
  6
CONTINUOUS
 62
     7
 10
7.6406495604533822
 20
201.34943549341929
 30
0.0
  0
VERTEX
  5
4D0
  8
DATA
  6
CONTINUOUS
 62
     7
 10
7.6406495604533822
 20
198.64943549341939
 30
0.0
  0
SEQEND
  5
4D1
  8
DATA
  6
CONTINUOUS
 62
     7
  0
CIRCLE
  5
FF
  8
DATA
  6
CONTINUOUS
 62
     7
 10
-22.521081849329089
 20
199.9994354934193
 30
0.0
 40
1.175000000000068
  0
POLYLINE
  5
100
  8
DATA
  6
CONTINUOUS
 62
     7
 66
     1
 10
0.0
 20
0.0
 30
0.0
 70
     1
  0
VERTEX
  5
4D2
  8
DATA
  6
CONTINUOUS
 62
     7
 10
-22.521081849329089
 20
197.2994354934194
 30
0.0
  0
VERTEX
  5
4D3
  8
DATA
  6
CONTINUOUS
 62
     7
 10
-20.182813259111171
 20
198.64943549341939
 30
0.0
  0
VERTEX
  5
4D4
  8
DATA
  6
CONTINUOUS
 62
     7
 10
-20.182813259111171
 20
201.34943549341929
 30
0.0
  0
VERTEX
  5
4D5
  8
DATA
  6
CONTINUOUS
 62
     7
 10
-22.521081849329089
 20
202.6994354934192
 30
0.0
  0
VERTEX
  5
4D6
  8
DATA
  6
CONTINUOUS
 62
     7
 10
-24.859350439547129
 20
201.34943549341929
 30
0.0
  0
VERTEX
  5
4D7
  8
DATA
  6
CONTINUOUS
 62
     7
 10
-24.859350439547129
 20
198.64943549341939
 30
0.0
  0
SEQEND
  5
4D8
  8
DATA
  6
CONTINUOUS
 62
     7
  0
LINE
  5
109
  8
DATA
  6
CONTINUOUS
 62
     7
 10
4.678823037863153
 20
196.0744354934194
 30
0.0
 11
-17.220986736520938
 21
196.0744354934194
 31
0.0
  0
LINE
  5
10A
  8
DATA
  6
CONTINUOUS
 62
     7
 10
-16.662069539068671
 20
203.9244354934194
 30
0.0
 11
4.1199058404108788
 21
203.9244354934194
 31
0.0
  0
POLYLINE
  5
10B
  8
DATA
  6
CONTINUOUS
 62
     7
 66
     1
 10
0.0
 20
0.0
 30
0.0
 70
     1
  0
VERTEX
  5
4D9
  8
DATA
  6
CONTINUOUS
 62
     7
 10
3.1989843218506882
 20
200.76443549341931
 30
0.0
  0
VERTEX
  5
4DA
  8
DATA
  6
CONTINUOUS
 62
     7
 10
4.7289843218506604
 20
200.76443549341931
 30
0.0
  0
VERTEX
  5
4DB
  8
DATA
  6
CONTINUOUS
 62
     7
 10
4.7289843218506604
 20
199.23443549341931
 30
0.0
  0
VERTEX
  5
4DC
  8
DATA
  6
CONTINUOUS
 62
     7
 10
3.1989843218506882
 20
199.23443549341931
 30
0.0
  0
SEQEND
  5
4DD
  8
DATA
  6
CONTINUOUS
 62
     7
  0
POLYLINE
  5
112
  8
DATA
  6
CONTINUOUS
 62
     7
 66
     1
 10
0.0
 20
0.0
 30
0.0
 70
     1
  0
VERTEX
  5
4DE
  8
DATA
  6
CONTINUOUS
 62
     7
 10
1.198984321850687
 20
200.76443549341931
 30
0.0
  0
VERTEX
  5
4DF
  8
DATA
  6
CONTINUOUS
 62
     7
 10
2.72898432185066
 20
200.76443549341931
 30
0.0
  0
VERTEX
  5
4E0
  8
DATA
  6
CONTINUOUS
 62
     7
 10
2.72898432185066
 20
199.23443549341931
 30
0.0
  0
VERTEX
  5
4E1
  8
DATA
  6
CONTINUOUS
 62
     7
 10
1.198984321850687
 20
199.23443549341931
 30
0.0
  0
SEQEND
  5
4E2
  8
DATA
  6
CONTINUOUS
 62
     7
  0
POLYLINE
  5
119
  8
DATA
  6
CONTINUOUS
 62
     7
 66
     1
 10
0.0
 20
0.0
 30
0.0
 70
     1
  0
VERTEX
  5
4E3
  8
DATA
  6
CONTINUOUS
 62
     7
 10
-0.8010156781493122
 20
200.76443549341931
 30
0.0
  0
VERTEX
  5
4E4
  8
DATA
  6
CONTINUOUS
 62
     7
 10
0.7289843218506605
 20
200.76443549341931
 30
0.0
  0
VERTEX
  5
4E5
  8
DATA
  6
CONTINUOUS
 62
     7
 10
0.7289843218506605
 20
199.23443549341931
 30
0.0
  0
VERTEX
  5
4E6
  8
DATA
  6
CONTINUOUS
 62
     7
 10
-0.8010156781493122
 20
199.23443549341931
 30
0.0
  0
SEQEND
  5
4E7
  8
DATA
  6
CONTINUOUS
 62
     7
  0
POLYLINE
  5
120
  8
DATA
  6
CONTINUOUS
 62
     7
 66
     1
 10
0.0
 20
0.0
 30
0.0
 70
     1
  0
VERTEX
  5
4E8
  8
DATA
  6
CONTINUOUS
 62
     7
 10
-2.8010156781493118
 20
200.76443549341931
 30
0.0
  0
VERTEX
  5
4E9
  8
DATA
  6
CONTINUOUS
 62
     7
 10
-1.2710156781493389
 20
200.76443549341931
 30
0.0
  0
VERTEX
  5
4EA
  8
DATA
  6
CONTINUOUS
 62
     7
 10
-1.2710156781493389
 20
199.23443549341931
 30
0.0
  0
VERTEX
  5
4EB
  8
DATA
  6
CONTINUOUS
 62
     7
 10
-2.8010156781493118
 20
199.23443549341931
 30
0.0
  0
SEQEND
  5
4EC
  8
DATA
  6
CONTINUOUS
 62
     7
  0
POLYLINE
  5
127
  8
DATA
  6
CONTINUOUS
 62
     7
 66
     1
 10
0.0
 20
0.0
 30
0.0
 70
     1
  0
VERTEX
  5
4ED
  8
DATA
  6
CONTINUOUS
 62
     7
 10
-4.8010156781493123
 20
200.76443549341931
 30
0.0
  0
VERTEX
  5
4EE
  8
DATA
  6
CONTINUOUS
 62
     7
 10
-3.27101567814934
 20
200.76443549341931
 30
0.0
  0
VERTEX
  5
4EF
  8
DATA
  6
CONTINUOUS
 62
     7
 10
-3.27101567814934
 20
199.23443549341931
 30
0.0
  0
VERTEX
  5
4F0
  8
DATA
  6
CONTINUOUS
 62
     7
 10
-4.8010156781493123
 20
199.23443549341931
 30
0.0
  0
SEQEND
  5
4F1
  8
DATA
  6
CONTINUOUS
 62
     7
  0
POLYLINE
  5
12E
  8
DATA
  6
CONTINUOUS
 62
     7
 66
     1
 10
0.0
 20
0.0
 30
0.0
 70
     1
  0
VERTEX
  5
4F2
  8
DATA
  6
CONTINUOUS
 62
     7
 10
-6.8010156781493123
 20
200.76443549341931
 30
0.0
  0
VERTEX
  5
4F3
  8
DATA
  6
CONTINUOUS
 62
     7
 10
-5.2710156781493387
 20
200.76443549341931
 30
0.0
  0
VERTEX
  5
4F4
  8
DATA
  6
CONTINUOUS
 62
     7
 10
-5.2710156781493387
 20
199.23443549341931
 30
0.0
  0
VERTEX
  5
4F5
  8
DATA
  6
CONTINUOUS
 62
     7
 10
-6.8010156781493123
 20
199.23443549341931
 30
0.0
  0
SEQEND
  5
4F6
  8
DATA
  6
CONTINUOUS
 62
     7
  0
POLYLINE
  5
135
  8
DATA
  6
CONTINUOUS
 62
     7
 66
     1
 10
0.0
 20
0.0
 30
0.0
 70
     1
  0
VERTEX
  5
4F7
  8
DATA
  6
CONTINUOUS
 62
     7
 10
-8.8010156781493123
 20
200.76443549341931
 30
0.0
  0
VERTEX
  5
4F8
  8
DATA
  6
CONTINUOUS
 62
     7
 10
-7.2710156781493387
 20
200.76443549341931
 30
0.0
  0
VERTEX
  5
4F9
  8
DATA
  6
CONTINUOUS
 62
     7
 10
-7.2710156781493387
 20
199.23443549341931
 30
0.0
  0
VERTEX
  5
4FA
  8
DATA
  6
CONTINUOUS
 62
     7
 10
-8.8010156781493123
 20
199.23443549341931
 30
0.0
  0
SEQEND
  5
4FB
  8
DATA
  6
CONTINUOUS
 62
     7
  0
POLYLINE
  5
13C
  8
DATA
  6
CONTINUOUS
 62
     7
 66
     1
 10
0.0
 20
0.0
 30
0.0
 70
     1
  0
VERTEX
  5
4FC
  8
DATA
  6
CONTINUOUS
 62
     7
 10
-10.801015678149311
 20
200.76443549341931
 30
0.0
  0
VERTEX
  5
4FD
  8
DATA
  6
CONTINUOUS
 62
     7
 10
-9.2710156781493414
 20
200.76443549341931
 30
0.0
  0
VERTEX
  5
4FE
  8
DATA
  6
CONTINUOUS
 62
     7
 10
-9.2710156781493414
 20
199.23443549341931
 30
0.0
  0
VERTEX
  5
4FF
  8
DATA
  6
CONTINUOUS
 62
     7
 10
-10.801015678149311
 20
199.23443549341931
 30
0.0
  0
SEQEND
  5
500
  8
DATA
  6
CONTINUOUS
 62
     7
  0
POLYLINE
  5
143
  8
DATA
  6
CONTINUOUS
 62
     7
 66
     1
 10
0.0
 20
0.0
 30
0.0
 70
     1
  0
VERTEX
  5
501
  8
DATA
  6
CONTINUOUS
 62
     7
 10
3.1989843218506882
 20
198.7644354934192
 30
0.0
  0
VERTEX
  5
502
  8
DATA
  6
CONTINUOUS
 62
     7
 10
4.7289843218506604
 20
198.7644354934192
 30
0.0
  0
VERTEX
  5
503
  8
DATA
  6
CONTINUOUS
 62
     7
 10
4.7289843218506604
 20
197.23443549341931
 30
0.0
  0
VERTEX
  5
504
  8
DATA
  6
CONTINUOUS
 62
     7
 10
3.1989843218506882
 20
197.23443549341931
 30
0.0
  0
SEQEND
  5
505
  8
DATA
  6
CONTINUOUS
 62
     7
  0
POLYLINE
  5
14A
  8
DATA
  6
CONTINUOUS
 62
     7
 66
     1
 10
0.0
 20
0.0
 30
0.0
 70
     1
  0
VERTEX
  5
506
  8
DATA
  6
CONTINUOUS
 62
     7
 10
1.198984321850687
 20
198.7644354934192
 30
0.0
  0
VERTEX
  5
507
  8
DATA
  6
CONTINUOUS
 62
     7
 10
2.72898432185066
 20
198.7644354934192
 30
0.0
  0
VERTEX
  5
508
  8
DATA
  6
CONTINUOUS
 62
     7
 10
2.72898432185066
 20
197.23443549341931
 30
0.0
  0
VERTEX
  5
509
  8
DATA
  6
CONTINUOUS
 62
     7
 10
1.198984321850687
 20
197.23443549341931
 30
0.0
  0
SEQEND
  5
50A
  8
DATA
  6
CONTINUOUS
 62
     7
  0
POLYLINE
  5
151
  8
DATA
  6
CONTINUOUS
 62
     7
 66
     1
 10
0.0
 20
0.0
 30
0.0
 70
     1
  0
VERTEX
  5
50B
  8
DATA
  6
CONTINUOUS
 62
     7
 10
-0.8010156781493122
 20
198.7644354934192
 30
0.0
  0
VERTEX
  5
50C
  8
DATA
  6
CONTINUOUS
 62
     7
 10
0.7289843218506605
 20
198.7644354934192
 30
0.0
  0
VERTEX
  5
50D
  8
DATA
  6
CONTINUOUS
 62
     7
 10
0.7289843218506605
 20
197.23443549341931
 30
0.0
  0
VERTEX
  5
50E
  8
DATA
  6
CONTINUOUS
 62
     7
 10
-0.8010156781493122
 20
197.23443549341931
 30
0.0
  0
SEQEND
  5
50F
  8
DATA
  6
CONTINUOUS
 62
     7
  0
POLYLINE
  5
158
  8
DATA
  6
CONTINUOUS
 62
     7
 66
     1
 10
0.0
 20
0.0
 30
0.0
 70
     1
  0
VERTEX
  5
510
  8
DATA
  6
CONTINUOUS
 62
     7
 10
-2.8010156781493118
 20
198.7644354934192
 30
0.0
  0
VERTEX
  5
511
  8
DATA
  6
CONTINUOUS
 62
     7
 10
-1.2710156781493389
 20
198.7644354934192
 30
0.0
  0
VERTEX
  5
512
  8
DATA
  6
CONTINUOUS
 62
     7
 10
-1.2710156781493389
 20
197.23443549341931
 30
0.0
  0
VERTEX
  5
513
  8
DATA
  6
CONTINUOUS
 62
     7
 10
-2.8010156781493118
 20
197.23443549341931
 30
0.0
  0
SEQEND
  5
514
  8
DATA
  6
CONTINUOUS
 62
     7
  0
POLYLINE
  5
15F
  8
DATA
  6
CONTINUOUS
 62
     7
 66
     1
 10
0.0
 20
0.0
 30
0.0
 70
     1
  0
VERTEX
  5
515
  8
DATA
  6
CONTINUOUS
 62
     7
 10
-4.8010156781493123
 20
198.7644354934192
 30
0.0
  0
VERTEX
  5
516
  8
DATA
  6
CONTINUOUS
 62
     7
 10
-3.27101567814934
 20
198.7644354934192
 30
0.0
  0
VERTEX
  5
517
  8
DATA
  6
CONTINUOUS
 62
     7
 10
-3.27101567814934
 20
197.23443549341931
 30
0.0
  0
VERTEX
  5
518
  8
DATA
  6
CONTINUOUS
 62
     7
 10
-4.8010156781493123
 20
197.23443549341931
 30
0.0
  0
SEQEND
  5
519
  8
DATA
  6
CONTINUOUS
 62
     7
  0
POLYLINE
  5
166
  8
DATA
  6
CONTINUOUS
 62
     7
 66
     1
 10
0.0
 20
0.0
 30
0.0
 70
     1
  0
VERTEX
  5
51A
  8
DATA
  6
CONTINUOUS
 62
     7
 10
-6.8010156781493123
 20
198.7644354934192
 30
0.0
  0
VERTEX
  5
51B
  8
DATA
  6
CONTINUOUS
 62
     7
 10
-5.2710156781493387
 20
198.7644354934192
 30
0.0
  0
VERTEX
  5
51C
  8
DATA
  6
CONTINUOUS
 62
     7
 10
-5.2710156781493387
 20
197.23443549341931
 30
0.0
  0
VERTEX
  5
51D
  8
DATA
  6
CONTINUOUS
 62
     7
 10
-6.8010156781493123
 20
197.23443549341931
 30
0.0
  0
SEQEND
  5
51E
  8
DATA
  6
CONTINUOUS
 62
     7
  0
POLYLINE
  5
16D
  8
DATA
  6
CONTINUOUS
 62
     7
 66
     1
 10
0.0
 20
0.0
 30
0.0
 70
     1
  0
VERTEX
  5
51F
  8
DATA
  6
CONTINUOUS
 62
     7
 10
-8.8010156781493123
 20
198.7644354934192
 30
0.0
  0
VERTEX
  5
520
  8
DATA
  6
CONTINUOUS
 62
     7
 10
-7.2710156781493387
 20
198.7644354934192
 30
0.0
  0
VERTEX
  5
521
  8
DATA
  6
CONTINUOUS
 62
     7
 10
-7.2710156781493387
 20
197.23443549341931
 30
0.0
  0
VERTEX
  5
522
  8
DATA
  6
CONTINUOUS
 62
     7
 10
-8.8010156781493123
 20
197.23443549341931
 30
0.0
  0
SEQEND
  5
523
  8
DATA
  6
CONTINUOUS
 62
     7
  0
POLYLINE
  5
174
  8
DATA
  6
CONTINUOUS
 62
     7
 66
     1
 10
0.0
 20
0.0
 30
0.0
 70
     1
  0
VERTEX
  5
524
  8
DATA
  6
CONTINUOUS
 62
     7
 10
-10.801015678149311
 20
198.7644354934192
 30
0.0
  0
VERTEX
  5
525
  8
DATA
  6
CONTINUOUS
 62
     7
 10
-9.2710156781493414
 20
198.7644354934192
 30
0.0
  0
VERTEX
  5
526
  8
DATA
  6
CONTINUOUS
 62
     7
 10
-9.2710156781493414
 20
197.23443549341931
 30
0.0
  0
VERTEX
  5
527
  8
DATA
  6
CONTINUOUS
 62
     7
 10
-10.801015678149311
 20
197.23443549341931
 30
0.0
  0
SEQEND
  5
528
  8
DATA
  6
CONTINUOUS
 62
     7
  0
POLYLINE
  5
17B
  8
DATA
  6
CONTINUOUS
 62
     7
 66
     1
 10
0.0
 20
0.0
 30
0.0
 70
     1
  0
VERTEX
  5
529
  8
DATA
  6
CONTINUOUS
 62
     7
 10
3.1989843218506882
 20
202.76443549341931
 30
0.0
  0
VERTEX
  5
52A
  8
DATA
  6
CONTINUOUS
 62
     7
 10
4.7289843218506604
 20
202.76443549341931
 30
0.0
  0
VERTEX
  5
52B
  8
DATA
  6
CONTINUOUS
 62
     7
 10
4.7289843218506604
 20
201.23443549341931
 30
0.0
  0
VERTEX
  5
52C
  8
DATA
  6
CONTINUOUS
 62
     7
 10
3.1989843218506882
 20
201.23443549341931
 30
0.0
  0
SEQEND
  5
52D
  8
DATA
  6
CONTINUOUS
 62
     7
  0
POLYLINE
  5
182
  8
DATA
  6
CONTINUOUS
 62
     7
 66
     1
 10
0.0
 20
0.0
 30
0.0
 70
     1
  0
VERTEX
  5
52E
  8
DATA
  6
CONTINUOUS
 62
     7
 10
1.198984321850687
 20
202.76443549341931
 30
0.0
  0
VERTEX
  5
52F
  8
DATA
  6
CONTINUOUS
 62
     7
 10
2.72898432185066
 20
202.76443549341931
 30
0.0
  0
VERTEX
  5
530
  8
DATA
  6
CONTINUOUS
 62
     7
 10
2.72898432185066
 20
201.23443549341931
 30
0.0
  0
VERTEX
  5
531
  8
DATA
  6
CONTINUOUS
 62
     7
 10
1.198984321850687
 20
201.23443549341931
 30
0.0
  0
SEQEND
  5
532
  8
DATA
  6
CONTINUOUS
 62
     7
  0
POLYLINE
  5
189
  8
DATA
  6
CONTINUOUS
 62
     7
 66
     1
 10
0.0
 20
0.0
 30
0.0
 70
     1
  0
VERTEX
  5
533
  8
DATA
  6
CONTINUOUS
 62
     7
 10
-0.8010156781493122
 20
202.76443549341931
 30
0.0
  0
VERTEX
  5
534
  8
DATA
  6
CONTINUOUS
 62
     7
 10
0.7289843218506605
 20
202.76443549341931
 30
0.0
  0
VERTEX
  5
535
  8
DATA
  6
CONTINUOUS
 62
     7
 10
0.7289843218506605
 20
201.23443549341931
 30
0.0
  0
VERTEX
  5
536
  8
DATA
  6
CONTINUOUS
 62
     7
 10
-0.8010156781493122
 20
201.23443549341931
 30
0.0
  0
SEQEND
  5
537
  8
DATA
  6
CONTINUOUS
 62
     7
  0
POLYLINE
  5
190
  8
DATA
  6
CONTINUOUS
 62
     7
 66
     1
 10
0.0
 20
0.0
 30
0.0
 70
     1
  0
VERTEX
  5
538
  8
DATA
  6
CONTINUOUS
 62
     7
 10
-2.8010156781493118
 20
202.76443549341931
 30
0.0
  0
VERTEX
  5
539
  8
DATA
  6
CONTINUOUS
 62
     7
 10
-1.2710156781493389
 20
202.76443549341931
 30
0.0
  0
VERTEX
  5
53A
  8
DATA
  6
CONTINUOUS
 62
     7
 10
-1.2710156781493389
 20
201.23443549341931
 30
0.0
  0
VERTEX
  5
53B
  8
DATA
  6
CONTINUOUS
 62
     7
 10
-2.8010156781493118
 20
201.23443549341931
 30
0.0
  0
SEQEND
  5
53C
  8
DATA
  6
CONTINUOUS
 62
     7
  0
POLYLINE
  5
197
  8
DATA
  6
CONTINUOUS
 62
     7
 66
     1
 10
0.0
 20
0.0
 30
0.0
 70
     1
  0
VERTEX
  5
53D
  8
DATA
  6
CONTINUOUS
 62
     7
 10
-4.8010156781493123
 20
202.76443549341931
 30
0.0
  0
VERTEX
  5
53E
  8
DATA
  6
CONTINUOUS
 62
     7
 10
-3.27101567814934
 20
202.76443549341931
 30
0.0
  0
VERTEX
  5
53F
  8
DATA
  6
CONTINUOUS
 62
     7
 10
-3.27101567814934
 20
201.23443549341931
 30
0.0
  0
VERTEX
  5
540
  8
DATA
  6
CONTINUOUS
 62
     7
 10
-4.8010156781493123
 20
201.23443549341931
 30
0.0
  0
SEQEND
  5
541
  8
DATA
  6
CONTINUOUS
 62
     7
  0
POLYLINE
  5
19E
  8
DATA
  6
CONTINUOUS
 62
     7
 66
     1
 10
0.0
 20
0.0
 30
0.0
 70
     1
  0
VERTEX
  5
542
  8
DATA
  6
CONTINUOUS
 62
     7
 10
-6.8010156781493123
 20
202.76443549341931
 30
0.0
  0
VERTEX
  5
543
  8
DATA
  6
CONTINUOUS
 62
     7
 10
-5.2710156781493387
 20
202.76443549341931
 30
0.0
  0
VERTEX
  5
544
  8
DATA
  6
CONTINUOUS
 62
     7
 10
-5.2710156781493387
 20
201.23443549341931
 30
0.0
  0
VERTEX
  5
545
  8
DATA
  6
CONTINUOUS
 62
     7
 10
-6.8010156781493123
 20
201.23443549341931
 30
0.0
  0
SEQEND
  5
546
  8
DATA
  6
CONTINUOUS
 62
     7
  0
POLYLINE
  5
1A5
  8
DATA
  6
CONTINUOUS
 62
     7
 66
     1
 10
0.0
 20
0.0
 30
0.0
 70
     1
  0
VERTEX
  5
547
  8
DATA
  6
CONTINUOUS
 62
     7
 10
-8.8010156781493123
 20
202.76443549341931
 30
0.0
  0
VERTEX
  5
548
  8
DATA
  6
CONTINUOUS
 62
     7
 10
-7.2710156781493387
 20
202.76443549341931
 30
0.0
  0
VERTEX
  5
549
  8
DATA
  6
CONTINUOUS
 62
     7
 10
-7.2710156781493387
 20
201.23443549341931
 30
0.0
  0
VERTEX
  5
54A
  8
DATA
  6
CONTINUOUS
 62
     7
 10
-8.8010156781493123
 20
201.23443549341931
 30
0.0
  0
SEQEND
  5
54B
  8
DATA
  6
CONTINUOUS
 62
     7
  0
POLYLINE
  5
1AC
  8
DATA
  6
CONTINUOUS
 62
     7
 66
     1
 10
0.0
 20
0.0
 30
0.0
 70
     1
  0
VERTEX
  5
54C
  8
DATA
  6
CONTINUOUS
 62
     7
 10
-10.801015678149311
 20
202.76443549341931
 30
0.0
  0
VERTEX
  5
54D
  8
DATA
  6
CONTINUOUS
 62
     7
 10
-9.2710156781493414
 20
202.76443549341931
 30
0.0
  0
VERTEX
  5
54E
  8
DATA
  6
CONTINUOUS
 62
     7
 10
-9.2710156781493414
 20
201.23443549341931
 30
0.0
  0
VERTEX
  5
54F
  8
DATA
  6
CONTINUOUS
 62
     7
 10
-10.801015678149311
 20
201.23443549341931
 30
0.0
  0
SEQEND
  5
550
  8
DATA
  6
CONTINUOUS
 62
     7
  0
POLYLINE
  5
1B3
  8
DATA
  6
CONTINUOUS
 62
     7
 66
     1
 10
0.0
 20
0.0
 30
0.0
  0
VERTEX
  5
551
  8
DATA
  6
CONTINUOUS
 62
     7
 10
-14.821081849329209
 20
199.59943549341929
 30
0.0
  0
VERTEX
  5
552
  8
DATA
  6
CONTINUOUS
 62
     7
 10
-16.921081849329241
 20
199.59943549341929
 30
0.0
  0
VERTEX
  5
553
  8
DATA
  6
CONTINUOUS
 62
     7
 10
-16.921081849329241
 20
200.39943549341939
 30
0.0
  0
VERTEX
  5
554
  8
DATA
  6
CONTINUOUS
 62
     7
 10
-14.821081849329209
 20
200.39943549341939
 30
0.0
  0
SEQEND
  5
555
  8
DATA
  6
CONTINUOUS
 62
     7
  0
POLYLINE
  5
1BA
  8
DATA
  6
CONTINUOUS
 62
     7
 66
     1
 10
0.0
 20
0.0
 30
0.0
  0
VERTEX
  5
556
  8
DATA
  6
CONTINUOUS
 62
     7
 10
-14.021081849328979
 20
200.39943549341939
 30
0.0
  0
VERTEX
  5
557
  8
DATA
  6
CONTINUOUS
 62
     7
 10
-11.92108184932872
 20
200.39943549341939
 30
0.0
  0
VERTEX
  5
558
  8
DATA
  6
CONTINUOUS
 62
     7
 10
-11.92108184932872
 20
199.59943549341929
 30
0.0
  0
VERTEX
  5
559
  8
DATA
  6
CONTINUOUS
 62
     7
 10
-14.021081849328979
 20
199.59943549341929
 30
0.0
  0
SEQEND
  5
55A
  8
DATA
  6
CONTINUOUS
 62
     7
  0
POLYLINE
  5
1C1
  8
DATA
  6
CONTINUOUS
 62
     7
 66
     1
 10
0.0
 20
0.0
 30
0.0
  0
VERTEX
  5
55B
  8
DATA
  6
CONTINUOUS
 62
     7
 10
-14.821081849329209
 20
200.39943549341939
 30
0.0
  0
VERTEX
  5
55C
  8
DATA
  6
CONTINUOUS
 62
     7
 10
-14.821081849329209
 20
202.4994354934193
 30
0.0
  0
VERTEX
  5
55D
  8
DATA
  6
CONTINUOUS
 62
     7
 10
-14.021081849328979
 20
202.4994354934193
 30
0.0
  0
VERTEX
  5
55E
  8
DATA
  6
CONTINUOUS
 62
     7
 10
-14.021081849328979
 20
200.39943549341939
 30
0.0
  0
SEQEND
  5
55F
  8
DATA
  6
CONTINUOUS
 62
     7
  0
POLYLINE
  5
1C8
  8
DATA
  6
CONTINUOUS
 62
     7
 66
     1
 10
0.0
 20
0.0
 30
0.0
  0
VERTEX
  5
560
  8
DATA
  6
CONTINUOUS
 62
     7
 10
-14.021081849328979
 20
199.59943549341929
 30
0.0
  0
VERTEX
  5
561
  8
DATA
  6
CONTINUOUS
 62
     7
 10
-14.021081849328979
 20
197.4994354934193
 30
0.0
  0
VERTEX
  5
562
  8
DATA
  6
CONTINUOUS
 62
     7
 10
-14.821081849329209
 20
197.4994354934193
 30
0.0
  0
VERTEX
  5
563
  8
DATA
  6
CONTINUOUS
 62
     7
 10
-14.821081849329209
 20
199.59943549341929
 30
0.0
  0
SEQEND
  5
564
  8
DATA
  6
CONTINUOUS
 62
     7
  0
POLYLINE
  5
1CF
  8
DATA
  6
CONTINUOUS
 62
     7
 66
     1
 10
0.0
 20
0.0
 30
0.0
 70
     1
  0
VERTEX
  5
565
  8
DATA
  6
CONTINUOUS
 62
     7
 10
-13.560797418857121
 20
199.2400076827694
 30
0.0
  0
VERTEX
  5
566
  8
DATA
  6
CONTINUOUS
 62
     7
 10
-12.56079741885695
 20
199.2400076827694
 30
0.0
  0
VERTEX
  5
567
  8
DATA
  6
CONTINUOUS
 62
     7
 10
-12.56079741885695
 20
198.2400076827694
 30
0.0
  0
VERTEX
  5
568
  8
DATA
  6
CONTINUOUS
 62
     7
 10
-13.560797418857121
 20
198.2400076827694
 30
0.0
  0
SEQEND
  5
569
  8
DATA
  6
CONTINUOUS
 62
     7
  0
POLYLINE
  5
1D6
  8
DATA
  6
CONTINUOUS
 62
     7
 66
     1
 10
0.0
 20
0.0
 30
0.0
 70
     1
  0
VERTEX
  5
56A
  8
DATA
  6
CONTINUOUS
 62
     7
 10
-16.28136627980097
 20
199.2400076827694
 30
0.0
  0
VERTEX
  5
56B
  8
DATA
  6
CONTINUOUS
 62
     7
 10
-15.28136627980097
 20
199.2400076827694
 30
0.0
  0
VERTEX
  5
56C
  8
DATA
  6
CONTINUOUS
 62
     7
 10
-15.28136627980097
 20
198.2400076827694
 30
0.0
  0
VERTEX
  5
56D
  8
DATA
  6
CONTINUOUS
 62
     7
 10
-16.28136627980097
 20
198.2400076827694
 30
0.0
  0
SEQEND
  5
56E
  8
DATA
  6
CONTINUOUS
 62
     7
  0
POLYLINE
  5
1DD
  8
DATA
  6
CONTINUOUS
 62
     7
 66
     1
 10
0.0
 20
0.0
 30
0.0
 70
     1
  0
VERTEX
  5
56F
  8
DATA
  6
CONTINUOUS
 62
     7
 10
-13.560797418857121
 20
201.75886330406931
 30
0.0
  0
VERTEX
  5
570
  8
DATA
  6
CONTINUOUS
 62
     7
 10
-12.56079741885695
 20
201.75886330406931
 30
0.0
  0
VERTEX
  5
571
  8
DATA
  6
CONTINUOUS
 62
     7
 10
-12.56079741885695
 20
200.75886330406931
 30
0.0
  0
VERTEX
  5
572
  8
DATA
  6
CONTINUOUS
 62
     7
 10
-13.560797418857121
 20
200.75886330406931
 30
0.0
  0
SEQEND
  5
573
  8
DATA
  6
CONTINUOUS
 62
     7
  0
POLYLINE
  5
1E4
  8
DATA
  6
CONTINUOUS
 62
     7
 66
     1
 10
0.0
 20
0.0
 30
0.0
 70
     1
  0
VERTEX
  5
574
  8
DATA
  6
CONTINUOUS
 62
     7
 10
-16.28136627980097
 20
201.75886330406931
 30
0.0
  0
VERTEX
  5
575
  8
DATA
  6
CONTINUOUS
 62
     7
 10
-15.28136627980097
 20
201.75886330406931
 30
0.0
  0
VERTEX
  5
576
  8
DATA
  6
CONTINUOUS
 62
     7
 10
-15.28136627980097
 20
200.75886330406931
 30
0.0
  0
VERTEX
  5
577
  8
DATA
  6
CONTINUOUS
 62
     7
 10
-16.28136627980097
 20
200.75886330406931
 30
0.0
  0
SEQEND
  5
578
  8
DATA
  6
CONTINUOUS
 62
     7
  0
LINE
  5
1EB
  8
DATA
  6
CONTINUOUS
 62
     7
 10
5.6742899686185666
 20
197.16954379890549
 30
0.0
 11
5.1153727711662924
 21
203.0195437989056
 31
0.0
  0
LINE
  5
1EC
  8
DATA
  6
CONTINUOUS
 62
     7
 10
-18.216453667276291
 20
197.16954379890549
 30
0.0
 11
-17.65753646982402
 21
203.0195437989056
 31
0.0
  0
ARC
  5
1ED
  8
DATA
  6
CONTINUOUS
 62
     7
 10
4.678823037863153
 20
197.0744354934192
 30
0.0
 40
0.9999999999999431
 50
270.0
 51
5.4575534851073844
  0
ARC
  5
1EE
  8
DATA
  6
CONTINUOUS
 62
     7
 10
-17.220986736520938
 20
197.0744354934194
 30
0.0
 40
0.9999999999999703
 50
174.54244651489549
 51
270.0
  0
ARC
  5
1EF
  8
DATA
  6
CONTINUOUS
 62
     7
 10
4.1199058404108788
 20
202.9244354934194
 30
0.0
 40
1.000000000000026
 50
5.4575534851041603
 51
89.999999999999986
  0
ARC
  5
1F0
  8
DATA
  6
CONTINUOUS
 62
     7
 10
-16.662069539068671
 20
202.9244354934194
 30
0.0
 40
1.0
 50
90.0
 51
174.54244651489549
  0
CIRCLE
  5
1F1
  8
DATA
  6
CONTINUOUS
 62
     7
 10
52.978918150671419
 20
199.9994354934193
 30
0.0
 40
1.175000000000068
  0
POLYLINE
  5
1F2
  8
DATA
  6
CONTINUOUS
 62
     7
 66
     1
 10
0.0
 20
0.0
 30
0.0
 70
     1
  0
VERTEX
  5
579
  8
DATA
  6
CONTINUOUS
 62
     7
 10
52.978918150671419
 20
197.2994354934194
 30
0.0
  0
VERTEX
  5
57A
  8
DATA
  6
CONTINUOUS
 62
     7
 10
55.317186740889341
 20
198.64943549341939
 30
0.0
  0
VERTEX
  5
57B
  8
DATA
  6
CONTINUOUS
 62
     7
 10
55.317186740889341
 20
201.34943549341929
 30
0.0
  0
VERTEX
  5
57C
  8
DATA
  6
CONTINUOUS
 62
     7
 10
52.978918150671419
 20
202.6994354934192
 30
0.0
  0
VERTEX
  5
57D
  8
DATA
  6
CONTINUOUS
 62
     7
 10
50.64064956045339
 20
201.34943549341929
 30
0.0
  0
VERTEX
  5
57E
  8
DATA
  6
CONTINUOUS
 62
     7
 10
50.64064956045339
 20
198.64943549341939
 30
0.0
  0
SEQEND
  5
57F
  8
DATA
  6
CONTINUOUS
 62
     7
  0
CIRCLE
  5
1FB
  8
DATA
  6
CONTINUOUS
 62
     7
 10
20.478918150670911
 20
199.9994354934193
 30
0.0
 40
1.175000000000068
  0
POLYLINE
  5
1FC
  8
DATA
  6
CONTINUOUS
 62
     7
 66
     1
 10
0.0
 20
0.0
 30
0.0
 70
     1
  0
VERTEX
  5
580
  8
DATA
  6
CONTINUOUS
 62
     7
 10
20.478918150670911
 20
197.2994354934194
 30
0.0
  0
VERTEX
  5
581
  8
DATA
  6
CONTINUOUS
 62
     7
 10
22.817186740888829
 20
198.64943549341939
 30
0.0
  0
VERTEX
  5
582
  8
DATA
  6
CONTINUOUS
 62
     7
 10
22.817186740888829
 20
201.34943549341929
 30
0.0
  0
VERTEX
  5
583
  8
DATA
  6
CONTINUOUS
 62
     7
 10
20.478918150670911
 20
202.6994354934192
 30
0.0
  0
VERTEX
  5
584
  8
DATA
  6
CONTINUOUS
 62
     7
 10
18.140649560452871
 20
201.34943549341929
 30
0.0
  0
VERTEX
  5
585
  8
DATA
  6
CONTINUOUS
 62
     7
 10
18.140649560452871
 20
198.64943549341939
 30
0.0
  0
SEQEND
  5
586
  8
DATA
  6
CONTINUOUS
 62
     7
  0
LINE
  5
205
  8
DATA
  6
CONTINUOUS
 62
     7
 10
47.67882303786314
 20
196.0744354934194
 30
0.0
 11
25.779013263479062
 21
196.0744354934194
 31
0.0
  0
LINE
  5
206
  8
DATA
  6
CONTINUOUS
 62
     7
 10
26.337930460931329
 20
203.9244354934194
 30
0.0
 11
47.11990584041088
 21
203.9244354934194
 31
0.0
  0
POLYLINE
  5
207
  8
DATA
  6
CONTINUOUS
 62
     7
 66
     1
 10
0.0
 20
0.0
 30
0.0
 70
     1
  0
VERTEX
  5
587
  8
DATA
  6
CONTINUOUS
 62
     7
 10
46.198984321850688
 20
200.76443549341931
 30
0.0
  0
VERTEX
  5
588
  8
DATA
  6
CONTINUOUS
 62
     7
 10
47.728984321850653
 20
200.76443549341931
 30
0.0
  0
VERTEX
  5
589
  8
DATA
  6
CONTINUOUS
 62
     7
 10
47.728984321850653
 20
199.23443549341931
 30
0.0
  0
VERTEX
  5
58A
  8
DATA
  6
CONTINUOUS
 62
     7
 10
46.198984321850688
 20
199.23443549341931
 30
0.0
  0
SEQEND
  5
58B
  8
DATA
  6
CONTINUOUS
 62
     7
  0
POLYLINE
  5
20E
  8
DATA
  6
CONTINUOUS
 62
     7
 66
     1
 10
0.0
 20
0.0
 30
0.0
 70
     1
  0
VERTEX
  5
58C
  8
DATA
  6
CONTINUOUS
 62
     7
 10
44.198984321850681
 20
200.76443549341931
 30
0.0
  0
VERTEX
  5
58D
  8
DATA
  6
CONTINUOUS
 62
     7
 10
45.728984321850653
 20
200.76443549341931
 30
0.0
  0
VERTEX
  5
58E
  8
DATA
  6
CONTINUOUS
 62
     7
 10
45.728984321850653
 20
199.23443549341931
 30
0.0
  0
VERTEX
  5
58F
  8
DATA
  6
CONTINUOUS
 62
     7
 10
44.198984321850681
 20
199.23443549341931
 30
0.0
  0
SEQEND
  5
590
  8
DATA
  6
CONTINUOUS
 62
     7
  0
POLYLINE
  5
215
  8
DATA
  6
CONTINUOUS
 62
     7
 66
     1
 10
0.0
 20
0.0
 30
0.0
 70
     1
  0
VERTEX
  5
591
  8
DATA
  6
CONTINUOUS
 62
     7
 10
42.198984321850681
 20
200.76443549341931
 30
0.0
  0
VERTEX
  5
592
  8
DATA
  6
CONTINUOUS
 62
     7
 10
43.728984321850653
 20
200.76443549341931
 30
0.0
  0
VERTEX
  5
593
  8
DATA
  6
CONTINUOUS
 62
     7
 10
43.728984321850653
 20
199.23443549341931
 30
0.0
  0
VERTEX
  5
594
  8
DATA
  6
CONTINUOUS
 62
     7
 10
42.198984321850681
 20
199.23443549341931
 30
0.0
  0
SEQEND
  5
595
  8
DATA
  6
CONTINUOUS
 62
     7
  0
POLYLINE
  5
21C
  8
DATA
  6
CONTINUOUS
 62
     7
 66
     1
 10
0.0
 20
0.0
 30
0.0
 70
     1
  0
VERTEX
  5
596
  8
DATA
  6
CONTINUOUS
 62
     7
 10
40.198984321850681
 20
200.76443549341931
 30
0.0
  0
VERTEX
  5
597
  8
DATA
  6
CONTINUOUS
 62
     7
 10
41.72898432185066
 20
200.76443549341931
 30
0.0
  0
VERTEX
  5
598
  8
DATA
  6
CONTINUOUS
 62
     7
 10
41.72898432185066
 20
199.23443549341931
 30
0.0
  0
VERTEX
  5
599
  8
DATA
  6
CONTINUOUS
 62
     7
 10
40.198984321850681
 20
199.23443549341931
 30
0.0
  0
SEQEND
  5
59A
  8
DATA
  6
CONTINUOUS
 62
     7
  0
POLYLINE
  5
223
  8
DATA
  6
CONTINUOUS
 62
     7
 66
     1
 10
0.0
 20
0.0
 30
0.0
 70
     1
  0
VERTEX
  5
59B
  8
DATA
  6
CONTINUOUS
 62
     7
 10
38.198984321850688
 20
200.76443549341931
 30
0.0
  0
VERTEX
  5
59C
  8
DATA
  6
CONTINUOUS
 62
     7
 10
39.72898432185066
 20
200.76443549341931
 30
0.0
  0
VERTEX
  5
59D
  8
DATA
  6
CONTINUOUS
 62
     7
 10
39.72898432185066
 20
199.23443549341931
 30
0.0
  0
VERTEX
  5
59E
  8
DATA
  6
CONTINUOUS
 62
     7
 10
38.198984321850688
 20
199.23443549341931
 30
0.0
  0
SEQEND
  5
59F
  8
DATA
  6
CONTINUOUS
 62
     7
  0
POLYLINE
  5
22A
  8
DATA
  6
CONTINUOUS
 62
     7
 66
     1
 10
0.0
 20
0.0
 30
0.0
 70
     1
  0
VERTEX
  5
5A0
  8
DATA
  6
CONTINUOUS
 62
     7
 10
36.198984321850688
 20
200.76443549341931
 30
0.0
  0
VERTEX
  5
5A1
  8
DATA
  6
CONTINUOUS
 62
     7
 10
37.72898432185066
 20
200.76443549341931
 30
0.0
  0
VERTEX
  5
5A2
  8
DATA
  6
CONTINUOUS
 62
     7
 10
37.72898432185066
 20
199.23443549341931
 30
0.0
  0
VERTEX
  5
5A3
  8
DATA
  6
CONTINUOUS
 62
     7
 10
36.198984321850688
 20
199.23443549341931
 30
0.0
  0
SEQEND
  5
5A4
  8
DATA
  6
CONTINUOUS
 62
     7
  0
POLYLINE
  5
231
  8
DATA
  6
CONTINUOUS
 62
     7
 66
     1
 10
0.0
 20
0.0
 30
0.0
 70
     1
  0
VERTEX
  5
5A5
  8
DATA
  6
CONTINUOUS
 62
     7
 10
34.198984321850688
 20
200.76443549341931
 30
0.0
  0
VERTEX
  5
5A6
  8
DATA
  6
CONTINUOUS
 62
     7
 10
35.72898432185066
 20
200.76443549341931
 30
0.0
  0
VERTEX
  5
5A7
  8
DATA
  6
CONTINUOUS
 62
     7
 10
35.72898432185066
 20
199.23443549341931
 30
0.0
  0
VERTEX
  5
5A8
  8
DATA
  6
CONTINUOUS
 62
     7
 10
34.198984321850688
 20
199.23443549341931
 30
0.0
  0
SEQEND
  5
5A9
  8
DATA
  6
CONTINUOUS
 62
     7
  0
POLYLINE
  5
238
  8
DATA
  6
CONTINUOUS
 62
     7
 66
     1
 10
0.0
 20
0.0
 30
0.0
 70
     1
  0
VERTEX
  5
5AA
  8
DATA
  6
CONTINUOUS
 62
     7
 10
32.198984321850688
 20
200.76443549341931
 30
0.0
  0
VERTEX
  5
5AB
  8
DATA
  6
CONTINUOUS
 62
     7
 10
33.72898432185066
 20
200.76443549341931
 30
0.0
  0
VERTEX
  5
5AC
  8
DATA
  6
CONTINUOUS
 62
     7
 10
33.72898432185066
 20
199.23443549341931
 30
0.0
  0
VERTEX
  5
5AD
  8
DATA
  6
CONTINUOUS
 62
     7
 10
32.198984321850688
 20
199.23443549341931
 30
0.0
  0
SEQEND
  5
5AE
  8
DATA
  6
CONTINUOUS
 62
     7
  0
POLYLINE
  5
23F
  8
DATA
  6
CONTINUOUS
 62
     7
 66
     1
 10
0.0
 20
0.0
 30
0.0
 70
     1
  0
VERTEX
  5
5AF
  8
DATA
  6
CONTINUOUS
 62
     7
 10
46.198984321850688
 20
198.7644354934192
 30
0.0
  0
VERTEX
  5
5B0
  8
DATA
  6
CONTINUOUS
 62
     7
 10
47.728984321850653
 20
198.7644354934192
 30
0.0
  0
VERTEX
  5
5B1
  8
DATA
  6
CONTINUOUS
 62
     7
 10
47.728984321850653
 20
197.23443549341931
 30
0.0
  0
VERTEX
  5
5B2
  8
DATA
  6
CONTINUOUS
 62
     7
 10
46.198984321850688
 20
197.23443549341931
 30
0.0
  0
SEQEND
  5
5B3
  8
DATA
  6
CONTINUOUS
 62
     7
  0
POLYLINE
  5
246
  8
DATA
  6
CONTINUOUS
 62
     7
 66
     1
 10
0.0
 20
0.0
 30
0.0
 70
     1
  0
VERTEX
  5
5B4
  8
DATA
  6
CONTINUOUS
 62
     7
 10
44.198984321850681
 20
198.7644354934192
 30
0.0
  0
VERTEX
  5
5B5
  8
DATA
  6
CONTINUOUS
 62
     7
 10
45.728984321850653
 20
198.7644354934192
 30
0.0
  0
VERTEX
  5
5B6
  8
DATA
  6
CONTINUOUS
 62
     7
 10
45.728984321850653
 20
197.23443549341931
 30
0.0
  0
VERTEX
  5
5B7
  8
DATA
  6
CONTINUOUS
 62
     7
 10
44.198984321850681
 20
197.23443549341931
 30
0.0
  0
SEQEND
  5
5B8
  8
DATA
  6
CONTINUOUS
 62
     7
  0
POLYLINE
  5
24D
  8
DATA
  6
CONTINUOUS
 62
     7
 66
     1
 10
0.0
 20
0.0
 30
0.0
 70
     1
  0
VERTEX
  5
5B9
  8
DATA
  6
CONTINUOUS
 62
     7
 10
42.198984321850681
 20
198.7644354934192
 30
0.0
  0
VERTEX
  5
5BA
  8
DATA
  6
CONTINUOUS
 62
     7
 10
43.728984321850653
 20
198.7644354934192
 30
0.0
  0
VERTEX
  5
5BB
  8
DATA
  6
CONTINUOUS
 62
     7
 10
43.728984321850653
 20
197.23443549341931
 30
0.0
  0
VERTEX
  5
5BC
  8
DATA
  6
CONTINUOUS
 62
     7
 10
42.198984321850681
 20
197.23443549341931
 30
0.0
  0
SEQEND
  5
5BD
  8
DATA
  6
CONTINUOUS
 62
     7
  0
POLYLINE
  5
254
  8
DATA
  6
CONTINUOUS
 62
     7
 66
     1
 10
0.0
 20
0.0
 30
0.0
 70
     1
  0
VERTEX
  5
5BE
  8
DATA
  6
CONTINUOUS
 62
     7
 10
40.198984321850681
 20
198.7644354934192
 30
0.0
  0
VERTEX
  5
5BF
  8
DATA
  6
CONTINUOUS
 62
     7
 10
41.72898432185066
 20
198.7644354934192
 30
0.0
  0
VERTEX
  5
5C0
  8
DATA
  6
CONTINUOUS
 62
     7
 10
41.72898432185066
 20
197.23443549341931
 30
0.0
  0
VERTEX
  5
5C1
  8
DATA
  6
CONTINUOUS
 62
     7
 10
40.198984321850681
 20
197.23443549341931
 30
0.0
  0
SEQEND
  5
5C2
  8
DATA
  6
CONTINUOUS
 62
     7
  0
POLYLINE
  5
25B
  8
DATA
  6
CONTINUOUS
 62
     7
 66
     1
 10
0.0
 20
0.0
 30
0.0
 70
     1
  0
VERTEX
  5
5C3
  8
DATA
  6
CONTINUOUS
 62
     7
 10
38.198984321850688
 20
198.7644354934192
 30
0.0
  0
VERTEX
  5
5C4
  8
DATA
  6
CONTINUOUS
 62
     7
 10
39.72898432185066
 20
198.7644354934192
 30
0.0
  0
VERTEX
  5
5C5
  8
DATA
  6
CONTINUOUS
 62
     7
 10
39.72898432185066
 20
197.23443549341931
 30
0.0
  0
VERTEX
  5
5C6
  8
DATA
  6
CONTINUOUS
 62
     7
 10
38.198984321850688
 20
197.23443549341931
 30
0.0
  0
SEQEND
  5
5C7
  8
DATA
  6
CONTINUOUS
 62
     7
  0
POLYLINE
  5
262
  8
DATA
  6
CONTINUOUS
 62
     7
 66
     1
 10
0.0
 20
0.0
 30
0.0
 70
     1
  0
VERTEX
  5
5C8
  8
DATA
  6
CONTINUOUS
 62
     7
 10
36.198984321850688
 20
198.7644354934192
 30
0.0
  0
VERTEX
  5
5C9
  8
DATA
  6
CONTINUOUS
 62
     7
 10
37.72898432185066
 20
198.7644354934192
 30
0.0
  0
VERTEX
  5
5CA
  8
DATA
  6
CONTINUOUS
 62
     7
 10
37.72898432185066
 20
197.23443549341931
 30
0.0
  0
VERTEX
  5
5CB
  8
DATA
  6
CONTINUOUS
 62
     7
 10
36.198984321850688
 20
197.23443549341931
 30
0.0
  0
SEQEND
  5
5CC
  8
DATA
  6
CONTINUOUS
 62
     7
  0
POLYLINE
  5
269
  8
DATA
  6
CONTINUOUS
 62
     7
 66
     1
 10
0.0
 20
0.0
 30
0.0
 70
     1
  0
VERTEX
  5
5CD
  8
DATA
  6
CONTINUOUS
 62
     7
 10
34.198984321850688
 20
198.7644354934192
 30
0.0
  0
VERTEX
  5
5CE
  8
DATA
  6
CONTINUOUS
 62
     7
 10
35.72898432185066
 20
198.7644354934192
 30
0.0
  0
VERTEX
  5
5CF
  8
DATA
  6
CONTINUOUS
 62
     7
 10
35.72898432185066
 20
197.23443549341931
 30
0.0
  0
VERTEX
  5
5D0
  8
DATA
  6
CONTINUOUS
 62
     7
 10
34.198984321850688
 20
197.23443549341931
 30
0.0
  0
SEQEND
  5
5D1
  8
DATA
  6
CONTINUOUS
 62
     7
  0
POLYLINE
  5
270
  8
DATA
  6
CONTINUOUS
 62
     7
 66
     1
 10
0.0
 20
0.0
 30
0.0
 70
     1
  0
VERTEX
  5
5D2
  8
DATA
  6
CONTINUOUS
 62
     7
 10
32.198984321850688
 20
198.7644354934192
 30
0.0
  0
VERTEX
  5
5D3
  8
DATA
  6
CONTINUOUS
 62
     7
 10
33.72898432185066
 20
198.7644354934192
 30
0.0
  0
VERTEX
  5
5D4
  8
DATA
  6
CONTINUOUS
 62
     7
 10
33.72898432185066
 20
197.23443549341931
 30
0.0
  0
VERTEX
  5
5D5
  8
DATA
  6
CONTINUOUS
 62
     7
 10
32.198984321850688
 20
197.23443549341931
 30
0.0
  0
SEQEND
  5
5D6
  8
DATA
  6
CONTINUOUS
 62
     7
  0
POLYLINE
  5
277
  8
DATA
  6
CONTINUOUS
 62
     7
 66
     1
 10
0.0
 20
0.0
 30
0.0
 70
     1
  0
VERTEX
  5
5D7
  8
DATA
  6
CONTINUOUS
 62
     7
 10
46.198984321850688
 20
202.76443549341931
 30
0.0
  0
VERTEX
  5
5D8
  8
DATA
  6
CONTINUOUS
 62
     7
 10
47.728984321850653
 20
202.76443549341931
 30
0.0
  0
VERTEX
  5
5D9
  8
DATA
  6
CONTINUOUS
 62
     7
 10
47.728984321850653
 20
201.23443549341931
 30
0.0
  0
VERTEX
  5
5DA
  8
DATA
  6
CONTINUOUS
 62
     7
 10
46.198984321850688
 20
201.23443549341931
 30
0.0
  0
SEQEND
  5
5DB
  8
DATA
  6
CONTINUOUS
 62
     7
  0
POLYLINE
  5
27E
  8
DATA
  6
CONTINUOUS
 62
     7
 66
     1
 10
0.0
 20
0.0
 30
0.0
 70
     1
  0
VERTEX
  5
5DC
  8
DATA
  6
CONTINUOUS
 62
     7
 10
44.198984321850681
 20
202.76443549341931
 30
0.0
  0
VERTEX
  5
5DD
  8
DATA
  6
CONTINUOUS
 62
     7
 10
45.728984321850653
 20
202.76443549341931
 30
0.0
  0
VERTEX
  5
5DE
  8
DATA
  6
CONTINUOUS
 62
     7
 10
45.728984321850653
 20
201.23443549341931
 30
0.0
  0
VERTEX
  5
5DF
  8
DATA
  6
CONTINUOUS
 62
     7
 10
44.198984321850681
 20
201.23443549341931
 30
0.0
  0
SEQEND
  5
5E0
  8
DATA
  6
CONTINUOUS
 62
     7
  0
POLYLINE
  5
285
  8
DATA
  6
CONTINUOUS
 62
     7
 66
     1
 10
0.0
 20
0.0
 30
0.0
 70
     1
  0
VERTEX
  5
5E1
  8
DATA
  6
CONTINUOUS
 62
     7
 10
42.198984321850681
 20
202.76443549341931
 30
0.0
  0
VERTEX
  5
5E2
  8
DATA
  6
CONTINUOUS
 62
     7
 10
43.728984321850653
 20
202.76443549341931
 30
0.0
  0
VERTEX
  5
5E3
  8
DATA
  6
CONTINUOUS
 62
     7
 10
43.728984321850653
 20
201.23443549341931
 30
0.0
  0
VERTEX
  5
5E4
  8
DATA
  6
CONTINUOUS
 62
     7
 10
42.198984321850681
 20
201.23443549341931
 30
0.0
  0
SEQEND
  5
5E5
  8
DATA
  6
CONTINUOUS
 62
     7
  0
POLYLINE
  5
28C
  8
DATA
  6
CONTINUOUS
 62
     7
 66
     1
 10
0.0
 20
0.0
 30
0.0
 70
     1
  0
VERTEX
  5
5E6
  8
DATA
  6
CONTINUOUS
 62
     7
 10
40.198984321850681
 20
202.76443549341931
 30
0.0
  0
VERTEX
  5
5E7
  8
DATA
  6
CONTINUOUS
 62
     7
 10
41.72898432185066
 20
202.76443549341931
 30
0.0
  0
VERTEX
  5
5E8
  8
DATA
  6
CONTINUOUS
 62
     7
 10
41.72898432185066
 20
201.23443549341931
 30
0.0
  0
VERTEX
  5
5E9
  8
DATA
  6
CONTINUOUS
 62
     7
 10
40.198984321850681
 20
201.23443549341931
 30
0.0
  0
SEQEND
  5
5EA
  8
DATA
  6
CONTINUOUS
 62
     7
  0
POLYLINE
  5
293
  8
DATA
  6
CONTINUOUS
 62
     7
 66
     1
 10
0.0
 20
0.0
 30
0.0
 70
     1
  0
VERTEX
  5
5EB
  8
DATA
  6
CONTINUOUS
 62
     7
 10
38.198984321850688
 20
202.76443549341931
 30
0.0
  0
VERTEX
  5
5EC
  8
DATA
  6
CONTINUOUS
 62
     7
 10
39.72898432185066
 20
202.76443549341931
 30
0.0
  0
VERTEX
  5
5ED
  8
DATA
  6
CONTINUOUS
 62
     7
 10
39.72898432185066
 20
201.23443549341931
 30
0.0
  0
VERTEX
  5
5EE
  8
DATA
  6
CONTINUOUS
 62
     7
 10
38.198984321850688
 20
201.23443549341931
 30
0.0
  0
SEQEND
  5
5EF
  8
DATA
  6
CONTINUOUS
 62
     7
  0
POLYLINE
  5
29A
  8
DATA
  6
CONTINUOUS
 62
     7
 66
     1
 10
0.0
 20
0.0
 30
0.0
 70
     1
  0
VERTEX
  5
5F0
  8
DATA
  6
CONTINUOUS
 62
     7
 10
36.198984321850688
 20
202.76443549341931
 30
0.0
  0
VERTEX
  5
5F1
  8
DATA
  6
CONTINUOUS
 62
     7
 10
37.72898432185066
 20
202.76443549341931
 30
0.0
  0
VERTEX
  5
5F2
  8
DATA
  6
CONTINUOUS
 62
     7
 10
37.72898432185066
 20
201.23443549341931
 30
0.0
  0
VERTEX
  5
5F3
  8
DATA
  6
CONTINUOUS
 62
     7
 10
36.198984321850688
 20
201.23443549341931
 30
0.0
  0
SEQEND
  5
5F4
  8
DATA
  6
CONTINUOUS
 62
     7
  0
POLYLINE
  5
2A1
  8
DATA
  6
CONTINUOUS
 62
     7
 66
     1
 10
0.0
 20
0.0
 30
0.0
 70
     1
  0
VERTEX
  5
5F5
  8
DATA
  6
CONTINUOUS
 62
     7
 10
34.198984321850688
 20
202.76443549341931
 30
0.0
  0
VERTEX
  5
5F6
  8
DATA
  6
CONTINUOUS
 62
     7
 10
35.72898432185066
 20
202.76443549341931
 30
0.0
  0
VERTEX
  5
5F7
  8
DATA
  6
CONTINUOUS
 62
     7
 10
35.72898432185066
 20
201.23443549341931
 30
0.0
  0
VERTEX
  5
5F8
  8
DATA
  6
CONTINUOUS
 62
     7
 10
34.198984321850688
 20
201.23443549341931
 30
0.0
  0
SEQEND
  5
5F9
  8
DATA
  6
CONTINUOUS
 62
     7
  0
POLYLINE
  5
2A8
  8
DATA
  6
CONTINUOUS
 62
     7
 66
     1
 10
0.0
 20
0.0
 30
0.0
 70
     1
  0
VERTEX
  5
5FA
  8
DATA
  6
CONTINUOUS
 62
     7
 10
32.198984321850688
 20
202.76443549341931
 30
0.0
  0
VERTEX
  5
5FB
  8
DATA
  6
CONTINUOUS
 62
     7
 10
33.72898432185066
 20
202.76443549341931
 30
0.0
  0
VERTEX
  5
5FC
  8
DATA
  6
CONTINUOUS
 62
     7
 10
33.72898432185066
 20
201.23443549341931
 30
0.0
  0
VERTEX
  5
5FD
  8
DATA
  6
CONTINUOUS
 62
     7
 10
32.198984321850688
 20
201.23443549341931
 30
0.0
  0
SEQEND
  5
5FE
  8
DATA
  6
CONTINUOUS
 62
     7
  0
POLYLINE
  5
2AF
  8
DATA
  6
CONTINUOUS
 62
     7
 66
     1
 10
0.0
 20
0.0
 30
0.0
  0
VERTEX
  5
5FF
  8
DATA
  6
CONTINUOUS
 62
     7
 10
28.178918150670789
 20
199.59943549341929
 30
0.0
  0
VERTEX
  5
600
  8
DATA
  6
CONTINUOUS
 62
     7
 10
26.078918150670759
 20
199.59943549341929
 30
0.0
  0
VERTEX
  5
601
  8
DATA
  6
CONTINUOUS
 62
     7
 10
26.078918150670759
 20
200.39943549341939
 30
0.0
  0
VERTEX
  5
602
  8
DATA
  6
CONTINUOUS
 62
     7
 10
28.178918150670789
 20
200.39943549341939
 30
0.0
  0
SEQEND
  5
603
  8
DATA
  6
CONTINUOUS
 62
     7
  0
POLYLINE
  5
2B6
  8
DATA
  6
CONTINUOUS
 62
     7
 66
     1
 10
0.0
 20
0.0
 30
0.0
  0
VERTEX
  5
604
  8
DATA
  6
CONTINUOUS
 62
     7
 10
28.978918150671021
 20
200.39943549341939
 30
0.0
  0
VERTEX
  5
605
  8
DATA
  6
CONTINUOUS
 62
     7
 10
31.078918150671271
 20
200.39943549341939
 30
0.0
  0
VERTEX
  5
606
  8
DATA
  6
CONTINUOUS
 62
     7
 10
31.078918150671271
 20
199.59943549341929
 30
0.0
  0
VERTEX
  5
607
  8
DATA
  6
CONTINUOUS
 62
     7
 10
28.978918150671021
 20
199.59943549341929
 30
0.0
  0
SEQEND
  5
608
  8
DATA
  6
CONTINUOUS
 62
     7
  0
POLYLINE
  5
2BD
  8
DATA
  6
CONTINUOUS
 62
     7
 66
     1
 10
0.0
 20
0.0
 30
0.0
  0
VERTEX
  5
609
  8
DATA
  6
CONTINUOUS
 62
     7
 10
28.178918150670789
 20
200.39943549341939
 30
0.0
  0
VERTEX
  5
60A
  8
DATA
  6
CONTINUOUS
 62
     7
 10
28.178918150670789
 20
202.4994354934193
 30
0.0
  0
VERTEX
  5
60B
  8
DATA
  6
CONTINUOUS
 62
     7
 10
28.978918150671021
 20
202.4994354934193
 30
0.0
  0
VERTEX
  5
60C
  8
DATA
  6
CONTINUOUS
 62
     7
 10
28.978918150671021
 20
200.39943549341939
 30
0.0
  0
SEQEND
  5
60D
  8
DATA
  6
CONTINUOUS
 62
     7
  0
POLYLINE
  5
2C4
  8
DATA
  6
CONTINUOUS
 62
     7
 66
     1
 10
0.0
 20
0.0
 30
0.0
  0
VERTEX
  5
60E
  8
DATA
  6
CONTINUOUS
 62
     7
 10
28.978918150671021
 20
199.59943549341929
 30
0.0
  0
VERTEX
  5
60F
  8
DATA
  6
CONTINUOUS
 62
     7
 10
28.978918150671021
 20
197.4994354934193
 30
0.0
  0
VERTEX
  5
610
  8
DATA
  6
CONTINUOUS
 62
     7
 10
28.178918150670789
 20
197.4994354934193
 30
0.0
  0
VERTEX
  5
611
  8
DATA
  6
CONTINUOUS
 62
     7
 10
28.178918150670789
 20
199.59943549341929
 30
0.0
  0
SEQEND
  5
612
  8
DATA
  6
CONTINUOUS
 62
     7
  0
POLYLINE
  5
2CB
  8
DATA
  6
CONTINUOUS
 62
     7
 66
     1
 10
0.0
 20
0.0
 30
0.0
 70
     1
  0
VERTEX
  5
613
  8
DATA
  6
CONTINUOUS
 62
     7
 10
29.439202581142879
 20
199.2400076827694
 30
0.0
  0
VERTEX
  5
614
  8
DATA
  6
CONTINUOUS
 62
     7
 10
30.43920258114305
 20
199.2400076827694
 30
0.0
  0
VERTEX
  5
615
  8
DATA
  6
CONTINUOUS
 62
     7
 10
30.43920258114305
 20
198.2400076827694
 30
0.0
  0
VERTEX
  5
616
  8
DATA
  6
CONTINUOUS
 62
     7
 10
29.439202581142879
 20
198.2400076827694
 30
0.0
  0
SEQEND
  5
617
  8
DATA
  6
CONTINUOUS
 62
     7
  0
POLYLINE
  5
2D2
  8
DATA
  6
CONTINUOUS
 62
     7
 66
     1
 10
0.0
 20
0.0
 30
0.0
 70
     1
  0
VERTEX
  5
618
  8
DATA
  6
CONTINUOUS
 62
     7
 10
26.71863372019904
 20
199.2400076827694
 30
0.0
  0
VERTEX
  5
619
  8
DATA
  6
CONTINUOUS
 62
     7
 10
27.71863372019904
 20
199.2400076827694
 30
0.0
  0
VERTEX
  5
61A
  8
DATA
  6
CONTINUOUS
 62
     7
 10
27.71863372019904
 20
198.2400076827694
 30
0.0
  0
VERTEX
  5
61B
  8
DATA
  6
CONTINUOUS
 62
     7
 10
26.71863372019904
 20
198.2400076827694
 30
0.0
  0
SEQEND
  5
61C
  8
DATA
  6
CONTINUOUS
 62
     7
  0
POLYLINE
  5
2D9
  8
DATA
  6
CONTINUOUS
 62
     7
 66
     1
 10
0.0
 20
0.0
 30
0.0
 70
     1
  0
VERTEX
  5
61D
  8
DATA
  6
CONTINUOUS
 62
     7
 10
29.439202581142879
 20
201.75886330406931
 30
0.0
  0
VERTEX
  5
61E
  8
DATA
  6
CONTINUOUS
 62
     7
 10
30.43920258114305
 20
201.75886330406931
 30
0.0
  0
VERTEX
  5
61F
  8
DATA
  6
CONTINUOUS
 62
     7
 10
30.43920258114305
 20
200.75886330406931
 30
0.0
  0
VERTEX
  5
620
  8
DATA
  6
CONTINUOUS
 62
     7
 10
29.439202581142879
 20
200.75886330406931
 30
0.0
  0
SEQEND
  5
621
  8
DATA
  6
CONTINUOUS
 62
     7
  0
POLYLINE
  5
2E0
  8
DATA
  6
CONTINUOUS
 62
     7
 66
     1
 10
0.0
 20
0.0
 30
0.0
 70
     1
  0
VERTEX
  5
622
  8
DATA
  6
CONTINUOUS
 62
     7
 10
26.71863372019904
 20
201.75886330406931
 30
0.0
  0
VERTEX
  5
623
  8
DATA
  6
CONTINUOUS
 62
     7
 10
27.71863372019904
 20
201.75886330406931
 30
0.0
  0
VERTEX
  5
624
  8
DATA
  6
CONTINUOUS
 62
     7
 10
27.71863372019904
 20
200.75886330406931
 30
0.0
  0
VERTEX
  5
625
  8
DATA
  6
CONTINUOUS
 62
     7
 10
26.71863372019904
 20
200.75886330406931
 30
0.0
  0
SEQEND
  5
626
  8
DATA
  6
CONTINUOUS
 62
     7
  0
LINE
  5
2E7
  8
DATA
  6
CONTINUOUS
 62
     7
 10
48.674289968618567
 20
197.16954379890549
 30
0.0
 11
48.115372771166278
 21
203.0195437989056
 31
0.0
  0
LINE
  5
2E8
  8
DATA
  6
CONTINUOUS
 62
     7
 10
24.783546332723699
 20
197.16954379890549
 30
0.0
 11
25.34246353017598
 21
203.0195437989056
 31
0.0
  0
ARC
  5
2E9
  8
DATA
  6
CONTINUOUS
 62
     7
 10
47.67882303786314
 20
197.0744354934192
 30
0.0
 40
0.9999999999999431
 50
270.0
 51
5.4575534851073844
  0
ARC
  5
2EA
  8
DATA
  6
CONTINUOUS
 62
     7
 10
25.779013263479062
 20
197.0744354934194
 30
0.0
 40
0.9999999999999703
 50
174.54244651489549
 51
270.0
  0
ARC
  5
2EB
  8
DATA
  6
CONTINUOUS
 62
     7
 10
47.11990584041088
 20
202.9244354934194
 30
0.0
 40
1.000000000000026
 50
5.4575534851041603
 51
89.999999999999986
  0
ARC
  5
2EC
  8
DATA
  6
CONTINUOUS
 62
     7
 10
26.337930460931329
 20
202.9244354934194
 30
0.0
 40
1.0
 50
90.0
 51
174.54244651489549
  0
CIRCLE
  5
2ED
  8
DATA
  6
CONTINUOUS
 62
     7
 10
95.978918150671404
 20
199.9994354934193
 30
0.0
 40
1.175000000000068
  0
POLYLINE
  5
2EE
  8
DATA
  6
CONTINUOUS
 62
     7
 66
     1
 10
0.0
 20
0.0
 30
0.0
 70
     1
  0
VERTEX
  5
627
  8
DATA
  6
CONTINUOUS
 62
     7
 10
95.978918150671404
 20
197.2994354934194
 30
0.0
  0
VERTEX
  5
628
  8
DATA
  6
CONTINUOUS
 62
     7
 10
98.317186740889341
 20
198.64943549341939
 30
0.0
  0
VERTEX
  5
629
  8
DATA
  6
CONTINUOUS
 62
     7
 10
98.317186740889341
 20
201.34943549341929
 30
0.0
  0
VERTEX
  5
62A
  8
DATA
  6
CONTINUOUS
 62
     7
 10
95.978918150671404
 20
202.6994354934192
 30
0.0
  0
VERTEX
  5
62B
  8
DATA
  6
CONTINUOUS
 62
     7
 10
93.640649560453369
 20
201.34943549341929
 30
0.0
  0
VERTEX
  5
62C
  8
DATA
  6
CONTINUOUS
 62
     7
 10
93.640649560453369
 20
198.64943549341939
 30
0.0
  0
SEQEND
  5
62D
  8
DATA
  6
CONTINUOUS
 62
     7
  0
CIRCLE
  5
2F7
  8
DATA
  6
CONTINUOUS
 62
     7
 10
63.478918150670893
 20
199.9994354934193
 30
0.0
 40
1.175000000000068
  0
POLYLINE
  5
2F8
  8
DATA
  6
CONTINUOUS
 62
     7
 66
     1
 10
0.0
 20
0.0
 30
0.0
 70
     1
  0
VERTEX
  5
62E
  8
DATA
  6
CONTINUOUS
 62
     7
 10
63.478918150670893
 20
197.2994354934194
 30
0.0
  0
VERTEX
  5
62F
  8
DATA
  6
CONTINUOUS
 62
     7
 10
65.817186740888815
 20
198.64943549341939
 30
0.0
  0
VERTEX
  5
630
  8
DATA
  6
CONTINUOUS
 62
     7
 10
65.817186740888815
 20
201.34943549341929
 30
0.0
  0
VERTEX
  5
631
  8
DATA
  6
CONTINUOUS
 62
     7
 10
63.478918150670893
 20
202.6994354934192
 30
0.0
  0
VERTEX
  5
632
  8
DATA
  6
CONTINUOUS
 62
     7
 10
61.140649560452871
 20
201.34943549341929
 30
0.0
  0
VERTEX
  5
633
  8
DATA
  6
CONTINUOUS
 62
     7
 10
61.140649560452871
 20
198.64943549341939
 30
0.0
  0
SEQEND
  5
634
  8
DATA
  6
CONTINUOUS
 62
     7
  0
LINE
  5
301
  8
DATA
  6
CONTINUOUS
 62
     7
 10
90.678823037863154
 20
196.0744354934194
 30
0.0
 11
68.779013263479058
 21
196.0744354934194
 31
0.0
  0
LINE
  5
302
  8
DATA
  6
CONTINUOUS
 62
     7
 10
69.337930460931332
 20
203.9244354934194
 30
0.0
 11
90.11990584041088
 21
203.9244354934194
 31
0.0
  0
POLYLINE
  5
303
  8
DATA
  6
CONTINUOUS
 62
     7
 66
     1
 10
0.0
 20
0.0
 30
0.0
 70
     1
  0
VERTEX
  5
635
  8
DATA
  6
CONTINUOUS
 62
     7
 10
89.198984321850688
 20
200.76443549341931
 30
0.0
  0
VERTEX
  5
636
  8
DATA
  6
CONTINUOUS
 62
     7
 10
90.72898432185066
 20
200.76443549341931
 30
0.0
  0
VERTEX
  5
637
  8
DATA
  6
CONTINUOUS
 62
     7
 10
90.72898432185066
 20
199.23443549341931
 30
0.0
  0
VERTEX
  5
638
  8
DATA
  6
CONTINUOUS
 62
     7
 10
89.198984321850688
 20
199.23443549341931
 30
0.0
  0
SEQEND
  5
639
  8
DATA
  6
CONTINUOUS
 62
     7
  0
POLYLINE
  5
30A
  8
DATA
  6
CONTINUOUS
 62
     7
 66
     1
 10
0.0
 20
0.0
 30
0.0
 70
     1
  0
VERTEX
  5
63A
  8
DATA
  6
CONTINUOUS
 62
     7
 10
87.198984321850673
 20
200.76443549341931
 30
0.0
  0
VERTEX
  5
63B
  8
DATA
  6
CONTINUOUS
 62
     7
 10
88.728984321850646
 20
200.76443549341931
 30
0.0
  0
VERTEX
  5
63C
  8
DATA
  6
CONTINUOUS
 62
     7
 10
88.728984321850646
 20
199.23443549341931
 30
0.0
  0
VERTEX
  5
63D
  8
DATA
  6
CONTINUOUS
 62
     7
 10
87.198984321850673
 20
199.23443549341931
 30
0.0
  0
SEQEND
  5
63E
  8
DATA
  6
CONTINUOUS
 62
     7
  0
POLYLINE
  5
311
  8
DATA
  6
CONTINUOUS
 62
     7
 66
     1
 10
0.0
 20
0.0
 30
0.0
 70
     1
  0
VERTEX
  5
63F
  8
DATA
  6
CONTINUOUS
 62
     7
 10
85.198984321850688
 20
200.76443549341931
 30
0.0
  0
VERTEX
  5
640
  8
DATA
  6
CONTINUOUS
 62
     7
 10
86.72898432185066
 20
200.76443549341931
 30
0.0
  0
VERTEX
  5
641
  8
DATA
  6
CONTINUOUS
 62
     7
 10
86.72898432185066
 20
199.23443549341931
 30
0.0
  0
VERTEX
  5
642
  8
DATA
  6
CONTINUOUS
 62
     7
 10
85.198984321850688
 20
199.23443549341931
 30
0.0
  0
SEQEND
  5
643
  8
DATA
  6
CONTINUOUS
 62
     7
  0
POLYLINE
  5
318
  8
DATA
  6
CONTINUOUS
 62
     7
 66
     1
 10
0.0
 20
0.0
 30
0.0
 70
     1
  0
VERTEX
  5
644
  8
DATA
  6
CONTINUOUS
 62
     7
 10
83.198984321850673
 20
200.76443549341931
 30
0.0
  0
VERTEX
  5
645
  8
DATA
  6
CONTINUOUS
 62
     7
 10
84.728984321850646
 20
200.76443549341931
 30
0.0
  0
VERTEX
  5
646
  8
DATA
  6
CONTINUOUS
 62
     7
 10
84.728984321850646
 20
199.23443549341931
 30
0.0
  0
VERTEX
  5
647
  8
DATA
  6
CONTINUOUS
 62
     7
 10
83.198984321850673
 20
199.23443549341931
 30
0.0
  0
SEQEND
  5
648
  8
DATA
  6
CONTINUOUS
 62
     7
  0
POLYLINE
  5
31F
  8
DATA
  6
CONTINUOUS
 62
     7
 66
     1
 10
0.0
 20
0.0
 30
0.0
 70
     1
  0
VERTEX
  5
649
  8
DATA
  6
CONTINUOUS
 62
     7
 10
81.198984321850688
 20
200.76443549341931
 30
0.0
  0
VERTEX
  5
64A
  8
DATA
  6
CONTINUOUS
 62
     7
 10
82.728984321850646
 20
200.76443549341931
 30
0.0
  0
VERTEX
  5
64B
  8
DATA
  6
CONTINUOUS
 62
     7
 10
82.728984321850646
 20
199.23443549341931
 30
0.0
  0
VERTEX
  5
64C
  8
DATA
  6
CONTINUOUS
 62
     7
 10
81.198984321850688
 20
199.23443549341931
 30
0.0
  0
SEQEND
  5
64D
  8
DATA
  6
CONTINUOUS
 62
     7
  0
POLYLINE
  5
326
  8
DATA
  6
CONTINUOUS
 62
     7
 66
     1
 10
0.0
 20
0.0
 30
0.0
 70
     1
  0
VERTEX
  5
64E
  8
DATA
  6
CONTINUOUS
 62
     7
 10
79.198984321850673
 20
200.76443549341931
 30
0.0
  0
VERTEX
  5
64F
  8
DATA
  6
CONTINUOUS
 62
     7
 10
80.728984321850646
 20
200.76443549341931
 30
0.0
  0
VERTEX
  5
650
  8
DATA
  6
CONTINUOUS
 62
     7
 10
80.728984321850646
 20
199.23443549341931
 30
0.0
  0
VERTEX
  5
651
  8
DATA
  6
CONTINUOUS
 62
     7
 10
79.198984321850673
 20
199.23443549341931
 30
0.0
  0
SEQEND
  5
652
  8
DATA
  6
CONTINUOUS
 62
     7
  0
POLYLINE
  5
32D
  8
DATA
  6
CONTINUOUS
 62
     7
 66
     1
 10
0.0
 20
0.0
 30
0.0
 70
     1
  0
VERTEX
  5
653
  8
DATA
  6
CONTINUOUS
 62
     7
 10
77.198984321850673
 20
200.76443549341931
 30
0.0
  0
VERTEX
  5
654
  8
DATA
  6
CONTINUOUS
 62
     7
 10
78.728984321850646
 20
200.76443549341931
 30
0.0
  0
VERTEX
  5
655
  8
DATA
  6
CONTINUOUS
 62
     7
 10
78.728984321850646
 20
199.23443549341931
 30
0.0
  0
VERTEX
  5
656
  8
DATA
  6
CONTINUOUS
 62
     7
 10
77.198984321850673
 20
199.23443549341931
 30
0.0
  0
SEQEND
  5
657
  8
DATA
  6
CONTINUOUS
 62
     7
  0
POLYLINE
  5
334
  8
DATA
  6
CONTINUOUS
 62
     7
 66
     1
 10
0.0
 20
0.0
 30
0.0
 70
     1
  0
VERTEX
  5
658
  8
DATA
  6
CONTINUOUS
 62
     7
 10
75.198984321850688
 20
200.76443549341931
 30
0.0
  0
VERTEX
  5
659
  8
DATA
  6
CONTINUOUS
 62
     7
 10
76.728984321850646
 20
200.76443549341931
 30
0.0
  0
VERTEX
  5
65A
  8
DATA
  6
CONTINUOUS
 62
     7
 10
76.728984321850646
 20
199.23443549341931
 30
0.0
  0
VERTEX
  5
65B
  8
DATA
  6
CONTINUOUS
 62
     7
 10
75.198984321850688
 20
199.23443549341931
 30
0.0
  0
SEQEND
  5
65C
  8
DATA
  6
CONTINUOUS
 62
     7
  0
POLYLINE
  5
33B
  8
DATA
  6
CONTINUOUS
 62
     7
 66
     1
 10
0.0
 20
0.0
 30
0.0
 70
     1
  0
VERTEX
  5
65D
  8
DATA
  6
CONTINUOUS
 62
     7
 10
89.198984321850688
 20
198.7644354934192
 30
0.0
  0
VERTEX
  5
65E
  8
DATA
  6
CONTINUOUS
 62
     7
 10
90.72898432185066
 20
198.7644354934192
 30
0.0
  0
VERTEX
  5
65F
  8
DATA
  6
CONTINUOUS
 62
     7
 10
90.72898432185066
 20
197.23443549341931
 30
0.0
  0
VERTEX
  5
660
  8
DATA
  6
CONTINUOUS
 62
     7
 10
89.198984321850688
 20
197.23443549341931
 30
0.0
  0
SEQEND
  5
661
  8
DATA
  6
CONTINUOUS
 62
     7
  0
POLYLINE
  5
342
  8
DATA
  6
CONTINUOUS
 62
     7
 66
     1
 10
0.0
 20
0.0
 30
0.0
 70
     1
  0
VERTEX
  5
662
  8
DATA
  6
CONTINUOUS
 62
     7
 10
87.198984321850673
 20
198.7644354934192
 30
0.0
  0
VERTEX
  5
663
  8
DATA
  6
CONTINUOUS
 62
     7
 10
88.728984321850646
 20
198.7644354934192
 30
0.0
  0
VERTEX
  5
664
  8
DATA
  6
CONTINUOUS
 62
     7
 10
88.728984321850646
 20
197.23443549341931
 30
0.0
  0
VERTEX
  5
665
  8
DATA
  6
CONTINUOUS
 62
     7
 10
87.198984321850673
 20
197.23443549341931
 30
0.0
  0
SEQEND
  5
666
  8
DATA
  6
CONTINUOUS
 62
     7
  0
POLYLINE
  5
349
  8
DATA
  6
CONTINUOUS
 62
     7
 66
     1
 10
0.0
 20
0.0
 30
0.0
 70
     1
  0
VERTEX
  5
667
  8
DATA
  6
CONTINUOUS
 62
     7
 10
85.198984321850688
 20
198.7644354934192
 30
0.0
  0
VERTEX
  5
668
  8
DATA
  6
CONTINUOUS
 62
     7
 10
86.72898432185066
 20
198.7644354934192
 30
0.0
  0
VERTEX
  5
669
  8
DATA
  6
CONTINUOUS
 62
     7
 10
86.72898432185066
 20
197.23443549341931
 30
0.0
  0
VERTEX
  5
66A
  8
DATA
  6
CONTINUOUS
 62
     7
 10
85.198984321850688
 20
197.23443549341931
 30
0.0
  0
SEQEND
  5
66B
  8
DATA
  6
CONTINUOUS
 62
     7
  0
POLYLINE
  5
350
  8
DATA
  6
CONTINUOUS
 62
     7
 66
     1
 10
0.0
 20
0.0
 30
0.0
 70
     1
  0
VERTEX
  5
66C
  8
DATA
  6
CONTINUOUS
 62
     7
 10
83.198984321850673
 20
198.7644354934192
 30
0.0
  0
VERTEX
  5
66D
  8
DATA
  6
CONTINUOUS
 62
     7
 10
84.728984321850646
 20
198.7644354934192
 30
0.0
  0
VERTEX
  5
66E
  8
DATA
  6
CONTINUOUS
 62
     7
 10
84.728984321850646
 20
197.23443549341931
 30
0.0
  0
VERTEX
  5
66F
  8
DATA
  6
CONTINUOUS
 62
     7
 10
83.198984321850673
 20
197.23443549341931
 30
0.0
  0
SEQEND
  5
670
  8
DATA
  6
CONTINUOUS
 62
     7
  0
POLYLINE
  5
357
  8
DATA
  6
CONTINUOUS
 62
     7
 66
     1
 10
0.0
 20
0.0
 30
0.0
 70
     1
  0
VERTEX
  5
671
  8
DATA
  6
CONTINUOUS
 62
     7
 10
81.198984321850688
 20
198.7644354934192
 30
0.0
  0
VERTEX
  5
672
  8
DATA
  6
CONTINUOUS
 62
     7
 10
82.728984321850646
 20
198.7644354934192
 30
0.0
  0
VERTEX
  5
673
  8
DATA
  6
CONTINUOUS
 62
     7
 10
82.728984321850646
 20
197.23443549341931
 30
0.0
  0
VERTEX
  5
674
  8
DATA
  6
CONTINUOUS
 62
     7
 10
81.198984321850688
 20
197.23443549341931
 30
0.0
  0
SEQEND
  5
675
  8
DATA
  6
CONTINUOUS
 62
     7
  0
POLYLINE
  5
35E
  8
DATA
  6
CONTINUOUS
 62
     7
 66
     1
 10
0.0
 20
0.0
 30
0.0
 70
     1
  0
VERTEX
  5
676
  8
DATA
  6
CONTINUOUS
 62
     7
 10
79.198984321850673
 20
198.7644354934192
 30
0.0
  0
VERTEX
  5
677
  8
DATA
  6
CONTINUOUS
 62
     7
 10
80.728984321850646
 20
198.7644354934192
 30
0.0
  0
VERTEX
  5
678
  8
DATA
  6
CONTINUOUS
 62
     7
 10
80.728984321850646
 20
197.23443549341931
 30
0.0
  0
VERTEX
  5
679
  8
DATA
  6
CONTINUOUS
 62
     7
 10
79.198984321850673
 20
197.23443549341931
 30
0.0
  0
SEQEND
  5
67A
  8
DATA
  6
CONTINUOUS
 62
     7
  0
POLYLINE
  5
365
  8
DATA
  6
CONTINUOUS
 62
     7
 66
     1
 10
0.0
 20
0.0
 30
0.0
 70
     1
  0
VERTEX
  5
67B
  8
DATA
  6
CONTINUOUS
 62
     7
 10
77.198984321850673
 20
198.7644354934192
 30
0.0
  0
VERTEX
  5
67C
  8
DATA
  6
CONTINUOUS
 62
     7
 10
78.728984321850646
 20
198.7644354934192
 30
0.0
  0
VERTEX
  5
67D
  8
DATA
  6
CONTINUOUS
 62
     7
 10
78.728984321850646
 20
197.23443549341931
 30
0.0
  0
VERTEX
  5
67E
  8
DATA
  6
CONTINUOUS
 62
     7
 10
77.198984321850673
 20
197.23443549341931
 30
0.0
  0
SEQEND
  5
67F
  8
DATA
  6
CONTINUOUS
 62
     7
  0
POLYLINE
  5
36C
  8
DATA
  6
CONTINUOUS
 62
     7
 66
     1
 10
0.0
 20
0.0
 30
0.0
 70
     1
  0
VERTEX
  5
680
  8
DATA
  6
CONTINUOUS
 62
     7
 10
75.198984321850688
 20
198.7644354934192
 30
0.0
  0
VERTEX
  5
681
  8
DATA
  6
CONTINUOUS
 62
     7
 10
76.728984321850646
 20
198.7644354934192
 30
0.0
  0
VERTEX
  5
682
  8
DATA
  6
CONTINUOUS
 62
     7
 10
76.728984321850646
 20
197.23443549341931
 30
0.0
  0
VERTEX
  5
683
  8
DATA
  6
CONTINUOUS
 62
     7
 10
75.198984321850688
 20
197.23443549341931
 30
0.0
  0
SEQEND
  5
684
  8
DATA
  6
CONTINUOUS
 62
     7
  0
POLYLINE
  5
373
  8
DATA
  6
CONTINUOUS
 62
     7
 66
     1
 10
0.0
 20
0.0
 30
0.0
 70
     1
  0
VERTEX
  5
685
  8
DATA
  6
CONTINUOUS
 62
     7
 10
89.198984321850688
 20
202.76443549341931
 30
0.0
  0
VERTEX
  5
686
  8
DATA
  6
CONTINUOUS
 62
     7
 10
90.72898432185066
 20
202.76443549341931
 30
0.0
  0
VERTEX
  5
687
  8
DATA
  6
CONTINUOUS
 62
     7
 10
90.72898432185066
 20
201.23443549341931
 30
0.0
  0
VERTEX
  5
688
  8
DATA
  6
CONTINUOUS
 62
     7
 10
89.198984321850688
 20
201.23443549341931
 30
0.0
  0
SEQEND
  5
689
  8
DATA
  6
CONTINUOUS
 62
     7
  0
POLYLINE
  5
37A
  8
DATA
  6
CONTINUOUS
 62
     7
 66
     1
 10
0.0
 20
0.0
 30
0.0
 70
     1
  0
VERTEX
  5
68A
  8
DATA
  6
CONTINUOUS
 62
     7
 10
87.198984321850673
 20
202.76443549341931
 30
0.0
  0
VERTEX
  5
68B
  8
DATA
  6
CONTINUOUS
 62
     7
 10
88.728984321850646
 20
202.76443549341931
 30
0.0
  0
VERTEX
  5
68C
  8
DATA
  6
CONTINUOUS
 62
     7
 10
88.728984321850646
 20
201.23443549341931
 30
0.0
  0
VERTEX
  5
68D
  8
DATA
  6
CONTINUOUS
 62
     7
 10
87.198984321850673
 20
201.23443549341931
 30
0.0
  0
SEQEND
  5
68E
  8
DATA
  6
CONTINUOUS
 62
     7
  0
POLYLINE
  5
381
  8
DATA
  6
CONTINUOUS
 62
     7
 66
     1
 10
0.0
 20
0.0
 30
0.0
 70
     1
  0
VERTEX
  5
68F
  8
DATA
  6
CONTINUOUS
 62
     7
 10
85.198984321850688
 20
202.76443549341931
 30
0.0
  0
VERTEX
  5
690
  8
DATA
  6
CONTINUOUS
 62
     7
 10
86.72898432185066
 20
202.76443549341931
 30
0.0
  0
VERTEX
  5
691
  8
DATA
  6
CONTINUOUS
 62
     7
 10
86.72898432185066
 20
201.23443549341931
 30
0.0
  0
VERTEX
  5
692
  8
DATA
  6
CONTINUOUS
 62
     7
 10
85.198984321850688
 20
201.23443549341931
 30
0.0
  0
SEQEND
  5
693
  8
DATA
  6
CONTINUOUS
 62
     7
  0
POLYLINE
  5
388
  8
DATA
  6
CONTINUOUS
 62
     7
 66
     1
 10
0.0
 20
0.0
 30
0.0
 70
     1
  0
VERTEX
  5
694
  8
DATA
  6
CONTINUOUS
 62
     7
 10
83.198984321850673
 20
202.76443549341931
 30
0.0
  0
VERTEX
  5
695
  8
DATA
  6
CONTINUOUS
 62
     7
 10
84.728984321850646
 20
202.76443549341931
 30
0.0
  0
VERTEX
  5
696
  8
DATA
  6
CONTINUOUS
 62
     7
 10
84.728984321850646
 20
201.23443549341931
 30
0.0
  0
VERTEX
  5
697
  8
DATA
  6
CONTINUOUS
 62
     7
 10
83.198984321850673
 20
201.23443549341931
 30
0.0
  0
SEQEND
  5
698
  8
DATA
  6
CONTINUOUS
 62
     7
  0
POLYLINE
  5
38F
  8
DATA
  6
CONTINUOUS
 62
     7
 66
     1
 10
0.0
 20
0.0
 30
0.0
 70
     1
  0
VERTEX
  5
699
  8
DATA
  6
CONTINUOUS
 62
     7
 10
81.198984321850688
 20
202.76443549341931
 30
0.0
  0
VERTEX
  5
69A
  8
DATA
  6
CONTINUOUS
 62
     7
 10
82.728984321850646
 20
202.76443549341931
 30
0.0
  0
VERTEX
  5
69B
  8
DATA
  6
CONTINUOUS
 62
     7
 10
82.728984321850646
 20
201.23443549341931
 30
0.0
  0
VERTEX
  5
69C
  8
DATA
  6
CONTINUOUS
 62
     7
 10
81.198984321850688
 20
201.23443549341931
 30
0.0
  0
SEQEND
  5
69D
  8
DATA
  6
CONTINUOUS
 62
     7
  0
POLYLINE
  5
396
  8
DATA
  6
CONTINUOUS
 62
     7
 66
     1
 10
0.0
 20
0.0
 30
0.0
 70
     1
  0
VERTEX
  5
69E
  8
DATA
  6
CONTINUOUS
 62
     7
 10
79.198984321850673
 20
202.76443549341931
 30
0.0
  0
VERTEX
  5
69F
  8
DATA
  6
CONTINUOUS
 62
     7
 10
80.728984321850646
 20
202.76443549341931
 30
0.0
  0
VERTEX
  5
6A0
  8
DATA
  6
CONTINUOUS
 62
     7
 10
80.728984321850646
 20
201.23443549341931
 30
0.0
  0
VERTEX
  5
6A1
  8
DATA
  6
CONTINUOUS
 62
     7
 10
79.198984321850673
 20
201.23443549341931
 30
0.0
  0
SEQEND
  5
6A2
  8
DATA
  6
CONTINUOUS
 62
     7
  0
POLYLINE
  5
39D
  8
DATA
  6
CONTINUOUS
 62
     7
 66
     1
 10
0.0
 20
0.0
 30
0.0
 70
     1
  0
VERTEX
  5
6A3
  8
DATA
  6
CONTINUOUS
 62
     7
 10
77.198984321850673
 20
202.76443549341931
 30
0.0
  0
VERTEX
  5
6A4
  8
DATA
  6
CONTINUOUS
 62
     7
 10
78.728984321850646
 20
202.76443549341931
 30
0.0
  0
VERTEX
  5
6A5
  8
DATA
  6
CONTINUOUS
 62
     7
 10
78.728984321850646
 20
201.23443549341931
 30
0.0
  0
VERTEX
  5
6A6
  8
DATA
  6
CONTINUOUS
 62
     7
 10
77.198984321850673
 20
201.23443549341931
 30
0.0
  0
SEQEND
  5
6A7
  8
DATA
  6
CONTINUOUS
 62
     7
  0
POLYLINE
  5
3A4
  8
DATA
  6
CONTINUOUS
 62
     7
 66
     1
 10
0.0
 20
0.0
 30
0.0
 70
     1
  0
VERTEX
  5
6A8
  8
DATA
  6
CONTINUOUS
 62
     7
 10
75.198984321850688
 20
202.76443549341931
 30
0.0
  0
VERTEX
  5
6A9
  8
DATA
  6
CONTINUOUS
 62
     7
 10
76.728984321850646
 20
202.76443549341931
 30
0.0
  0
VERTEX
  5
6AA
  8
DATA
  6
CONTINUOUS
 62
     7
 10
76.728984321850646
 20
201.23443549341931
 30
0.0
  0
VERTEX
  5
6AB
  8
DATA
  6
CONTINUOUS
 62
     7
 10
75.198984321850688
 20
201.23443549341931
 30
0.0
  0
SEQEND
  5
6AC
  8
DATA
  6
CONTINUOUS
 62
     7
  0
POLYLINE
  5
3AB
  8
DATA
  6
CONTINUOUS
 62
     7
 66
     1
 10
0.0
 20
0.0
 30
0.0
  0
VERTEX
  5
6AD
  8
DATA
  6
CONTINUOUS
 62
     7
 10
71.178918150670782
 20
199.59943549341929
 30
0.0
  0
VERTEX
  5
6AE
  8
DATA
  6
CONTINUOUS
 62
     7
 10
69.078918150670759
 20
199.59943549341929
 30
0.0
  0
VERTEX
  5
6AF
  8
DATA
  6
CONTINUOUS
 62
     7
 10
69.078918150670759
 20
200.39943549341939
 30
0.0
  0
VERTEX
  5
6B0
  8
DATA
  6
CONTINUOUS
 62
     7
 10
71.178918150670782
 20
200.39943549341939
 30
0.0
  0
SEQEND
  5
6B1
  8
DATA
  6
CONTINUOUS
 62
     7
  0
POLYLINE
  5
3B2
  8
DATA
  6
CONTINUOUS
 62
     7
 66
     1
 10
0.0
 20
0.0
 30
0.0
  0
VERTEX
  5
6B2
  8
DATA
  6
CONTINUOUS
 62
     7
 10
71.978918150671021
 20
200.39943549341939
 30
0.0
  0
VERTEX
  5
6B3
  8
DATA
  6
CONTINUOUS
 62
     7
 10
74.078918150671257
 20
200.39943549341939
 30
0.0
  0
VERTEX
  5
6B4
  8
DATA
  6
CONTINUOUS
 62
     7
 10
74.078918150671257
 20
199.59943549341929
 30
0.0
  0
VERTEX
  5
6B5
  8
DATA
  6
CONTINUOUS
 62
     7
 10
71.978918150671021
 20
199.59943549341929
 30
0.0
  0
SEQEND
  5
6B6
  8
DATA
  6
CONTINUOUS
 62
     7
  0
POLYLINE
  5
3B9
  8
DATA
  6
CONTINUOUS
 62
     7
 66
     1
 10
0.0
 20
0.0
 30
0.0
  0
VERTEX
  5
6B7
  8
DATA
  6
CONTINUOUS
 62
     7
 10
71.178918150670782
 20
200.39943549341939
 30
0.0
  0
VERTEX
  5
6B8
  8
DATA
  6
CONTINUOUS
 62
     7
 10
71.178918150670782
 20
202.4994354934193
 30
0.0
  0
VERTEX
  5
6B9
  8
DATA
  6
CONTINUOUS
 62
     7
 10
71.978918150671021
 20
202.4994354934193
 30
0.0
  0
VERTEX
  5
6BA
  8
DATA
  6
CONTINUOUS
 62
     7
 10
71.978918150671021
 20
200.39943549341939
 30
0.0
  0
SEQEND
  5
6BB
  8
DATA
  6
CONTINUOUS
 62
     7
  0
POLYLINE
  5
3C0
  8
DATA
  6
CONTINUOUS
 62
     7
 66
     1
 10
0.0
 20
0.0
 30
0.0
  0
VERTEX
  5
6BC
  8
DATA
  6
CONTINUOUS
 62
     7
 10
71.978918150671021
 20
199.59943549341929
 30
0.0
  0
VERTEX
  5
6BD
  8
DATA
  6
CONTINUOUS
 62
     7
 10
71.978918150671021
 20
197.4994354934193
 30
0.0
  0
VERTEX
  5
6BE
  8
DATA
  6
CONTINUOUS
 62
     7
 10
71.178918150670782
 20
197.4994354934193
 30
0.0
  0
VERTEX
  5
6BF
  8
DATA
  6
CONTINUOUS
 62
     7
 10
71.178918150670782
 20
199.59943549341929
 30
0.0
  0
SEQEND
  5
6C0
  8
DATA
  6
CONTINUOUS
 62
     7
  0
POLYLINE
  5
3C7
  8
DATA
  6
CONTINUOUS
 62
     7
 66
     1
 10
0.0
 20
0.0
 30
0.0
 70
     1
  0
VERTEX
  5
6C1
  8
DATA
  6
CONTINUOUS
 62
     7
 10
72.439202581142879
 20
199.2400076827694
 30
0.0
  0
VERTEX
  5
6C2
  8
DATA
  6
CONTINUOUS
 62
     7
 10
73.43920258114305
 20
199.2400076827694
 30
0.0
  0
VERTEX
  5
6C3
  8
DATA
  6
CONTINUOUS
 62
     7
 10
73.43920258114305
 20
198.2400076827694
 30
0.0
  0
VERTEX
  5
6C4
  8
DATA
  6
CONTINUOUS
 62
     7
 10
72.439202581142879
 20
198.2400076827694
 30
0.0
  0
SEQEND
  5
6C5
  8
DATA
  6
CONTINUOUS
 62
     7
  0
POLYLINE
  5
3CE
  8
DATA
  6
CONTINUOUS
 62
     7
 66
     1
 10
0.0
 20
0.0
 30
0.0
 70
     1
  0
VERTEX
  5
6C6
  8
DATA
  6
CONTINUOUS
 62
     7
 10
69.718633720199037
 20
199.2400076827694
 30
0.0
  0
VERTEX
  5
6C7
  8
DATA
  6
CONTINUOUS
 62
     7
 10
70.718633720199051
 20
199.2400076827694
 30
0.0
  0
VERTEX
  5
6C8
  8
DATA
  6
CONTINUOUS
 62
     7
 10
70.718633720199051
 20
198.2400076827694
 30
0.0
  0
VERTEX
  5
6C9
  8
DATA
  6
CONTINUOUS
 62
     7
 10
69.718633720199037
 20
198.2400076827694
 30
0.0
  0
SEQEND
  5
6CA
  8
DATA
  6
CONTINUOUS
 62
     7
  0
POLYLINE
  5
3D5
  8
DATA
  6
CONTINUOUS
 62
     7
 66
     1
 10
0.0
 20
0.0
 30
0.0
 70
     1
  0
VERTEX
  5
6CB
  8
DATA
  6
CONTINUOUS
 62
     7
 10
72.439202581142879
 20
201.75886330406931
 30
0.0
  0
VERTEX
  5
6CC
  8
DATA
  6
CONTINUOUS
 62
     7
 10
73.43920258114305
 20
201.75886330406931
 30
0.0
  0
VERTEX
  5
6CD
  8
DATA
  6
CONTINUOUS
 62
     7
 10
73.43920258114305
 20
200.75886330406931
 30
0.0
  0
VERTEX
  5
6CE
  8
DATA
  6
CONTINUOUS
 62
     7
 10
72.439202581142879
 20
200.75886330406931
 30
0.0
  0
SEQEND
  5
6CF
  8
DATA
  6
CONTINUOUS
 62
     7
  0
POLYLINE
  5
3DC
  8
DATA
  6
CONTINUOUS
 62
     7
 66
     1
 10
0.0
 20
0.0
 30
0.0
 70
     1
  0
VERTEX
  5
6D0
  8
DATA
  6
CONTINUOUS
 62
     7
 10
69.718633720199037
 20
201.75886330406931
 30
0.0
  0
VERTEX
  5
6D1
  8
DATA
  6
CONTINUOUS
 62
     7
 10
70.718633720199051
 20
201.75886330406931
 30
0.0
  0
VERTEX
  5
6D2
  8
DATA
  6
CONTINUOUS
 62
     7
 10
70.718633720199051
 20
200.75886330406931
 30
0.0
  0
VERTEX
  5
6D3
  8
DATA
  6
CONTINUOUS
 62
     7
 10
69.718633720199037
 20
200.75886330406931
 30
0.0
  0
SEQEND
  5
6D4
  8
DATA
  6
CONTINUOUS
 62
     7
  0
LINE
  5
3E3
  8
DATA
  6
CONTINUOUS
 62
     7
 10
91.674289968618567
 20
197.16954379890549
 30
0.0
 11
91.115372771166307
 21
203.0195437989056
 31
0.0
  0
LINE
  5
3E4
  8
DATA
  6
CONTINUOUS
 62
     7
 10
67.783546332723702
 20
197.16954379890549
 30
0.0
 11
68.342463530175976
 21
203.0195437989056
 31
0.0
  0
ARC
  5
3E5
  8
DATA
  6
CONTINUOUS
 62
     7
 10
90.678823037863154
 20
197.0744354934192
 30
0.0
 40
0.9999999999999431
 50
270.0
 51
5.4575534851073844
  0
ARC
  5
3E6
  8
DATA
  6
CONTINUOUS
 62
     7
 10
68.779013263479058
 20
197.0744354934194
 30
0.0
 40
0.9999999999999703
 50
174.54244651489549
 51
270.0
  0
ARC
  5
3E7
  8
DATA
  6
CONTINUOUS
 62
     7
 10
90.11990584041088
 20
202.9244354934194
 30
0.0
 40
1.000000000000026
 50
5.4575534851041603
 51
89.999999999999986
  0
ARC
  5
3E8
  8
DATA
  6
CONTINUOUS
 62
     7
 10
69.337930460931332
 20
202.9244354934194
 30
0.0
 40
1.0
 50
90.0
 51
174.54244651489549
  0
TEXT
  5
3E9
  8
DATA
 62
     7
 10
86.430076904571706
 20
208.80488888888891
 30
0.0
 40
2.1717881944444439
  1
DVI in 1
 50
180.0
 41
0.7
 11
86.430076904571706
 21
206.63310069444441
 31
0.0
 73
     3
  0
TEXT
  5
3EA
  8
DATA
 62
     7
 10
43.430076904571678
 20
208.80488888888891
 30
0.0
 40
2.1717881944444439
  1
DVI in 2
 50
180.0
 41
0.7
 11
43.430076904571678
 21
206.63310069444441
 31
0.0
 73
     3
  0
TEXT
  5
3EB
  8
DATA
 62
     7
 10
0.1966495678372415
 20
208.80488888888891
 30
0.0
 40
2.1717881944444439
  1
DVI Out
 50
180.0
 41
0.7
 11
0.1966495678372411
 21
206.63310069444441
 31
0.0
 73
     3
  0
CIRCLE
  5
3EC
  8
DATA
  6
CONTINUOUS
 62
     7
 10
112.7076075534348
 20
197.4736668905276
 30
0.0
 40
3.1500000000000048
  0
CIRCLE
  5
3ED
  8
DATA
  6
CONTINUOUS
 62
     7
 10
112.7076075534348
 20
197.52366689041361
 30
0.0
 40
0.5
  0
TEXT
  5
3EE
  8
DATA
 62
     7
 10
115.5010775761547
 20
208.80488888888891
 30
0.0
 40
2.1717881944444439
  1
5V DC
 50
180.0
 41
0.7
 11
115.5010775761547
 21
206.63310069444441
 31
0.0
 73
     3
  0
LINE
  5
3EF
  8
DATA
  6
CONTINUOUS
 62
     7
 10
67.100000000000023
 20
65.75
 30
0.0
 11
67.100000000000023
 21
68.75
 31
0.0
  0
LINE
  5
3F0
  8
DATA
  6
CONTINUOUS
 62
     7
 10
76.400000000000006
 20
65.75
 30
0.0
 11
76.400000000000006
 21
68.75
 31
0.0
  0
LINE
  5
3F1
  8
DATA
  6
CONTINUOUS
 62
     7
 10
67.100000000000023
 20
65.75
 30
0.0
 11
76.400000000000006
 21
65.75
 31
0.0
  0
LINE
  5
3F2
  8
DATA
  6
CONTINUOUS
 62
     7
 10
18.350000000000009
 20
68.25
 30
0.0
 11
18.350000000000009
 21
68.75
 31
0.0
  0
LINE
  5
3F3
  8
DATA
  6
CONTINUOUS
 62
     7
 10
24.350000000000009
 20
68.25
 30
0.0
 11
24.350000000000009
 21
68.75
 31
0.0
  0
LINE
  5
3F4
  8
DATA
  6
CONTINUOUS
 62
     7
 10
18.350000000000009
 20
68.25
 30
0.0
 11
24.350000000000009
 21
68.25
 31
0.0
  0
ARC
  5
3F5
  8
DATA
  6
CONTINUOUS
 62
     7
 10
-6.2499999999999849
 20
69.701760151842677
 30
0.0
 40
1.4999999999999969
 50
219.38341195690319
 51
320.61658804309678
  0
ARC
  5
3F6
  8
DATA
  6
CONTINUOUS
 62
     7
 10
34.350000000000009
 20
69.701760151842677
 30
0.0
 40
1.5
 50
219.38341195691009
 51
320.61658804309002
  0
ARC
  5
3F7
  8
DATA
  6
CONTINUOUS
 62
     7
 10
52.750000000000021
 20
69.701760151842677
 30
0.0
 40
1.5000000000000031
 50
219.38341195690299
 51
320.61658804309678
  0
LINE
  5
3F8
  8
DATA
  6
CONTINUOUS
 62
     7
 10
-24.859350439586319
 20
149.75000000009209
 30
0.0
 11
-24.859350439586319
 21
144.75000000009209
 31
0.0
  0
LINE
  5
3F9
  8
DATA
  6
CONTINUOUS
 62
     7
 10
-20.182813259150372
 20
149.75000000009209
 30
0.0
 11
-20.182813259150372
 21
144.75000000009209
 31
0.0
  0
LINE
  5
3FA
  8
DATA
  6
CONTINUOUS
 62
     7
 10
-18.220808903081728
 20
149.75000000009209
 30
0.0
 11
-18.220808903081728
 21
144.75000000009209
 31
0.0
  0
LINE
  5
3FB
  8
DATA
  6
CONTINUOUS
 62
     7
 10
5.6661244314008883
 20
149.75000000009209
 30
0.0
 11
5.6661244314008883
 21
144.75000000009209
 31
0.0
  0
LINE
  5
3FC
  8
DATA
  6
CONTINUOUS
 62
     7
 10
7.6406495604140758
 20
149.75000000009209
 30
0.0
 11
7.6406495604140758
 21
144.75000000009209
 31
0.0
  0
LINE
  5
3FD
  8
DATA
  6
CONTINUOUS
 62
     7
 10
12.31718674085003
 20
149.75000000009209
 30
0.0
 11
12.31718674085003
 21
144.75000000009209
 31
0.0
  0
LINE
  5
3FE
  8
DATA
  6
CONTINUOUS
 62
     7
 10
12.31718674085003
 20
149.75000000009209
 30
0.0
 11
7.6406495604140758
 21
149.75000000009209
 31
0.0
  0
LINE
  5
3FF
  8
DATA
  6
CONTINUOUS
 62
     7
 10
5.6661244314008883
 20
149.75000000009209
 30
0.0
 11
-18.220808903081728
 21
149.75000000009209
 31
0.0
  0
LINE
  5
400
  8
DATA
  6
CONTINUOUS
 62
     7
 10
-20.182813259150372
 20
149.75000000009209
 30
0.0
 11
-24.859350439586319
 21
149.75000000009209
 31
0.0
  0
LINE
  5
401
  8
DATA
  6
CONTINUOUS
 62
     7
 10
18.140649560413681
 20
149.75000000009209
 30
0.0
 11
18.140649560413681
 21
144.75000000009209
 31
0.0
  0
LINE
  5
402
  8
DATA
  6
CONTINUOUS
 62
     7
 10
22.817186740849639
 20
149.75000000009209
 30
0.0
 11
22.817186740849639
 21
144.75000000009209
 31
0.0
  0
LINE
  5
403
  8
DATA
  6
CONTINUOUS
 62
     7
 10
24.779191096918272
 20
149.75000000009209
 30
0.0
 11
24.779191096918272
 21
144.75000000009209
 31
0.0
  0
LINE
  5
404
  8
DATA
  6
CONTINUOUS
 62
     7
 10
48.666124431400888
 20
149.75000000009209
 30
0.0
 11
48.666124431400888
 21
144.75000000009209
 31
0.0
  0
LINE
  5
405
  8
DATA
  6
CONTINUOUS
 62
     7
 10
50.640649560414069
 20
149.75000000009209
 30
0.0
 11
50.640649560414069
 21
144.75000000009209
 31
0.0
  0
LINE
  5
406
  8
DATA
  6
CONTINUOUS
 62
     7
 10
55.317186740850019
 20
149.75000000009209
 30
0.0
 11
55.317186740850019
 21
144.75000000009209
 31
0.0
  0
LINE
  5
407
  8
DATA
  6
CONTINUOUS
 62
     7
 10
55.317186740850019
 20
149.75000000009209
 30
0.0
 11
50.640649560414069
 21
149.75000000009209
 31
0.0
  0
LINE
  5
408
  8
DATA
  6
CONTINUOUS
 62
     7
 10
48.666124431400888
 20
149.75000000009209
 30
0.0
 11
24.779191096918272
 21
149.75000000009209
 31
0.0
  0
LINE
  5
409
  8
DATA
  6
CONTINUOUS
 62
     7
 10
22.817186740849639
 20
149.75000000009209
 30
0.0
 11
18.140649560413681
 21
149.75000000009209
 31
0.0
  0
LINE
  5
40A
  8
DATA
  6
CONTINUOUS
 62
     7
 10
61.140649560413671
 20
149.75000000009209
 30
0.0
 11
61.140649560413671
 21
144.75000000009209
 31
0.0
  0
LINE
  5
40B
  8
DATA
  6
CONTINUOUS
 62
     7
 10
65.817186740849635
 20
149.75000000009209
 30
0.0
 11
65.817186740849635
 21
144.75000000009209
 31
0.0
  0
LINE
  5
40C
  8
DATA
  6
CONTINUOUS
 62
     7
 10
67.779191096918254
 20
149.75000000009209
 30
0.0
 11
67.779191096918254
 21
144.75000000009209
 31
0.0
  0
LINE
  5
40D
  8
DATA
  6
CONTINUOUS
 62
     7
 10
91.666124431400902
 20
149.75000000009209
 30
0.0
 11
91.666124431400902
 21
144.75000000009209
 31
0.0
  0
LINE
  5
40E
  8
DATA
  6
CONTINUOUS
 62
     7
 10
93.640649560414076
 20
149.75000000009209
 30
0.0
 11
93.640649560414076
 21
144.75000000009209
 31
0.0
  0
LINE
  5
40F
  8
DATA
  6
CONTINUOUS
 62
     7
 10
98.317186740850047
 20
149.75000000009209
 30
0.0
 11
98.317186740850047
 21
144.75000000009209
 31
0.0
  0
LINE
  5
410
  8
DATA
  6
CONTINUOUS
 62
     7
 10
98.317186740850047
 20
149.75000000009209
 30
0.0
 11
93.640649560414076
 21
149.75000000009209
 31
0.0
  0
LINE
  5
411
  8
DATA
  6
CONTINUOUS
 62
     7
 10
91.666124431400902
 20
149.75000000009209
 30
0.0
 11
67.779191096918254
 21
149.75000000009209
 31
0.0
  0
LINE
  5
412
  8
DATA
  6
CONTINUOUS
 62
     7
 10
65.817186740849635
 20
149.75000000009209
 30
0.0
 11
61.140649560413671
 21
149.75000000009209
 31
0.0
  0
LINE
  5
413
  8
DATA
  6
CONTINUOUS
 62
     7
 10
115.1819719416271
 20
15.75
 30
0.0
 11
114.1819719416271
 21
18.75
 31
0.0
  0
LINE
  5
414
  8
DATA
  6
CONTINUOUS
 62
     7
 10
121.1819719416271
 20
15.75
 30
0.0
 11
122.1819719416268
 21
18.75
 31
0.0
  0
LINE
  5
415
  8
DATA
  6
CONTINUOUS
 62
     7
 10
178.32442757980979
 20
15.75
 30
0.0
 11
172.32442757980999
 21
15.75
 31
0.0
  0
LINE
  5
416
  8
DATA
  6
CONTINUOUS
 62
     7
 10
172.32442757980999
 20
15.75
 30
0.0
 11
171.32442757981011
 21
18.75
 31
0.0
  0
LINE
  5
417
  8
DATA
  6
CONTINUOUS
 62
     7
 10
178.32442757980979
 20
15.75
 30
0.0
 11
179.3244275798094
 21
18.75
 31
0.0
  0
LINE
  5
418
  8
DATA
  6
CONTINUOUS
 62
     7
 10
235.17557242019009
 20
15.75
 30
0.0
 11
241.17557242018989
 21
15.75
 31
0.0
  0
LINE
  5
419
  8
DATA
  6
CONTINUOUS
 62
     7
 10
241.17557242018989
 20
15.75
 30
0.0
 11
242.17557242018981
 21
18.75
 31
0.0
  0
LINE
  5
41A
  8
DATA
  6
CONTINUOUS
 62
     7
 10
235.17557242019009
 20
15.75
 30
0.0
 11
234.17557242019049
 21
18.75
 31
0.0
  0
LINE
  5
41B
  8
DATA
  6
CONTINUOUS
 62
     7
 10
165.75
 20
35.406340666173811
 30
0.0
 11
168.75
 21
35.406340666173811
 31
0.0
  0
LINE
  5
41C
  8
DATA
  6
CONTINUOUS
 62
     7
 10
165.75
 20
26.1063406661738
 30
0.0
 11
168.75
 21
26.1063406661738
 31
0.0
  0
LINE
  5
41D
  8
DATA
  6
CONTINUOUS
 62
     7
 10
165.75
 20
26.1063406661738
 30
0.0
 11
165.75
 21
35.406340666173811
 31
0.0
  0
LINE
  5
41E
  8
DATA
  6
CONTINUOUS
 62
     7
 10
249.75
 20
27.32500000000001
 30
0.0
 11
244.75
 21
27.32500000000001
 31
0.0
  0
LINE
  5
41F
  8
DATA
  6
CONTINUOUS
 62
     7
 10
244.75
 20
35.174999999999997
 30
0.0
 11
249.75
 21
35.174999999999997
 31
0.0
  0
LINE
  5
420
  8
DATA
  6
CONTINUOUS
 62
     7
 10
249.75
 20
28.550000000000001
 30
0.0
 11
244.75
 21
28.550000000000001
 31
0.0
  0
LINE
  5
421
  8
DATA
  6
CONTINUOUS
 62
     7
 10
244.75
 20
33.950000000000003
 30
0.0
 11
249.75
 21
33.950000000000003
 31
0.0
  0
LINE
  5
422
  8
DATA
  6
CONTINUOUS
 62
     7
 10
249.75
 20
29.900000000000009
 30
0.0
 11
244.75
 21
29.900000000000009
 31
0.0
  0
LINE
  5
423
  8
DATA
  6
CONTINUOUS
 62
     7
 10
244.75
 20
32.600000000000001
 30
0.0
 11
249.75
 21
32.600000000000001
 31
0.0
  0
LINE
  5
424
  8
DATA
  6
CONTINUOUS
 62
     7
 10
249.75
 20
27.32500000000001
 30
0.0
 11
249.75
 21
35.174999999999997
 31
0.0
  0
TEXT
  5
425
  8
DATA
 62
     7
 10
196.37609585637671
 20
-85.584669972058947
 30
0.0
 40
3.2576822916666659
  1
DVI 切替機
 41
0.7
 11
196.37609585637671
 21
-82.326987680392293
 31
0.0
 73
     3
  0
ENDSEC
  0
EOF
